  0
SECTION
  2
HEADER
  9
$ACADVER
  1
AC1014
  9
$ACADMAINTVER
 70
     9
  9
$DWGCODEPAGE
  3
ANSI_932
  9
$INSBASE
 10
0.0
 20
0.0
 30
0.0
  9
$EXTMIN
 10
-1226.45
 20
-473.6539389771162
 30
0.0
  9
$EXTMAX
 10
919.6999999999997
 20
10.0
 30
10.0
  9
$LIMMIN
 10
0.0
 20
0.0
  9
$LIMMAX
 10
12.0
 20
9.0
  9
$ORTHOMODE
 70
     0
  9
$REGENMODE
 70
     1
  9
$FILLMODE
 70
     1
  9
$QTEXTMODE
 70
     0
  9
$MIRRTEXT
 70
     1
  9
$DRAGMODE
 70
     2
  9
$LTSCALE
 40
1.0
  9
$OSMODE
 70
    37
  9
$ATTMODE
 70
     1
  9
$TEXTSIZE
 40
0.2
  9
$TRACEWID
 40
0.05
  9
$TEXTSTYLE
  7
STANDARD
  9
$CLAYER
  8
0
  9
$CELTYPE
  6
BYLAYER
  9
$CECOLOR
 62
   256
  9
$CELTSCALE
 40
1.0
  9
$DELOBJ
 70
     1
  9
$DISPSILH
 70
     0
  9
$DIMSCALE
 40
1.0
  9
$DIMASZ
 40
3.0
  9
$DIMEXO
 40
0.0625
  9
$DIMDLI
 40
0.38
  9
$DIMRND
 40
0.0
  9
$DIMDLE
 40
0.0
  9
$DIMEXE
 40
1.5
  9
$DIMTP
 40
0.0
  9
$DIMTM
 40
0.0
  9
$DIMTXT
 40
3.0
  9
$DIMCEN
 40
0.09
  9
$DIMTSZ
 40
0.0
  9
$DIMTOL
 70
     0
  9
$DIMLIM
 70
     0
  9
$DIMTIH
 70
     1
  9
$DIMTOH
 70
     1
  9
$DIMSE1
 70
     0
  9
$DIMSE2
 70
     0
  9
$DIMTAD
 70
     1
  9
$DIMZIN
 70
     0
  9
$DIMBLK
  1

  9
$DIMASO
 70
     1
  9
$DIMSHO
 70
     1
  9
$DIMPOST
  1

  9
$DIMAPOST
  1

  9
$DIMALT
 70
     0
  9
$DIMALTD
 70
     2
  9
$DIMALTF
 40
25.4
  9
$DIMLFAC
 40
1.0
  9
$DIMTOFL
 70
     0
  9
$DIMTVP
 40
0.0
  9
$DIMTIX
 70
     0
  9
$DIMSOXD
 70
     0
  9
$DIMSAH
 70
     0
  9
$DIMBLK1
  1

  9
$DIMBLK2
  1

  9
$DIMSTYLE
  2
STANDARD
  9
$DIMCLRD
 70
     0
  9
$DIMCLRE
 70
     0
  9
$DIMCLRT
 70
     0
  9
$DIMTFAC
 40
1.0
  9
$DIMGAP
 40
1.5
  9
$DIMJUST
 70
     0
  9
$DIMSD1
 70
     0
  9
$DIMSD2
 70
     0
  9
$DIMTOLJ
 70
     1
  9
$DIMTZIN
 70
     0
  9
$DIMALTZ
 70
     0
  9
$DIMALTTZ
 70
     0
  9
$DIMFIT
 70
     3
  9
$DIMUPT
 70
     0
  9
$DIMUNIT
 70
     2
  9
$DIMDEC
 70
     2
  9
$DIMTDEC
 70
     4
  9
$DIMALTU
 70
     2
  9
$DIMALTTD
 70
     2
  9
$DIMTXSTY
  7
ＭＳ_ゴシック
  9
$DIMAUNIT
 70
     0
  9
$LUNITS
 70
     2
  9
$LUPREC
 70
     4
  9
$SKETCHINC
 40
0.1
  9
$FILLETRAD
 40
0.5
  9
$AUNITS
 70
     0
  9
$AUPREC
 70
     0
  9
$MENU
  1
.
  9
$ELEVATION
 40
0.0
  9
$PELEVATION
 40
0.0
  9
$THICKNESS
 40
0.0
  9
$LIMCHECK
 70
     0
  9
$CHAMFERA
 40
0.0
  9
$CHAMFERB
 40
0.0
  9
$CHAMFERC
 40
0.0
  9
$CHAMFERD
 40
0.0
  9
$SKPOLY
 70
     0
  9
$TDCREATE
 40
2460354.555930567
  9
$TDUPDATE
 40
2460354.555930938
  9
$TDINDWG
 40
0.0000000116
  9
$TDUSRTIMER
 40
0.0000000116
  9
$USRTIMER
 70
     1
  9
$ANGBASE
 50
0.0
  9
$ANGDIR
 70
     0
  9
$PDMODE
 70
     0
  9
$PDSIZE
 40
0.0
  9
$PLINEWID
 40
0.0
  9
$COORDS
 70
     1
  9
$SPLFRAME
 70
     0
  9
$SPLINETYPE
 70
     6
  9
$SPLINESEGS
 70
     8
  9
$ATTDIA
 70
     0
  9
$ATTREQ
 70
     1
  9
$HANDLING
 70
     1
  9
$HANDSEED
  5
470
  9
$SURFTAB1
 70
     6
  9
$SURFTAB2
 70
     6
  9
$SURFTYPE
 70
     6
  9
$SURFU
 70
     6
  9
$SURFV
 70
     6
  9
$UCSNAME
  2

  9
$UCSORG
 10
0.0
 20
0.0
 30
0.0
  9
$UCSXDIR
 10
1.0
 20
0.0
 30
0.0
  9
$UCSYDIR
 10
0.0
 20
1.0
 30
0.0
  9
$PUCSNAME
  2

  9
$PUCSORG
 10
0.0
 20
0.0
 30
0.0
  9
$PUCSXDIR
 10
1.0
 20
0.0
 30
0.0
  9
$PUCSYDIR
 10
0.0
 20
1.0
 30
0.0
  9
$USERI1
 70
     0
  9
$USERI2
 70
     0
  9
$USERI3
 70
     0
  9
$USERI4
 70
     0
  9
$USERI5
 70
     0
  9
$USERR1
 40
0.0
  9
$USERR2
 40
0.0
  9
$USERR3
 40
0.0
  9
$USERR4
 40
0.0
  9
$USERR5
 40
0.0
  9
$WORLDVIEW
 70
     1
  9
$SHADEDGE
 70
     3
  9
$SHADEDIF
 70
    70
  9
$TILEMODE
 70
     1
  9
$MAXACTVP
 70
    64
  9
$PINSBASE
 10
0.0
 20
0.0
 30
0.0
  9
$PLIMCHECK
 70
     0
  9
$PEXTMIN
 10
1.000000000000000E+20
 20
1.000000000000000E+20
 30
1.000000000000000E+20
  9
$PEXTMAX
 10
-1.000000000000000E+20
 20
-1.000000000000000E+20
 30
-1.000000000000000E+20
  9
$PLIMMIN
 10
0.0
 20
0.0
  9
$PLIMMAX
 10
12.0
 20
9.0
  9
$UNITMODE
 70
     0
  9
$VISRETAIN
 70
     1
  9
$PLINEGEN
 70
     0
  9
$PSLTSCALE
 70
     1
  9
$TREEDEPTH
 70
  3020
  9
$PICKSTYLE
 70
     1
  9
$CMLSTYLE
  2
STANDARD
  9
$CMLJUST
 70
     0
  9
$CMLSCALE
 40
1.0
  9
$PROXYGRAPHICS
 70
     1
  9
$MEASUREMENT
 70
     1
  0
ENDSEC
  0
SECTION
  2
CLASSES
  0
CLASS
  1
ACDBDICTIONARYWDFLT
  2
AcDbDictionaryWithDefault
  3
ObjectDBX Classes
 90
        0
280
     0
281
     0
  0
CLASS
  1
VISUALSTYLE
  2
AcDbVisualStyle
  3
ObjectDBX Classes
 90
     4095
280
     0
281
     0
  0
CLASS
  1
MATERIAL
  2
AcDbMaterial
  3
ObjectDBX Classes
 90
     1153
280
     0
281
     0
  0
CLASS
  1
SCALE
  2
AcDbScale
  3
ObjectDBX Classes
 90
     1153
280
     0
281
     0
  0
CLASS
  1
TABLESTYLE
  2
AcDbTableStyle
  3
ObjectDBX Classes
 90
     4095
280
     0
281
     0
  0
CLASS
  1
MLEADERSTYLE
  2
AcDbMLeaderStyle
  3
ACDB_MLEADERSTYLE_CLASS
 90
     4095
280
     0
281
     0
  0
CLASS
  1
SUN
  2
AcDbSun
  3
SCENEOE
 90
     1153
280
     0
281
     0
  0
CLASS
  1
DICTIONARYVAR
  2
AcDbDictionaryVar
  3
ObjectDBX Classes
 90
        0
280
     0
281
     0
  0
CLASS
  1
XRECORD
  2
AcDbXrecord
  3
ObjectDBX Classes
 90
        0
280
     0
281
     0
  0
CLASS
  1
LWPOLYLINE
  2
AcDbPolyline
  3
ObjectDBX Classes
 90
        0
280
     0
281
     1
  0
CLASS
  1
HATCH
  2
AcDbHatch
  3
ObjectDBX Classes
 90
        0
280
     0
281
     1
  0
CLASS
  1
ACDBPLACEHOLDER
  2
AcDbPlaceHolder
  3
ObjectDBX Classes
 90
        0
280
     0
281
     0
  0
CLASS
  1
LAYOUT
  2
AcDbLayout
  3
ObjectDBX Classes
 90
        0
280
     0
281
     0
  0
ENDSEC
  0
SECTION
  2
TABLES
  0
TABLE
  2
VPORT
  5
8
102
{ACAD_XDICTIONARY
360
465
102
}
330
0
100
AcDbSymbolTable
 70
     1
  0
VPORT
  5
29
330
8
100
AcDbSymbolTableRecord
100
AcDbViewportTableRecord
  2
*ACTIVE
 70
     0
 10
0.0
 20
0.0
 11
1.0
 21
1.0
 12
-153.3750000000002
 22
-231.8269694885581
 13
0.0
 23
0.0
 14
0.5
 24
0.5
 15
0.5
 25
0.5
 16
0.0
 26
0.0
 36
1.0
 17
0.0
 27
0.0
 37
0.0
 40
483.6539389771162
 41
1.6
 42
50.0
 43
0.0
 44
0.0
 50
0.0
 51
0.0
 71
     0
 72
   100
 73
     1
 74
     3
 75
     0
 76
     0
 77
     0
 78
     0
  0
ENDTAB
  0
TABLE
  2
LTYPE
  5
5
330
0
100
AcDbSymbolTable
 70
     2
  0
LTYPE
  5
14
330
5
100
AcDbSymbolTableRecord
100
AcDbLinetypeTableRecord
  2
BYBLOCK
 70
     0
  3

 72
    65
 73
     0
 40
0.0
  0
LTYPE
  5
15
330
5
100
AcDbSymbolTableRecord
100
AcDbLinetypeTableRecord
  2
BYLAYER
 70
     0
  3

 72
    65
 73
     0
 40
0.0
  0
LTYPE
  5
16
330
5
100
AcDbSymbolTableRecord
100
AcDbLinetypeTableRecord
  2
CONTINUOUS
 70
     0
  3
Solid line
 72
    65
 73
     0
 40
0.0
  0
LTYPE
  5
AF
330
5
100
AcDbSymbolTableRecord
100
AcDbLinetypeTableRecord
  2
CENTER
 70
     0
  3

 72
    65
 73
     0
 40
0.0
  0
ENDTAB
  0
TABLE
  2
LAYER
  5
2
330
0
100
AcDbSymbolTable
 70
     2
  0
LAYER
  5
10
330
2
100
AcDbSymbolTableRecord
100
AcDbLayerTableRecord
  2
0
 70
     0
 62
     7
  6
CONTINUOUS
  0
LAYER
  5
6E
330
2
100
AcDbSymbolTableRecord
100
AcDbLayerTableRecord
  2
1
 70
     0
 62
     7
  6
CONTINUOUS
  0
ENDTAB
  0
TABLE
  2
STYLE
  5
3
330
0
100
AcDbSymbolTable
 70
     2
  0
STYLE
  5
11
330
3
100
AcDbSymbolTableRecord
100
AcDbTextStyleTableRecord
  2
STANDARD
 70
     0
 40
0.0
 41
1.0
 50
0.0
 71
     0
 42
0.2
  3
txt
  4

  0
STYLE
  5
6F
330
3
100
AcDbSymbolTableRecord
100
AcDbTextStyleTableRecord
  2
ＭＳ_ゴシック
 70
     0
 40
0.0
 41
1.0
 50
0.0
 71
     0
 42
0.2
  3
ＭＳ ゴシック.shx
  4

  0
ENDTAB
  0
TABLE
  2
VIEW
  5
6
330
0
100
AcDbSymbolTable
 70
     0
  0
ENDTAB
  0
TABLE
  2
UCS
  5
7
330
0
100
AcDbSymbolTable
 70
     0
  0
ENDTAB
  0
TABLE
  2
APPID
  5
9
330
0
100
AcDbSymbolTable
 70
     2
  0
APPID
  5
12
330
9
100
AcDbSymbolTableRecord
100
AcDbRegAppTableRecord
  2
ACAD
 70
     0
  0
APPID
  5
46F
330
9
100
AcDbSymbolTableRecord
100
AcDbRegAppTableRecord
  2
ACAD_MLEADERVER
 70
     0
  0
ENDTAB
  0
TABLE
  2
DIMSTYLE
  5
A
330
0
100
AcDbSymbolTable
 70
     1
  0
DIMSTYLE
105
27
330
A
100
AcDbSymbolTableRecord
100
AcDbDimStyleTableRecord
  2
STANDARD
 70
     0
  3

  4

  5

  6

  7

 40
1.0
 41
0.18
 42
0.0625
 43
0.38
 44
0.18
 45
0.0
 46
0.0
 47
0.0
 48
0.0
140
0.18
141
0.09
142
0.0
143
25.4
144
1.0
145
0.0
146
1.0
147
0.09
 71
     0
 72
     0
 73
     1
 74
     1
 75
     0
 76
     0
 77
     0
 78
     0
170
     0
171
     2
172
     0
173
     0
174
     0
175
     0
176
     0
177
     0
178
     0
270
     2
271
     4
272
     4
273
     2
274
     2
340
11
275
     0
280
     0
281
     0
282
     0
283
     1
284
     0
285
     0
286
     0
287
     3
288
     0
  0
ENDTAB
  0
TABLE
  2
BLOCK_RECORD
  5
1
330
0
100
AcDbSymbolTable
 70
     0
  0
BLOCK_RECORD
  5
1F
330
1
100
AcDbSymbolTableRecord
100
AcDbBlockTableRecord
  2
*MODEL_SPACE
  0
BLOCK_RECORD
  5
1B
330
1
100
AcDbSymbolTableRecord
100
AcDbBlockTableRecord
  2
*PAPER_SPACE
  0
ENDTAB
  0
ENDSEC
  0
SECTION
  2
BLOCKS
  0
BLOCK
  5
20
330
1F
100
AcDbEntity
  8
0
100
AcDbBlockBegin
  2
*MODEL_SPACE
 70
     0
 10
0.0
 20
0.0
 30
0.0
  3
*MODEL_SPACE
  1

  0
ENDBLK
  5
21
330
1F
100
AcDbEntity
  8
0
100
AcDbBlockEnd
  0
BLOCK
  5
1C
330
1B
100
AcDbEntity
 67
     1
  8
0
100
AcDbBlockBegin
  2
*PAPER_SPACE
 70
     0
 10
0.0
 20
0.0
 30
0.0
  3
*PAPER_SPACE
  1

  0
ENDBLK
  5
1D
330
1B
100
AcDbEntity
 67
     1
  8
0
100
AcDbBlockEnd
  0
ENDSEC
  0
SECTION
  2
ENTITIES
  0
LWPOLYLINE
  5
70
330
1F
100
AcDbEntity
  8
1
  6
CONTINUOUS
 62
     7
100
AcDbPolyline
 90
        6
 70
     0
 43
0.0
 10
-330.0369269331781
 20
-412.3621489082808
 10
-330.0197952133766
 20
-412.5354125307544
 10
-329.9685554941025
 20
-412.7068435495834
 10
-329.8834409355512
 20
-412.8741347015447
 10
-329.7727124899776
 20
-413.0256098012974
 10
-329.6414347853682
 20
-413.1621775524573
210
0.0
220
0.0
230
-1.0
  0
LWPOLYLINE
  5
71
330
1F
100
AcDbEntity
  8
1
  6
CONTINUOUS
 62
   253
100
AcDbPolyline
 90
        3
 70
     0
 43
0.0
 10
450.6012481357932
 20
-320.4930252790022
 10
450.5297581849744
 20
-320.3977267639675
 10
450.4536994539224
 20
-320.3551302874242
  0
LWPOLYLINE
  5
72
330
1F
100
AcDbEntity
  8
1
  6
CONTINUOUS
 62
     7
100
AcDbPolyline
 90
       35
 70
     0
 43
0.0
 10
321.0291647224978
 20
-366.9532554992523
 10
320.9922214637851
 20
-366.9542288550874
 10
320.9553284897353
 20
-366.9565666717567
 10
320.9185893926644
 20
-366.9602556643638
 10
320.8821077648887
 20
-366.9652825480126
 10
320.8447895088458
 20
-366.9718611422952
 10
320.8078142159254
 20
-366.9798322956372
 10
320.7712823643398
 20
-366.9891582144259
 10
320.7352944323016
 20
-366.999801105049
 10
320.7009677039146
 20
-367.0113516916578
 10
320.6671991909016
 20
-367.0240903818416
 10
320.6340615424455
 20
-367.0379690781431
 10
320.6016274077291
 20
-367.0529396831049
 10
320.5584247220925
 20
-367.0751426735178
 10
320.5166238362444
 20
-367.0992474783833
 10
320.4763599101019
 20
-367.1251163144198
 10
320.4363499341609
 20
-367.1536618328597
 10
320.39806882063
 20
-367.1839043394215
 10
320.3616166327149
 20
-367.2156916460949
 10
320.3262749694684
 20
-367.2496847038459
 10
320.2928815888786
 20
-367.2850995136454
 10
320.2615026513603
 20
-367.321784810977
 10
320.2286848887479
 20
-367.3643792707933
 10
320.1984139244525
 20
-367.4083485100348
 10
320.1707426128153
 20
-367.4535007255024
 10
320.1451462036331
 20
-367.5007622823997
 10
320.1222496222667
 20
-367.549045865525
 10
320.1020816650125
 20
-367.5981699904169
 10
320.0826681705381
 20
-367.6542529295527
 10
320.0666718773252
 20
-367.7111523091121
 10
320.0541111496473
 20
-367.7686362733722
 10
320.0448032327581
 20
-367.8279862047065
 10
320.0390783943352
 20
-367.8877077793387
 10
320.0369429416755
 20
-367.9475670392628
 10
320.0369269331781
 20
-367.9532253728411
  0
LWPOLYLINE
  5
73
330
1F
100
AcDbEntity
  8
1
  6
CONTINUOUS
 62
   253
100
AcDbPolyline
 90
        9
 70
     0
 43
0.0
 10
450.4536994539224
 20
-324.9448697125754
 10
450.4427666308666
 20
-324.8487596059898
 10
450.4141588451648
 20
-324.756375424406
 10
450.3689473029843
 20
-324.6711764535624
 10
450.3088249309753
 20
-324.5963529320871
 10
450.2360429853645
 20
-324.5347065943926
 10
450.1533267546386
 20
-324.4885457609418
 10
450.0637735122957
 20
-324.4595989041861
 10
449.9707365407779
 20
-324.4489499266617
  0
LWPOLYLINE
  5
74
330
1F
100
AcDbEntity
  8
1
  6
CONTINUOUS
 62
   253
100
AcDbPolyline
 90
        3
 70
     0
 43
0.0
 10
-425.6201544124337
 20
-324.9448697125755
 10
-425.5231588143467
 20
-324.8802433995814
 10
-425.4506838064294
 20
-324.7653386048427
210
0.0
220
0.0
230
-1.0
  0
LWPOLYLINE
  5
75
330
1F
100
AcDbEntity
  8
1
  6
CONTINUOUS
 62
     7
100
AcDbPolyline
 90
        7
 70
     0
 43
0.0
 10
-320.0369269331781
 20
-415.4666477842204
 10
-320.0533430622608
 20
-415.3538571912835
 10
-320.1020816650125
 20
-415.2445909318466
 10
-320.1690314143169
 20
-415.1558262428597
 10
-320.2615026513603
 20
-415.071366279477
 10
-320.3593034288588
 20
-415.0061198773038
 10
-320.4763599101019
 20
-414.947906151542
210
0.0
220
0.0
230
-1.0
  0
LWPOLYLINE
  5
76
330
1F
100
AcDbEntity
  8
1
  6
CONTINUOUS
 62
   253
100
AcDbPolyline
 90
        8
 70
     0
 43
0.0
 10
450.8274897096857
 20
-323.4628565234277
 10
450.7950112304925
 20
-323.4620559071733
 10
450.7468256864248
 20
-323.461324476319
 10
450.6846131654269
 20
-323.4606877337035
 10
450.610542834799
 20
-323.4601678806657
 10
450.5271973087244
 20
-323.4597830429493
 10
450.4374826001224
 20
-323.4595466387116
 10
450.3445267965407
 20
-323.4594669106717
  0
LWPOLYLINE
  5
77
330
1F
100
AcDbEntity
  8
1
  6
CONTINUOUS
 62
   253
100
AcDbPolyline
 90
        8
 70
     0
 43
0.0
 10
425.2463641566709
 20
-233.7831270040251
 10
425.2788426358642
 20
-233.8706556895302
 10
425.3270281799321
 20
-233.9506205676652
 10
425.38924070093
 20
-234.0202334987433
 10
425.4633110315578
 20
-234.0770672849701
 10
425.5466565576322
 20
-234.1191402996785
 10
425.636371266234
 20
-234.1449855808125
 10
425.7293270698154
 20
-234.1537019795713
  0
LWPOLYLINE
  5
78
330
1F
100
AcDbEntity
  8
1
  6
CONTINUOUS
 62
     7
100
AcDbPolyline
 90
        8
 70
     0
 43
0.0
 10
555.5974939562542
 20
-230.3520938484579
 10
555.7122372336414
 20
-230.2952140009535
 10
555.8123512149959
 20
-230.2286337205228
 10
555.9031112535408
 20
-230.1460401972556
 10
555.9717722013437
 20
-230.0554090681532
 10
556.019742716709
 20
-229.9487305661617
 10
556.0369109246806
 20
-229.8368868548677
 10
556.036926933178
 20
-229.8333522157795
  0
LWPOLYLINE
  5
79
330
1F
100
AcDbEntity
  8
1
  6
CONTINUOUS
 62
     7
100
AcDbPolyline
 90
        5
 70
     0
 43
0.0
 10
320.0369269331781
 20
-410.4364161454051
 10
320.0593148247384
 20
-410.5442708949541
 10
320.1260664476677
 20
-410.6473466466342
 10
320.2056279464025
 20
-410.7194245603074
 10
320.3089352774213
 20
-410.7844373205266
  0
LWPOLYLINE
  5
7A
330
1F
100
AcDbEntity
  8
1
  6
CONTINUOUS
 62
   253
100
AcDbPolyline
 90
        9
 70
     0
 43
0.0
 10
426.9287799308538
 20
-407.1116056347921
 10
426.8357854399111
 20
-407.0872939756032
 10
426.7462697702994
 20
-407.0648707039657
 10
426.6635816044808
 20
-407.0451746497382
 10
426.5908142155313
 20
-407.0289426205841
 10
426.5306897512075
 20
-407.0167818388098
 10
426.4854574014007
 20
-407.0091472258478
 10
426.4568092584249
 20
-407.0063243841477
 10
426.4458170177093
 20
-407.008418913104
  0
LWPOLYLINE
  5
7B
330
1F
100
AcDbEntity
  8
1
  6
CONTINUOUS
 62
     7
100
AcDbPolyline
 90
        6
 70
     0
 43
0.0
 10
546.036926933178
 20
-412.3621489082808
 10
546.0540586529795
 20
-412.5354125307544
 10
546.1052983722536
 20
-412.7068435495834
 10
546.1904129308049
 20
-412.8741347015447
 10
546.3011413763785
 20
-413.0256098012974
 10
546.432419080988
 20
-413.1621775524573
  0
LWPOLYLINE
  5
7C
330
1F
100
AcDbEntity
  8
1
  6
CONTINUOUS
 62
   253
100
AcDbPolyline
 90
        3
 70
     0
 43
0.0
 10
450.4536994539224
 20
-324.9448697125755
 10
450.5506950520094
 20
-324.8802433995814
 10
450.6231700599268
 20
-324.7653386048427
  0
LWPOLYLINE
  5
7D
330
1F
100
AcDbEntity
  8
1
  6
CONTINUOUS
 62
   253
100
AcDbPolyline
 90
        9
 70
     0
 43
0.0
 10
426.9287799308538
 20
-324.6107364188753
 10
426.835785439911
 20
-324.6213755976754
 10
426.7462697702994
 20
-324.6502955912227
 10
426.6635816044806
 20
-324.6964145344582
 10
426.5908142155312
 20
-324.7580071685857
 10
426.5306897512073
 20
-324.8327693811008
 10
426.4854574014006
 20
-324.9179044000979
 10
426.4568092584249
 20
-325.0102274184223
 10
426.4458170177093
 20
-325.1062847337931
  0
LWPOLYLINE
  5
7E
330
1F
100
AcDbEntity
  8
1
  6
CONTINUOUS
 62
   253
100
AcDbPolyline
 90
        8
 70
     0
 43
0.0
 10
425.2463641566705
 20
-321.837143476572
 10
425.2788426358636
 20
-321.8379440928264
 10
425.3270281799314
 20
-321.8386755236808
 10
425.3892407009293
 20
-321.8393122662962
 10
425.4633110315572
 20
-321.8398321193341
 10
425.5466565576318
 20
-321.8402169570504
 10
425.6363712662338
 20
-321.8404533612882
 10
425.7293270698155
 20
-321.840533089328
  0
LWPOLYLINE
  5
7F
330
1F
100
AcDbEntity
  8
1
  6
CONTINUOUS
 62
     7
100
AcDbPolyline
 90
        5
 70
     0
 43
0.0
 10
-546.2258554523281
 20
-408.9396366216903
 10
-546.1334517840576
 20
-408.7751066360309
 10
-546.0717236692327
 20
-408.6058323778057
 10
-546.0407985471551
 20
-408.4338541880153
 10
-546.036926933178
 20
-408.3474887253461
210
0.0
220
0.0
230
-1.0
  0
LWPOLYLINE
  5
80
330
1F
100
AcDbEntity
  8
1
  6
CONTINUOUS
 62
   253
100
AcDbPolyline
 90
        9
 70
     0
 43
0.0
 10
425.6201544124337
 20
-235.2045211971609
 10
425.6310872354895
 20
-235.2066337092131
 10
425.6596950211913
 20
-235.2038231033348
 10
425.7049065633719
 20
-235.196194621448
 10
425.7650289353808
 20
-235.1840339087588
 10
425.8378108809918
 20
-235.1677963178964
 10
425.9205271117176
 20
-235.1480898584303
 10
426.0100803540605
 20
-235.1256524302154
 10
426.1031173255783
 20
-235.1013241930506
  0
LWPOLYLINE
  5
81
330
1F
100
AcDbEntity
  8
1
  6
CONTINUOUS
 62
     7
100
AcDbPolyline
 90
        6
 70
     0
 43
0.0
 10
-546.036926933178
 20
-236.9525112746537
 10
-546.0543625871278
 20
-236.7695293629229
 10
-546.1065501297229
 20
-236.5884975264084
 10
-546.1933104320818
 20
-236.4118576977414
 10
-546.2495993903974
 20
-236.325947890298
 10
-546.3699532818027
 20
-236.1790975183566
210
0.0
220
0.0
230
-1.0
  0
LWPOLYLINE
  5
82
330
1F
100
AcDbEntity
  8
1
  6
CONTINUOUS
 62
   253
100
AcDbPolyline
 90
        4
 70
     0
 43
0.0
 10
-449.9707365407779
 20
-320.8510500733381
 10
-450.0649895199465
 20
-320.8920624632232
 10
-450.1352159539377
 20
-320.9641890898618
 10
-450.1976830055727
 20
-321.0670507437133
210
0.0
220
0.0
230
-1.0
  0
LWPOLYLINE
  5
83
330
1F
100
AcDbEntity
  8
1
  6
CONTINUOUS
 62
   253
100
AcDbPolyline
 90
        9
 70
     0
 43
0.0
 10
450.4536994539225
 20
-410.0954788028389
 10
450.4427666308666
 20
-410.0933662907867
 10
450.4141588451648
 20
-410.0961768966649
 10
450.3689473029843
 20
-410.1038053785518
 10
450.3088249309753
 20
-410.1159660912409
 10
450.2360429853645
 20
-410.1322036821035
 10
450.1533267546386
 20
-410.1519101415695
 10
450.0637735122957
 20
-410.1743475697844
 10
449.970736540778
 20
-410.1986758069491
  0
LWPOLYLINE
  5
84
330
1F
100
AcDbEntity
  8
1
  6
CONTINUOUS
 62
   253
100
AcDbPolyline
 90
        9
 70
     0
 43
0.0
 10
426.1031173255782
 20
-324.4489499266617
 10
426.0100803540604
 20
-324.4595989041861
 10
425.9205271117175
 20
-324.4885457609418
 10
425.8378108809916
 20
-324.5347065943926
 10
425.7650289353808
 20
-324.5963529320871
 10
425.7049065633718
 20
-324.6711764535625
 10
425.6596950211913
 20
-324.7563754244061
 10
425.6310872354896
 20
-324.8487596059898
 10
425.6201544124337
 20
-324.9448697125755
  0
LWPOLYLINE
  5
85
330
1F
100
AcDbEntity
  8
1
  6
CONTINUOUS
 62
     7
100
AcDbPolyline
 90
       36
 70
     0
 43
0.0
 10
320.0369269331781
 20
-277.3467746271587
 10
320.0369429416755
 20
-277.3524329607371
 10
320.0389876163356
 20
-277.4108987417666
 10
320.0444562439316
 20
-277.4692357824072
 10
320.0533430622608
 20
-277.5272261964851
 10
320.0624931331844
 20
-277.5714393978554
 10
320.0736717442425
 20
-277.6153476863733
 10
320.0868706649974
 20
-277.6588461832216
 10
320.1020816650125
 20
-277.7018300095828
 10
320.121793331564
 20
-277.749920402121
 10
320.1441188440058
 20
-277.7972075242577
 10
320.1690314143169
 20
-277.8435214120928
 10
320.1971594295231
 20
-277.8897156521215
 10
320.228001841334
 20
-277.934681672071
 10
320.2615026513603
 20
-277.9782151890229
 10
320.292193580215
 20
-278.014133783959
 10
320.3248143998836
 20
-278.0488371560646
 10
320.3593034288588
 20
-278.082183619758
 10
320.3964459618311
 20
-278.1147448055561
 10
320.435500197332
 20
-278.1456989051365
 10
320.4763599101019
 20
-278.1748836855801
 10
320.5156015427219
 20
-278.2001292042921
 10
320.5563056550361
 20
-278.2236996044584
 10
320.5983475139703
 20
-278.2454670623373
 10
320.6315464649899
 20
-278.2609194345611
 10
320.6654893268824
 20
-278.275226863627
 10
320.7000980119016
 20
-278.2883373502015
 10
320.7352944323016
 20
-278.3001988949508
 10
320.7701894657432
 20
-278.3105404306015
 10
320.8055968696138
 20
-278.3196439298984
 10
320.8414252250171
 20
-278.3274746321588
 10
320.8775831130569
 20
-278.3339977766998
 10
320.9151696886987
 20
-278.3393303362591
 10
320.9530377659217
 20
-278.3432422812013
 10
320.9910739190727
 20
-278.3457186549048
 10
321.0291647224964
 20
-278.3467445007476
  0
LWPOLYLINE
  5
86
330
1F
100
AcDbEntity
  8
1
  6
CONTINUOUS
 62
   253
100
AcDbPolyline
 90
        9
 70
     0
 43
0.0
 10
449.628036848647
 20
-325.1062847337932
 10
449.6170446079313
 20
-325.0102274184223
 10
449.5883964649557
 20
-324.9179044000979
 10
449.543164115149
 20
-324.8327693811009
 10
449.4830396508251
 20
-324.7580071685857
 10
449.4102722618756
 20
-324.6964145344581
 10
449.3275840960569
 20
-324.6502955912227
 10
449.2380684264452
 20
-324.6213755976754
 10
449.1450739355025
 20
-324.6107364188753
  0
LWPOLYLINE
  5
87
330
1F
100
AcDbEntity
  8
1
  6
CONTINUOUS
 62
     7
100
AcDbPolyline
 90
       35
 70
     0
 43
0.0
 10
-555.0446891438584
 20
-366.9532554992523
 10
-555.081632402571
 20
-366.9542288550874
 10
-555.1185253766208
 20
-366.9565666717567
 10
-555.1552644736918
 20
-366.9602556643638
 10
-555.1917461014675
 20
-366.9652825480126
 10
-555.2290643575104
 20
-366.9718611422952
 10
-555.2660396504308
 20
-366.9798322956372
 10
-555.3025715020163
 20
-366.9891582144259
 10
-555.3385594340547
 20
-366.999801105049
 10
-555.3728861624417
 20
-367.0113516916578
 10
-555.4066546754545
 20
-367.0240903818416
 10
-555.4397923239108
 20
-367.0379690781431
 10
-555.472226458627
 20
-367.0529396831049
 10
-555.5154291442636
 20
-367.0751426735178
 10
-555.5572300301117
 20
-367.0992474783833
 10
-555.5974939562542
 20
-367.1251163144198
 10
-555.6375039321954
 20
-367.1536618328597
 10
-555.6757850457261
 20
-367.1839043394215
 10
-555.7122372336414
 20
-367.2156916460949
 10
-555.7475788968877
 20
-367.2496847038459
 10
-555.7809722774775
 20
-367.2850995136454
 10
-555.8123512149959
 20
-367.321784810977
 10
-555.8451689776083
 20
-367.3643792707933
 10
-555.8754399419037
 20
-367.4083485100348
 10
-555.9031112535408
 20
-367.4535007255024
 10
-555.928707662723
 20
-367.5007622823997
 10
-555.9516042440895
 20
-367.549045865525
 10
-555.9717722013437
 20
-367.5981699904169
 10
-555.9911856958181
 20
-367.6542529295527
 10
-556.007181989031
 20
-367.7111523091121
 10
-556.019742716709
 20
-367.7686362733722
 10
-556.0290506335981
 20
-367.8279862047065
 10
-556.0347754720209
 20
-367.8877077793387
 10
-556.0369109246807
 20
-367.9475670392628
 10
-556.036926933178
 20
-367.9532253728411
210
0.0
220
0.0
230
-1.0
  0
LWPOLYLINE
  5
88
330
1F
100
AcDbEntity
  8
1
  6
CONTINUOUS
 62
     7
100
AcDbPolyline
 90
        7
 70
     0
 43
0.0
 10
-555.6350207623468
 20
-234.4581635115241
 10
-555.7510074128054
 20
-234.5084048702258
 10
-555.8485915973581
 20
-234.5662600174
 10
-555.9330569880693
 20
-234.636970819681
 10
-556.0062930531951
 20
-234.7375588475567
 10
-556.0356965768498
 20
-234.8381407368592
 10
-556.036926933178
 20
-234.8635838545946
210
0.0
220
0.0
230
-1.0
  0
LWPOLYLINE
  5
89
330
1F
100
AcDbEntity
  8
1
  6
CONTINUOUS
 62
     7
100
AcDbPolyline
 90
        5
 70
     0
 43
0.0
 10
-329.793680444177
 20
-232.2997661144883
 10
-329.9086316903806
 20
-232.4683892505681
 10
-329.9547282034659
 20
-232.5602335310825
 10
-330.0163323635892
 20
-232.7477546500151
 10
-330.0369269331781
 20
-232.9378510917191
210
0.0
220
0.0
230
-1.0
  0
LWPOLYLINE
  5
8A
330
1F
100
AcDbEntity
  8
1
  6
CONTINUOUS
 62
     7
100
AcDbPolyline
 90
        5
 70
     0
 43
0.0
 10
-556.036926933178
 20
-410.4364161454051
 10
-556.0145390416178
 20
-410.5442708949541
 10
-555.9477874186884
 20
-410.6473466466342
 10
-555.8682259199536
 20
-410.7194245603074
 10
-555.7649185889348
 20
-410.7844373205266
210
0.0
220
0.0
230
-1.0
  0
LWPOLYLINE
  5
8B
330
1F
100
AcDbEntity
  8
1
  6
CONTINUOUS
 62
   253
100
AcDbPolyline
 90
        9
 70
     0
 43
0.0
 10
426.4458170177093
 20
-320.1937152662065
 10
426.4568092584249
 20
-320.2897725815774
 10
426.4854574014005
 20
-320.3820955999018
 10
426.5306897512073
 20
-320.4672306188989
 10
426.5908142155311
 20
-320.541992831414
 10
426.6635816044806
 20
-320.6035854655416
 10
426.7462697702993
 20
-320.649704408777
 10
426.8357854399111
 20
-320.6786244023244
 10
426.9287799308538
 20
-320.6892635811245
  0
LWPOLYLINE
  5
8C
330
1F
100
AcDbEntity
  8
1
  6
CONTINUOUS
 62
   253
100
AcDbPolyline
 90
        4
 70
     0
 43
0.0
 10
425.8684438997174
 20
-324.2170103365686
 10
425.9337827547375
 20
-324.3292630637343
 10
426.0062074754321
 20
-324.4058692538562
 10
426.1031173255782
 20
-324.4489499266616
  0
LWPOLYLINE
  5
8D
330
1F
100
AcDbEntity
  8
1
  6
CONTINUOUS
 62
     7
100
AcDbPolyline
 90
        6
 70
     0
 43
0.0
 10
330.0369269331781
 20
-236.9525112746537
 10
330.0194912792284
 20
-236.7695293629229
 10
329.9673037366334
 20
-236.5884975264084
 10
329.8805434342743
 20
-236.4118576977414
 10
329.8242544759588
 20
-236.325947890298
 10
329.7039005845535
 20
-236.1790975183566
  0
LWPOLYLINE
  5
8E
330
1F
100
AcDbEntity
  8
1
  6
CONTINUOUS
 62
   253
100
AcDbPolyline
 90
        8
 70
     0
 43
0.0
 10
450.3445267965407
 20
-321.840533089328
 10
450.4374826001224
 20
-321.8404533612882
 10
450.5271973087244
 20
-321.8402169570504
 10
450.610542834799
 20
-321.8398321193341
 10
450.6846131654269
 20
-321.8393122662962
 10
450.7468256864248
 20
-321.8386755236808
 10
450.7950112304925
 20
-321.8379440928264
 10
450.8274897096857
 20
-321.837143476572
  0
LWPOLYLINE
  5
8F
330
1F
100
AcDbEntity
  8
1
  6
CONTINUOUS
 62
   253
100
AcDbPolyline
 90
        3
 70
     0
 43
0.0
 10
-425.4726057305629
 20
-320.4930252790022
 10
-425.5440956813818
 20
-320.3977267639675
 10
-425.6201544124337
 20
-320.3551302874242
210
0.0
220
0.0
230
-1.0
  0
LWPOLYLINE
  5
90
330
1F
100
AcDbEntity
  8
1
  6
CONTINUOUS
 62
   253
100
AcDbPolyline
 90
        8
 70
     0
 43
0.0
 10
450.8274897096853
 20
-411.5168729959748
 10
450.7950112304919
 20
-411.4293443104696
 10
450.7468256864241
 20
-411.3493794323346
 10
450.6846131654262
 20
-411.2797665012565
 10
450.6105428347984
 20
-411.2229327150298
 10
450.5271973087239
 20
-411.1808597003213
 10
450.4374826001222
 20
-411.1550144191873
 10
450.3445267965407
 20
-411.1462980204286
  0
LWPOLYLINE
  5
91
330
1F
100
AcDbEntity
  8
1
  6
CONTINUOUS
 62
   253
100
AcDbPolyline
 90
        9
 70
     0
 43
0.0
 10
426.4458170177093
 20
-238.2915810868958
 10
426.4568092584249
 20
-238.2936756158521
 10
426.4854574014007
 20
-238.2908527741521
 10
426.5306897512074
 20
-238.28321816119
 10
426.5908142155313
 20
-238.2710573794157
 10
426.6635816044808
 20
-238.2548253502616
 10
426.7462697702994
 20
-238.2351292960342
 10
426.8357854399111
 20
-238.2127060243967
 10
426.9287799308538
 20
-238.1883943652077
  0
LWPOLYLINE
  5
92
330
1F
100
AcDbEntity
  8
1
  6
CONTINUOUS
 62
   253
100
AcDbPolyline
 90
        9
 70
     0
 43
0.0
 10
449.9707365407779
 20
-235.1013241930506
 10
450.0637735122957
 20
-235.1256524302154
 10
450.1533267546386
 20
-235.1480898584303
 10
450.2360429853644
 20
-235.1677963178964
 10
450.3088249309753
 20
-235.1840339087588
 10
450.3689473029843
 20
-235.196194621448
 10
450.4141588451648
 20
-235.2038231033348
 10
450.4427666308666
 20
-235.2066337092131
 10
450.4536994539225
 20
-235.2045211971609
  0
LWPOLYLINE
  5
93
330
1F
100
AcDbEntity
  8
1
  6
CONTINUOUS
 62
     7
100
AcDbPolyline
 90
       36
 70
     0
 43
0.0
 10
-556.036926933178
 20
-277.3467746271587
 10
-556.0369109246807
 20
-277.3524329607371
 10
-556.0348662500206
 20
-277.4108987417666
 10
-556.0293976224245
 20
-277.4692357824072
 10
-556.0205108040955
 20
-277.5272261964851
 10
-556.0113607331717
 20
-277.5714393978554
 10
-556.0001821221138
 20
-277.6153476863733
 10
-555.9869832013587
 20
-277.6588461832216
 10
-555.9717722013437
 20
-277.7018300095828
 10
-555.9520605347922
 20
-277.749920402121
 10
-555.9297350223503
 20
-277.7972075242577
 10
-555.9048224520393
 20
-277.8435214120928
 10
-555.8766944368331
 20
-277.8897156521215
 10
-555.8458520250222
 20
-277.934681672071
 10
-555.8123512149959
 20
-277.9782151890229
 10
-555.7816602861411
 20
-278.014133783959
 10
-555.7490394664726
 20
-278.0488371560646
 10
-555.7145504374973
 20
-278.082183619758
 10
-555.677407904525
 20
-278.1147448055561
 10
-555.6383536690242
 20
-278.1456989051365
 10
-555.5974939562542
 20
-278.1748836855801
 10
-555.5582523236344
 20
-278.2001292042921
 10
-555.51754821132
 20
-278.2236996044584
 10
-555.4755063523859
 20
-278.2454670623373
 10
-555.4423074013662
 20
-278.2609194345611
 10
-555.4083645394738
 20
-278.275226863627
 10
-555.3737558544545
 20
-278.2883373502015
 10
-555.3385594340547
 20
-278.3001988949508
 10
-555.3036644006131
 20
-278.3105404306015
 10
-555.2682569967424
 20
-278.3196439298984
 10
-555.232428641339
 20
-278.3274746321588
 10
-555.1962707532994
 20
-278.3339977766998
 10
-555.1586841776575
 20
-278.3393303362591
 10
-555.1208161004344
 20
-278.3432422812013
 10
-555.0827799472835
 20
-278.3457186549048
 10
-555.0446891438598
 20
-278.3467445007476
210
0.0
220
0.0
230
-1.0
  0
LWPOLYLINE
  5
94
330
1F
100
AcDbEntity
  8
1
  6
CONTINUOUS
 62
     7
100
AcDbPolyline
 90
        5
 70
     0
 43
0.0
 10
546.2801734221791
 20
-232.2997661144883
 10
546.1652221759756
 20
-232.4683892505681
 10
546.1191256628903
 20
-232.5602335310825
 10
546.0575215027669
 20
-232.7477546500151
 10
546.036926933178
 20
-232.9378510917191
  0
LWPOLYLINE
  5
95
330
1F
100
AcDbEntity
  8
1
  6
CONTINUOUS
 62
     7
100
AcDbPolyline
 90
        7
 70
     0
 43
0.0
 10
320.4388331040094
 20
-234.4581635115241
 10
320.3228464535508
 20
-234.5084048702258
 10
320.2252622689981
 20
-234.5662600174
 10
320.1407968782868
 20
-234.636970819681
 10
320.067560813161
 20
-234.7375588475567
 10
320.0381572895063
 20
-234.8381407368592
 10
320.0369269331781
 20
-234.8635838545946
  0
LWPOLYLINE
  5
96
330
1F
100
AcDbEntity
  8
1
  6
CONTINUOUS
 62
     7
100
AcDbPolyline
 90
        5
 70
     0
 43
0.0
 10
329.847998414028
 20
-408.9396366216903
 10
329.9404020822986
 20
-408.7751066360309
 10
330.0021301971234
 20
-408.6058323778057
 10
330.0330553192011
 20
-408.4338541880153
 10
330.0369269331781
 20
-408.3474887253461
  0
LWPOLYLINE
  5
97
330
1F
100
AcDbEntity
  8
1
  6
CONTINUOUS
 62
   253
100
AcDbPolyline
 90
        9
 70
     0
 43
0.0
 10
449.9707365407779
 20
-320.8510500733381
 10
450.0637735122957
 20
-320.8404010958137
 10
450.1533267546386
 20
-320.811454239058
 10
450.2360429853645
 20
-320.7652934056072
 10
450.3088249309753
 20
-320.7036470679127
 10
450.3689473029843
 20
-320.6288235464374
 10
450.4141588451648
 20
-320.5436245755937
 10
450.4427666308666
 20
-320.45124039401
 10
450.4536994539224
 20
-320.3551302874243
  0
LWPOLYLINE
  5
98
330
1F
100
AcDbEntity
  8
1
  6
CONTINUOUS
 62
   253
100
AcDbPolyline
 90
        4
 70
     0
 43
0.0
 10
-450.2054099666387
 20
-324.2170103365686
 10
-450.1400711116187
 20
-324.3292630637343
 10
-450.0676463909242
 20
-324.4058692538562
 10
-449.9707365407779
 20
-324.4489499266616
210
0.0
220
0.0
230
-1.0
  0
LWPOLYLINE
  5
99
330
1F
100
AcDbEntity
  8
1
  6
CONTINUOUS
 62
   253
100
AcDbPolyline
 90
        4
 70
     0
 43
0.0
 10
426.1031173255782
 20
-320.8510500733381
 10
426.0088643464097
 20
-320.8920624632232
 10
425.9386379124185
 20
-320.9641890898618
 10
425.8761708607834
 20
-321.0670507437133
  0
LWPOLYLINE
  5
9A
330
1F
100
AcDbEntity
  8
1
  6
CONTINUOUS
 62
   253
100
AcDbPolyline
 90
        8
 70
     0
 43
0.0
 10
425.7293270698155
 20
-323.4594669106717
 10
425.6363712662338
 20
-323.4595466387116
 10
425.5466565576318
 20
-323.4597830429493
 10
425.4633110315572
 20
-323.4601678806657
 10
425.3892407009293
 20
-323.4606877337035
 10
425.3270281799314
 20
-323.461324476319
 10
425.2788426358637
 20
-323.4620559071733
 10
425.2463641566705
 20
-323.4628565234277
  0
LWPOLYLINE
  5
9B
330
1F
100
AcDbEntity
  8
1
  6
CONTINUOUS
 62
   253
100
AcDbPolyline
 90
        9
 70
     0
 43
0.0
 10
425.6201544124337
 20
-320.3551302874242
 10
425.6310872354895
 20
-320.4512403940099
 10
425.6596950211913
 20
-320.5436245755936
 10
425.7049065633718
 20
-320.6288235464373
 10
425.7650289353808
 20
-320.7036470679126
 10
425.8378108809916
 20
-320.7652934056071
 10
425.9205271117175
 20
-320.8114542390579
 10
426.0100803540604
 20
-320.8404010958137
 10
426.1031173255782
 20
-320.8510500733381
  0
LWPOLYLINE
  5
9C
330
1F
100
AcDbEntity
  8
1
  6
CONTINUOUS
 62
   253
100
AcDbPolyline
 90
        9
 70
     0
 43
0.0
 10
449.1450739355024
 20
-320.6892635811245
 10
449.2380684264451
 20
-320.6786244023244
 10
449.3275840960569
 20
-320.649704408777
 10
449.4102722618755
 20
-320.6035854655416
 10
449.483039650825
 20
-320.541992831414
 10
449.5431641151488
 20
-320.4672306188989
 10
449.5883964649556
 20
-320.3820955999018
 10
449.6170446079313
 20
-320.2897725815774
 10
449.6280368486469
 20
-320.1937152662065
  0
LWPOLYLINE
  5
9D
330
1F
100
AcDbEntity
  8
1
  6
CONTINUOUS
 62
   253
100
AcDbPolyline
 90
        8
 70
     0
 43
0.0
 10
425.7293270698154
 20
-411.1462980204286
 10
425.636371266234
 20
-411.1550144191873
 10
425.5466565576322
 20
-411.1808597003213
 10
425.4633110315578
 20
-411.2229327150298
 10
425.38924070093
 20
-411.2797665012565
 10
425.3270281799321
 20
-411.3493794323346
 10
425.2788426358642
 20
-411.4293443104696
 10
425.2463641566709
 20
-411.5168729959748
  0
LWPOLYLINE
  5
9E
330
1F
100
AcDbEntity
  8
1
  6
CONTINUOUS
 62
   253
100
AcDbPolyline
 90
        9
 70
     0
 43
0.0
 10
449.6280368486469
 20
-407.008418913104
 10
449.6170446079312
 20
-407.0063243841477
 10
449.5883964649555
 20
-407.0091472258478
 10
449.5431641151487
 20
-407.0167818388098
 10
449.4830396508248
 20
-407.0289426205841
 10
449.4102722618754
 20
-407.0451746497382
 10
449.3275840960567
 20
-407.0648707039657
 10
449.238068426445
 20
-407.0872939756032
 10
449.1450739355024
 20
-407.1116056347921
  0
LWPOLYLINE
  5
9F
330
1F
100
AcDbEntity
  8
1
  6
CONTINUOUS
 62
     7
100
AcDbPolyline
 90
        7
 70
     0
 43
0.0
 10
556.036926933178
 20
-415.4666477842204
 10
556.0205108040955
 20
-415.3538571912835
 10
555.9717722013437
 20
-415.2445909318466
 10
555.9048224520393
 20
-415.1558262428597
 10
555.8123512149959
 20
-415.071366279477
 10
555.7145504374972
 20
-415.0061198773038
 10
555.5974939562542
 20
-414.947906151542
  0
LWPOLYLINE
  5
A0
330
1F
100
AcDbEntity
  8
1
  6
CONTINUOUS
 62
   253
100
AcDbPolyline
 90
        9
 70
     0
 43
0.0
 10
449.1450739355024
 20
-238.1883943652077
 10
449.238068426445
 20
-238.2127060243967
 10
449.3275840960567
 20
-238.2351292960342
 10
449.4102722618754
 20
-238.2548253502616
 10
449.4830396508249
 20
-238.2710573794157
 10
449.5431641151487
 20
-238.28321816119
 10
449.5883964649555
 20
-238.2908527741521
 10
449.6170446079312
 20
-238.2936756158521
 10
449.6280368486469
 20
-238.2915810868958
  0
LWPOLYLINE
  5
A1
330
1F
100
AcDbEntity
  8
1
  6
CONTINUOUS
 62
   253
100
AcDbPolyline
 90
        8
 70
     0
 43
0.0
 10
450.3445267965407
 20
-234.1537019795713
 10
450.4374826001222
 20
-234.1449855808125
 10
450.5271973087239
 20
-234.1191402996785
 10
450.6105428347984
 20
-234.0770672849701
 10
450.6846131654262
 20
-234.0202334987433
 10
450.7468256864241
 20
-233.9506205676652
 10
450.7950112304919
 20
-233.8706556895302
 10
450.8274897096853
 20
-233.7831270040251
  0
LWPOLYLINE
  5
A2
330
1F
100
AcDbEntity
  8
1
  6
CONTINUOUS
 62
   253
100
AcDbPolyline
 90
        9
 70
     0
 43
0.0
 10
426.1031173255782
 20
-410.1986758069491
 10
426.0100803540604
 20
-410.1743475697844
 10
425.9205271117175
 20
-410.1519101415695
 10
425.8378108809917
 20
-410.1322036821035
 10
425.7650289353808
 20
-410.1159660912409
 10
425.7049065633719
 20
-410.1038053785518
 10
425.6596950211913
 20
-410.0961768966649
 10
425.6310872354895
 20
-410.0933662907867
 10
425.6201544124337
 20
-410.0954788028389
  0
LWPOLYLINE
  5
A3
330
1F
100
AcDbEntity
  8
1
  6
CONTINUOUS
 62
     7
100
AcDbPolyline
 90
        8
 70
     0
 43
0.0
 10
-320.4763599101019
 20
-230.3520938484579
 10
-320.3616166327149
 20
-230.2952140009535
 10
-320.2615026513603
 20
-230.2286337205228
 10
-320.1707426128153
 20
-230.1460401972556
 10
-320.1020816650125
 20
-230.0554090681532
 10
-320.0541111496472
 20
-229.9487305661617
 10
-320.0369429416755
 20
-229.8368868548677
 10
-320.0369269331781
 20
-229.8333522157795
210
0.0
220
0.0
230
-1.0
  0
LINE
  5
A4
330
1F
100
AcDbEntity
  8
1
  6
CONTINUOUS
 62
   253
100
AcDbLine
 10
-20.70438585985973
 20
-400.6089009651546
 30
0.0
 11
-20.70438585985973
 21
-244.6910990348452
 31
0.0
  0
LINE
  5
A5
330
1F
100
AcDbEntity
  8
1
  6
CONTINUOUS
 62
   253
100
AcDbLine
 10
-693.2217602737842
 20
-400.6089009651546
 30
0.0
 11
-693.2217602737842
 21
-244.6910990348452
 31
0.0
  0
LINE
  5
A6
330
1F
100
AcDbEntity
  8
1
  6
CONTINUOUS
 62
   253
100
AcDbLine
 10
-297.221760273784
 20
-400.6089009651546
 30
0.0
 11
-297.221760273784
 21
-244.6910990348452
 31
0.0
  0
LINE
  5
A7
330
1F
100
AcDbEntity
  8
1
  6
CONTINUOUS
 62
   253
100
AcDbLine
 10
-416.7043858598597
 20
-400.6089009651546
 30
0.0
 11
-416.7043858598597
 21
-244.6910990348452
 31
0.0
  0
LINE
  5
A8
330
1F
100
AcDbEntity
  8
1
  6
CONTINUOUS
 62
   253
100
AcDbLine
 10
23.29561414014025
 20
-400.6089009651546
 30
0.0
 11
23.29561414014025
 21
-244.6910990348452
 31
0.0
  0
LINE
  5
A9
330
1F
100
AcDbEntity
  8
1
  6
CONTINUOUS
 62
   253
100
AcDbLine
 10
-341.2217602737839
 20
-400.6089009651546
 30
0.0
 11
-341.2217602737839
 21
-244.6910990348452
 31
0.0
  0
LINE
  5
AA
330
1F
100
AcDbEntity
  8
1
  6
CONTINUOUS
 62
   253
100
AcDbLine
 10
-781.2217602737841
 20
-400.6089009651546
 30
0.0
 11
-781.2217602737841
 21
-244.6910990348452
 31
0.0
  0
LINE
  5
AB
330
1F
100
AcDbEntity
  8
1
  6
CONTINUOUS
 62
   253
100
AcDbLine
 10
-825.2217602737841
 20
-400.6089009651546
 30
0.0
 11
-825.2217602737841
 21
-244.6910990348452
 31
0.0
  0
LINE
  5
AC
330
1F
100
AcDbEntity
  8
1
  6
CONTINUOUS
 62
   253
100
AcDbLine
 10
-64.70438585985971
 20
-400.6089009651546
 30
0.0
 11
-64.70438585985971
 21
-244.6910990348452
 31
0.0
  0
LINE
  5
AD
330
1F
100
AcDbEntity
  8
1
  6
CONTINUOUS
 62
   253
100
AcDbLine
 10
-504.7043858598598
 20
-400.6089009651546
 30
0.0
 11
-504.7043858598598
 21
-244.6910990348452
 31
0.0
  0
LINE
  5
AE
330
1F
100
AcDbEntity
  8
1
  6
CENTER
 62
     1
100
AcDbLine
 10
-922.3500000000001
 20
-322.6499999999999
 30
0.0
 11
586.0369269331778
 21
-322.6499999999999
 31
0.0
  0
LINE
  5
B0
330
1F
100
AcDbEntity
  8
1
  6
CONTINUOUS
 62
   253
100
AcDbLine
 10
67.29561414014029
 20
-400.6089009651546
 30
0.0
 11
67.29561414014029
 21
-244.6910990348452
 31
0.0
  0
MTEXT
  5
B1
330
1F
100
AcDbEntity
  8
1
 62
     7
100
AcDbMText
 10
81.02251469300978
 20
-464.7903026134799
 30
0.0
 40
10.0
 41
0.0
 71
     1
 72
     1
  1
{\fＭＳ ゴシック;N-FEP-150CK}
  0
ARC
  5
B2
330
1F
100
AcDbEntity
  8
1
  6
CONTINUOUS
 62
     7
100
AcDbCircle
 10
-364.5245763716109
 20
-414.0101585634188
 30
0.0
 40
4.999999999999958
100
AcDbArc
 50
191.0000000000005
 51
260.3265031883323
  0
ARC
  5
B3
330
1F
100
AcDbEntity
  8
1
  6
CONTINUOUS
 62
     7
100
AcDbCircle
 10
266.6893104278431
 20
-413.9945715601197
 30
0.0
 40
5.000000000000045
100
AcDbArc
 50
279.7908986569159
 51
347.5
  0
ARC
  5
B4
330
1F
100
AcDbEntity
  8
1
  6
CONTINUOUS
 62
     7
100
AcDbCircle
 10
-232.5245763716108
 20
-231.289841436581
 30
0.0
 40
4.999999999999988
100
AcDbArc
 50
99.67349681166775
 51
168.9999999999995
  0
ARC
  5
B5
330
1F
100
AcDbEntity
  8
1
  6
CONTINUOUS
 62
     7
100
AcDbCircle
 10
-261.3106895721568
 20
-413.9945715601197
 30
0.0
 40
5.000000000000045
100
AcDbArc
 50
279.7908986569156
 51
347.4999999999997
  0
ARC
  5
B6
330
1F
100
AcDbEntity
  8
1
  6
CONTINUOUS
 62
     7
100
AcDbCircle
 10
-41.40156976203291
 20
-231.289841436581
 30
0.0
 40
4.999999999999991
100
AcDbArc
 50
11.00000000000006
 51
80.32650318833227
  0
ARC
  5
B7
330
1F
100
AcDbEntity
  8
1
  6
CONTINUOUS
 62
     7
100
AcDbCircle
 10
-804.5245763716109
 20
-231.289841436581
 30
0.0
 40
4.999999999999971
100
AcDbArc
 50
99.67349681166647
 51
169.0
  0
ARC
  5
B8
330
1F
100
AcDbEntity
  8
1
  6
CONTINUOUS
 62
     7
100
AcDbCircle
 10
-12.61545656148688
 20
-231.3054284398802
 30
0.0
 40
4.99999999999999
100
AcDbArc
 50
99.79089865691557
 51
167.5
  0
ARC
  5
B9
330
1F
100
AcDbEntity
  8
1
  6
CONTINUOUS
 62
     7
100
AcDbCircle
 10
-173.3106895721568
 20
-413.9945715601197
 30
0.0
 40
5.000000000000026
100
AcDbArc
 50
279.7908986569143
 51
347.4999999999997
  0
ARC
  5
BA
330
1F
100
AcDbEntity
  8
1
  6
CONTINUOUS
 62
     7
100
AcDbCircle
 10
31.38454343851316
 20
-413.9945715601197
 30
0.0
 40
5.000000000000027
100
AcDbArc
 50
192.4999999999999
 51
260.2091013430844
  0
ARC
  5
BB
330
1F
100
AcDbEntity
  8
1
  6
CONTINUOUS
 62
     7
100
AcDbCircle
 10
266.6893104278431
 20
-231.3054284398802
 30
0.0
 40
4.999999999999961
100
AcDbArc
 50
12.49999999999997
 51
80.20910134308409
  0
ARC
  5
BC
330
1F
100
AcDbEntity
  8
1
  6
CONTINUOUS
 62
     7
100
AcDbCircle
 10
75.38454343851313
 20
-413.9945715601197
 30
0.0
 40
5.000000000000027
100
AcDbArc
 50
192.4999999999999
 51
260.2091013430838
  0
ARC
  5
BD
330
1F
100
AcDbEntity
  8
1
  6
CONTINUOUS
 62
     7
100
AcDbCircle
 10
222.6893104278431
 20
-231.3054284398802
 30
0.0
 40
4.999999999999988
100
AcDbArc
 50
12.49999999999997
 51
80.20910134308409
  0
ARC
  5
BE
330
1F
100
AcDbEntity
  8
1
  6
CONTINUOUS
 62
     7
100
AcDbCircle
 10
-481.4015697620329
 20
-414.0101585634188
 30
0.0
 40
4.999999999999934
100
AcDbArc
 50
279.6734968116678
 51
348.9999999999999
  0
ARC
  5
BF
330
1F
100
AcDbEntity
  8
1
  6
CONTINUOUS
 62
     7
100
AcDbCircle
 10
-217.3106895721568
 20
-231.3054284398802
 30
0.0
 40
4.999999999999973
100
AcDbArc
 50
12.50000000000038
 51
80.20910134308446
  0
ARC
  5
C0
330
1F
100
AcDbEntity
  8
1
  6
CONTINUOUS
 62
     7
100
AcDbCircle
 10
-129.3106895721569
 20
-413.9945715601197
 30
0.0
 40
5.000000000000045
100
AcDbArc
 50
279.7908986569156
 51
347.4999999999997
  0
ARC
  5
C1
330
1F
100
AcDbEntity
  8
1
  6
CONTINUOUS
 62
     7
100
AcDbCircle
 10
178.6893104278431
 20
-413.9945715601197
 30
0.0
 40
5.000000000000045
100
AcDbArc
 50
279.7908986569156
 51
347.5000000000002
  0
ARC
  5
C2
330
1F
100
AcDbEntity
  8
1
  6
CONTINUOUS
 62
     7
100
AcDbCircle
 10
-804.5245763716109
 20
-414.0101585634188
 30
0.0
 40
4.999999999999937
100
AcDbArc
 50
191.0
 51
260.3265031883335
  0
ARC
  5
C3
330
1F
100
AcDbEntity
  8
1
  6
CONTINUOUS
 62
     7
100
AcDbCircle
 10
-129.3106895721569
 20
-231.3054284398802
 30
0.0
 40
4.999999999999973
100
AcDbArc
 50
12.50000000000038
 51
80.20910134308446
  0
ARC
  5
C4
330
1F
100
AcDbEntity
  8
1
  6
CONTINUOUS
 62
     7
100
AcDbCircle
 10
-100.6154565614869
 20
-413.9945715601197
 30
0.0
 40
4.999999999999973
100
AcDbArc
 50
192.5000000000003
 51
260.2091013430845
  0
ARC
  5
C5
330
1F
100
AcDbEntity
  8
1
  6
CONTINUOUS
 62
     7
100
AcDbCircle
 10
295.4754236283891
 20
-414.0101585634188
 30
0.0
 40
4.999999999999937
100
AcDbArc
 50
191.0
 51
240.810522352243
  0
ARC
  5
C6
330
1F
100
AcDbEntity
  8
1
  6
CONTINUOUS
 62
     7
100
AcDbCircle
 10
2.598430237967131
 20
-231.289841436581
 30
0.0
 40
5.000000000000002
100
AcDbArc
 50
11.00000000000019
 51
80.32650318833225
  0
ARC
  5
C7
330
1F
100
AcDbEntity
  8
1
  6
CONTINUOUS
 62
     7
100
AcDbCircle
 10
295.4754236283891
 20
-231.289841436581
 30
0.0
 40
4.99999999999994
100
AcDbArc
 50
119.189477647757
 51
169.0
  0
ARC
  5
C8
330
1F
100
AcDbEntity
  8
1
  6
CONTINUOUS
 62
     7
100
AcDbCircle
 10
-716.524576371611
 20
-231.289841436581
 30
0.0
 40
4.999999999999971
100
AcDbArc
 50
99.67349681166647
 51
168.9999999999995
  0
ARC
  5
C9
330
1F
100
AcDbEntity
  8
1
  6
CONTINUOUS
 62
     7
100
AcDbCircle
 10
46.59843023796711
 20
-231.289841436581
 30
0.0
 40
4.999999999999991
100
AcDbArc
 50
11.00000000000006
 51
80.32650318833292
  0
ARC
  5
CA
330
1F
100
AcDbEntity
  8
1
  6
CONTINUOUS
 62
     7
100
AcDbCircle
 10
-525.4015697620328
 20
-231.289841436581
 30
0.0
 40
4.999999999999947
100
AcDbArc
 50
11.00000000000049
 51
80.32650318833227
  0
ARC
  5
CB
330
1F
100
AcDbEntity
  8
1
  6
CONTINUOUS
 62
     7
100
AcDbCircle
 10
163.4754236283891
 20
-231.289841436581
 30
0.0
 40
4.99999999999998
100
AcDbArc
 50
99.67349681166709
 51
168.9999999999998
  0
ARC
  5
CC
330
1F
100
AcDbEntity
  8
1
  6
CONTINUOUS
 62
     7
100
AcDbCircle
 10
-848.5245763716109
 20
-231.289841436581
 30
0.0
 40
4.999999999999971
100
AcDbArc
 50
99.67349681166647
 51
168.9999999999995
  0
ARC
  5
CD
330
1F
100
AcDbEntity
  8
1
  6
CONTINUOUS
 62
     7
100
AcDbCircle
 10
-672.524576371611
 20
-414.0101585634188
 30
0.0
 40
4.999999999999958
100
AcDbArc
 50
191.0000000000005
 51
260.3265031883337
  0
ARC
  5
CE
330
1F
100
AcDbEntity
  8
1
  6
CONTINUOUS
 62
     7
100
AcDbCircle
 10
-408.6154565614868
 20
-231.3054284398802
 30
0.0
 40
4.99999999999999
100
AcDbArc
 50
99.79089865691557
 51
167.4999999999997
  0
ARC
  5
CF
330
1F
100
AcDbEntity
  8
1
  6
CONTINUOUS
 62
     7
100
AcDbCircle
 10
-217.3106895721568
 20
-413.9945715601197
 30
0.0
 40
5.000000000000045
100
AcDbArc
 50
279.7908986569156
 51
347.4999999999997
  0
ARC
  5
D0
330
1F
100
AcDbEntity
  8
1
  6
CONTINUOUS
 62
     7
100
AcDbCircle
 10
-100.6154565614869
 20
-231.3054284398802
 30
0.0
 40
4.99999999999999
100
AcDbArc
 50
99.79089865691557
 51
167.4999999999997
  0
ARC
  5
D1
330
1F
100
AcDbEntity
  8
1
  6
CONTINUOUS
 62
     7
100
AcDbCircle
 10
-437.4015697620328
 20
-414.0101585634188
 30
0.0
 40
4.999999999999934
100
AcDbArc
 50
279.6734968116678
 51
348.9999999999995
  0
ARC
  5
D2
330
1F
100
AcDbEntity
  8
1
  6
CONTINUOUS
 62
     7
100
AcDbCircle
 10
-672.524576371611
 20
-231.289841436581
 30
0.0
 40
4.999999999999971
100
AcDbArc
 50
99.67349681166647
 51
168.9999999999995
  0
ARC
  5
D3
330
1F
100
AcDbEntity
  8
1
  6
CONTINUOUS
 62
     7
100
AcDbCircle
 10
-760.524576371611
 20
-231.289841436581
 30
0.0
 40
4.999999999999971
100
AcDbArc
 50
99.67349681166647
 51
168.9999999999995
  0
ARC
  5
D4
330
1F
100
AcDbEntity
  8
1
  6
CONTINUOUS
 62
     7
100
AcDbCircle
 10
-276.5245763716109
 20
-414.0101585634188
 30
0.0
 40
4.999999999999958
100
AcDbArc
 50
191.0000000000005
 51
260.3265031883337
  0
ARC
  5
D5
330
1F
100
AcDbEntity
  8
1
  6
CONTINUOUS
 62
     7
100
AcDbCircle
 10
-232.5245763716108
 20
-414.0101585634188
 30
0.0
 40
4.999999999999958
100
AcDbArc
 50
191.0000000000005
 51
260.3265031883323
  0
ARC
  5
D6
330
1F
100
AcDbEntity
  8
1
  6
CONTINUOUS
 62
     7
100
AcDbCircle
 10
90.5984302379671
 20
-231.289841436581
 30
0.0
 40
4.999999999999991
100
AcDbArc
 50
11.00000000000006
 51
80.32650318833227
  0
ARC
  5
D7
330
1F
100
AcDbEntity
  8
1
  6
CONTINUOUS
 62
     7
100
AcDbCircle
 10
-613.4015697620328
 20
-414.0101585634188
 30
0.0
 40
4.999999999999916
100
AcDbArc
 50
279.6734968116665
 51
348.9999999999995
  0
ARC
  5
D8
330
1F
100
AcDbEntity
  8
1
  6
CONTINUOUS
 62
     7
100
AcDbCircle
 10
-261.3106895721568
 20
-231.3054284398802
 30
0.0
 40
4.999999999999973
100
AcDbArc
 50
12.50000000000038
 51
80.20910134308446
  0
ARC
  5
D9
330
1F
100
AcDbEntity
  8
1
  6
CONTINUOUS
 62
     7
100
AcDbCircle
 10
163.4754236283891
 20
-414.0101585634188
 30
0.0
 40
4.999999999999991
100
AcDbArc
 50
191.0000000000002
 51
260.3265031883329
  0
ARC
  5
DA
330
1F
100
AcDbEntity
  8
1
  6
CONTINUOUS
 62
     7
100
AcDbCircle
 10
-56.61545656148687
 20
-413.9945715601197
 30
0.0
 40
5.000000000000027
100
AcDbArc
 50
192.5000000000001
 51
260.2091013430844
  0
ARC
  5
DB
330
1F
100
AcDbEntity
  8
1
  6
CONTINUOUS
 62
     7
100
AcDbCircle
 10
251.4754236283891
 20
-231.289841436581
 30
0.0
 40
4.999999999999984
100
AcDbArc
 50
99.67349681166742
 51
168.9999999999999
  0
ARC
  5
DC
330
1F
100
AcDbEntity
  8
1
  6
CONTINUOUS
 62
     7
100
AcDbCircle
 10
-437.4015697620328
 20
-231.289841436581
 30
0.0
 40
4.999999999999947
100
AcDbArc
 50
11.00000000000049
 51
80.32650318833227
  0
ARC
  5
DD
330
1F
100
AcDbEntity
  8
1
  6
CONTINUOUS
 62
     7
100
AcDbCircle
 10
90.5984302379671
 20
-414.0101585634188
 30
0.0
 40
4.999999999999934
100
AcDbArc
 50
279.6734968116678
 51
348.9999999999999
  0
ARC
  5
DE
330
1F
100
AcDbEntity
  8
1
  6
CONTINUOUS
 62
     7
100
AcDbCircle
 10
-569.4015697620328
 20
-231.289841436581
 30
0.0
 40
4.999999999999947
100
AcDbArc
 50
11.00000000000049
 51
80.32650318833356
  0
ARC
  5
DF
330
1F
100
AcDbEntity
  8
1
  6
CONTINUOUS
 62
     7
100
AcDbCircle
 10
-144.5245763716109
 20
-414.0101585634188
 30
0.0
 40
4.999999999999958
100
AcDbArc
 50
191.0000000000005
 51
260.3265031883323
  0
ARC
  5
E0
330
1F
100
AcDbEntity
  8
1
  6
CONTINUOUS
 62
     7
100
AcDbCircle
 10
-569.4015697620328
 20
-414.0101585634188
 30
0.0
 40
4.999999999999916
100
AcDbArc
 50
279.6734968116665
 51
348.9999999999995
  0
ARC
  5
E1
330
1F
100
AcDbEntity
  8
1
  6
CONTINUOUS
 62
     7
100
AcDbCircle
 10
-613.4015697620328
 20
-231.289841436581
 30
0.0
 40
4.999999999999947
100
AcDbArc
 50
11.00000000000049
 51
80.32650318833356
  0
ARC
  5
E2
330
1F
100
AcDbEntity
  8
1
  6
CONTINUOUS
 62
     7
100
AcDbCircle
 10
-408.6154565614868
 20
-413.9945715601197
 30
0.0
 40
4.999999999999973
100
AcDbArc
 50
192.5000000000003
 51
260.2091013430845
  0
ARC
  5
E3
330
1F
100
AcDbEntity
  8
1
  6
CONTINUOUS
 62
     7
100
AcDbCircle
 10
2.598430237967131
 20
-414.0101585634188
 30
0.0
 40
4.999999999999934
100
AcDbArc
 50
279.6734968116678
 51
348.9999999999998
  0
ARC
  5
E4
330
1F
100
AcDbEntity
  8
1
  6
CONTINUOUS
 62
     7
100
AcDbCircle
 10
-540.6154565614868
 20
-231.3054284398802
 30
0.0
 40
4.99999999999999
100
AcDbArc
 50
99.79089865691557
 51
167.4999999999997
  0
ARC
  5
E5
330
1F
100
AcDbEntity
  8
1
  6
CONTINUOUS
 62
     7
100
AcDbCircle
 10
-716.524576371611
 20
-414.0101585634188
 30
0.0
 40
4.999999999999958
100
AcDbArc
 50
191.0000000000005
 51
260.3265031883337
  0
ARC
  5
E6
330
1F
100
AcDbEntity
  8
1
  6
CONTINUOUS
 62
     7
100
AcDbCircle
 10
31.38454343851316
 20
-231.3054284398802
 30
0.0
 40
4.99999999999999
100
AcDbArc
 50
99.79089865691557
 51
167.5000000000001
  0
ARC
  5
E7
330
1F
100
AcDbEntity
  8
1
  6
CONTINUOUS
 62
     7
100
AcDbCircle
 10
-12.61545656148688
 20
-413.9945715601197
 30
0.0
 40
5.000000000000027
100
AcDbArc
 50
192.5000000000001
 51
260.2091013430844
  0
ARC
  5
E8
330
1F
100
AcDbEntity
  8
1
  6
CONTINUOUS
 62
     7
100
AcDbCircle
 10
-760.524576371611
 20
-414.0101585634188
 30
0.0
 40
4.999999999999958
100
AcDbArc
 50
191.0000000000005
 51
260.3265031883337
  0
ARC
  5
E9
330
1F
100
AcDbEntity
  8
1
  6
CONTINUOUS
 62
     7
100
AcDbCircle
 10
-848.5245763716109
 20
-414.0101585634188
 30
0.0
 40
4.999999999999958
100
AcDbArc
 50
191.0000000000005
 51
260.3265031883337
  0
ARC
  5
EA
330
1F
100
AcDbEntity
  8
1
  6
CONTINUOUS
 62
     7
100
AcDbCircle
 10
-188.5245763716108
 20
-231.289841436581
 30
0.0
 40
4.999999999999988
100
AcDbArc
 50
99.67349681166775
 51
168.9999999999995
  0
ARC
  5
EB
330
1F
100
AcDbEntity
  8
1
  6
CONTINUOUS
 62
     7
100
AcDbCircle
 10
-452.6154565614868
 20
-231.3054284398802
 30
0.0
 40
4.99999999999999
100
AcDbArc
 50
99.79089865691557
 51
167.4999999999997
  0
ARC
  5
EC
330
1F
100
AcDbEntity
  8
1
  6
CONTINUOUS
 62
     7
100
AcDbCircle
 10
178.6893104278431
 20
-231.3054284398802
 30
0.0
 40
5.000000000000015
100
AcDbArc
 50
12.49999999999989
 51
80.20910134308438
  0
ARC
  5
ED
330
1F
100
AcDbEntity
  8
1
  6
CONTINUOUS
 62
     7
100
AcDbCircle
 10
-364.5245763716109
 20
-231.289841436581
 30
0.0
 40
4.999999999999988
100
AcDbArc
 50
99.67349681166775
 51
168.9999999999995
  0
ARC
  5
EE
330
1F
100
AcDbEntity
  8
1
  6
CONTINUOUS
 62
     7
100
AcDbCircle
 10
-657.310689572157
 20
-413.9945715601197
 30
0.0
 40
4.999999999999955
100
AcDbArc
 50
279.7908986569169
 51
347.4999999999997
  0
ARC
  5
EF
330
1F
100
AcDbEntity
  8
1
  6
CONTINUOUS
 62
     7
100
AcDbCircle
 10
222.6893104278431
 20
-413.9945715601197
 30
0.0
 40
5.000000000000051
100
AcDbArc
 50
279.7908986569159
 51
347.5
  0
ARC
  5
F0
330
1F
100
AcDbEntity
  8
1
  6
CONTINUOUS
 62
     7
100
AcDbCircle
 10
-452.6154565614868
 20
-413.9945715601197
 30
0.0
 40
4.999999999999973
100
AcDbArc
 50
192.5000000000003
 51
260.2091013430845
  0
ARC
  5
F1
330
1F
100
AcDbEntity
  8
1
  6
CONTINUOUS
 62
     7
100
AcDbCircle
 10
-276.5245763716109
 20
-231.289841436581
 30
0.0
 40
4.999999999999971
100
AcDbArc
 50
99.67349681166647
 51
168.9999999999995
  0
ARC
  5
F2
330
1F
100
AcDbEntity
  8
1
  6
CONTINUOUS
 62
     7
100
AcDbCircle
 10
-701.310689572157
 20
-413.9945715601197
 30
0.0
 40
4.999999999999955
100
AcDbArc
 50
279.7908986569169
 51
347.4999999999997
  0
LINE
  5
F3
330
1F
100
AcDbEntity
  8
1
  6
CONTINUOUS
 62
     7
100
AcDbLine
 10
-784.4292095365572
 20
-415.0767696298099
 30
0.0
 11
-781.2217602737841
 21
-400.6089009651543
 31
0.0
  0
LINE
  5
F4
330
1F
100
AcDbEntity
  8
1
  6
CONTINUOUS
 62
     7
100
AcDbLine
 10
23.29561414014025
 20
-400.6089009651543
 30
0.0
 11
26.50306340291347
 21
-415.0767696298101
 31
0.0
  0
ARC
  5
F5
330
1F
100
AcDbEntity
  8
1
  6
CONTINUOUS
 62
     7
100
AcDbCircle
 10
-745.310689572157
 20
-231.3054284398802
 30
0.0
 40
4.999999999999961
100
AcDbArc
 50
12.49999999999974
 51
80.20910134308312
  0
ARC
  5
F6
330
1F
100
AcDbEntity
  8
1
  6
CONTINUOUS
 62
     7
100
AcDbCircle
 10
-701.310689572157
 20
-231.3054284398802
 30
0.0
 40
4.999999999999973
100
AcDbArc
 50
12.50000000000038
 51
80.20910134308315
  0
LINE
  5
F7
330
1F
100
AcDbEntity
  8
1
  6
CONTINUOUS
 62
     7
100
AcDbLine
 10
-869.221760273784
 20
-244.6910990348455
 30
0.0
 11
-872.4292095365573
 21
-230.223230370189
 31
0.0
  0
LINE
  5
F8
330
1F
100
AcDbEntity
  8
1
  6
CONTINUOUS
 62
     7
100
AcDbLine
 10
-592.7043858598595
 20
-400.6089009651553
 30
0.0
 11
-589.4969365970863
 21
-415.0767696298109
 31
0.0
  0
LINE
  5
F9
330
1F
100
AcDbEntity
  8
1
  6
CONTINUOUS
 62
     7
100
AcDbLine
 10
-872.4292095365573
 20
-415.0767696298109
 30
0.0
 11
-869.221760273784
 21
-400.6089009651543
 31
0.0
  0
ARC
  5
FA
330
1F
100
AcDbEntity
  8
1
  6
CONTINUOUS
 62
     7
100
AcDbCircle
 10
119.3845434385131
 20
-231.3054284398802
 30
0.0
 40
4.99999999999999
100
AcDbArc
 50
99.79089865691557
 51
167.5000000000001
  0
LINE
  5
FB
330
1F
100
AcDbEntity
  8
1
  6
CONTINUOUS
 62
     7
100
AcDbLine
 10
-809.4327122888494
 20
-230.3357964596986
 30
0.0
 11
-812.2106452222732
 21
-244.6270224884407
 31
0.0
  0
LINE
  5
FC
330
1F
100
AcDbEntity
  8
1
  6
CONTINUOUS
 62
     7
100
AcDbLine
 10
10.28449908862955
 20
-244.6270224884415
 30
0.0
 11
7.506566155205396
 21
-230.3357964596981
 31
0.0
  0
ARC
  5
FD
330
1F
100
AcDbEntity
  8
1
  6
CONTINUOUS
 62
     7
100
AcDbCircle
 10
-173.3106895721568
 20
-231.3054284398802
 30
0.0
 40
4.999999999999973
100
AcDbArc
 50
12.50000000000038
 51
80.20910134308573
  0
LINE
  5
FE
330
1F
100
AcDbEntity
  8
1
  6
CONTINUOUS
 62
     7
100
AcDbLine
 10
67.29561414014029
 20
-400.6089009651545
 30
0.0
 11
70.50306340291345
 21
-415.0767696298101
 31
0.0
  0
ARC
  5
FF
330
1F
100
AcDbEntity
  8
1
  6
CONTINUOUS
 62
     7
100
AcDbCircle
 10
-877.310689572157
 20
-231.3054284398802
 30
0.0
 40
4.999999999999973
100
AcDbArc
 50
12.50000000000038
 51
80.20910134308315
  0
LINE
  5
100
330
1F
100
AcDbEntity
  8
1
  6
CONTINUOUS
 62
     7
100
AcDbLine
 10
274.7782397262159
 20
-244.6910990348454
 30
0.0
 11
271.5707904634427
 21
-230.2232303701897
 31
0.0
  0
LINE
  5
101
330
1F
100
AcDbEntity
  8
1
  6
CONTINUOUS
 62
     7
100
AcDbLine
 10
7.506566155205396
 20
-414.9642035403018
 30
0.0
 11
10.28449908862955
 21
-400.6729775115584
 31
0.0
  0
ARC
  5
102
330
1F
100
AcDbEntity
  8
1
  6
CONTINUOUS
 62
     7
100
AcDbCircle
 10
-305.3106895721569
 20
-413.9945715601197
 30
0.0
 40
4.999999999999955
100
AcDbArc
 50
279.7908986569169
 51
347.4999999999998
  0
LINE
  5
103
330
1F
100
AcDbEntity
  8
1
  6
CONTINUOUS
 62
     7
100
AcDbLine
 10
-737.2217602737843
 20
-244.6910990348445
 30
0.0
 11
-740.4292095365572
 21
-230.22323037019
 31
0.0
  0
LINE
  5
104
330
1F
100
AcDbEntity
  8
1
  6
CONTINUOUS
 62
     7
100
AcDbLine
 10
271.5707904634427
 20
-415.0767696298101
 30
0.0
 11
274.7782397262159
 21
-400.6089009651544
 31
0.0
  0
LINE
  5
105
330
1F
100
AcDbEntity
  8
1
  6
CONTINUOUS
 62
     7
100
AcDbLine
 10
-61.4969365970865
 20
-230.2232303701897
 30
0.0
 11
-64.70438585985971
 21
-244.6910990348455
 31
0.0
  0
LINE
  5
106
330
1F
100
AcDbEntity
  8
1
  6
CONTINUOUS
 62
     7
100
AcDbLine
 10
-589.4969365970863
 20
-230.223230370189
 30
0.0
 11
-592.7043858598595
 21
-244.6910990348445
 31
0.0
  0
LINE
  5
107
330
1F
100
AcDbEntity
  8
1
  6
CONTINUOUS
 62
     7
100
AcDbLine
 10
-828.4292095365573
 20
-415.0767696298099
 30
0.0
 11
-825.2217602737841
 21
-400.6089009651543
 31
0.0
  0
LINE
  5
108
330
1F
100
AcDbEntity
  8
1
  6
CONTINUOUS
 62
     7
100
AcDbLine
 10
227.5707904634427
 20
-415.0767696298101
 30
0.0
 11
230.7782397262159
 21
-400.6089009651544
 31
0.0
  0
ARC
  5
109
330
1F
100
AcDbEntity
  8
1
  6
CONTINUOUS
 62
     7
100
AcDbCircle
 10
-305.3106895721569
 20
-231.3054284398802
 30
0.0
 40
4.999999999999961
100
AcDbArc
 50
12.50000000000003
 51
80.2091013430831
  0
ARC
  5
10A
330
1F
100
AcDbEntity
  8
1
  6
CONTINUOUS
 62
     7
100
AcDbCircle
 10
-745.310689572157
 20
-413.9945715601197
 30
0.0
 40
4.999999999999955
100
AcDbArc
 50
279.7908986569169
 51
347.5000000000002
  0
LINE
  5
10B
330
1F
100
AcDbEntity
  8
1
  6
CONTINUOUS
 62
     7
100
AcDbLine
 10
-825.2217602737841
 20
-244.6910990348455
 30
0.0
 11
-828.4292095365573
 21
-230.22323037019
 31
0.0
  0
LINE
  5
10C
330
1F
100
AcDbEntity
  8
1
  6
CONTINUOUS
 62
     7
100
AcDbLine
 10
-124.4292095365572
 20
-415.0767696298104
 30
0.0
 11
-121.2217602737839
 21
-400.6089009651543
 31
0.0
  0
LINE
  5
10D
330
1F
100
AcDbEntity
  8
1
  6
CONTINUOUS
 62
     7
100
AcDbLine
 10
-108.7043858598598
 20
-400.6089009651543
 30
0.0
 11
-105.4969365970865
 21
-415.0767696298104
 31
0.0
  0
ARC
  5
10E
330
1F
100
AcDbEntity
  8
1
  6
CONTINUOUS
 62
     7
100
AcDbCircle
 10
-56.61545656148687
 20
-231.3054284398802
 30
0.0
 40
4.99999999999999
100
AcDbArc
 50
99.79089865691557
 51
167.5
  0
ARC
  5
10F
330
1F
100
AcDbEntity
  8
1
  6
CONTINUOUS
 62
     7
100
AcDbCircle
 10
-789.3106895721571
 20
-413.9945715601197
 30
0.0
 40
4.999999999999955
100
AcDbArc
 50
279.7908986569169
 51
347.5000000000002
  0
LINE
  5
110
330
1F
100
AcDbEntity
  8
1
  6
CONTINUOUS
 62
     7
100
AcDbLine
 10
-416.7043858598597
 20
-400.6089009651543
 30
0.0
 11
-413.4969365970864
 21
-415.0767696298104
 31
0.0
  0
LINE
  5
111
330
1F
100
AcDbEntity
  8
1
  6
CONTINUOUS
 62
     7
100
AcDbLine
 10
-740.4292095365572
 20
-415.0767696298099
 30
0.0
 11
-737.2217602737843
 21
-400.6089009651553
 31
0.0
  0
ARC
  5
112
330
1F
100
AcDbEntity
  8
1
  6
CONTINUOUS
 62
     7
100
AcDbCircle
 10
-540.6154565614868
 20
-413.9945715601197
 30
0.0
 40
4.999999999999973
100
AcDbArc
 50
192.5000000000003
 51
260.2091013430845
  0
ARC
  5
113
330
1F
100
AcDbEntity
  8
1
  6
CONTINUOUS
 62
     7
100
AcDbCircle
 10
-349.3106895721568
 20
-231.3054284398802
 30
0.0
 40
4.999999999999961
100
AcDbArc
 50
12.50000000000003
 51
80.20910134308443
  0
LINE
  5
114
330
1F
100
AcDbEntity
  8
1
  6
CONTINUOUS
 62
     7
100
AcDbLine
 10
-545.4969365970865
 20
-230.2232303701895
 30
0.0
 11
-548.7043858598596
 21
-244.6910990348451
 31
0.0
  0
ARC
  5
115
330
1F
100
AcDbEntity
  8
1
  6
CONTINUOUS
 62
     7
100
AcDbCircle
 10
75.38454343851313
 20
-231.3054284398802
 30
0.0
 40
5.0
100
AcDbArc
 50
99.79089865691623
 51
167.5000000000001
  0
ARC
  5
116
330
1F
100
AcDbEntity
  8
1
  6
CONTINUOUS
 62
     7
100
AcDbCircle
 10
-628.6154565614868
 20
-231.3054284398802
 30
0.0
 40
5.00000000000001
100
AcDbArc
 50
99.79089865691687
 51
167.4999999999997
  0
LINE
  5
117
330
1F
100
AcDbEntity
  8
1
  6
CONTINUOUS
 62
     7
100
AcDbLine
 10
-649.2217602737842
 20
-244.6910990348455
 30
0.0
 11
-652.4292095365573
 21
-230.22323037019
 31
0.0
  0
LINE
  5
118
330
1F
100
AcDbEntity
  8
1
  6
CONTINUOUS
 62
     7
100
AcDbLine
 10
-64.70438585985971
 20
-400.6089009651543
 30
0.0
 11
-61.4969365970865
 21
-415.0767696298101
 31
0.0
  0
ARC
  5
119
330
1F
100
AcDbEntity
  8
1
  6
CONTINUOUS
 62
     7
100
AcDbCircle
 10
-349.3106895721568
 20
-413.9945715601197
 30
0.0
 40
5.000000000000045
100
AcDbArc
 50
279.7908986569156
 51
347.5
  0
LINE
  5
11A
330
1F
100
AcDbEntity
  8
1
  6
CONTINUOUS
 62
     7
100
AcDbLine
 10
-548.7043858598596
 20
-400.6089009651548
 30
0.0
 11
-545.4969365970865
 21
-415.0767696298104
 31
0.0
  0
ARC
  5
11B
330
1F
100
AcDbEntity
  8
1
  6
CONTINUOUS
 62
     7
100
AcDbCircle
 10
-584.6154565614867
 20
-413.9945715601197
 30
0.0
 40
4.999999999999973
100
AcDbArc
 50
192.5000000000003
 51
260.2091013430831
  0
ARC
  5
11C
330
1F
100
AcDbEntity
  8
1
  6
CONTINUOUS
 62
     7
100
AcDbCircle
 10
-584.6154565614867
 20
-231.3054284398802
 30
0.0
 40
5.00000000000001
100
AcDbArc
 50
99.79089865691687
 51
167.4999999999997
  0
LINE
  5
11D
330
1F
100
AcDbEntity
  8
1
  6
CONTINUOUS
 62
     7
100
AcDbLine
 10
-105.4969365970865
 20
-230.2232303701895
 30
0.0
 11
-108.7043858598598
 21
-244.6910990348455
 31
0.0
  0
ARC
  5
11E
330
1F
100
AcDbEntity
  8
1
  6
CONTINUOUS
 62
     7
100
AcDbCircle
 10
-877.310689572157
 20
-413.9945715601197
 30
0.0
 40
4.999999999999955
100
AcDbArc
 50
279.7908986569169
 51
347.4999999999997
  0
LINE
  5
11F
330
1F
100
AcDbEntity
  8
1
  6
CONTINUOUS
 62
     7
100
AcDbLine
 10
111.2956141401402
 20
-400.6089009651543
 30
0.0
 11
114.5030634029134
 21
-415.0767696298101
 31
0.0
  0
ARC
  5
120
330
1F
100
AcDbEntity
  8
1
  6
CONTINUOUS
 62
     7
100
AcDbCircle
 10
119.3845434385131
 20
-413.9945715601197
 30
0.0
 40
5.000000000000027
100
AcDbArc
 50
192.4999999999999
 51
260.2091013430844
  0
LINE
  5
121
330
1F
100
AcDbEntity
  8
1
  6
CONTINUOUS
 62
     7
100
AcDbLine
 10
-652.4292095365573
 20
-415.0767696298099
 30
0.0
 11
-649.2217602737842
 21
-400.6089009651543
 31
0.0
  0
LINE
  5
122
330
1F
100
AcDbEntity
  8
1
  6
CONTINUOUS
 62
     7
100
AcDbLine
 10
-121.2217602737839
 20
-244.6910990348455
 30
0.0
 11
-124.4292095365572
 21
-230.2232303701895
 31
0.0
  0
LINE
  5
123
330
1F
100
AcDbEntity
  8
1
  6
CONTINUOUS
 62
     7
100
AcDbLine
 10
114.5030634029134
 20
-230.2232303701897
 30
0.0
 11
111.2956141401402
 21
-244.6910990348455
 31
0.0
  0
ARC
  5
124
330
1F
100
AcDbEntity
  8
1
  6
CONTINUOUS
 62
     7
100
AcDbCircle
 10
-833.3106895721569
 20
-413.9945715601197
 30
0.0
 40
4.999999999999955
100
AcDbArc
 50
279.7908986569169
 51
347.4999999999997
  0
ARC
  5
125
330
1F
100
AcDbEntity
  8
1
  6
CONTINUOUS
 62
     7
100
AcDbCircle
 10
-496.6154565614867
 20
-231.3054284398802
 30
0.0
 40
4.99999999999999
100
AcDbArc
 50
99.79089865691557
 51
167.5
  0
LINE
  5
126
330
1F
100
AcDbEntity
  8
1
  6
CONTINUOUS
 62
     7
100
AcDbLine
 10
-209.221760273784
 20
-244.6910990348455
 30
0.0
 11
-212.4292095365572
 21
-230.22323037019
 31
0.0
  0
ARC
  5
127
330
1F
100
AcDbEntity
  8
1
  6
CONTINUOUS
 62
     7
100
AcDbCircle
 10
-833.3106895721569
 20
-231.3054284398802
 30
0.0
 40
4.999999999999973
100
AcDbArc
 50
12.50000000000038
 51
80.20910134308315
  0
LINE
  5
128
330
1F
100
AcDbEntity
  8
1
  6
CONTINUOUS
 62
     7
100
AcDbLine
 10
-636.7043858598596
 20
-400.6089009651543
 30
0.0
 11
-633.4969365970863
 21
-415.0767696298099
 31
0.0
  0
ARC
  5
129
330
1F
100
AcDbEntity
  8
1
  6
CONTINUOUS
 62
     7
100
AcDbCircle
 10
-657.310689572157
 20
-231.3054284398802
 30
0.0
 40
4.999999999999973
100
AcDbArc
 50
12.50000000000038
 51
80.20910134308315
  0
ARC
  5
12A
330
1F
100
AcDbEntity
  8
1
  6
CONTINUOUS
 62
     7
100
AcDbCircle
 10
-496.6154565614867
 20
-413.9945715601197
 30
0.0
 40
4.999999999999973
100
AcDbArc
 50
192.5
 51
260.2091013430844
  0
LINE
  5
12B
330
1F
100
AcDbEntity
  8
1
  6
CONTINUOUS
 62
     7
100
AcDbLine
 10
-212.4292095365572
 20
-415.0767696298099
 30
0.0
 11
-209.221760273784
 21
-400.6089009651543
 31
0.0
  0
ARC
  5
12C
330
1F
100
AcDbEntity
  8
1
  6
CONTINUOUS
 62
     7
100
AcDbCircle
 10
-789.3106895721571
 20
-231.3054284398802
 30
0.0
 40
4.999999999999961
100
AcDbArc
 50
12.49999999999974
 51
80.20910134308312
  0
LINE
  5
12D
330
1F
100
AcDbEntity
  8
1
  6
CONTINUOUS
 62
     7
100
AcDbLine
 10
-633.4969365970863
 20
-230.22323037019
 30
0.0
 11
-636.7043858598596
 21
-244.6910990348455
 31
0.0
  0
LINE
  5
12E
330
1F
100
AcDbEntity
  8
1
  6
CONTINUOUS
 62
     7
100
AcDbLine
 10
-677.4327122888493
 20
-230.3357964596986
 30
0.0
 11
-680.2106452222733
 21
-244.6270224884418
 31
0.0
  0
LINE
  5
12F
330
1F
100
AcDbEntity
  8
1
  6
CONTINUOUS
 62
     7
100
AcDbLine
 10
70.50306340291345
 20
-230.2232303701897
 30
0.0
 11
67.29561414014029
 21
-244.6910990348453
 31
0.0
  0
ARC
  5
130
330
1F
100
AcDbEntity
  8
1
  6
CONTINUOUS
 62
     7
100
AcDbCircle
 10
-628.6154565614868
 20
-413.9945715601197
 30
0.0
 40
4.999999999999973
100
AcDbArc
 50
192.5000000000003
 51
260.2091013430831
  0
LINE
  5
131
330
1F
100
AcDbEntity
  8
1
  6
CONTINUOUS
 62
     7
100
AcDbLine
 10
-781.2217602737841
 20
-244.6910990348455
 30
0.0
 11
-784.4292095365572
 21
-230.22323037019
 31
0.0
  0
LINE
  5
132
330
1F
100
AcDbEntity
  8
1
  6
CONTINUOUS
 62
     7
100
AcDbLine
 10
-768.2106452222735
 20
-400.672977511558
 30
0.0
 11
-765.4327122888493
 21
-414.9642035403013
 31
0.0
  0
LINE
  5
133
330
1F
100
AcDbEntity
  8
1
  6
CONTINUOUS
 62
     7
100
AcDbLine
 10
-812.2106452222732
 20
-400.6729775115592
 30
0.0
 11
-809.4327122888494
 21
-414.9642035403013
 31
0.0
  0
LINE
  5
134
330
1F
100
AcDbEntity
  8
1
  6
CONTINUOUS
 62
     7
100
AcDbLine
 10
-460.7043858598596
 20
-400.6089009651543
 30
0.0
 11
-457.4969365970865
 21
-415.0767696298099
 31
0.0
  0
LINE
  5
135
330
1F
100
AcDbEntity
  8
1
  6
CONTINUOUS
 62
     7
100
AcDbLine
 10
-696.4292095365574
 20
-415.0767696298109
 30
0.0
 11
-693.2217602737842
 21
-400.6089009651553
 31
0.0
  0
LINE
  5
136
330
1F
100
AcDbEntity
  8
1
  6
CONTINUOUS
 62
     7
100
AcDbLine
 10
-253.221760273784
 20
-244.6910990348455
 30
0.0
 11
-256.4292095365572
 21
-230.2232303701895
 31
0.0
  0
LINE
  5
137
330
1F
100
AcDbEntity
  8
1
  6
CONTINUOUS
 62
     7
100
AcDbLine
 10
-297.221760273784
 20
-244.6910990348451
 30
0.0
 11
-300.4292095365572
 21
-230.2232303701895
 31
0.0
  0
LINE
  5
138
330
1F
100
AcDbEntity
  8
1
  6
CONTINUOUS
 62
     7
100
AcDbLine
 10
230.7782397262159
 20
-244.6910990348454
 30
0.0
 11
227.5707904634427
 21
-230.2232303701897
 31
0.0
  0
LINE
  5
139
330
1F
100
AcDbEntity
  8
1
  6
CONTINUOUS
 62
     7
100
AcDbLine
 10
-473.7155009113704
 20
-244.6270224884412
 30
0.0
 11
-476.4934338447945
 21
-230.3357964596981
 31
0.0
  0
LINE
  5
13A
330
1F
100
AcDbEntity
  8
1
  6
CONTINUOUS
 62
     7
100
AcDbLine
 10
-853.4327122888492
 20
-230.3357964596986
 30
0.0
 11
-856.2106452222732
 21
-244.6270224884418
 31
0.0
  0
LINE
  5
13B
330
1F
100
AcDbEntity
  8
1
  6
CONTINUOUS
 62
     7
100
AcDbLine
 10
-77.71550091137047
 20
-244.6270224884412
 30
0.0
 11
-80.49343384479457
 21
-230.3357964596981
 31
0.0
  0
LINE
  5
13C
330
1F
100
AcDbEntity
  8
1
  6
CONTINUOUS
 62
     7
100
AcDbLine
 10
-561.7155009113703
 20
-244.6270224884418
 30
0.0
 11
-564.4934338447945
 21
-230.3357964596986
 31
0.0
  0
LINE
  5
13D
330
1F
100
AcDbEntity
  8
1
  6
CONTINUOUS
 62
     7
100
AcDbLine
 10
-429.7155009113703
 20
-244.6270224884418
 30
0.0
 11
-432.4934338447945
 21
-230.3357964596981
 31
0.0
  0
LINE
  5
13E
330
1F
100
AcDbEntity
  8
1
  6
CONTINUOUS
 62
     7
100
AcDbLine
 10
-372.2106452222733
 20
-400.672977511558
 30
0.0
 11
-369.4327122888491
 21
-414.9642035403018
 31
0.0
  0
LINE
  5
13F
330
1F
100
AcDbEntity
  8
1
  6
CONTINUOUS
 62
     7
100
AcDbLine
 10
-413.4969365970864
 20
-230.2232303701895
 30
0.0
 11
-416.7043858598597
 21
-244.6910990348455
 31
0.0
  0
LINE
  5
140
330
1F
100
AcDbEntity
  8
1
  6
CONTINUOUS
 62
     7
100
AcDbLine
 10
243.7893547777266
 20
-400.6729775115581
 30
0.0
 11
246.5672877111508
 21
-414.9642035403015
 31
0.0
  0
LINE
  5
141
330
1F
100
AcDbEntity
  8
1
  6
CONTINUOUS
 62
     7
100
AcDbLine
 10
-897.4327122888492
 20
-230.3357964596986
 30
0.0
 11
-900.2106452222733
 21
-244.6270224884418
 31
0.0
  0
LINE
  5
142
330
1F
100
AcDbEntity
  8
1
  6
CONTINUOUS
 62
     7
100
AcDbLine
 10
-165.221760273784
 20
-244.6910990348455
 30
0.0
 11
-168.4292095365572
 21
-230.22323037019
 31
0.0
  0
LINE
  5
143
330
1F
100
AcDbEntity
  8
1
  6
CONTINUOUS
 62
     7
100
AcDbLine
 10
-856.2106452222732
 20
-400.672977511558
 30
0.0
 11
-853.4327122888492
 21
-414.9642035403013
 31
0.0
  0
LINE
  5
144
330
1F
100
AcDbEntity
  8
1
  6
CONTINUOUS
 62
     7
100
AcDbLine
 10
-149.4327122888491
 20
-230.3357964596981
 30
0.0
 11
-152.2106452222732
 21
-244.6270224884412
 31
0.0
  0
LINE
  5
145
330
1F
100
AcDbEntity
  8
1
  6
CONTINUOUS
 62
     7
100
AcDbLine
 10
-457.4969365970865
 20
-230.22323037019
 30
0.0
 11
-460.7043858598596
 21
-244.6910990348455
 31
0.0
  0
LINE
  5
146
330
1F
100
AcDbEntity
  8
1
  6
CONTINUOUS
 62
     7
100
AcDbLine
 10
-196.2106452222733
 20
-400.672977511558
 30
0.0
 11
-193.432712288849
 21
-414.9642035403018
 31
0.0
  0
LINE
  5
147
330
1F
100
AcDbEntity
  8
1
  6
CONTINUOUS
 62
     7
100
AcDbLine
 10
-341.2217602737839
 20
-244.6910990348455
 30
0.0
 11
-344.4292095365571
 21
-230.22323037019
 31
0.0
  0
LINE
  5
148
330
1F
100
AcDbEntity
  8
1
  6
CONTINUOUS
 62
     7
100
AcDbLine
 10
142.2844990886296
 20
-244.6270224884415
 30
0.0
 11
139.5065661552054
 21
-230.3357964596981
 31
0.0
  0
LINE
  5
149
330
1F
100
AcDbEntity
  8
1
  6
CONTINUOUS
 62
     7
100
AcDbLine
 10
-501.4969365970865
 20
-230.22323037019
 30
0.0
 11
-504.7043858598598
 21
-244.6910990348455
 31
0.0
  0
LINE
  5
14A
330
1F
100
AcDbEntity
  8
1
  6
CONTINUOUS
 62
     7
100
AcDbLine
 10
-388.4934338447945
 20
-414.9642035403018
 30
0.0
 11
-385.7155009113704
 21
-400.6729775115586
 31
0.0
  0
LINE
  5
14B
330
1F
100
AcDbEntity
  8
1
  6
CONTINUOUS
 62
     7
100
AcDbLine
 10
-344.4292095365571
 20
-415.0767696298099
 30
0.0
 11
-341.2217602737839
 21
-400.6089009651543
 31
0.0
  0
LINE
  5
14C
330
1F
100
AcDbEntity
  8
1
  6
CONTINUOUS
 62
     7
100
AcDbLine
 10
-240.2106452222732
 20
-400.6729775115586
 30
0.0
 11
-237.4327122888491
 21
-414.9642035403018
 31
0.0
  0
LINE
  5
14D
330
1F
100
AcDbEntity
  8
1
  6
CONTINUOUS
 62
     7
100
AcDbLine
 10
-680.2106452222733
 20
-400.672977511558
 30
0.0
 11
-677.4327122888493
 21
-414.9642035403013
 31
0.0
  0
LINE
  5
14E
330
1F
100
AcDbEntity
  8
1
  6
CONTINUOUS
 62
     7
100
AcDbLine
 10
-20.70438585985973
 20
-400.6089009651543
 30
0.0
 11
-17.49693659708651
 21
-415.0767696298101
 31
0.0
  0
LINE
  5
14F
330
1F
100
AcDbEntity
  8
1
  6
CONTINUOUS
 62
     7
100
AcDbLine
 10
-17.49693659708651
 20
-230.2232303701897
 30
0.0
 11
-20.70438585985973
 21
-244.6910990348455
 31
0.0
  0
LINE
  5
150
330
1F
100
AcDbEntity
  8
1
  6
CONTINUOUS
 62
     7
100
AcDbLine
 10
-520.4934338447945
 20
-414.9642035403018
 30
0.0
 11
-517.7155009113703
 21
-400.672977511558
 31
0.0
  0
LINE
  5
151
330
1F
100
AcDbEntity
  8
1
  6
CONTINUOUS
 62
     7
100
AcDbLine
 10
-608.4934338447945
 20
-414.9642035403013
 30
0.0
 11
-605.7155009113703
 21
-400.672977511558
 31
0.0
  0
LINE
  5
152
330
1F
100
AcDbEntity
  8
1
  6
CONTINUOUS
 62
     7
100
AcDbLine
 10
54.28449908862953
 20
-244.6270224884415
 30
0.0
 11
51.50656615520543
 21
-230.3357964596983
 31
0.0
  0
LINE
  5
153
330
1F
100
AcDbEntity
  8
1
  6
CONTINUOUS
 62
     7
100
AcDbLine
 10
-300.4292095365572
 20
-415.0767696298104
 30
0.0
 11
-297.221760273784
 21
-400.6089009651548
 31
0.0
  0
LINE
  5
154
330
1F
100
AcDbEntity
  8
1
  6
CONTINUOUS
 62
     7
100
AcDbLine
 10
-721.4327122888493
 20
-230.3357964596986
 30
0.0
 11
-724.2106452222733
 21
-244.6270224884418
 31
0.0
  0
LINE
  5
155
330
1F
100
AcDbEntity
  8
1
  6
CONTINUOUS
 62
     7
100
AcDbLine
 10
287.7893547777267
 20
-400.6729775115581
 30
0.0
 11
290.5672877111508
 21
-414.9642035403015
 31
0.0
  0
LINE
  5
156
330
1F
100
AcDbEntity
  8
1
  6
CONTINUOUS
 62
     7
100
AcDbLine
 10
-256.4292095365572
 20
-415.0767696298104
 30
0.0
 11
-253.221760273784
 21
-400.6089009651543
 31
0.0
  0
LINE
  5
157
330
1F
100
AcDbEntity
  8
1
  6
CONTINUOUS
 62
     7
100
AcDbLine
 10
-504.7043858598598
 20
-400.6089009651543
 30
0.0
 11
-501.4969365970865
 21
-415.0767696298099
 31
0.0
  0
LINE
  5
158
330
1F
100
AcDbEntity
  8
1
  6
CONTINUOUS
 62
     7
100
AcDbLine
 10
-724.2106452222733
 20
-400.672977511558
 30
0.0
 11
-721.4327122888493
 21
-414.9642035403013
 31
0.0
  0
LINE
  5
159
330
1F
100
AcDbEntity
  8
1
  6
CONTINUOUS
 62
     7
100
AcDbLine
 10
-33.71550091137043
 20
-244.6270224884418
 30
0.0
 11
-36.49343384479459
 21
-230.3357964596983
 31
0.0
  0
LINE
  5
15A
330
1F
100
AcDbEntity
  8
1
  6
CONTINUOUS
 62
     7
100
AcDbLine
 10
-193.432712288849
 20
-230.3357964596981
 30
0.0
 11
-196.2106452222733
 21
-244.6270224884418
 31
0.0
  0
LINE
  5
15B
330
1F
100
AcDbEntity
  8
1
  6
CONTINUOUS
 62
     7
100
AcDbLine
 10
-900.2106452222733
 20
-400.672977511558
 30
0.0
 11
-897.4327122888492
 21
-414.9642035403013
 31
0.0
  0
LINE
  5
15C
330
1F
100
AcDbEntity
  8
1
  6
CONTINUOUS
 62
     7
100
AcDbLine
 10
-693.2217602737842
 20
-244.6910990348445
 30
0.0
 11
-696.4292095365574
 21
-230.223230370189
 31
0.0
  0
LINE
  5
15D
330
1F
100
AcDbEntity
  8
1
  6
CONTINUOUS
 62
     7
100
AcDbLine
 10
26.50306340291347
 20
-230.2232303701897
 30
0.0
 11
23.29561414014025
 21
-244.6910990348455
 31
0.0
  0
LINE
  5
15E
330
1F
100
AcDbEntity
  8
1
  6
CONTINUOUS
 62
     7
100
AcDbLine
 10
-281.4327122888491
 20
-230.3357964596986
 30
0.0
 11
-284.2106452222732
 21
-244.6270224884418
 31
0.0
  0
LINE
  5
15F
330
1F
100
AcDbEntity
  8
1
  6
CONTINUOUS
 62
     7
100
AcDbLine
 10
98.28449908862957
 20
-244.6270224884418
 30
0.0
 11
95.50656615520542
 21
-230.3357964596983
 31
0.0
  0
LINE
  5
160
330
1F
100
AcDbEntity
  8
1
  6
CONTINUOUS
 62
     7
100
AcDbLine
 10
95.50656615520542
 20
-414.9642035403015
 30
0.0
 11
98.28449908862957
 21
-400.672977511558
 31
0.0
  0
LINE
  5
161
330
1F
100
AcDbEntity
  8
1
  6
CONTINUOUS
 62
     7
100
AcDbLine
 10
-284.2106452222732
 20
-400.672977511558
 30
0.0
 11
-281.4327122888491
 21
-414.9642035403013
 31
0.0
  0
LINE
  5
162
330
1F
100
AcDbEntity
  8
1
  6
CONTINUOUS
 62
     7
100
AcDbLine
 10
-765.4327122888493
 20
-230.3357964596986
 30
0.0
 11
-768.2106452222735
 21
-244.6270224884418
 31
0.0
  0
LINE
  5
163
330
1F
100
AcDbEntity
  8
1
  6
CONTINUOUS
 62
     7
100
AcDbLine
 10
290.5672877111508
 20
-230.3357964596983
 30
0.0
 11
287.7893547777267
 21
-244.6270224884417
 31
0.0
  0
LINE
  5
164
330
1F
100
AcDbEntity
  8
1
  6
CONTINUOUS
 62
     7
100
AcDbLine
 10
-168.4292095365572
 20
-415.0767696298099
 30
0.0
 11
-165.221760273784
 21
-400.6089009651543
 31
0.0
  0
LINE
  5
165
330
1F
100
AcDbEntity
  8
1
  6
CONTINUOUS
 62
     7
100
AcDbLine
 10
-80.49343384479457
 20
-414.9642035403018
 30
0.0
 11
-77.71550091137047
 21
-400.6729775115586
 31
0.0
  0
LINE
  5
166
330
1F
100
AcDbEntity
  8
1
  6
CONTINUOUS
 62
     7
100
AcDbLine
 10
-369.4327122888491
 20
-230.3357964596981
 30
0.0
 11
-372.2106452222733
 21
-244.6270224884418
 31
0.0
  0
LINE
  5
167
330
1F
100
AcDbEntity
  8
1
  6
CONTINUOUS
 62
     7
100
AcDbLine
 10
-237.4327122888491
 20
-230.3357964596981
 30
0.0
 11
-240.2106452222732
 21
-244.6270224884412
 31
0.0
  0
LINE
  5
168
330
1F
100
AcDbEntity
  8
1
  6
CONTINUOUS
 62
     7
100
AcDbLine
 10
-476.4934338447945
 20
-414.9642035403018
 30
0.0
 11
-473.7155009113704
 21
-400.6729775115586
 31
0.0
  0
LINE
  5
169
330
1F
100
AcDbEntity
  8
1
  6
CONTINUOUS
 62
     7
100
AcDbLine
 10
51.50656615520543
 20
-414.9642035403015
 30
0.0
 11
54.28449908862953
 21
-400.6729775115584
 31
0.0
  0
LINE
  5
16A
330
1F
100
AcDbEntity
  8
1
  6
CONTINUOUS
 62
     7
100
AcDbLine
 10
-564.4934338447945
 20
-414.9642035403013
 30
0.0
 11
-561.7155009113703
 21
-400.672977511558
 31
0.0
  0
LINE
  5
16B
330
1F
100
AcDbEntity
  8
1
  6
CONTINUOUS
 62
     7
100
AcDbLine
 10
-36.49343384479459
 20
-414.9642035403015
 30
0.0
 11
-33.71550091137043
 21
-400.672977511558
 31
0.0
  0
LINE
  5
16C
330
1F
100
AcDbEntity
  8
1
  6
CONTINUOUS
 62
     7
100
AcDbLine
 10
139.5065661552054
 20
-414.9642035403018
 30
0.0
 11
142.2844990886296
 21
-400.6729775115584
 31
0.0
  0
LINE
  5
16D
330
1F
100
AcDbEntity
  8
1
  6
CONTINUOUS
 62
     7
100
AcDbLine
 10
246.5672877111508
 20
-230.3357964596983
 30
0.0
 11
243.7893547777266
 21
-244.6270224884417
 31
0.0
  0
LINE
  5
16E
330
1F
100
AcDbEntity
  8
1
  6
CONTINUOUS
 62
     7
100
AcDbLine
 10
-152.2106452222732
 20
-400.6729775115586
 30
0.0
 11
-149.4327122888491
 21
-414.9642035403018
 31
0.0
  0
LINE
  5
16F
330
1F
100
AcDbEntity
  8
1
  6
CONTINUOUS
 62
     7
100
AcDbLine
 10
-517.7155009113703
 20
-244.6270224884418
 30
0.0
 11
-520.4934338447945
 21
-230.3357964596981
 31
0.0
  0
LINE
  5
170
330
1F
100
AcDbEntity
  8
1
  6
CONTINUOUS
 62
     7
100
AcDbLine
 10
-605.7155009113703
 20
-244.6270224884418
 30
0.0
 11
-608.4934338447945
 21
-230.3357964596986
 31
0.0
  0
ARC
  5
171
330
1F
100
AcDbEntity
  8
1
  6
CONTINUOUS
 62
     7
100
AcDbCircle
 10
-559.2614329527512
 20
-244.1499999999999
 30
0.0
 40
2.500000000000002
100
AcDbArc
 50
190.9999999999998
 51
270.0
  0
ARC
  5
172
330
1F
100
AcDbEntity
  8
1
  6
CONTINUOUS
 62
     7
100
AcDbCircle
 10
-515.2614329527513
 20
-401.1499999999999
 30
0.0
 40
2.499999999999958
100
AcDbArc
 50
90.0
 51
168.9999999999995
  0
ARC
  5
173
330
1F
100
AcDbEntity
  8
1
  6
CONTINUOUS
 62
     7
100
AcDbCircle
 10
56.73856704724867
 20
-401.1499999999999
 30
0.0
 40
2.500000000000012
100
AcDbArc
 50
90.0
 51
169.0000000000004
  0
ARC
  5
174
330
1F
100
AcDbEntity
  8
1
  6
CONTINUOUS
 62
     7
100
AcDbCircle
 10
-682.6647131808925
 20
-401.1499999999999
 30
0.0
 40
2.499999999999947
100
AcDbArc
 50
10.99999999999983
 51
90.0
  0
ARC
  5
175
330
1F
100
AcDbEntity
  8
1
  6
CONTINUOUS
 62
     7
100
AcDbCircle
 10
-726.6647131808925
 20
-401.1499999999999
 30
0.0
 40
2.499999999999947
100
AcDbArc
 50
10.99999999999983
 51
90.0
  0
ARC
  5
176
330
1F
100
AcDbEntity
  8
1
  6
CONTINUOUS
 62
     7
100
AcDbCircle
 10
-559.2614329527512
 20
-401.1499999999999
 30
0.0
 40
2.499999999999958
100
AcDbArc
 50
90.0
 51
169.0000000000002
  0
ARC
  5
177
330
1F
100
AcDbEntity
  8
1
  6
CONTINUOUS
 62
     7
100
AcDbCircle
 10
-902.6647131808925
 20
-244.1499999999999
 30
0.0
 40
2.499999999999968
100
AcDbArc
 50
270.0
 51
349.0000000000002
  0
ARC
  5
178
330
1F
100
AcDbEntity
  8
1
  6
CONTINUOUS
 62
     7
100
AcDbCircle
 10
-242.6647131808923
 20
-244.1499999999999
 30
0.0
 40
2.499999999999968
100
AcDbArc
 50
270.0
 51
349.0000000000002
  0
ARC
  5
179
330
1F
100
AcDbEntity
  8
1
  6
CONTINUOUS
 62
     7
100
AcDbCircle
 10
-374.6647131808923
 20
-401.1499999999999
 30
0.0
 40
2.499999999999947
100
AcDbArc
 50
11.00000000000045
 51
90.0
  0
ARC
  5
17A
330
1F
100
AcDbEntity
  8
1
  6
CONTINUOUS
 62
     7
100
AcDbCircle
 10
-471.2614329527512
 20
-244.1499999999999
 30
0.0
 40
2.500000000000002
100
AcDbArc
 50
190.9999999999998
 51
270.0
  0
ARC
  5
17B
330
1F
100
AcDbEntity
  8
1
  6
CONTINUOUS
 62
     7
100
AcDbCircle
 10
-682.6647131808925
 20
-244.1499999999999
 30
0.0
 40
2.499999999999968
100
AcDbArc
 50
270.0
 51
349.0000000000002
  0
ARC
  5
17C
330
1F
100
AcDbEntity
  8
1
  6
CONTINUOUS
 62
     7
100
AcDbCircle
 10
-603.2614329527512
 20
-401.1499999999999
 30
0.0
 40
2.499999999999958
100
AcDbArc
 50
90.0
 51
169.0000000000002
  0
ARC
  5
17D
330
1F
100
AcDbEntity
  8
1
  6
CONTINUOUS
 62
     7
100
AcDbCircle
 10
144.7385670472486
 20
-244.1499999999999
 30
0.0
 40
2.500000000000002
100
AcDbArc
 50
191.0000000000002
 51
270.0
  0
LINE
  5
17E
330
1F
100
AcDbEntity
  8
1
  6
CONTINUOUS
 62
     7
100
AcDbLine
 10
-328.2106452222733
 20
-400.672977511558
 30
0.0
 11
-325.4327122888492
 21
-414.9642035403013
 31
0.0
  0
ARC
  5
17F
330
1F
100
AcDbEntity
  8
1
  6
CONTINUOUS
 62
     7
100
AcDbCircle
 10
100.7385670472486
 20
-401.1499999999999
 30
0.0
 40
2.499999999999958
100
AcDbArc
 50
90.0
 51
168.9999999999995
  0
ARC
  5
180
330
1F
100
AcDbEntity
  8
1
  6
CONTINUOUS
 62
     7
100
AcDbCircle
 10
-154.6647131808924
 20
-244.1499999999999
 30
0.0
 40
2.499999999999968
100
AcDbArc
 50
270.0
 51
349.0000000000002
  0
ARC
  5
181
330
1F
100
AcDbEntity
  8
1
  6
CONTINUOUS
 62
     7
100
AcDbCircle
 10
-31.26143295275136
 20
-244.1499999999999
 30
0.0
 40
2.500000000000002
100
AcDbArc
 50
191.0000000000002
 51
270.0
  0
ARC
  5
182
330
1F
100
AcDbEntity
  8
1
  6
CONTINUOUS
 62
     7
100
AcDbCircle
 10
56.73856704724867
 20
-244.1499999999999
 30
0.0
 40
2.500000000000002
100
AcDbArc
 50
190.9999999999996
 51
270.0
  0
ARC
  5
183
330
1F
100
AcDbEntity
  8
1
  6
CONTINUOUS
 62
     7
100
AcDbCircle
 10
-734.7810202559843
 20
-401.1499999999999
 30
0.0
 40
2.500000000000083
100
AcDbArc
 50
90.0
 51
167.5000000000014
  0
LINE
  5
184
330
1F
100
AcDbEntity
  8
1
  6
CONTINUOUS
 62
     7
100
AcDbLine
 10
-432.4934338447945
 20
-414.9642035403018
 30
0.0
 11
-429.7155009113703
 21
-400.672977511558
 31
0.0
  0
ARC
  5
185
330
1F
100
AcDbEntity
  8
1
  6
CONTINUOUS
 62
     7
100
AcDbCircle
 10
-75.26143295275133
 20
-401.1499999999999
 30
0.0
 40
2.499999999999958
100
AcDbArc
 50
90.0
 51
169.0000000000002
  0
ARC
  5
186
330
1F
100
AcDbEntity
  8
1
  6
CONTINUOUS
 62
     7
100
AcDbCircle
 10
-726.6647131808925
 20
-244.1499999999999
 30
0.0
 40
2.499999999999968
100
AcDbArc
 50
270.0
 51
349.0000000000002
  0
ARC
  5
187
330
1F
100
AcDbEntity
  8
1
  6
CONTINUOUS
 62
     7
100
AcDbCircle
 10
-595.1451258776594
 20
-401.1499999999999
 30
0.0
 40
2.499999999999947
100
AcDbArc
 50
12.49999999999858
 51
90.0
  0
ARC
  5
188
330
1F
100
AcDbEntity
  8
1
  6
CONTINUOUS
 62
     7
100
AcDbCircle
 10
-858.6647131808924
 20
-401.1499999999999
 30
0.0
 40
2.499999999999947
100
AcDbArc
 50
10.99999999999983
 51
90.0
  0
ARC
  5
189
330
1F
100
AcDbEntity
  8
1
  6
CONTINUOUS
 62
     7
100
AcDbCircle
 10
-814.6647131808926
 20
-244.1499999999999
 30
0.0
 40
2.499999999999968
100
AcDbArc
 50
270.0
 51
349.0000000000008
  0
ARC
  5
18A
330
1F
100
AcDbEntity
  8
1
  6
CONTINUOUS
 62
     7
100
AcDbCircle
 10
-242.6647131808923
 20
-401.1499999999999
 30
0.0
 40
2.499999999999947
100
AcDbArc
 50
10.99999999999983
 51
90.0
  0
ARC
  5
18B
330
1F
100
AcDbEntity
  8
1
  6
CONTINUOUS
 62
     7
100
AcDbCircle
 10
12.73856704724863
 20
-401.1499999999999
 30
0.0
 40
2.499999999999958
100
AcDbArc
 50
90.0
 51
168.9999999999999
  0
ARC
  5
18C
330
1F
100
AcDbEntity
  8
1
  6
CONTINUOUS
 62
     7
100
AcDbCircle
 10
-471.2614329527512
 20
-401.1499999999999
 30
0.0
 40
2.499999999999958
100
AcDbArc
 50
90.0
 51
169.0000000000002
  0
ARC
  5
18D
330
1F
100
AcDbEntity
  8
1
  6
CONTINUOUS
 62
     7
100
AcDbCircle
 10
-23.14512587765949
 20
-244.1499999999999
 30
0.0
 40
2.499999999999974
100
AcDbArc
 50
270.0
 51
347.5
  0
ARC
  5
18E
330
1F
100
AcDbEntity
  8
1
  6
CONTINUOUS
 62
     7
100
AcDbCircle
 10
-383.2614329527512
 20
-244.1499999999999
 30
0.0
 40
2.500000000000002
100
AcDbArc
 50
190.9999999999998
 51
270.0
  0
ARC
  5
18F
330
1F
100
AcDbEntity
  8
1
  6
CONTINUOUS
 62
     7
100
AcDbCircle
 10
285.3352868191076
 20
-401.1499999999999
 30
0.0
 40
2.499999999999947
100
AcDbArc
 50
11.00000000000006
 51
90.0
  0
ARC
  5
190
330
1F
100
AcDbEntity
  8
1
  6
CONTINUOUS
 62
     7
100
AcDbCircle
 10
153.3352868191076
 20
-244.1499999999999
 30
0.0
 40
2.499999999999979
100
AcDbArc
 50
270.0
 51
348.9999999999998
  0
ARC
  5
191
330
1F
100
AcDbEntity
  8
1
  6
CONTINUOUS
 62
     7
100
AcDbCircle
 10
144.7385670472486
 20
-401.1499999999999
 30
0.0
 40
2.499999999999958
100
AcDbArc
 50
90.0
 51
168.9999999999999
  0
ARC
  5
192
330
1F
100
AcDbEntity
  8
1
  6
CONTINUOUS
 62
     7
100
AcDbCircle
 10
-770.6647131808926
 20
-401.1499999999999
 30
0.0
 40
2.499999999999947
100
AcDbArc
 50
10.99999999999983
 51
90.0
  0
ARC
  5
193
330
1F
100
AcDbEntity
  8
1
  6
CONTINUOUS
 62
     7
100
AcDbCircle
 10
-206.7810202559842
 20
-244.1499999999999
 30
0.0
 40
2.499999999999947
100
AcDbArc
 50
192.4999999999997
 51
270.0
  0
ARC
  5
194
330
1F
100
AcDbEntity
  8
1
  6
CONTINUOUS
 62
     7
100
AcDbCircle
 10
241.3352868191076
 20
-401.1499999999999
 30
0.0
 40
2.499999999999947
100
AcDbArc
 50
11.00000000000006
 51
90.0
  0
ARC
  5
195
330
1F
100
AcDbEntity
  8
1
  6
CONTINUOUS
 62
     7
100
AcDbCircle
 10
-515.2614329527513
 20
-244.1499999999999
 30
0.0
 40
2.500000000000002
100
AcDbArc
 50
191.0000000000005
 51
270.0
  0
ARC
  5
196
330
1F
100
AcDbEntity
  8
1
  6
CONTINUOUS
 62
     7
100
AcDbCircle
 10
-427.2614329527513
 20
-244.1499999999999
 30
0.0
 40
2.500000000000002
100
AcDbArc
 50
191.0000000000005
 51
270.0
  0
ARC
  5
197
330
1F
100
AcDbEntity
  8
1
  6
CONTINUOUS
 62
     7
100
AcDbCircle
 10
-286.6647131808924
 20
-244.1499999999999
 30
0.0
 40
2.499999999999968
100
AcDbArc
 50
270.0
 51
349.0000000000002
  0
ARC
  5
198
330
1F
100
AcDbEntity
  8
1
  6
CONTINUOUS
 62
     7
100
AcDbCircle
 10
-690.7810202559843
 20
-244.1499999999999
 30
0.0
 40
2.499999999999947
100
AcDbArc
 50
192.4999999999986
 51
270.0
  0
ARC
  5
199
330
1F
100
AcDbEntity
  8
1
  6
CONTINUOUS
 62
     7
100
AcDbCircle
 10
-330.6647131808923
 20
-401.1499999999999
 30
0.0
 40
2.499999999999947
100
AcDbArc
 50
11.00000000000045
 51
90.0
  0
LINE
  5
19A
330
1F
100
AcDbEntity
  8
1
  6
CONTINUOUS
 62
     7
100
AcDbLine
 10
155.7893547777267
 20
-400.6729775115584
 30
0.0
 11
158.5672877111508
 21
-414.9642035403018
 31
0.0
  0
ARC
  5
19B
330
1F
100
AcDbEntity
  8
1
  6
CONTINUOUS
 62
     7
100
AcDbCircle
 10
-814.6647131808926
 20
-401.1499999999999
 30
0.0
 40
2.499999999999947
100
AcDbArc
 50
10.9999999999992
 51
90.0
  0
LINE
  5
19C
330
1F
100
AcDbEntity
  8
1
  6
CONTINUOUS
 62
     7
100
AcDbLine
 10
-385.7155009113704
 20
-244.6270224884412
 30
0.0
 11
-388.4934338447945
 21
-230.3357964596981
 31
0.0
  0
ARC
  5
19D
330
1F
100
AcDbEntity
  8
1
  6
CONTINUOUS
 62
     7
100
AcDbCircle
 10
-75.26143295275133
 20
-244.1499999999999
 30
0.0
 40
2.500000000000002
100
AcDbArc
 50
190.9999999999998
 51
270.0
  0
ARC
  5
19E
330
1F
100
AcDbEntity
  8
1
  6
CONTINUOUS
 62
     7
100
AcDbCircle
 10
-31.26143295275136
 20
-401.1499999999999
 30
0.0
 40
2.499999999999958
100
AcDbArc
 50
90.0
 51
168.9999999999999
  0
ARC
  5
19F
330
1F
100
AcDbEntity
  8
1
  6
CONTINUOUS
 62
     7
100
AcDbCircle
 10
-374.6647131808923
 20
-244.1499999999999
 30
0.0
 40
2.499999999999979
100
AcDbArc
 50
270.0
 51
348.9999999999995
  0
ARC
  5
1A0
330
1F
100
AcDbEntity
  8
1
  6
CONTINUOUS
 62
     7
100
AcDbCircle
 10
-902.6647131808925
 20
-401.1499999999999
 30
0.0
 40
2.499999999999947
100
AcDbArc
 50
10.99999999999983
 51
90.0
  0
ARC
  5
1A1
330
1F
100
AcDbEntity
  8
1
  6
CONTINUOUS
 62
     7
100
AcDbCircle
 10
241.3352868191076
 20
-244.1499999999999
 30
0.0
 40
2.500000000000006
100
AcDbArc
 50
270.0
 51
349.0000000000001
  0
ARC
  5
1A2
330
1F
100
AcDbEntity
  8
1
  6
CONTINUOUS
 62
     7
100
AcDbCircle
 10
-690.7810202559843
 20
-401.1499999999999
 30
0.0
 40
2.500000000000083
100
AcDbArc
 50
90.0
 51
167.5000000000014
  0
LINE
  5
1A3
330
1F
100
AcDbEntity
  8
1
  6
CONTINUOUS
 62
     7
100
AcDbLine
 10
-325.4327122888492
 20
-230.3357964596986
 30
0.0
 11
-328.2106452222733
 21
-244.6270224884418
 31
0.0
  0
ARC
  5
1A4
330
1F
100
AcDbEntity
  8
1
  6
CONTINUOUS
 62
     7
100
AcDbCircle
 10
153.3352868191076
 20
-401.1499999999999
 30
0.0
 40
2.499999999999947
100
AcDbArc
 50
11.00000000000017
 51
90.0
  0
ARC
  5
1A5
330
1F
100
AcDbEntity
  8
1
  6
CONTINUOUS
 62
     7
100
AcDbCircle
 10
-734.7810202559843
 20
-244.1499999999999
 30
0.0
 40
2.499999999999947
100
AcDbArc
 50
192.4999999999986
 51
270.0
  0
ARC
  5
1A6
330
1F
100
AcDbEntity
  8
1
  6
CONTINUOUS
 62
     7
100
AcDbCircle
 10
64.85487412234048
 20
-244.1499999999999
 30
0.0
 40
2.499999999999974
100
AcDbArc
 50
270.0
 51
347.5000000000002
  0
ARC
  5
1A7
330
1F
100
AcDbEntity
  8
1
  6
CONTINUOUS
 62
     7
100
AcDbCircle
 10
12.73856704724863
 20
-244.1499999999999
 30
0.0
 40
2.500000000000002
100
AcDbArc
 50
191.0000000000002
 51
270.0
  0
ARC
  5
1A8
330
1F
100
AcDbEntity
  8
1
  6
CONTINUOUS
 62
     7
100
AcDbCircle
 10
-463.1451258776594
 20
-401.1499999999999
 30
0.0
 40
2.499999999999947
100
AcDbArc
 50
12.49999999999972
 51
90.0
  0
LINE
  5
1A9
330
1F
100
AcDbEntity
  8
1
  6
CONTINUOUS
 62
     7
100
AcDbLine
 10
158.5672877111508
 20
-230.3357964596981
 30
0.0
 11
155.7893547777267
 21
-244.6270224884415
 31
0.0
  0
ARC
  5
1AA
330
1F
100
AcDbEntity
  8
1
  6
CONTINUOUS
 62
     7
100
AcDbCircle
 10
-154.6647131808924
 20
-401.1499999999999
 30
0.0
 40
2.499999999999947
100
AcDbArc
 50
10.99999999999983
 51
90.0
  0
ARC
  5
1AB
330
1F
100
AcDbEntity
  8
1
  6
CONTINUOUS
 62
     7
100
AcDbCircle
 10
-286.6647131808924
 20
-401.1499999999999
 30
0.0
 40
2.499999999999947
100
AcDbArc
 50
10.99999999999983
 51
90.0
  0
ARC
  5
1AC
330
1F
100
AcDbEntity
  8
1
  6
CONTINUOUS
 62
     7
100
AcDbCircle
 10
100.7385670472486
 20
-244.1499999999999
 30
0.0
 40
2.500000000000002
100
AcDbArc
 50
191.0000000000005
 51
270.0
  0
ARC
  5
1AD
330
1F
100
AcDbEntity
  8
1
  6
CONTINUOUS
 62
     7
100
AcDbCircle
 10
-858.6647131808924
 20
-244.1499999999999
 30
0.0
 40
2.499999999999968
100
AcDbArc
 50
270.0
 51
349.0000000000002
  0
ARC
  5
1AE
330
1F
100
AcDbEntity
  8
1
  6
CONTINUOUS
 62
     7
100
AcDbCircle
 10
233.2189797440157
 20
-401.1499999999999
 30
0.0
 40
2.500000000000002
100
AcDbArc
 50
90.0
 51
167.5000000000001
  0
ARC
  5
1AF
330
1F
100
AcDbEntity
  8
1
  6
CONTINUOUS
 62
     7
100
AcDbCircle
 10
-463.1451258776594
 20
-244.1499999999999
 30
0.0
 40
2.499999999999974
100
AcDbArc
 50
270.0
 51
347.5000000000002
  0
ARC
  5
1B0
330
1F
100
AcDbEntity
  8
1
  6
CONTINUOUS
 62
     7
100
AcDbCircle
 10
-427.2614329527513
 20
-401.1499999999999
 30
0.0
 40
2.499999999999958
100
AcDbArc
 50
90.0
 51
168.9999999999995
  0
ARC
  5
1B1
330
1F
100
AcDbEntity
  8
1
  6
CONTINUOUS
 62
     7
100
AcDbCircle
 10
108.8548741223405
 20
-244.1499999999999
 30
0.0
 40
2.499999999999974
100
AcDbArc
 50
270.0
 51
347.5
  0
ARC
  5
1B2
330
1F
100
AcDbEntity
  8
1
  6
CONTINUOUS
 62
     7
100
AcDbCircle
 10
-646.7810202559842
 20
-401.1499999999999
 30
0.0
 40
2.500000000000083
100
AcDbArc
 50
90.0
 51
167.5000000000014
  0
ARC
  5
1B3
330
1F
100
AcDbEntity
  8
1
  6
CONTINUOUS
 62
     7
100
AcDbCircle
 10
-250.7810202559841
 20
-244.1499999999999
 30
0.0
 40
2.499999999999947
100
AcDbArc
 50
192.4999999999997
 51
270.0
  0
LINE
  5
1B4
330
1F
100
AcDbEntity
  8
1
  6
CONTINUOUS
 62
     7
100
AcDbLine
 10
-858.6647131808924
 20
-246.6499999999999
 30
0.0
 11
-866.7810202559842
 21
-246.6499999999999
 31
0.0
  0
ARC
  5
1B5
330
1F
100
AcDbEntity
  8
1
  6
CONTINUOUS
 62
     7
100
AcDbCircle
 10
-118.7810202559842
 20
-401.1499999999999
 30
0.0
 40
2.499999999999974
100
AcDbArc
 50
90.0
 51
167.4999999999997
  0
LINE
  5
1B6
330
1F
100
AcDbEntity
  8
1
  6
CONTINUOUS
 62
     7
100
AcDbLine
 10
12.73856704724863
 20
-398.6499999999999
 30
0.0
 11
20.85487412234049
 21
-398.6499999999999
 31
0.0
  0
ARC
  5
1B7
330
1F
100
AcDbEntity
  8
1
  6
CONTINUOUS
 62
     7
100
AcDbCircle
 10
-338.7810202559842
 20
-244.1499999999999
 30
0.0
 40
2.499999999999947
100
AcDbArc
 50
192.5000000000003
 51
270.0
  0
ARC
  5
1B8
330
1F
100
AcDbEntity
  8
1
  6
CONTINUOUS
 62
     7
100
AcDbCircle
 10
-294.7810202559842
 20
-244.1499999999999
 30
0.0
 40
2.499999999999947
100
AcDbArc
 50
192.4999999999997
 51
270.0
  0
LINE
  5
1B9
330
1F
100
AcDbEntity
  8
1
  6
CONTINUOUS
 62
     7
100
AcDbLine
 10
-690.7810202559843
 20
-398.6499999999999
 30
0.0
 11
-682.6647131808925
 21
-398.6499999999999
 31
0.0
  0
LINE
  5
1BA
330
1F
100
AcDbEntity
  8
1
  6
CONTINUOUS
 62
     7
100
AcDbLine
 10
-250.7810202559841
 20
-398.6499999999999
 30
0.0
 11
-242.6647131808923
 21
-398.6499999999999
 31
0.0
  0
LINE
  5
1BB
330
1F
100
AcDbEntity
  8
1
  6
CONTINUOUS
 62
     7
100
AcDbLine
 10
-814.6647131808926
 20
-246.6499999999999
 30
0.0
 11
-822.7810202559845
 21
-246.6499999999999
 31
0.0
  0
LINE
  5
1BC
330
1F
100
AcDbEntity
  8
1
  6
CONTINUOUS
 62
     7
100
AcDbLine
 10
-822.7810202559845
 20
-398.6499999999999
 30
0.0
 11
-814.6647131808926
 21
-398.6499999999999
 31
0.0
  0
ARC
  5
1BD
330
1F
100
AcDbEntity
  8
1
  6
CONTINUOUS
 62
     7
100
AcDbCircle
 10
233.2189797440157
 20
-244.1499999999999
 30
0.0
 40
2.499999999999947
100
AcDbArc
 50
192.4999999999999
 51
270.0
  0
ARC
  5
1BE
330
1F
100
AcDbEntity
  8
1
  6
CONTINUOUS
 62
     7
100
AcDbCircle
 10
-507.1451258776594
 20
-244.1499999999999
 30
0.0
 40
2.499999999999974
100
AcDbArc
 50
270.0
 51
347.4999999999995
  0
LINE
  5
1BF
330
1F
100
AcDbEntity
  8
1
  6
CONTINUOUS
 62
     7
100
AcDbLine
 10
-242.6647131808923
 20
-246.6499999999999
 30
0.0
 11
-250.7810202559841
 21
-246.6499999999999
 31
0.0
  0
LINE
  5
1C0
330
1F
100
AcDbEntity
  8
1
  6
CONTINUOUS
 62
     7
100
AcDbLine
 10
153.3352868191076
 20
-246.6499999999999
 30
0.0
 11
144.7385670472486
 21
-246.6499999999999
 31
0.0
  0
LINE
  5
1C1
330
1F
100
AcDbEntity
  8
1
  6
CONTINUOUS
 62
     7
100
AcDbLine
 10
100.7385670472486
 20
-398.6499999999999
 30
0.0
 11
108.8548741223405
 21
-398.6499999999999
 31
0.0
  0
ARC
  5
1C2
330
1F
100
AcDbEntity
  8
1
  6
CONTINUOUS
 62
     7
100
AcDbCircle
 10
-551.1451258776594
 20
-244.1499999999999
 30
0.0
 40
2.499999999999974
100
AcDbArc
 50
270.0
 51
347.5000000000002
  0
ARC
  5
1C3
330
1F
100
AcDbEntity
  8
1
  6
CONTINUOUS
 62
     7
100
AcDbCircle
 10
-646.7810202559842
 20
-244.1499999999999
 30
0.0
 40
2.499999999999947
100
AcDbArc
 50
192.4999999999986
 51
270.0
  0
ARC
  5
1C4
330
1F
100
AcDbEntity
  8
1
  6
CONTINUOUS
 62
     7
100
AcDbCircle
 10
-198.6647131808923
 20
-401.1499999999999
 30
0.0
 40
2.499999999999947
100
AcDbArc
 50
11.00000000000045
 51
90.0
  0
ARC
  5
1C5
330
1F
100
AcDbEntity
  8
1
  6
CONTINUOUS
 62
     7
100
AcDbCircle
 10
-383.2614329527512
 20
-401.1499999999999
 30
0.0
 40
2.499999999999958
100
AcDbArc
 50
90.0
 51
169.0000000000002
  0
ARC
  5
1C6
330
1F
100
AcDbEntity
  8
1
  6
CONTINUOUS
 62
     7
100
AcDbCircle
 10
-419.1451258776595
 20
-401.1499999999999
 30
0.0
 40
2.499999999999947
100
AcDbArc
 50
12.49999999999972
 51
90.0
  0
LINE
  5
1C7
330
1F
100
AcDbEntity
  8
1
  6
CONTINUOUS
 62
     7
100
AcDbLine
 10
241.3352868191076
 20
-246.6499999999999
 30
0.0
 11
233.2189797440157
 21
-246.6499999999999
 31
0.0
  0
LINE
  5
1C8
330
1F
100
AcDbEntity
  8
1
  6
CONTINUOUS
 62
     7
100
AcDbLine
 10
-75.26143295275133
 20
-398.6499999999999
 30
0.0
 11
-67.14512587765952
 21
-398.6499999999999
 31
0.0
  0
ARC
  5
1C9
330
1F
100
AcDbEntity
  8
1
  6
CONTINUOUS
 62
     7
100
AcDbCircle
 10
-330.6647131808923
 20
-244.1499999999999
 30
0.0
 40
2.499999999999979
100
AcDbArc
 50
270.0
 51
348.9999999999995
  0
ARC
  5
1CA
330
1F
100
AcDbEntity
  8
1
  6
CONTINUOUS
 62
     7
100
AcDbCircle
 10
20.85487412234049
 20
-244.1499999999999
 30
0.0
 40
2.499999999999974
100
AcDbArc
 50
270.0
 51
347.5
  0
LINE
  5
1CB
330
1F
100
AcDbEntity
  8
1
  6
CONTINUOUS
 62
     7
100
AcDbLine
 10
144.7385670472486
 20
-398.6499999999999
 30
0.0
 11
153.3352868191076
 21
-398.6499999999999
 31
0.0
  0
LINE
  5
1CC
330
1F
100
AcDbEntity
  8
1
  6
CONTINUOUS
 62
     7
100
AcDbLine
 10
233.2189797440157
 20
-398.6499999999999
 30
0.0
 11
241.3352868191076
 21
-398.6499999999999
 31
0.0
  0
LINE
  5
1CD
330
1F
100
AcDbEntity
  8
1
  6
CONTINUOUS
 62
     7
100
AcDbLine
 10
-866.7810202559842
 20
-398.6499999999999
 30
0.0
 11
-858.6647131808924
 21
-398.6499999999999
 31
0.0
  0
LINE
  5
1CE
330
1F
100
AcDbEntity
  8
1
  6
CONTINUOUS
 62
     7
100
AcDbLine
 10
-770.6647131808926
 20
-246.6499999999999
 30
0.0
 11
-778.7810202559843
 21
-246.6499999999999
 31
0.0
  0
LINE
  5
1CF
330
1F
100
AcDbEntity
  8
1
  6
CONTINUOUS
 62
     7
100
AcDbLine
 10
-338.7810202559842
 20
-398.6499999999999
 30
0.0
 11
-330.6647131808923
 21
-398.6499999999999
 31
0.0
  0
ARC
  5
1D0
330
1F
100
AcDbEntity
  8
1
  6
CONTINUOUS
 62
     7
100
AcDbCircle
 10
-206.7810202559842
 20
-401.1499999999999
 30
0.0
 40
2.499999999999974
100
AcDbArc
 50
90.0
 51
167.5000000000002
  0
ARC
  5
1D1
330
1F
100
AcDbEntity
  8
1
  6
CONTINUOUS
 62
     7
100
AcDbCircle
 10
-23.14512587765949
 20
-401.1499999999999
 30
0.0
 40
2.499999999999947
100
AcDbArc
 50
12.50000000000006
 51
90.0
  0
ARC
  5
1D2
330
1F
100
AcDbEntity
  8
1
  6
CONTINUOUS
 62
     7
100
AcDbCircle
 10
-162.7810202559842
 20
-244.1499999999999
 30
0.0
 40
2.499999999999947
100
AcDbArc
 50
192.4999999999997
 51
270.0
  0
ARC
  5
1D3
330
1F
100
AcDbEntity
  8
1
  6
CONTINUOUS
 62
     7
100
AcDbCircle
 10
-419.1451258776595
 20
-244.1499999999999
 30
0.0
 40
2.499999999999974
100
AcDbArc
 50
270.0
 51
347.5000000000002
  0
ARC
  5
1D4
330
1F
100
AcDbEntity
  8
1
  6
CONTINUOUS
 62
     7
100
AcDbCircle
 10
-866.7810202559842
 20
-244.1499999999999
 30
0.0
 40
2.499999999999947
100
AcDbArc
 50
192.4999999999995
 51
270.0
  0
ARC
  5
1D5
330
1F
100
AcDbEntity
  8
1
  6
CONTINUOUS
 62
     7
100
AcDbCircle
 10
285.3352868191076
 20
-244.1499999999999
 30
0.0
 40
2.499999999999979
100
AcDbArc
 50
270.0
 51
349.0000000000001
  0
ARC
  5
1D6
330
1F
100
AcDbEntity
  8
1
  6
CONTINUOUS
 62
     7
100
AcDbCircle
 10
20.85487412234049
 20
-401.1499999999999
 30
0.0
 40
2.499999999999947
100
AcDbArc
 50
12.50000000000006
 51
90.0
  0
ARC
  5
1D7
330
1F
100
AcDbEntity
  8
1
  6
CONTINUOUS
 62
     7
100
AcDbCircle
 10
-639.1451258776594
 20
-244.1499999999999
 30
0.0
 40
2.500000000000071
100
AcDbArc
 50
270.0
 51
347.5000000000014
  0
ARC
  5
1D8
330
1F
100
AcDbEntity
  8
1
  6
CONTINUOUS
 62
     7
100
AcDbCircle
 10
-866.7810202559842
 20
-401.1499999999999
 30
0.0
 40
2.500000000000083
100
AcDbArc
 50
90.0
 51
167.5000000000005
  0
ARC
  5
1D9
330
1F
100
AcDbEntity
  8
1
  6
CONTINUOUS
 62
     7
100
AcDbCircle
 10
-67.14512587765952
 20
-244.1499999999999
 30
0.0
 40
2.499999999999974
100
AcDbArc
 50
270.0
 51
347.5000000000002
  0
ARC
  5
1DA
330
1F
100
AcDbEntity
  8
1
  6
CONTINUOUS
 62
     7
100
AcDbCircle
 10
-198.6647131808923
 20
-244.1499999999999
 30
0.0
 40
2.499999999999979
100
AcDbArc
 50
270.0
 51
348.9999999999995
  0
ARC
  5
1DB
330
1F
100
AcDbEntity
  8
1
  6
CONTINUOUS
 62
     7
100
AcDbCircle
 10
-778.7810202559843
 20
-401.1499999999999
 30
0.0
 40
2.500000000000083
100
AcDbArc
 50
90.0
 51
167.5000000000005
  0
ARC
  5
1DC
330
1F
100
AcDbEntity
  8
1
  6
CONTINUOUS
 62
     7
100
AcDbCircle
 10
-822.7810202559845
 20
-244.1499999999999
 30
0.0
 40
2.499999999999947
100
AcDbArc
 50
192.4999999999995
 51
270.0
  0
ARC
  5
1DD
330
1F
100
AcDbEntity
  8
1
  6
CONTINUOUS
 62
     7
100
AcDbCircle
 10
-595.1451258776594
 20
-244.1499999999999
 30
0.0
 40
2.500000000000071
100
AcDbArc
 50
270.0
 51
347.5000000000014
  0
ARC
  5
1DE
330
1F
100
AcDbEntity
  8
1
  6
CONTINUOUS
 62
     7
100
AcDbCircle
 10
-822.7810202559845
 20
-401.1499999999999
 30
0.0
 40
2.500000000000083
100
AcDbArc
 50
90.0
 51
167.5000000000005
  0
ARC
  5
1DF
330
1F
100
AcDbEntity
  8
1
  6
CONTINUOUS
 62
     7
100
AcDbCircle
 10
277.2189797440157
 20
-244.1499999999999
 30
0.0
 40
2.499999999999947
100
AcDbArc
 50
192.4999999999999
 51
270.0
  0
ARC
  5
1E0
330
1F
100
AcDbEntity
  8
1
  6
CONTINUOUS
 62
     7
100
AcDbCircle
 10
-551.1451258776594
 20
-401.1499999999999
 30
0.0
 40
2.499999999999947
100
AcDbArc
 50
12.49999999999972
 51
90.0
  0
ARC
  5
1E1
330
1F
100
AcDbEntity
  8
1
  6
CONTINUOUS
 62
     7
100
AcDbCircle
 10
108.8548741223405
 20
-401.1499999999999
 30
0.0
 40
2.499999999999947
100
AcDbArc
 50
12.50000000000006
 51
90.0
  0
ARC
  5
1E2
330
1F
100
AcDbEntity
  8
1
  6
CONTINUOUS
 62
     7
100
AcDbCircle
 10
-507.1451258776594
 20
-401.1499999999999
 30
0.0
 40
2.499999999999947
100
AcDbArc
 50
12.50000000000034
 51
90.0
  0
ARC
  5
1E3
330
1F
100
AcDbEntity
  8
1
  6
CONTINUOUS
 62
     7
100
AcDbCircle
 10
-111.1451258776595
 20
-401.1499999999999
 30
0.0
 40
2.499999999999947
100
AcDbArc
 50
12.50000000000034
 51
90.0
  0
ARC
  5
1E4
330
1F
100
AcDbEntity
  8
1
  6
CONTINUOUS
 62
     7
100
AcDbCircle
 10
-162.7810202559842
 20
-401.1499999999999
 30
0.0
 40
2.499999999999974
100
AcDbArc
 50
90.0
 51
167.5000000000002
  0
ARC
  5
1E5
330
1F
100
AcDbEntity
  8
1
  6
CONTINUOUS
 62
     7
100
AcDbCircle
 10
-603.2614329527512
 20
-244.1499999999999
 30
0.0
 40
2.500000000000002
100
AcDbArc
 50
190.9999999999998
 51
270.0
  0
ARC
  5
1E6
330
1F
100
AcDbEntity
  8
1
  6
CONTINUOUS
 62
     7
100
AcDbCircle
 10
-294.7810202559842
 20
-401.1499999999999
 30
0.0
 40
2.499999999999974
100
AcDbArc
 50
90.0
 51
167.5000000000002
  0
ARC
  5
1E7
330
1F
100
AcDbEntity
  8
1
  6
CONTINUOUS
 62
     7
100
AcDbCircle
 10
64.85487412234048
 20
-401.1499999999999
 30
0.0
 40
2.499999999999947
100
AcDbArc
 50
12.49999999999972
 51
90.0
  0
ARC
  5
1E8
330
1F
100
AcDbEntity
  8
1
  6
CONTINUOUS
 62
     7
100
AcDbCircle
 10
-67.14512587765952
 20
-401.1499999999999
 30
0.0
 40
2.499999999999947
100
AcDbArc
 50
12.49999999999972
 51
90.0
  0
ARC
  5
1E9
330
1F
100
AcDbEntity
  8
1
  6
CONTINUOUS
 62
     7
100
AcDbCircle
 10
-778.7810202559843
 20
-244.1499999999999
 30
0.0
 40
2.499999999999947
100
AcDbArc
 50
192.4999999999995
 51
270.0
  0
ARC
  5
1EA
330
1F
100
AcDbEntity
  8
1
  6
CONTINUOUS
 62
     7
100
AcDbCircle
 10
-118.7810202559842
 20
-244.1499999999999
 30
0.0
 40
2.499999999999947
100
AcDbArc
 50
192.5000000000003
 51
270.0
  0
ARC
  5
1EB
330
1F
100
AcDbEntity
  8
1
  6
CONTINUOUS
 62
     7
100
AcDbCircle
 10
-639.1451258776594
 20
-401.1499999999999
 30
0.0
 40
2.499999999999947
100
AcDbArc
 50
12.49999999999858
 51
90.0
  0
ARC
  5
1EC
330
1F
100
AcDbEntity
  8
1
  6
CONTINUOUS
 62
     7
100
AcDbCircle
 10
-250.7810202559841
 20
-401.1499999999999
 30
0.0
 40
2.499999999999974
100
AcDbArc
 50
90.0
 51
167.5000000000002
  0
ARC
  5
1ED
330
1F
100
AcDbEntity
  8
1
  6
CONTINUOUS
 62
     7
100
AcDbCircle
 10
-338.7810202559842
 20
-401.1499999999999
 30
0.0
 40
2.499999999999974
100
AcDbArc
 50
90.0
 51
167.4999999999997
  0
ARC
  5
1EE
330
1F
100
AcDbEntity
  8
1
  6
CONTINUOUS
 62
     7
100
AcDbCircle
 10
277.2189797440157
 20
-401.1499999999999
 30
0.0
 40
2.500000000000028
100
AcDbArc
 50
90.0
 51
167.5000000000001
  0
ARC
  5
1EF
330
1F
100
AcDbEntity
  8
1
  6
CONTINUOUS
 62
     7
100
AcDbCircle
 10
-111.1451258776595
 20
-244.1499999999999
 30
0.0
 40
2.499999999999974
100
AcDbArc
 50
270.0
 51
347.4999999999995
  0
ARC
  5
1F0
330
1F
100
AcDbEntity
  8
1
  6
CONTINUOUS
 62
     7
100
AcDbCircle
 10
-770.6647131808926
 20
-244.1499999999999
 30
0.0
 40
2.499999999999968
100
AcDbArc
 50
270.0
 51
349.0000000000002
  0
LINE
  5
1F1
330
1F
100
AcDbEntity
  8
1
  6
CONTINUOUS
 62
     7
100
AcDbLine
 10
285.3352868191076
 20
-246.6499999999999
 30
0.0
 11
277.2189797440157
 21
-246.6499999999999
 31
0.0
  0
LINE
  5
1F2
330
1F
100
AcDbEntity
  8
1
  6
CONTINUOUS
 62
     7
100
AcDbLine
 10
-427.2614329527513
 20
-398.6499999999999
 30
0.0
 11
-419.1451258776595
 21
-398.6499999999999
 31
0.0
  0
LINE
  5
1F3
330
1F
100
AcDbEntity
  8
1
  6
CONTINUOUS
 62
     7
100
AcDbLine
 10
425.2463641566709
 20
-233.7794095225511
 30
0.0
 11
422.8473621070539
 21
-224.8262119859185
 31
0.0
  0
LINE
  5
1F4
330
1F
100
AcDbEntity
  8
1
  6
CONTINUOUS
 62
     7
100
AcDbLine
 10
-682.6647131808925
 20
-246.6499999999999
 30
0.0
 11
-690.7810202559843
 21
-246.6499999999999
 31
0.0
  0
LINE
  5
1F5
330
1F
100
AcDbEntity
  8
1
  6
CONTINUOUS
 62
     7
100
AcDbLine
 10
-383.2614329527512
 20
-398.6499999999999
 30
0.0
 11
-374.6647131808923
 21
-398.6499999999999
 31
0.0
  0
LINE
  5
1F6
330
1F
100
AcDbEntity
  8
1
  6
CONTINUOUS
 62
     7
100
AcDbLine
 10
-603.2614329527512
 20
-398.6499999999999
 30
0.0
 11
-595.1451258776594
 21
-398.6499999999999
 31
0.0
  0
LINE
  5
1F7
330
1F
100
AcDbEntity
  8
1
  6
CONTINUOUS
 62
     7
100
AcDbLine
 10
-23.14512587765949
 20
-246.6499999999999
 30
0.0
 11
-31.26143295275136
 21
-246.6499999999999
 31
0.0
  0
LINE
  5
1F8
330
1F
100
AcDbEntity
  8
1
  6
CONTINUOUS
 62
     7
100
AcDbLine
 10
-330.6647131808923
 20
-246.6499999999999
 30
0.0
 11
-338.7810202559842
 21
-246.6499999999999
 31
0.0
  0
LINE
  5
1F9
330
1F
100
AcDbEntity
  8
1
  6
CONTINUOUS
 62
     7
100
AcDbLine
 10
-294.7810202559842
 20
-398.6499999999999
 30
0.0
 11
-286.6647131808924
 21
-398.6499999999999
 31
0.0
  0
LINE
  5
1FA
330
1F
100
AcDbEntity
  8
1
  6
CONTINUOUS
 62
     7
100
AcDbLine
 10
-286.6647131808924
 20
-246.6499999999999
 30
0.0
 11
-294.7810202559842
 21
-246.6499999999999
 31
0.0
  0
LINE
  5
1FB
330
1F
100
AcDbEntity
  8
1
  6
CONTINUOUS
 62
     7
100
AcDbLine
 10
-111.1451258776595
 20
-246.6499999999999
 30
0.0
 11
-118.7810202559842
 21
-246.6499999999999
 31
0.0
  0
LINE
  5
1FC
330
1F
100
AcDbEntity
  8
1
  6
CONTINUOUS
 62
     7
100
AcDbLine
 10
864.9193882703566
 20
-238.2475200622431
 30
0.0
 11
864.7977773626419
 21
-238.3907184823139
 31
0.0
  0
ARC
  5
1FD
330
1F
100
AcDbEntity
  8
1
  6
CONTINUOUS
 62
     7
100
AcDbCircle
 10
458.0561208907476
 20
-226.1203072114311
 30
0.0
 40
5.000000000000019
100
AcDbArc
 50
90.44474637789328
 51
165.0
  0
ARC
  5
1FE
330
1F
100
AcDbEntity
  8
1
  6
CONTINUOUS
 62
     7
100
AcDbCircle
 10
296.0369269331781
 20
-424.1499999999999
 30
0.0
 40
3.000000000000003
100
AcDbArc
 50
180.0
 51
270.0
  0
LINE
  5
1FF
330
1F
100
AcDbEntity
  8
1
  6
CONTINUOUS
 62
     7
100
AcDbLine
 10
277.2189797440157
 20
-398.6499999999999
 30
0.0
 11
285.3352868191076
 21
-398.6499999999999
 31
0.0
  0
ARC
  5
200
330
1F
100
AcDbEntity
  8
1
  6
CONTINUOUS
 62
     7
100
AcDbCircle
 10
557.036926933178
 20
-219.1499999999999
 30
0.0
 40
1.000000000000001
100
AcDbArc
 50
90.0
 51
180.0
  0
LINE
  5
201
330
1F
100
AcDbEntity
  8
1
  6
CONTINUOUS
 62
     7
100
AcDbLine
 10
897.4592815176859
 20
-271.0522226373578
 30
0.0
 11
897.6024799377567
 21
-270.930611729643
 31
0.0
  0
LINE
  5
202
330
1F
100
AcDbEntity
  8
1
  6
CONTINUOUS
 62
     7
100
AcDbLine
 10
-374.6647131808923
 20
-246.6499999999999
 30
0.0
 11
-383.2614329527512
 21
-246.6499999999999
 31
0.0
  0
ARC
  5
203
330
1F
100
AcDbEntity
  8
1
  6
CONTINUOUS
 62
     7
100
AcDbCircle
 10
450.3445267965407
 20
-233.6499999999999
 30
0.0
 40
0.5000000000000129
100
AcDbArc
 50
270.0
 51
344.999999999998
  0
ARC
  5
204
330
1F
100
AcDbEntity
  8
1
  6
CONTINUOUS
 62
     7
100
AcDbCircle
 10
418.0177329756085
 20
-419.1796927885687
 30
0.0
 40
5.000000000000019
100
AcDbArc
 50
270.4447463778933
 51
345.0
  0
LINE
  5
205
330
1F
100
AcDbEntity
  8
1
  6
CONTINUOUS
 62
     7
100
AcDbLine
 10
-726.6647131808925
 20
-246.6499999999999
 30
0.0
 11
-734.7810202559843
 21
-246.6499999999999
 31
0.0
  0
LINE
  5
206
330
1F
100
AcDbEntity
  8
1
  6
CONTINUOUS
 62
     7
100
AcDbLine
 10
-198.6647131808923
 20
-246.6499999999999
 30
0.0
 11
-206.7810202559842
 21
-246.6499999999999
 31
0.0
  0
LINE
  5
207
330
1F
100
AcDbEntity
  8
1
  6
CONTINUOUS
 62
     7
100
AcDbLine
 10
-559.2614329527512
 20
-398.6499999999999
 30
0.0
 11
-551.1451258776594
 21
-398.6499999999999
 31
0.0
  0
LINE
  5
208
330
1F
100
AcDbEntity
  8
1
  6
CONTINUOUS
 62
     7
100
AcDbLine
 10
-906.963073066822
 20
-246.6499999999999
 30
0.0
 11
-906.963073066822
 21
-398.6499999999999
 31
0.0
  0
LINE
  5
209
330
1F
100
AcDbEntity
  8
1
  6
CONTINUOUS
 62
     7
100
AcDbLine
 10
-639.1451258776594
 20
-246.6499999999999
 30
0.0
 11
-646.7810202559842
 21
-246.6499999999999
 31
0.0
  0
LINE
  5
20A
330
1F
100
AcDbEntity
  8
1
  6
CONTINUOUS
 62
     7
100
AcDbLine
 10
-778.7810202559843
 20
-398.6499999999999
 30
0.0
 11
-770.6647131808926
 21
-398.6499999999999
 31
0.0
  0
ARC
  5
20B
330
1F
100
AcDbEntity
  8
1
  6
CONTINUOUS
 62
     7
100
AcDbCircle
 10
557.036926933178
 20
-426.1499999999999
 30
0.0
 40
1.000000000000001
100
AcDbArc
 50
180.0
 51
270.0
  0
LINE
  5
20C
330
1F
100
AcDbEntity
  8
1
  6
CONTINUOUS
 62
     7
100
AcDbLine
 10
-551.1451258776594
 20
-246.6499999999999
 30
0.0
 11
-559.2614329527512
 21
-246.6499999999999
 31
0.0
  0
ARC
  5
20D
330
1F
100
AcDbEntity
  8
1
  6
CONTINUOUS
 62
     7
100
AcDbCircle
 10
788.4512593405095
 20
-297.9012593405097
 30
0.0
 40
65.2868688567784
100
AcDbArc
 50
114.2832009511027
 51
155.7167990488972
  0
CIRCLE
  5
20E
330
1F
100
AcDbEntity
  8
1
  6
CONTINUOUS
 62
   253
100
AcDbCircle
 10
813.1999999999998
 20
-322.6499999999999
 30
0.0
 40
101.5
  0
ARC
  5
20F
330
1F
100
AcDbEntity
  8
1
  6
CONTINUOUS
 62
     7
100
AcDbCircle
 10
555.036926933178
 20
-425.9326816803401
 30
0.0
 40
0.9999999999999813
100
AcDbArc
 50
0.0
 51
89.55525362211114
  0
LINE
  5
210
330
1F
100
AcDbEntity
  8
1
  6
CONTINUOUS
 62
     7
100
AcDbLine
 10
-734.7810202559843
 20
-398.6499999999999
 30
0.0
 11
-726.6647131808925
 21
-398.6499999999999
 31
0.0
  0
LINE
  5
211
330
1F
100
AcDbEntity
  8
1
  6
CONTINUOUS
 62
     7
100
AcDbLine
 10
-646.7810202559842
 20
-398.6499999999999
 30
0.0
 11
-639.1451258776594
 21
-398.6499999999999
 31
0.0
  0
LINE
  5
212
330
1F
100
AcDbEntity
  8
1
  6
CONTINUOUS
 62
     7
100
AcDbLine
 10
-31.26143295275136
 20
-398.6499999999999
 30
0.0
 11
-23.14512587765949
 21
-398.6499999999999
 31
0.0
  0
LINE
  5
213
330
1F
100
AcDbEntity
  8
1
  6
CONTINUOUS
 62
     7
100
AcDbLine
 10
425.7293270698154
 20
-411.1499999999999
 30
0.0
 11
450.3445267965407
 21
-411.1499999999999
 31
0.0
  0
LINE
  5
214
330
1F
100
AcDbEntity
  8
1
  6
CONTINUOUS
 62
     7
100
AcDbLine
 10
-419.1451258776595
 20
-246.6499999999999
 30
0.0
 11
-427.2614329527513
 21
-246.6499999999999
 31
0.0
  0
ARC
  5
215
330
1F
100
AcDbEntity
  8
1
  6
CONTINUOUS
 62
     7
100
AcDbCircle
 10
580.0369269331779
 20
-221.1499999999999
 30
0.0
 40
3.000000000000114
100
AcDbArc
 50
0.0
 51
90.0
  0
ARC
  5
216
330
1F
100
AcDbEntity
  8
1
  6
CONTINUOUS
 62
     7
100
AcDbCircle
 10
838.0739304849124
 20
-297.7760695150875
 30
0.0
 40
65.3018131729113
100
AcDbArc
 50
24.2738406321775
 51
65.72615936782267
  0
LINE
  5
217
330
1F
100
AcDbEntity
  8
1
  6
CONTINUOUS
 62
     7
100
AcDbLine
 10
296.0369269331781
 20
-427.1499999999999
 30
0.0
 11
319.0369269331781
 21
-427.1499999999999
 31
0.0
  0
LINE
  5
218
330
1F
100
AcDbEntity
  8
1
  6
CONTINUOUS
 62
     7
100
AcDbLine
 10
-471.2614329527512
 20
-398.6499999999999
 30
0.0
 11
-463.1451258776594
 21
-398.6499999999999
 31
0.0
  0
LINE
  5
219
330
1F
100
AcDbEntity
  8
1
  6
CONTINUOUS
 62
     7
100
AcDbLine
 10
-67.14512587765952
 20
-246.6499999999999
 30
0.0
 11
-75.26143295275133
 21
-246.6499999999999
 31
0.0
  0
LINE
  5
21A
330
1F
100
AcDbEntity
  8
1
  6
CONTINUOUS
 62
     7
100
AcDbLine
 10
-463.1451258776594
 20
-246.6499999999999
 30
0.0
 11
-471.2614329527512
 21
-246.6499999999999
 31
0.0
  0
LINE
  5
21B
330
1F
100
AcDbEntity
  8
1
  6
CONTINUOUS
 62
     7
100
AcDbLine
 10
580.0369269331779
 20
-218.1499999999999
 30
0.0
 11
557.036926933178
 21
-218.1499999999999
 31
0.0
  0
ARC
  5
21C
330
1F
100
AcDbEntity
  8
1
  6
CONTINUOUS
 62
     7
100
AcDbCircle
 10
813.1999999999998
 20
-322.6499999999999
 30
0.0
 40
98.98825052855202
100
AcDbArc
 50
58.50124266191204
 51
121.4987573380879
  0
ARC
  5
21D
330
1F
100
AcDbEntity
  8
1
  6
CONTINUOUS
 62
     7
100
AcDbCircle
 10
788.326069515087
 20
-297.7760695150872
 30
0.0
 40
65.30181317291095
100
AcDbArc
 50
114.2738406321773
 51
155.7261593678228
  0
LINE
  5
21E
330
1F
100
AcDbEntity
  8
1
  6
CONTINUOUS
 62
     7
100
AcDbLine
 10
-595.1451258776594
 20
-246.6499999999999
 30
0.0
 11
-603.2614329527512
 21
-246.6499999999999
 31
0.0
  0
ARC
  5
21F
330
1F
100
AcDbEntity
  8
1
  6
CONTINUOUS
 62
     7
100
AcDbCircle
 10
296.0369269331781
 20
-221.1499999999999
 30
0.0
 40
3.000000000000003
100
AcDbArc
 50
90.0
 51
180.0
  0
ARC
  5
220
330
1F
100
AcDbEntity
  8
1
  6
CONTINUOUS
 62
     7
100
AcDbCircle
 10
580.0369269331779
 20
-424.1499999999999
 30
0.0
 40
3.000000000000003
100
AcDbArc
 50
270.0
 51
0.0
  0
LINE
  5
221
330
1F
100
AcDbEntity
  8
1
  6
CONTINUOUS
 62
     7
100
AcDbLine
 10
20.85487412234049
 20
-246.6499999999999
 30
0.0
 11
12.73856704724863
 21
-246.6499999999999
 31
0.0
  0
LINE
  5
222
330
1F
100
AcDbEntity
  8
1
  6
CONTINUOUS
 62
     7
100
AcDbLine
 10
64.85487412234048
 20
-246.6499999999999
 30
0.0
 11
56.73856704724867
 21
-246.6499999999999
 31
0.0
  0
LINE
  5
223
330
1F
100
AcDbEntity
  8
1
  6
CONTINUOUS
 62
     7
100
AcDbLine
 10
-118.7810202559842
 20
-398.6499999999999
 30
0.0
 11
-111.1451258776595
 21
-398.6499999999999
 31
0.0
  0
LINE
  5
224
330
1F
100
AcDbEntity
  8
1
  6
CONTINUOUS
 62
     7
100
AcDbLine
 10
56.73856704724867
 20
-398.6499999999999
 30
0.0
 11
64.85487412234048
 21
-398.6499999999999
 31
0.0
  0
LINE
  5
225
330
1F
100
AcDbEntity
  8
1
  6
CONTINUOUS
 62
     7
100
AcDbLine
 10
728.9407184823137
 20
-374.247777362642
 30
0.0
 11
728.7975200622429
 21
-374.3693882703567
 31
0.0
  0
LINE
  5
226
330
1F
100
AcDbEntity
  8
1
  6
CONTINUOUS
 62
     7
100
AcDbLine
 10
-162.7810202559842
 20
-398.6499999999999
 30
0.0
 11
-154.6647131808924
 21
-398.6499999999999
 31
0.0
  0
LINE
  5
227
330
1F
100
AcDbEntity
  8
1
  6
CONTINUOUS
 62
     7
100
AcDbLine
 10
728.7975200622429
 20
-270.9306117296431
 30
0.0
 11
728.9407184823137
 21
-271.0522226373578
 31
0.0
  0
LINE
  5
228
330
1F
100
AcDbEntity
  8
1
  6
CONTINUOUS
 62
     7
100
AcDbLine
 10
-515.2614329527513
 20
-398.6499999999999
 30
0.0
 11
-507.1451258776594
 21
-398.6499999999999
 31
0.0
  0
ARC
  5
229
330
1F
100
AcDbEntity
  8
1
  6
CONTINUOUS
 62
     7
100
AcDbCircle
 10
425.7293270698155
 20
-411.65
 30
0.0
 40
0.4999999999999986
100
AcDbArc
 50
90.0
 51
164.9999999999981
  0
LINE
  5
22A
330
1F
100
AcDbEntity
  8
1
  6
CONTINUOUS
 62
     7
100
AcDbLine
 10
-507.1451258776594
 20
-246.6499999999999
 30
0.0
 11
-515.2614329527513
 21
-246.6499999999999
 31
0.0
  0
LINE
  5
22B
330
1F
100
AcDbEntity
  8
1
  6
CONTINUOUS
 62
     7
100
AcDbLine
 10
-206.7810202559842
 20
-398.6499999999999
 30
0.0
 11
-198.6647131808923
 21
-398.6499999999999
 31
0.0
  0
LINE
  5
22C
330
1F
100
AcDbEntity
  8
1
  6
CONTINUOUS
 62
     7
100
AcDbLine
 10
-154.6647131808924
 20
-246.6499999999999
 30
0.0
 11
-162.7810202559842
 21
-246.6499999999999
 31
0.0
  0
ARC
  5
22D
330
1F
100
AcDbEntity
  8
1
  6
CONTINUOUS
 62
     7
100
AcDbCircle
 10
813.1999999999998
 20
-322.6499999999999
 30
0.0
 40
98.98825052855202
100
AcDbArc
 50
238.5012426619121
 51
301.4987573380879
  0
ARC
  5
22E
330
1F
100
AcDbEntity
  8
1
  6
CONTINUOUS
 62
     7
100
AcDbCircle
 10
319.0369269331781
 20
-426.1499999999999
 30
0.0
 40
1.000000000000001
100
AcDbArc
 50
270.0
 51
0.0
  0
LINE
  5
22F
330
1F
100
AcDbEntity
  8
1
  6
CONTINUOUS
 62
     7
100
AcDbLine
 10
761.6022226373577
 20
-238.3907184823139
 30
0.0
 11
761.480611729643
 21
-238.2475200622431
 31
0.0
  0
LINE
  5
230
330
1F
100
AcDbEntity
  8
1
  6
CONTINUOUS
 62
     7
100
AcDbLine
 10
108.8548741223405
 20
-246.6499999999999
 30
0.0
 11
100.7385670472486
 21
-246.6499999999999
 31
0.0
  0
ARC
  5
231
330
1F
100
AcDbEntity
  8
1
  6
CONTINUOUS
 62
     7
100
AcDbCircle
 10
418.0177329756085
 20
-226.1203072114311
 30
0.0
 40
5.000000000000014
100
AcDbArc
 50
14.99999999999997
 51
89.5552536221067
  0
ARC
  5
232
330
1F
100
AcDbEntity
  8
1
  6
CONTINUOUS
 62
     7
100
AcDbCircle
 10
813.1999999999998
 20
-322.6499999999999
 30
0.0
 40
98.70787334419181
100
AcDbArc
 50
209.7506666354461
 51
240.2493333645538
  0
ARC
  5
233
330
1F
100
AcDbEntity
  8
1
  6
CONTINUOUS
 62
     7
100
AcDbCircle
 10
813.1999999999998
 20
-322.6499999999999
 30
0.0
 40
98.70787334419178
100
AcDbArc
 50
299.7506666354461
 51
330.2493333645539
  0
LINE
  5
234
330
1F
100
AcDbEntity
  8
1
  6
CONTINUOUS
 62
     7
100
AcDbLine
 10
761.480611729643
 20
-407.0524799377569
 30
0.0
 11
761.6022226373577
 21
-406.9092815176859
 31
0.0
  0
ARC
  5
235
330
1F
100
AcDbEntity
  8
1
  6
CONTINUOUS
 62
     7
100
AcDbCircle
 10
813.1999999999998
 20
-322.6499999999999
 30
0.0
 40
98.98825052855194
100
AcDbArc
 50
148.5012426619121
 51
211.4987573380879
  0
LINE
  5
236
330
1F
100
AcDbEntity
  8
1
  6
CONTINUOUS
 62
     7
100
AcDbLine
 10
768.8940173485627
 20
-234.3655653754978
 30
0.0
 11
768.8967746271584
 21
-234.3635261349004
 31
0.0
  0
LINE
  5
237
330
1F
100
AcDbEntity
  8
1
  6
CONTINUOUS
 62
     7
100
AcDbLine
 10
724.932919970898
 20
-366.9872995465522
 30
0.0
 11
725.8901876535098
 21
-368.7336954093809
 31
0.0
  0
LINE
  5
238
330
1F
100
AcDbEntity
  8
1
  6
CONTINUOUS
 62
     7
100
AcDbLine
 10
725.4135838545945
 20
-277.3467746271587
 30
0.0
 11
724.9135261580152
 21
-278.3467746271568
 31
0.0
  0
LINE
  5
239
330
1F
100
AcDbEntity
  8
1
  6
CONTINUOUS
 62
     7
100
AcDbLine
 10
724.9329199708981
 20
-366.9872995465522
 30
0.0
 11
724.92049131982
 21
-366.9644712765643
 31
0.0
  0
LINE
  5
23A
330
1F
100
AcDbEntity
  8
1
  6
CONTINUOUS
 62
   253
100
AcDbLine
 10
721.2941904685553
 20
-287.6499999999999
 30
0.0
 11
721.3955790452725
 21
-287.6499999999999
 31
0.0
  0
LINE
  5
23B
330
1F
100
AcDbEntity
  8
1
  6
CONTINUOUS
 62
     7
100
AcDbLine
 10
767.8967746271586
 20
-410.4364161454051
 30
0.0
 11
768.8967746271567
 21
-410.9364738419846
 31
0.0
  0
LINE
  5
23C
330
1F
100
AcDbEntity
  8
1
  6
CONTINUOUS
 62
     7
100
AcDbLine
 10
901.4670800291017
 20
-278.3127004534476
 30
0.0
 11
900.5098123464896
 21
-276.5663045906189
 31
0.0
  0
LINE
  5
23D
330
1F
100
AcDbEntity
  8
1
  6
CONTINUOUS
 62
     7
100
AcDbLine
 10
724.9204898122663
 20
-366.964468212093
 30
0.0
 11
724.9135261349003
 21
-366.9532253728414
 31
0.0
  0
LINE
  5
23E
330
1F
100
AcDbEntity
  8
1
  6
CONTINUOUS
 62
     7
100
AcDbLine
 10
900.9864161454052
 20
-367.9532253728411
 30
0.0
 11
901.4864738419844
 21
-366.953225372843
 31
0.0
  0
ARC
  5
23F
330
1F
100
AcDbEntity
  8
1
  6
CONTINUOUS
 62
   253
100
AcDbCircle
 10
813.1999999999998
 20
-322.6499999999999
 30
0.0
 40
98.34468885318701
100
AcDbArc
 50
159.1519319641885
 51
200.8480680358115
  0
LINE
  5
240
330
1F
100
AcDbEntity
  8
1
  6
CONTINUOUS
 62
     7
100
AcDbLine
 10
862.1814728882479
 20
-408.3474887253461
 30
0.0
 11
859.2836954093808
 21
-409.9598123464899
 31
0.0
  0
LINE
  5
241
330
1F
100
AcDbEntity
  8
1
  6
CONTINUOUS
 62
     7
100
AcDbLine
 10
897.6024799377567
 20
-374.3693882703567
 30
0.0
 11
897.4592815176859
 21
-374.247777362642
 31
0.0
  0
LINE
  5
242
330
1F
100
AcDbEntity
  8
1
  6
CONTINUOUS
 62
     7
100
AcDbLine
 10
557.036926933178
 20
-427.1499999999999
 30
0.0
 11
580.0369269331779
 21
-427.1499999999999
 31
0.0
  0
ARC
  5
243
330
1F
100
AcDbEntity
  8
1
  6
CONTINUOUS
 62
     7
100
AcDbCircle
 10
788.3260695150874
 20
-347.5239304849125
 30
0.0
 40
65.30181317291134
100
AcDbArc
 50
204.2738406321773
 51
245.7261593678224
  0
ARC
  5
244
330
1F
100
AcDbEntity
  8
1
  6
CONTINUOUS
 62
     7
100
AcDbCircle
 10
321.0369269331781
 20
-219.3673183196597
 30
0.0
 40
0.9999999999999809
100
AcDbArc
 50
180.0
 51
269.5552536221111
  0
ARC
  5
245
330
1F
100
AcDbEntity
  8
1
  6
CONTINUOUS
 62
     7
100
AcDbCircle
 10
321.0369269331781
 20
-425.9326816803401
 30
0.0
 40
1.000000000000001
100
AcDbArc
 50
90.44474637788886
 51
180.0
  0
LINE
  5
246
330
1F
100
AcDbEntity
  8
1
  6
CONTINUOUS
 62
     7
100
AcDbLine
 10
458.0173098373455
 20
-424.1795421565131
 30
0.0
 11
555.0446891438585
 21
-424.9327118067513
 31
0.0
  0
LINE
  5
247
330
1F
100
AcDbEntity
  8
1
  6
CONTINUOUS
 62
     7
100
AcDbLine
 10
898.8974887253459
 20
-273.6685271117518
 30
0.0
 11
900.5098123464898
 21
-276.566304590619
 31
0.0
  0
ARC
  5
248
330
1F
100
AcDbEntity
  8
1
  6
CONTINUOUS
 62
     7
100
AcDbCircle
 10
813.1999999999998
 20
-322.6499999999999
 30
0.0
 40
98.70787334419181
100
AcDbArc
 50
29.75066663544607
 51
60.24933336455388
  0
LINE
  5
249
330
1F
100
AcDbEntity
  8
1
  6
CONTINUOUS
 62
     7
100
AcDbLine
 10
725.8901876535099
 20
-276.566304590619
 30
0.0
 11
727.5025112746537
 21
-273.6685271117518
 31
0.0
  0
LINE
  5
24A
330
1F
100
AcDbEntity
  8
1
  6
CONTINUOUS
 62
     7
100
AcDbLine
 10
901.4670800291017
 20
-278.3127004534477
 30
0.0
 11
901.4864738650992
 21
-278.3467746271584
 31
0.0
  0
LINE
  5
24B
330
1F
100
AcDbEntity
  8
1
  6
CONTINUOUS
 62
     7
100
AcDbLine
 10
857.537299546552
 20
-410.9170800291017
 30
0.0
 11
859.2836954093808
 21
-409.9598123464898
 31
0.0
  0
LINE
  5
24C
330
1F
100
AcDbEntity
  8
1
  6
CONTINUOUS
 62
     7
100
AcDbLine
 10
767.1163045906188
 20
-409.9598123464898
 30
0.0
 11
768.8627004534477
 21
-410.9170800291017
 31
0.0
  0
LINE
  5
24D
330
1F
100
AcDbEntity
  8
1
  6
CONTINUOUS
 62
     7
100
AcDbLine
 10
857.5118495513395
 20
-410.9309879119218
 30
0.0
 11
857.5032253728413
 21
-410.9364738650995
 31
0.0
  0
LINE
  5
24E
330
1F
100
AcDbEntity
  8
1
  6
CONTINUOUS
 62
     7
100
AcDbLine
 10
858.5032253728409
 20
-234.8635838545946
 30
0.0
 11
857.5032253728431
 21
-234.3635261580152
 31
0.0
  0
LINE
  5
24F
330
1F
100
AcDbEntity
  8
1
  6
CONTINUOUS
 62
     7
100
AcDbLine
 10
900.5098123464896
 20
-368.733695409381
 30
0.0
 11
901.4670800291017
 21
-366.9872995465522
 31
0.0
  0
LINE
  5
250
330
1F
100
AcDbEntity
  8
1
  6
CONTINUOUS
 62
     7
100
AcDbLine
 10
453.2264917593023
 20
-224.8262119859185
 30
0.0
 11
450.8274897096852
 21
-233.7794095225511
 31
0.0
  0
LINE
  5
251
330
1F
100
AcDbEntity
  8
1
  6
CONTINUOUS
 62
     7
100
AcDbLine
 10
422.8473621070539
 20
-420.4737880140813
 30
0.0
 11
425.2463641566709
 21
-411.5205904774487
 31
0.0
  0
ARC
  5
252
330
1F
100
AcDbEntity
  8
1
  6
CONTINUOUS
 62
     7
100
AcDbCircle
 10
450.3445267965407
 20
-411.65
 30
0.0
 40
0.500000000000056
100
AcDbArc
 50
15.00000000000193
 51
90.0
  0
LINE
  5
253
330
1F
100
AcDbEntity
  8
1
  6
CONTINUOUS
 62
     7
100
AcDbLine
 10
768.8627004534476
 20
-234.3829199708981
 30
0.0
 11
767.1163045906188
 21
-235.3401876535099
 31
0.0
  0
ARC
  5
254
330
1F
100
AcDbEntity
  8
1
  6
CONTINUOUS
 62
     7
100
AcDbCircle
 10
837.9487406594893
 20
-347.3987406594894
 30
0.0
 40
65.28686885677952
100
AcDbArc
 50
294.2832009511031
 51
335.716799048897
  0
ARC
  5
255
330
1F
100
AcDbEntity
  8
1
  6
CONTINUOUS
 62
     7
100
AcDbCircle
 10
813.1999999999998
 20
-322.6499999999999
 30
0.0
 40
98.78682649441025
100
AcDbArc
 50
117.296535176713
 51
152.7034648232871
  0
LINE
  5
256
330
1F
100
AcDbEntity
  8
1
  6
CONTINUOUS
 62
     7
100
AcDbLine
 10
450.8274897096852
 20
-411.5205904774487
 30
0.0
 11
453.2264917593023
 21
-420.4737880140813
 31
0.0
  0
LINE
  5
257
330
1F
100
AcDbEntity
  8
1
  6
CONTINUOUS
 62
     7
100
AcDbLine
 10
727.5025112746537
 20
-371.631472888248
 30
0.0
 11
725.8901876535099
 21
-368.7336954093808
 31
0.0
  0
ARC
  5
258
330
1F
100
AcDbEntity
  8
1
  6
CONTINUOUS
 62
     7
100
AcDbCircle
 10
813.1999999999998
 20
-322.6499999999999
 30
0.0
 40
98.78682649441019
100
AcDbArc
 50
207.296535176713
 51
242.703464823287
  0
ARC
  5
259
330
1F
100
AcDbEntity
  8
1
  6
CONTINUOUS
 62
     7
100
AcDbCircle
 10
425.7293270698155
 20
-233.6499999999999
 30
0.0
 40
0.5000000000000004
100
AcDbArc
 50
195.0000000000019
 51
270.0
  0
ARC
  5
25A
330
1F
100
AcDbEntity
  8
1
  6
CONTINUOUS
 62
     7
100
AcDbCircle
 10
838.0739304849126
 20
-347.5239304849127
 30
0.0
 40
65.30181317291095
100
AcDbArc
 50
294.2738406321772
 51
335.7261593678227
  0
LINE
  5
25B
330
1F
100
AcDbEntity
  8
1
  6
CONTINUOUS
 62
     7
100
AcDbLine
 10
555.0446891438585
 20
-220.3672881932486
 30
0.0
 11
458.0173098373455
 21
-221.1204578434867
 31
0.0
  0
LINE
  5
25C
330
1F
100
AcDbEntity
  8
1
  6
CONTINUOUS
 62
     7
100
AcDbLine
 10
418.0565440290107
 20
-221.1204578434867
 30
0.0
 11
321.0291647224977
 21
-220.3672881932486
 31
0.0
  0
ARC
  5
25D
330
1F
100
AcDbEntity
  8
1
  6
CONTINUOUS
 62
     7
100
AcDbCircle
 10
458.0561208907476
 20
-419.1796927885687
 30
0.0
 40
5.000000000000014
100
AcDbArc
 50
194.9999999999999
 51
269.5552536221067
  0
LINE
  5
25E
330
1F
100
AcDbEntity
  8
1
  6
CONTINUOUS
 62
   253
100
AcDbLine
 10
721.3955790452725
 20
-357.6499999999999
 30
0.0
 11
721.2941904685553
 21
-357.6499999999999
 31
0.0
  0
LINE
  5
25F
330
1F
100
AcDbEntity
  8
1
  6
CONTINUOUS
 62
     7
100
AcDbLine
 10
319.0369269331781
 20
-218.1499999999999
 30
0.0
 11
296.0369269331781
 21
-218.1499999999999
 31
0.0
  0
LINE
  5
260
330
1F
100
AcDbEntity
  8
1
  6
CONTINUOUS
 62
     7
100
AcDbLine
 10
450.3445267965407
 20
-234.1499999999999
 30
0.0
 11
425.7293270698155
 21
-234.1499999999999
 31
0.0
  0
ARC
  5
261
330
1F
100
AcDbEntity
  8
1
  6
CONTINUOUS
 62
     7
100
AcDbCircle
 10
555.036926933178
 20
-219.3673183196597
 30
0.0
 40
1.000000000000001
100
AcDbArc
 50
270.4447463778889
 51
0.0
  0
ARC
  5
262
330
1F
100
AcDbEntity
  8
1
  6
CONTINUOUS
 62
     7
100
AcDbCircle
 10
319.0369269331781
 20
-219.1499999999999
 30
0.0
 40
1.000000000000001
100
AcDbArc
 50
0.0
 51
90.0
  0
CIRCLE
  5
263
330
1F
100
AcDbEntity
  8
1
  6
CONTINUOUS
 62
   253
100
AcDbCircle
 10
813.1999999999998
 20
-322.6499999999999
 30
0.0
 40
100.4882037787382
  0
ARC
  5
264
330
1F
100
AcDbEntity
  8
1
  6
CONTINUOUS
 62
     7
100
AcDbCircle
 10
788.4512593405098
 20
-347.3987406594898
 30
0.0
 40
65.28686885677872
100
AcDbArc
 50
204.283200951103
 51
245.7167990488972
  0
LINE
  5
265
330
1F
100
AcDbEntity
  8
1
  6
CONTINUOUS
 62
     7
100
AcDbLine
 10
864.7977773626419
 20
-406.909281517686
 30
0.0
 11
864.9193882703566
 21
-407.0524799377569
 31
0.0
  0
ARC
  5
266
330
1F
100
AcDbEntity
  8
1
  6
CONTINUOUS
 62
     7
100
AcDbCircle
 10
837.9487406594889
 20
-297.9012593405109
 30
0.0
 40
65.28686885678009
100
AcDbArc
 50
24.28320095110329
 51
65.71679904889665
  0
LINE
  5
267
330
1F
100
AcDbEntity
  8
1
  6
CONTINUOUS
 62
     7
100
AcDbLine
 10
321.0291647224977
 20
-424.9327118067513
 30
0.0
 11
418.0565440290107
 21
-424.1795421565131
 31
0.0
  0
LINE
  5
268
330
1F
100
AcDbEntity
  8
1
  6
CONTINUOUS
 62
     7
100
AcDbLine
 10
764.2185271117518
 20
-236.9525112746537
 30
0.0
 11
767.1163045906188
 21
-235.34018765351
 31
0.0
  0
LINE
  5
269
330
1F
100
AcDbEntity
  8
1
  6
CONTINUOUS
 62
     7
100
AcDbLine
 10
857.537299546552
 20
-410.9170800291018
 30
0.0
 11
857.5118495513395
 21
-410.9309879119218
 31
0.0
  0
LINE
  5
26A
330
1F
100
AcDbEntity
  8
1
  6
CONTINUOUS
 62
     7
100
AcDbLine
 10
900.5098123464898
 20
-368.7336954093808
 30
0.0
 11
898.8974887253459
 21
-371.631472888248
 31
0.0
  0
ARC
  5
26B
330
1F
100
AcDbEntity
  8
1
  6
CONTINUOUS
 62
     7
100
AcDbCircle
 10
813.1999999999998
 20
-322.6499999999999
 30
0.0
 40
98.78682649441035
100
AcDbArc
 50
297.296535176713
 51
332.703464823287
  0
LINE
  5
26C
330
1F
100
AcDbEntity
  8
1
  6
CONTINUOUS
 62
     7
100
AcDbLine
 10
767.1163045906189
 20
-409.9598123464899
 30
0.0
 11
764.2185271117518
 21
-408.3474887253461
 31
0.0
  0
LINE
  5
26D
330
1F
100
AcDbEntity
  8
1
  6
CONTINUOUS
 62
     7
100
AcDbLine
 10
725.8901876535098
 20
-276.566304590619
 30
0.0
 11
724.9329199708981
 21
-278.3127004534476
 31
0.0
  0
LINE
  5
26E
330
1F
100
AcDbEntity
  8
1
  6
CONTINUOUS
 62
     7
100
AcDbLine
 10
859.2836954093806
 20
-235.3401876535099
 30
0.0
 11
862.1814728882479
 21
-236.9525112746537
 31
0.0
  0
LINE
  5
26F
330
1F
100
AcDbEntity
  8
1
  6
CONTINUOUS
 62
     7
100
AcDbLine
 10
859.2836954093807
 20
-235.3401876535099
 30
0.0
 11
857.5372995465522
 21
-234.3829199708981
 31
0.0
  0
ARC
  5
270
330
1F
100
AcDbEntity
  8
1
  6
CONTINUOUS
 62
   253
100
AcDbCircle
 10
813.1999999999998
 20
-322.6499999999999
 30
0.0
 40
98.98825052855207
100
AcDbArc
 50
328.501242661912
 51
31.49875733808796
  0
LINE
  5
271
330
1F
100
AcDbEntity
  8
1
  6
CONTINUOUS
 62
   253
100
AcDbLine
 10
727.4115835177349
 20
-371.631472888248
 30
0.0
 11
727.5025112746537
 21
-371.631472888248
 31
0.0
  0
LINE
  5
272
330
1F
100
AcDbEntity
  8
1
  6
CONTINUOUS
 62
   253
100
AcDbLine
 10
767.1163045906188
 20
-235.34018765351
 30
0.0
 11
767.1163045906189
 21
-235.2707684500937
 31
0.0
  0
CIRCLE
  5
273
330
1F
100
AcDbEntity
  8
1
  6
CONTINUOUS
 62
   253
100
AcDbCircle
 10
813.1999999999998
 20
-322.6499999999999
 30
0.0
 40
98.01201746380988
  0
ARC
  5
274
330
1F
100
AcDbEntity
  8
1
  6
CONTINUOUS
 62
     7
100
AcDbCircle
 10
813.1999999999998
 20
-322.6499999999999
 30
0.0
 40
98.70787334419178
100
AcDbArc
 50
119.7506666354461
 51
150.2493333645539
  0
ARC
  5
275
330
1F
100
AcDbEntity
  8
1
  6
CONTINUOUS
 62
     7
100
AcDbCircle
 10
812.896642511359
 20
-322.3466425113591
 30
0.0
 40
99.21979497340945
100
AcDbArc
 50
301.539922713331
 51
328.460077286669
  0
LINE
  5
276
330
1F
100
AcDbEntity
  8
1
  6
CONTINUOUS
 62
     7
100
AcDbLine
 10
768.8967769212327
 20
-234.3635249877308
 30
0.0
 11
767.8967746271586
 21
-234.8635838545946
 31
0.0
  0
LINE
  5
277
330
1F
100
AcDbEntity
  8
1
  6
CONTINUOUS
 62
     7
100
AcDbLine
 10
901.4864750122689
 20
-278.3467769212329
 30
0.0
 11
900.9864161454052
 21
-277.3467746271587
 31
0.0
  0
CIRCLE
  5
278
330
1F
100
AcDbEntity
  8
1
  6
CONTINUOUS
 62
     7
100
AcDbCircle
 10
-1127.45
 20
-322.6499999999999
 30
0.0
 40
72.49999999999996
  0
CIRCLE
  5
279
330
1F
100
AcDbEntity
  8
1
  6
CONTINUOUS
 62
     7
100
AcDbCircle
 10
-1127.45
 20
-322.6499999999999
 30
0.0
 40
76.00000000000001
  0
LINE
  5
27A
330
1F
100
AcDbEntity
  8
1
  6
CONTINUOUS
 62
   253
100
AcDbLine
 10
296.0369269331781
 20
-218.1499999999999
 30
0.0
 11
296.0369269331781
 21
-427.1499999999999
 31
0.0
  0
LINE
  5
27B
330
1F
100
AcDbEntity
  8
1
  6
CONTINUOUS
 62
     7
100
AcDbLine
 10
724.9135249877307
 20
-366.9532230787671
 30
0.0
 11
725.4135838545945
 21
-367.9532253728411
 31
0.0
  0
CIRCLE
  5
27C
330
1F
100
AcDbEntity
  8
1
  6
CONTINUOUS
 62
     7
100
AcDbCircle
 10
-1127.45
 20
-322.6499999999999
 30
0.0
 40
97.00000000000003
  0
LINE
  5
27D
330
1F
100
AcDbEntity
  8
1
  6
CONTINUOUS
 62
   253
100
AcDbLine
 10
-866.7810202559842
 20
-246.6499999999999
 30
0.0
 11
-866.7810202559842
 21
-398.6499999999999
 31
0.0
  0
LINE
  5
27E
330
1F
100
AcDbEntity
  8
1
  6
CONTINUOUS
 62
   253
100
AcDbLine
 10
422.8473621070539
 20
-224.8262119859185
 30
0.0
 11
422.8473621070539
 21
-420.4737880140813
 31
0.0
  0
LINE
  5
27F
330
1F
100
AcDbEntity
  8
1
  6
CONTINUOUS
 62
   253
100
AcDbLine
 10
108.8548741223405
 20
-246.6499999999999
 30
0.0
 11
108.8548741223405
 21
-398.6499999999999
 31
0.0
  0
LINE
  5
280
330
1F
100
AcDbEntity
  8
1
  6
CONTINUOUS
 62
   253
100
AcDbLine
 10
20.85487412234049
 20
-246.6499999999999
 30
0.0
 11
20.85487412234049
 21
-398.6499999999999
 31
0.0
  0
LINE
  5
281
330
1F
100
AcDbEntity
  8
1
  6
CONTINUOUS
 62
   253
100
AcDbLine
 10
-646.7810202559842
 20
-246.6499999999999
 30
0.0
 11
-646.7810202559842
 21
-398.6499999999999
 31
0.0
  0
LINE
  5
282
330
1F
100
AcDbEntity
  8
1
  6
CONTINUOUS
 62
   253
100
AcDbLine
 10
859.2836954093806
 20
-235.2707684500937
 30
0.0
 11
859.2836954093806
 21
-235.3401876535099
 31
0.0
  0
LINE
  5
283
330
1F
100
AcDbEntity
  8
1
  6
CONTINUOUS
 62
   253
100
AcDbLine
 10
725.8901876535099
 20
-368.7336954093808
 30
0.0
 11
725.8207684500935
 21
-368.7336954093808
 31
0.0
  0
LINE
  5
284
330
1F
100
AcDbEntity
  8
1
  6
CONTINUOUS
 62
   253
100
AcDbLine
 10
862.1814728882479
 20
-408.4384164822648
 30
0.0
 11
862.1814728882479
 21
-408.3474887253461
 31
0.0
  0
LINE
  5
285
330
1F
100
AcDbEntity
  8
1
  6
CONTINUOUS
 62
   253
100
AcDbLine
 10
767.1163045906189
 20
-410.0292315499061
 30
0.0
 11
767.1163045906189
 21
-409.9598123464899
 31
0.0
  0
ARC
  5
286
330
1F
100
AcDbEntity
  8
1
  6
CONTINUOUS
 62
     7
100
AcDbCircle
 10
812.89664251136
 20
-322.9533574886398
 30
0.0
 40
99.2197949734081
100
AcDbArc
 50
31.53992271333082
 51
58.46007728666923
  0
CIRCLE
  5
287
330
1F
100
AcDbEntity
  8
1
  6
CONTINUOUS
 62
   253
100
AcDbCircle
 10
-1127.45
 20
-322.6499999999999
 30
0.0
 40
77.95890096515473
  0
LINE
  5
288
330
1F
100
AcDbEntity
  8
1
  6
CONTINUOUS
 62
   253
100
AcDbLine
 10
-111.1451258776595
 20
-246.6499999999999
 30
0.0
 11
-111.1451258776595
 21
-398.6499999999999
 31
0.0
  0
LINE
  5
289
330
1F
100
AcDbEntity
  8
1
  6
CONTINUOUS
 62
     7
100
AcDbLine
 10
768.8627004534476
 20
-234.3829199708981
 30
0.0
 11
768.8940173485627
 21
-234.3655653754978
 31
0.0
  0
LINE
  5
28A
330
1F
100
AcDbEntity
  8
1
  6
CONTINUOUS
 62
   253
100
AcDbLine
 10
-507.1451258776594
 20
-246.6499999999999
 30
0.0
 11
-507.1451258776594
 21
-398.6499999999999
 31
0.0
  0
LINE
  5
28B
330
1F
100
AcDbEntity
  8
1
  6
CONTINUOUS
 62
   253
100
AcDbLine
 10
453.2264917593023
 20
-224.8262119859185
 30
0.0
 11
453.2264917593023
 21
-420.4737880140813
 31
0.0
  0
LINE
  5
28C
330
1F
100
AcDbEntity
  8
1
  6
CONTINUOUS
 62
   253
100
AcDbLine
 10
458.0173098373455
 20
-424.1795421565131
 30
0.0
 11
458.0173098373455
 21
-221.1204578434867
 31
0.0
  0
LINE
  5
28D
330
1F
100
AcDbEntity
  8
1
  6
CONTINUOUS
 62
     7
100
AcDbLine
 10
857.5032253728431
 20
-234.3635261580152
 30
0.0
 11
857.537299546552
 21
-234.382919970898
 31
0.0
  0
LINE
  5
28E
330
1F
100
AcDbEntity
  8
1
  6
CONTINUOUS
 62
   253
100
AcDbLine
 10
418.0565440290107
 20
-424.1795421565131
 30
0.0
 11
418.0565440290107
 21
-221.1204578434867
 31
0.0
  0
LINE
  5
28F
330
1F
100
AcDbEntity
  8
1
  6
CONTINUOUS
 62
     7
100
AcDbLine
 10
293.0369269331781
 20
-424.1499999999999
 30
0.0
 11
293.0369269331781
 21
-221.1499999999999
 31
0.0
  0
LINE
  5
290
330
1F
100
AcDbEntity
  8
1
  6
CONTINUOUS
 62
   253
100
AcDbLine
 10
-118.7810202559842
 20
-246.6499999999999
 30
0.0
 11
-118.7810202559842
 21
-398.6499999999999
 31
0.0
  0
LINE
  5
291
330
1F
100
AcDbEntity
  8
1
  6
CONTINUOUS
 62
   253
100
AcDbLine
 10
-734.7810202559843
 20
-246.6499999999999
 30
0.0
 11
-734.7810202559843
 21
-398.6499999999999
 31
0.0
  0
LINE
  5
292
330
1F
100
AcDbEntity
  8
1
  6
CONTINUOUS
 62
   253
100
AcDbLine
 10
-463.1451258776594
 20
-246.6499999999999
 30
0.0
 11
-463.1451258776594
 21
-398.6499999999999
 31
0.0
  0
LINE
  5
293
330
1F
100
AcDbEntity
  8
1
  6
CONTINUOUS
 62
   253
100
AcDbLine
 10
-427.2614329527513
 20
-398.6499999999999
 30
0.0
 11
-427.2614329527513
 21
-246.6499999999999
 31
0.0
  0
LINE
  5
294
330
1F
100
AcDbEntity
  8
1
  6
CONTINUOUS
 62
   253
100
AcDbLine
 10
-206.7810202559842
 20
-246.6499999999999
 30
0.0
 11
-206.7810202559842
 21
-398.6499999999999
 31
0.0
  0
ARC
  5
295
330
1F
100
AcDbEntity
  8
1
  6
CONTINUOUS
 62
     7
100
AcDbCircle
 10
813.50335748864
 20
-322.9533574886402
 30
0.0
 40
99.21979497340858
100
AcDbArc
 50
121.5399227133308
 51
148.4600772866691
  0
CIRCLE
  5
296
330
1F
100
AcDbEntity
  8
1
  6
CONTINUOUS
 62
   253
100
AcDbCircle
 10
-1127.45
 20
-322.6499999999999
 30
0.0
 40
92.42676962981028
  0
LINE
  5
297
330
1F
100
AcDbEntity
  8
1
  6
CONTINUOUS
 62
   253
100
AcDbLine
 10
-67.14512587765952
 20
-246.6499999999999
 30
0.0
 11
-67.14512587765952
 21
-398.6499999999999
 31
0.0
  0
LINE
  5
298
330
1F
100
AcDbEntity
  8
1
  6
CONTINUOUS
 62
     7
100
AcDbLine
 10
724.9135261580152
 20
-278.3467746271567
 30
0.0
 11
724.932919970898
 21
-278.3127004534477
 31
0.0
  0
ARC
  5
299
330
1F
100
AcDbEntity
  8
1
  6
CONTINUOUS
 62
     7
100
AcDbCircle
 10
813.5033574886393
 20
-322.3466425113601
 30
0.0
 40
99.2197949734078
100
AcDbArc
 50
211.5399227133309
 51
238.4600772866693
  0
LINE
  5
29A
330
1F
100
AcDbEntity
  8
1
  6
CONTINUOUS
 62
   253
100
AcDbLine
 10
727.5025112746537
 20
-273.6685271117518
 30
0.0
 11
727.4115835177349
 21
-273.6685271117518
 31
0.0
  0
LINE
  5
29B
330
1F
100
AcDbEntity
  8
1
  6
CONTINUOUS
 62
   253
100
AcDbLine
 10
898.8974887253459
 20
-371.631472888248
 30
0.0
 11
898.9884164822647
 21
-371.631472888248
 31
0.0
  0
LINE
  5
29C
330
1F
100
AcDbEntity
  8
1
  6
CONTINUOUS
 62
   253
100
AcDbLine
 10
900.579231549906
 20
-368.7336954093808
 30
0.0
 11
900.5098123464898
 21
-368.7336954093808
 31
0.0
  0
LINE
  5
29D
330
1F
100
AcDbEntity
  8
1
  6
CONTINUOUS
 62
   253
100
AcDbLine
 10
859.2836954093808
 20
-409.9598123464899
 30
0.0
 11
859.2836954093806
 21
-410.0292315499061
 31
0.0
  0
LINE
  5
29E
330
1F
100
AcDbEntity
  8
1
  6
CONTINUOUS
 62
   253
100
AcDbLine
 10
725.8207684500935
 20
-276.566304590619
 30
0.0
 11
725.8901876535099
 21
-276.566304590619
 31
0.0
  0
LINE
  5
29F
330
1F
100
AcDbEntity
  8
1
  6
CONTINUOUS
 62
   253
100
AcDbLine
 10
764.2185271117518
 20
-236.8615835177351
 30
0.0
 11
764.2185271117518
 21
-236.9525112746537
 31
0.0
  0
LINE
  5
2A0
330
1F
100
AcDbEntity
  8
1
  6
CONTINUOUS
 62
     7
100
AcDbLine
 10
857.5032230787668
 20
-410.9364750122691
 30
0.0
 11
858.5032253728409
 21
-410.4364161454051
 31
0.0
  0
ARC
  5
2A1
330
1F
100
AcDbEntity
  8
1
  6
CONTINUOUS
 62
     7
100
AcDbCircle
 10
813.1999999999998
 20
-322.6499999999999
 30
0.0
 40
98.78682649441022
100
AcDbArc
 50
27.296535176713
 51
62.70346482328705
  0
CIRCLE
  5
2A2
330
1F
100
AcDbEntity
  8
1
  6
CONTINUOUS
 62
     7
100
AcDbCircle
 10
-1127.45
 20
-322.6499999999999
 30
0.0
 40
73.49999999999996
  0
LINE
  5
2A3
330
1F
100
AcDbEntity
  8
1
  6
CONTINUOUS
 62
   253
100
AcDbLine
 10
-338.7810202559842
 20
-246.6499999999999
 30
0.0
 11
-338.7810202559842
 21
-398.6499999999999
 31
0.0
  0
LINE
  5
2A4
330
1F
100
AcDbEntity
  8
1
  6
CONTINUOUS
 62
   253
100
AcDbLine
 10
862.1814728882479
 20
-236.9525112746537
 30
0.0
 11
862.1814728882479
 21
-236.8615835177351
 31
0.0
  0
LINE
  5
2A5
330
1F
100
AcDbEntity
  8
1
  6
CONTINUOUS
 62
   253
100
AcDbLine
 10
-419.1451258776595
 20
-246.6499999999999
 30
0.0
 11
-419.1451258776595
 21
-398.6499999999999
 31
0.0
  0
LINE
  5
2A6
330
1F
100
AcDbEntity
  8
1
  6
CONTINUOUS
 62
     7
100
AcDbLine
 10
768.8967746271567
 20
-410.9364738419846
 30
0.0
 11
768.8627004534476
 21
-410.9170800291018
 31
0.0
  0
LINE
  5
2A7
330
1F
100
AcDbEntity
  8
1
  6
CONTINUOUS
 62
   253
100
AcDbLine
 10
898.9884164822647
 20
-273.6685271117518
 30
0.0
 11
898.8974887253459
 21
-273.6685271117518
 31
0.0
  0
LINE
  5
2A8
330
1F
100
AcDbEntity
  8
1
  6
CONTINUOUS
 62
   253
100
AcDbLine
 10
764.2185271117518
 20
-408.3474887253461
 30
0.0
 11
764.2185271117518
 21
-408.4384164822648
 31
0.0
  0
CIRCLE
  5
2A9
330
1F
100
AcDbEntity
  8
1
  6
CONTINUOUS
 62
   253
100
AcDbCircle
 10
813.1999999999998
 20
-322.6499999999999
 30
0.0
 40
83.61771432346215
  0
LINE
  5
2AA
330
1F
100
AcDbEntity
  8
1
  6
CONTINUOUS
 62
   253
100
AcDbLine
 10
900.5098123464898
 20
-276.5663045906189
 30
0.0
 11
900.579231549906
 21
-276.566304590619
 31
0.0
  0
CIRCLE
  5
2AB
330
1F
100
AcDbEntity
  8
1
  6
CONTINUOUS
 62
   253
100
AcDbCircle
 10
813.1999999999998
 20
-322.6499999999999
 30
0.0
 40
96.52971788710002
  0
CIRCLE
  5
2AC
330
1F
100
AcDbEntity
  8
1
  6
CONTINUOUS
 62
     7
100
AcDbCircle
 10
813.1999999999998
 20
-322.6499999999999
 30
0.0
 40
72.49999999999996
  0
LINE
  5
2AD
330
1F
100
AcDbEntity
  8
1
  6
CONTINUOUS
 62
     7
100
AcDbLine
 10
901.4864738419844
 20
-366.953225372843
 30
0.0
 11
901.4670800291017
 21
-366.987299546552
 31
0.0
  0
LINE
  5
2AE
330
1F
100
AcDbEntity
  8
1
  6
CONTINUOUS
 62
   253
100
AcDbLine
 10
-162.7810202559842
 20
-246.6499999999999
 30
0.0
 11
-162.7810202559842
 21
-398.6499999999999
 31
0.0
  0
LINE
  5
2AF
330
1F
100
AcDbEntity
  8
1
  6
CONTINUOUS
 62
   253
100
AcDbLine
 10
-551.1451258776594
 20
-246.6499999999999
 30
0.0
 11
-551.1451258776594
 21
-398.6499999999999
 31
0.0
  0
ARC
  5
2B0
330
1F
100
AcDbEntity
  8
1
  6
CONTINUOUS
 62
   253
100
AcDbCircle
 10
813.1999999999998
 20
-322.6499999999999
 30
0.0
 40
98.24994507292497
100
AcDbArc
 50
159.1308895053579
 51
200.869110494642
  0
LINE
  5
2B1
330
1F
100
AcDbEntity
  8
1
  6
CONTINUOUS
 62
   253
100
AcDbLine
 10
-471.2614329527512
 20
-398.6499999999999
 30
0.0
 11
-471.2614329527512
 21
-246.6499999999999
 31
0.0
  0
LINE
  5
2B2
330
1F
100
AcDbEntity
  8
1
  6
CONTINUOUS
 62
   253
100
AcDbLine
 10
287.7893547777267
 20
-244.6270224884412
 30
0.0
 11
287.7893547777267
 21
-400.6729775115585
 31
0.0
  0
LINE
  5
2B3
330
1F
100
AcDbEntity
  8
1
  6
CONTINUOUS
 62
   253
100
AcDbLine
 10
-559.2614329527512
 20
-398.6499999999999
 30
0.0
 11
-559.2614329527512
 21
-246.6499999999999
 31
0.0
  0
LINE
  5
2B4
330
1F
100
AcDbEntity
  8
1
  6
CONTINUOUS
 62
   253
100
AcDbLine
 10
100.7385670472486
 20
-398.6499999999999
 30
0.0
 11
100.7385670472486
 21
-246.6499999999999
 31
0.0
  0
LINE
  5
2B5
330
1F
100
AcDbEntity
  8
1
  6
CONTINUOUS
 62
   253
100
AcDbLine
 10
64.85487412234048
 20
-246.6499999999999
 30
0.0
 11
64.85487412234048
 21
-398.6499999999999
 31
0.0
  0
LINE
  5
2B6
330
1F
100
AcDbEntity
  8
1
  6
CONTINUOUS
 62
   253
100
AcDbLine
 10
12.73856704724863
 20
-398.6499999999999
 30
0.0
 11
12.73856704724863
 21
-246.6499999999999
 31
0.0
  0
LINE
  5
2B7
330
1F
100
AcDbEntity
  8
1
  6
CONTINUOUS
 62
   253
100
AcDbLine
 10
-770.6647131808926
 20
-398.6499999999999
 30
0.0
 11
-770.6647131808926
 21
-246.6499999999999
 31
0.0
  0
LINE
  5
2B8
330
1F
100
AcDbEntity
  8
1
  6
CONTINUOUS
 62
   253
100
AcDbLine
 10
-196.2106452222733
 20
-244.6270224884412
 30
0.0
 11
-196.2106452222733
 21
-400.6729775115585
 31
0.0
  0
LINE
  5
2B9
330
1F
100
AcDbEntity
  8
1
  6
CONTINUOUS
 62
   253
100
AcDbLine
 10
98.28449908862957
 20
-244.6270224884412
 30
0.0
 11
98.28449908862957
 21
-400.6729775115585
 31
0.0
  0
LINE
  5
2BA
330
1F
100
AcDbEntity
  8
1
  6
CONTINUOUS
 62
   253
100
AcDbLine
 10
-374.6647131808923
 20
-398.6499999999999
 30
0.0
 11
-374.6647131808923
 21
-246.6499999999999
 31
0.0
  0
LINE
  5
2BB
330
1F
100
AcDbEntity
  8
1
  6
CONTINUOUS
 62
   253
100
AcDbLine
 10
-250.7810202559841
 20
-246.6499999999999
 30
0.0
 11
-250.7810202559841
 21
-398.6499999999999
 31
0.0
  0
LINE
  5
2BC
330
1F
100
AcDbEntity
  8
1
  6
CONTINUOUS
 62
   253
100
AcDbLine
 10
-603.2614329527512
 20
-398.6499999999999
 30
0.0
 11
-603.2614329527512
 21
-246.6499999999999
 31
0.0
  0
LINE
  5
2BD
330
1F
100
AcDbEntity
  8
1
  6
CONTINUOUS
 62
   253
100
AcDbLine
 10
144.7385670472486
 20
-398.6499999999999
 30
0.0
 11
144.7385670472486
 21
-246.6499999999999
 31
0.0
  0
LINE
  5
2BE
330
1F
100
AcDbEntity
  8
1
  6
CONTINUOUS
 62
   253
100
AcDbLine
 10
-23.14512587765949
 20
-246.6499999999999
 30
0.0
 11
-23.14512587765949
 21
-398.6499999999999
 31
0.0
  0
LINE
  5
2BF
330
1F
100
AcDbEntity
  8
1
  6
CONTINUOUS
 62
   253
100
AcDbLine
 10
-545.4969365970865
 20
-230.2232303701898
 30
0.0
 11
-545.4969365970865
 21
-415.0767696298099
 31
0.0
  0
LINE
  5
2C0
330
1F
100
AcDbEntity
  8
1
  6
CONTINUOUS
 62
   253
100
AcDbLine
 10
-17.49693659708651
 20
-230.2232303701898
 30
0.0
 11
-17.49693659708651
 21
-415.0767696298099
 31
0.0
  0
LINE
  5
2C1
330
1F
100
AcDbEntity
  8
1
  6
CONTINUOUS
 62
   253
100
AcDbLine
 10
-152.2106452222732
 20
-244.6270224884412
 30
0.0
 11
-152.2106452222732
 21
-400.6729775115585
 31
0.0
  0
LINE
  5
2C2
330
1F
100
AcDbEntity
  8
1
  6
CONTINUOUS
 62
   253
100
AcDbLine
 10
142.2844990886296
 20
-244.6270224884412
 30
0.0
 11
142.2844990886296
 21
-400.6729775115585
 31
0.0
  0
LINE
  5
2C3
330
1F
100
AcDbEntity
  8
1
  6
CONTINUOUS
 62
   253
100
AcDbLine
 10
-639.1451258776594
 20
-246.6499999999999
 30
0.0
 11
-639.1451258776594
 21
-398.6499999999999
 31
0.0
  0
LINE
  5
2C4
330
1F
100
AcDbEntity
  8
1
  6
CONTINUOUS
 62
   253
100
AcDbLine
 10
243.7893547777266
 20
-244.6270224884412
 30
0.0
 11
243.7893547777266
 21
-400.6729775115585
 31
0.0
  0
LINE
  5
2C5
330
1F
100
AcDbEntity
  8
1
  6
CONTINUOUS
 62
   253
100
AcDbLine
 10
-31.26143295275136
 20
-398.6499999999999
 30
0.0
 11
-31.26143295275136
 21
-246.6499999999999
 31
0.0
  0
LINE
  5
2C6
330
1F
100
AcDbEntity
  8
1
  6
CONTINUOUS
 62
   253
100
AcDbLine
 10
-154.6647131808924
 20
-398.6499999999999
 30
0.0
 11
-154.6647131808924
 21
-246.6499999999999
 31
0.0
  0
LINE
  5
2C7
330
1F
100
AcDbEntity
  8
1
  6
CONTINUOUS
 62
   253
100
AcDbLine
 10
-822.7810202559845
 20
-246.6499999999999
 30
0.0
 11
-822.7810202559845
 21
-398.6499999999999
 31
0.0
  0
LINE
  5
2C8
330
1F
100
AcDbEntity
  8
1
  6
CONTINUOUS
 62
   253
100
AcDbLine
 10
155.7893547777267
 20
-244.6270224884412
 30
0.0
 11
155.7893547777267
 21
-400.6729775115585
 31
0.0
  0
LINE
  5
2C9
330
1F
100
AcDbEntity
  8
1
  6
CONTINUOUS
 62
   253
100
AcDbLine
 10
-690.7810202559843
 20
-246.6499999999999
 30
0.0
 11
-690.7810202559843
 21
-398.6499999999999
 31
0.0
  0
LINE
  5
2CA
330
1F
100
AcDbEntity
  8
1
  6
CONTINUOUS
 62
   253
100
AcDbLine
 10
277.2189797440157
 20
-246.6499999999999
 30
0.0
 11
277.2189797440157
 21
-398.6499999999999
 31
0.0
  0
LINE
  5
2CB
330
1F
100
AcDbEntity
  8
1
  6
CONTINUOUS
 62
   253
100
AcDbLine
 10
233.2189797440157
 20
-246.6499999999999
 30
0.0
 11
233.2189797440157
 21
-398.6499999999999
 31
0.0
  0
LINE
  5
2CC
330
1F
100
AcDbEntity
  8
1
  6
CONTINUOUS
 62
   253
100
AcDbLine
 10
-724.2106452222733
 20
-244.6270224884412
 30
0.0
 11
-724.2106452222733
 21
-400.6729775115585
 31
0.0
  0
LINE
  5
2CD
330
1F
100
AcDbEntity
  8
1
  6
CONTINUOUS
 62
   253
100
AcDbLine
 10
-902.6647131808925
 20
-398.6499999999999
 30
0.0
 11
-902.6647131808925
 21
-246.6499999999999
 31
0.0
  0
LINE
  5
2CE
330
1F
100
AcDbEntity
  8
1
  6
CONTINUOUS
 62
   253
100
AcDbLine
 10
-517.7155009113703
 20
-244.6270224884412
 30
0.0
 11
-517.7155009113703
 21
-400.6729775115585
 31
0.0
  0
LINE
  5
2CF
330
1F
100
AcDbEntity
  8
1
  6
CONTINUOUS
 62
   253
100
AcDbLine
 10
-515.2614329527513
 20
-398.6499999999999
 30
0.0
 11
-515.2614329527513
 21
-246.6499999999999
 31
0.0
  0
LINE
  5
2D0
330
1F
100
AcDbEntity
  8
1
  6
CONTINUOUS
 62
   253
100
AcDbLine
 10
-198.6647131808923
 20
-398.6499999999999
 30
0.0
 11
-198.6647131808923
 21
-246.6499999999999
 31
0.0
  0
LINE
  5
2D1
330
1F
100
AcDbEntity
  8
1
  6
CONTINUOUS
 62
   253
100
AcDbLine
 10
-385.7155009113704
 20
-244.6270224884412
 30
0.0
 11
-385.7155009113704
 21
-400.6729775115585
 31
0.0
  0
LINE
  5
2D2
330
1F
100
AcDbEntity
  8
1
  6
CONTINUOUS
 62
   253
100
AcDbLine
 10
-330.6647131808923
 20
-398.6499999999999
 30
0.0
 11
-330.6647131808923
 21
-246.6499999999999
 31
0.0
  0
LINE
  5
2D3
330
1F
100
AcDbEntity
  8
1
  6
CONTINUOUS
 62
   253
100
AcDbLine
 10
-858.6647131808924
 20
-398.6499999999999
 30
0.0
 11
-858.6647131808924
 21
-246.6499999999999
 31
0.0
  0
LINE
  5
2D4
330
1F
100
AcDbEntity
  8
1
  6
CONTINUOUS
 62
   253
100
AcDbLine
 10
-286.6647131808924
 20
-398.6499999999999
 30
0.0
 11
-286.6647131808924
 21
-246.6499999999999
 31
0.0
  0
LINE
  5
2D5
330
1F
100
AcDbEntity
  8
1
  6
CONTINUOUS
 62
   253
100
AcDbLine
 10
-726.6647131808925
 20
-398.6499999999999
 30
0.0
 11
-726.6647131808925
 21
-246.6499999999999
 31
0.0
  0
LINE
  5
2D6
330
1F
100
AcDbEntity
  8
1
  6
CONTINUOUS
 62
   253
100
AcDbLine
 10
-383.2614329527512
 20
-398.6499999999999
 30
0.0
 11
-383.2614329527512
 21
-246.6499999999999
 31
0.0
  0
LINE
  5
2D7
330
1F
100
AcDbEntity
  8
1
  6
CONTINUOUS
 62
   253
100
AcDbLine
 10
-473.7155009113704
 20
-244.6270224884412
 30
0.0
 11
-473.7155009113704
 21
-400.6729775115585
 31
0.0
  0
LINE
  5
2D8
330
1F
100
AcDbEntity
  8
1
  6
CONTINUOUS
 62
   253
100
AcDbLine
 10
-328.2106452222733
 20
-244.6270224884412
 30
0.0
 11
-328.2106452222733
 21
-400.6729775115585
 31
0.0
  0
LINE
  5
2D9
330
1F
100
AcDbEntity
  8
1
  6
CONTINUOUS
 62
   253
100
AcDbLine
 10
-561.7155009113703
 20
-244.6270224884412
 30
0.0
 11
-561.7155009113703
 21
-400.6729775115585
 31
0.0
  0
LINE
  5
2DA
330
1F
100
AcDbEntity
  8
1
  6
CONTINUOUS
 62
   253
100
AcDbLine
 10
-605.7155009113703
 20
-244.6270224884412
 30
0.0
 11
-605.7155009113703
 21
-400.6729775115585
 31
0.0
  0
LINE
  5
2DB
330
1F
100
AcDbEntity
  8
1
  6
CONTINUOUS
 62
   253
100
AcDbLine
 10
241.3352868191076
 20
-398.6499999999999
 30
0.0
 11
241.3352868191076
 21
-246.6499999999999
 31
0.0
  0
LINE
  5
2DC
330
1F
100
AcDbEntity
  8
1
  6
CONTINUOUS
 62
   253
100
AcDbLine
 10
10.28449908862955
 20
-244.6270224884412
 30
0.0
 11
10.28449908862955
 21
-400.6729775115585
 31
0.0
  0
LINE
  5
2DD
330
1F
100
AcDbEntity
  8
1
  6
CONTINUOUS
 62
   253
100
AcDbLine
 10
285.3352868191076
 20
-398.6499999999999
 30
0.0
 11
285.3352868191076
 21
-246.6499999999999
 31
0.0
  0
LINE
  5
2DE
330
1F
100
AcDbEntity
  8
1
  6
CONTINUOUS
 62
   253
100
AcDbLine
 10
-429.7155009113703
 20
-244.6270224884412
 30
0.0
 11
-429.7155009113703
 21
-400.6729775115585
 31
0.0
  0
LINE
  5
2DF
330
1F
100
AcDbEntity
  8
1
  6
CONTINUOUS
 62
   253
100
AcDbLine
 10
54.28449908862953
 20
-244.6270224884412
 30
0.0
 11
54.28449908862953
 21
-400.6729775115585
 31
0.0
  0
LINE
  5
2E0
330
1F
100
AcDbEntity
  8
1
  6
CONTINUOUS
 62
   253
100
AcDbLine
 10
-682.6647131808925
 20
-398.6499999999999
 30
0.0
 11
-682.6647131808925
 21
-246.6499999999999
 31
0.0
  0
LINE
  5
2E1
330
1F
100
AcDbEntity
  8
1
  6
CONTINUOUS
 62
   253
100
AcDbLine
 10
-595.1451258776594
 20
-246.6499999999999
 30
0.0
 11
-595.1451258776594
 21
-398.6499999999999
 31
0.0
  0
LINE
  5
2E2
330
1F
100
AcDbEntity
  8
1
  6
CONTINUOUS
 62
   253
100
AcDbLine
 10
91.43859727183256
 20
-226.3609349295344
 30
0.0
 11
91.43859727183256
 21
-418.9390650704653
 31
0.0
  0
LINE
  5
2E3
330
1F
100
AcDbEntity
  8
1
  6
CONTINUOUS
 62
   253
100
AcDbLine
 10
-212.4292095365572
 20
-230.2232303701898
 30
0.0
 11
-212.4292095365572
 21
-415.0767696298099
 31
0.0
  0
LINE
  5
2E4
330
1F
100
AcDbEntity
  8
1
  6
CONTINUOUS
 62
   253
100
AcDbLine
 10
-75.26143295275133
 20
-398.6499999999999
 30
0.0
 11
-75.26143295275133
 21
-246.6499999999999
 31
0.0
  0
LINE
  5
2E5
330
1F
100
AcDbEntity
  8
1
  6
CONTINUOUS
 62
   253
100
AcDbLine
 10
-856.2106452222732
 20
-244.6270224884412
 30
0.0
 11
-856.2106452222732
 21
-400.6729775115585
 31
0.0
  0
LINE
  5
2E6
330
1F
100
AcDbEntity
  8
1
  6
CONTINUOUS
 62
   253
100
AcDbLine
 10
-33.71550091137043
 20
-244.6270224884412
 30
0.0
 11
-33.71550091137043
 21
-400.6729775115585
 31
0.0
  0
LINE
  5
2E7
330
1F
100
AcDbEntity
  8
1
  6
CONTINUOUS
 62
   253
100
AcDbLine
 10
-240.2106452222732
 20
-244.6270224884412
 30
0.0
 11
-240.2106452222732
 21
-400.6729775115585
 31
0.0
  0
LINE
  5
2E8
330
1F
100
AcDbEntity
  8
1
  6
CONTINUOUS
 62
   253
100
AcDbLine
 10
153.3352868191076
 20
-398.6499999999999
 30
0.0
 11
153.3352868191076
 21
-246.6499999999999
 31
0.0
  0
LINE
  5
2E9
330
1F
100
AcDbEntity
  8
1
  6
CONTINUOUS
 62
   253
100
AcDbLine
 10
-242.6647131808923
 20
-398.6499999999999
 30
0.0
 11
-242.6647131808923
 21
-246.6499999999999
 31
0.0
  0
LINE
  5
2EA
330
1F
100
AcDbEntity
  8
1
  6
CONTINUOUS
 62
   253
100
AcDbLine
 10
-372.2106452222733
 20
-244.6270224884412
 30
0.0
 11
-372.2106452222733
 21
-400.6729775115585
 31
0.0
  0
LINE
  5
2EB
330
1F
100
AcDbEntity
  8
1
  6
CONTINUOUS
 62
   253
100
AcDbLine
 10
56.73856704724867
 20
-398.6499999999999
 30
0.0
 11
56.73856704724867
 21
-246.6499999999999
 31
0.0
  0
LINE
  5
2EC
330
1F
100
AcDbEntity
  8
1
  6
CONTINUOUS
 62
   253
100
AcDbLine
 10
-284.2106452222732
 20
-244.6270224884412
 30
0.0
 11
-284.2106452222732
 21
-400.6729775115585
 31
0.0
  0
LINE
  5
2ED
330
1F
100
AcDbEntity
  8
1
  6
CONTINUOUS
 62
   253
100
AcDbLine
 10
-77.71550091137047
 20
-244.6270224884412
 30
0.0
 11
-77.71550091137047
 21
-400.6729775115585
 31
0.0
  0
LINE
  5
2EE
330
1F
100
AcDbEntity
  8
1
  6
CONTINUOUS
 62
   253
100
AcDbLine
 10
-778.7810202559843
 20
-246.6499999999999
 30
0.0
 11
-778.7810202559843
 21
-398.6499999999999
 31
0.0
  0
LINE
  5
2EF
330
1F
100
AcDbEntity
  8
1
  6
CONTINUOUS
 62
   253
100
AcDbLine
 10
-814.6647131808926
 20
-398.6499999999999
 30
0.0
 11
-814.6647131808926
 21
-246.6499999999999
 31
0.0
  0
LINE
  5
2F0
330
1F
100
AcDbEntity
  8
1
  6
CONTINUOUS
 62
   253
100
AcDbLine
 10
-294.7810202559842
 20
-246.6499999999999
 30
0.0
 11
-294.7810202559842
 21
-398.6499999999999
 31
0.0
  0
LINE
  5
2F1
330
1F
100
AcDbEntity
  8
1
  6
CONTINUOUS
 62
   253
100
AcDbLine
 10
-696.4292095365574
 20
-230.2232303701898
 30
0.0
 11
-696.4292095365574
 21
-415.0767696298099
 31
0.0
  0
LINE
  5
2F2
330
1F
100
AcDbEntity
  8
1
  6
CONTINUOUS
 62
   253
100
AcDbLine
 10
250.6352565945237
 20
-226.3609349295344
 30
0.0
 11
250.6352565945237
 21
-418.9390650704653
 31
0.0
  0
LINE
  5
2F3
330
1F
100
AcDbEntity
  8
1
  6
CONTINUOUS
 62
   253
100
AcDbLine
 10
-40.56140272816744
 20
-226.3609349295344
 30
0.0
 11
-40.56140272816744
 21
-418.9390650704653
 31
0.0
  0
LINE
  5
2F4
330
1F
100
AcDbEntity
  8
1
  6
CONTINUOUS
 62
   253
100
AcDbLine
 10
-392.5614027281674
 20
-226.3609349295344
 30
0.0
 11
-392.5614027281674
 21
-418.9390650704653
 31
0.0
  0
LINE
  5
2F5
330
1F
100
AcDbEntity
  8
1
  6
CONTINUOUS
 62
   253
100
AcDbLine
 10
-365.3647434054763
 20
-226.3609349295344
 30
0.0
 11
-365.3647434054763
 21
-418.9390650704653
 31
0.0
  0
LINE
  5
2F6
330
1F
100
AcDbEntity
  8
1
  6
CONTINUOUS
 62
   253
100
AcDbLine
 10
-893.3647434054764
 20
-226.3609349295344
 30
0.0
 11
-893.3647434054764
 21
-418.9390650704653
 31
0.0
  0
LINE
  5
2F7
330
1F
100
AcDbEntity
  8
1
  6
CONTINUOUS
 62
   253
100
AcDbLine
 10
-501.4969365970865
 20
-230.2232303701898
 30
0.0
 11
-501.4969365970865
 21
-415.0767696298099
 31
0.0
  0
LINE
  5
2F8
330
1F
100
AcDbEntity
  8
1
  6
CONTINUOUS
 62
   253
100
AcDbLine
 10
26.50306340291347
 20
-230.2232303701898
 30
0.0
 11
26.50306340291347
 21
-415.0767696298099
 31
0.0
  0
LINE
  5
2F9
330
1F
100
AcDbEntity
  8
1
  6
CONTINUOUS
 62
   253
100
AcDbLine
 10
-568.5614027281673
 20
-226.3609349295344
 30
0.0
 11
-568.5614027281673
 21
-418.9390650704653
 31
0.0
  0
LINE
  5
2FA
330
1F
100
AcDbEntity
  8
1
  6
CONTINUOUS
 62
   253
100
AcDbLine
 10
-872.4292095365573
 20
-230.2232303701898
 30
0.0
 11
-872.4292095365573
 21
-415.0767696298099
 31
0.0
  0
LINE
  5
2FB
330
1F
100
AcDbEntity
  8
1
  6
CONTINUOUS
 62
   253
100
AcDbLine
 10
-524.5614027281673
 20
-226.3609349295344
 30
0.0
 11
-524.5614027281673
 21
-418.9390650704653
 31
0.0
  0
LINE
  5
2FC
330
1F
100
AcDbEntity
  8
1
  6
CONTINUOUS
 62
   253
100
AcDbLine
 10
-256.4292095365572
 20
-230.2232303701898
 30
0.0
 11
-256.4292095365572
 21
-415.0767696298099
 31
0.0
  0
LINE
  5
2FD
330
1F
100
AcDbEntity
  8
1
  6
CONTINUOUS
 62
   253
100
AcDbLine
 10
267.5395752605836
 20
-418.9217461779108
 30
0.0
 11
267.5395752605836
 21
-226.3782538220891
 31
0.0
  0
LINE
  5
2FE
330
1F
100
AcDbEntity
  8
1
  6
CONTINUOUS
 62
   253
100
AcDbLine
 10
-189.3647434054763
 20
-226.3609349295344
 30
0.0
 11
-189.3647434054763
 21
-418.9390650704653
 31
0.0
  0
LINE
  5
2FF
330
1F
100
AcDbEntity
  8
1
  6
CONTINUOUS
 62
   253
100
AcDbLine
 10
-480.5614027281674
 20
-226.3609349295344
 30
0.0
 11
-480.5614027281674
 21
-418.9390650704653
 31
0.0
  0
LINE
  5
300
330
1F
100
AcDbEntity
  8
1
  6
CONTINUOUS
 62
   253
100
AcDbLine
 10
-145.3647434054763
 20
-226.3609349295344
 30
0.0
 11
-145.3647434054763
 21
-418.9390650704653
 31
0.0
  0
LINE
  5
301
330
1F
100
AcDbEntity
  8
1
  6
CONTINUOUS
 62
   253
100
AcDbLine
 10
-680.2106452222733
 20
-244.6270224884412
 30
0.0
 11
-680.2106452222733
 21
-400.6729775115585
 31
0.0
  0
LINE
  5
302
330
1F
100
AcDbEntity
  8
1
  6
CONTINUOUS
 62
   253
100
AcDbLine
 10
-321.3647434054762
 20
-226.3609349295344
 30
0.0
 11
-321.3647434054762
 21
-418.9390650704653
 31
0.0
  0
LINE
  5
303
330
1F
100
AcDbEntity
  8
1
  6
CONTINUOUS
 62
   253
100
AcDbLine
 10
-768.2106452222735
 20
-244.6270224884412
 30
0.0
 11
-768.2106452222735
 21
-400.6729775115585
 31
0.0
  0
LINE
  5
304
330
1F
100
AcDbEntity
  8
1
  6
CONTINUOUS
 62
   253
100
AcDbLine
 10
-761.3647434054765
 20
-226.3609349295344
 30
0.0
 11
-761.3647434054765
 21
-418.9390650704653
 31
0.0
  0
LINE
  5
305
330
1F
100
AcDbEntity
  8
1
  6
CONTINUOUS
 62
   253
100
AcDbLine
 10
-828.4292095365573
 20
-230.2232303701898
 30
0.0
 11
-828.4292095365573
 21
-415.0767696298099
 31
0.0
  0
LINE
  5
306
330
1F
100
AcDbEntity
  8
1
  6
CONTINUOUS
 62
   253
100
AcDbLine
 10
-436.5614027281674
 20
-226.3609349295344
 30
0.0
 11
-436.5614027281674
 21
-418.9390650704653
 31
0.0
  0
LINE
  5
307
330
1F
100
AcDbEntity
  8
1
  6
CONTINUOUS
 62
   253
100
AcDbLine
 10
-61.4969365970865
 20
-230.2232303701898
 30
0.0
 11
-61.4969365970865
 21
-415.0767696298099
 31
0.0
  0
LINE
  5
308
330
1F
100
AcDbEntity
  8
1
  6
CONTINUOUS
 62
   253
100
AcDbLine
 10
3.4385972718326
 20
-226.3609349295344
 30
0.0
 11
3.4385972718326
 21
-418.9390650704653
 31
0.0
  0
LINE
  5
309
330
1F
100
AcDbEntity
  8
1
  6
CONTINUOUS
 62
   253
100
AcDbLine
 10
-124.4292095365572
 20
-230.2232303701898
 30
0.0
 11
-124.4292095365572
 21
-415.0767696298099
 31
0.0
  0
LINE
  5
30A
330
1F
100
AcDbEntity
  8
1
  6
CONTINUOUS
 62
   253
100
AcDbLine
 10
-233.3647434054763
 20
-226.3609349295344
 30
0.0
 11
-233.3647434054763
 21
-418.9390650704653
 31
0.0
  0
LINE
  5
30B
330
1F
100
AcDbEntity
  8
1
  6
CONTINUOUS
 62
   253
100
AcDbLine
 10
227.5707904634427
 20
-230.2232303701898
 30
0.0
 11
227.5707904634427
 21
-415.0767696298099
 31
0.0
  0
LINE
  5
30C
330
1F
100
AcDbEntity
  8
1
  6
CONTINUOUS
 62
   253
100
AcDbLine
 10
-652.4292095365573
 20
-230.2232303701898
 30
0.0
 11
-652.4292095365573
 21
-415.0767696298099
 31
0.0
  0
LINE
  5
30D
330
1F
100
AcDbEntity
  8
1
  6
CONTINUOUS
 62
   253
100
AcDbLine
 10
-277.3647434054762
 20
-226.3609349295344
 30
0.0
 11
-277.3647434054762
 21
-418.9390650704653
 31
0.0
  0
LINE
  5
30E
330
1F
100
AcDbEntity
  8
1
  6
CONTINUOUS
 62
   253
100
AcDbLine
 10
-812.2106452222732
 20
-244.6270224884412
 30
0.0
 11
-812.2106452222732
 21
-400.6729775115585
 31
0.0
  0
LINE
  5
30F
330
1F
100
AcDbEntity
  8
1
  6
CONTINUOUS
 62
   253
100
AcDbLine
 10
206.6352565945237
 20
-226.3609349295344
 30
0.0
 11
206.6352565945237
 21
-418.9390650704653
 31
0.0
  0
LINE
  5
310
330
1F
100
AcDbEntity
  8
1
  6
CONTINUOUS
 62
   253
100
AcDbLine
 10
114.5030634029134
 20
-230.2232303701898
 30
0.0
 11
114.5030634029134
 21
-415.0767696298099
 31
0.0
  0
LINE
  5
311
330
1F
100
AcDbEntity
  8
1
  6
CONTINUOUS
 62
   253
100
AcDbLine
 10
-300.4292095365572
 20
-230.2232303701898
 30
0.0
 11
-300.4292095365572
 21
-415.0767696298099
 31
0.0
  0
LINE
  5
312
330
1F
100
AcDbEntity
  8
1
  6
CONTINUOUS
 62
   253
100
AcDbLine
 10
-344.4292095365571
 20
-230.2232303701898
 30
0.0
 11
-344.4292095365571
 21
-415.0767696298099
 31
0.0
  0
LINE
  5
313
330
1F
100
AcDbEntity
  8
1
  6
CONTINUOUS
 62
   253
100
AcDbLine
 10
135.4385972718325
 20
-226.3609349295344
 30
0.0
 11
135.4385972718325
 21
-418.9390650704653
 31
0.0
  0
LINE
  5
314
330
1F
100
AcDbEntity
  8
1
  6
CONTINUOUS
 62
   253
100
AcDbLine
 10
183.5707904634428
 20
-212.6499999999999
 30
0.0
 11
183.5707904634428
 21
-437.6499999999999
 31
0.0
  0
LINE
  5
315
330
1F
100
AcDbEntity
  8
1
  6
CONTINUOUS
 62
   253
100
AcDbLine
 10
-84.56140272816737
 20
-226.3609349295344
 30
0.0
 11
-84.56140272816737
 21
-418.9390650704653
 31
0.0
  0
LINE
  5
316
330
1F
100
AcDbEntity
  8
1
  6
CONTINUOUS
 62
   253
100
AcDbLine
 10
-612.5614027281674
 20
-226.3609349295344
 30
0.0
 11
-612.5614027281674
 21
-418.9390650704653
 31
0.0
  0
LINE
  5
317
330
1F
100
AcDbEntity
  8
1
  6
CONTINUOUS
 62
   253
100
AcDbLine
 10
-105.4969365970865
 20
-230.2232303701898
 30
0.0
 11
-105.4969365970865
 21
-415.0767696298099
 31
0.0
  0
LINE
  5
318
330
1F
100
AcDbEntity
  8
1
  6
CONTINUOUS
 62
   253
100
AcDbLine
 10
-589.4969365970863
 20
-230.2232303701898
 30
0.0
 11
-589.4969365970863
 21
-415.0767696298099
 31
0.0
  0
CIRCLE
  5
319
330
1F
100
AcDbEntity
  8
1
  6
CONTINUOUS
 62
     7
100
AcDbCircle
 10
813.1999999999998
 20
-322.6499999999999
 30
0.0
 40
104.5
  0
LINE
  5
31A
330
1F
100
AcDbEntity
  8
1
  6
CONTINUOUS
 62
   253
100
AcDbLine
 10
-900.2106452222733
 20
-244.6270224884412
 30
0.0
 11
-900.2106452222733
 21
-400.6729775115585
 31
0.0
  0
LINE
  5
31B
330
1F
100
AcDbEntity
  8
1
  6
CONTINUOUS
 62
   253
100
AcDbLine
 10
-168.4292095365572
 20
-230.2232303701898
 30
0.0
 11
-168.4292095365572
 21
-415.0767696298099
 31
0.0
  0
LINE
  5
31C
330
1F
100
AcDbEntity
  8
1
  6
CONTINUOUS
 62
   253
100
AcDbLine
 10
-633.4969365970863
 20
-230.2232303701898
 30
0.0
 11
-633.4969365970863
 21
-415.0767696298099
 31
0.0
  0
LINE
  5
31D
330
1F
100
AcDbEntity
  8
1
  6
CENTER
 62
     1
100
AcDbLine
 10
-1127.45
 20
-421.6499999999999
 30
0.0
 11
-1127.45
 21
-223.6499999999998
 31
0.0
  0
LINE
  5
31E
330
1F
100
AcDbEntity
  8
1
  6
CONTINUOUS
 62
   253
100
AcDbLine
 10
162.6352565945237
 20
-226.3609349295344
 30
0.0
 11
162.6352565945237
 21
-418.9390650704653
 31
0.0
  0
LINE
  5
31F
330
1F
100
AcDbEntity
  8
1
  6
CENTER
 62
     1
100
AcDbLine
 10
813.1999999999998
 20
-429.1499999999998
 30
0.0
 11
813.1999999999998
 21
-216.1499999999999
 31
0.0
  0
LINE
  5
320
330
1F
100
AcDbEntity
  8
1
  6
CONTINUOUS
 62
   253
100
AcDbLine
 10
-413.4969365970864
 20
-230.2232303701898
 30
0.0
 11
-413.4969365970864
 21
-415.0767696298099
 31
0.0
  0
LINE
  5
321
330
1F
100
AcDbEntity
  8
1
  6
CENTER
 62
     1
100
AcDbLine
 10
706.6999999999998
 20
-322.6499999999999
 30
0.0
 11
919.6999999999997
 21
-322.6499999999999
 31
0.0
  0
LINE
  5
322
330
1F
100
AcDbEntity
  8
1
  6
CONTINUOUS
 62
   253
100
AcDbLine
 10
-849.3647434054762
 20
-226.3609349295344
 30
0.0
 11
-849.3647434054762
 21
-418.9390650704653
 31
0.0
  0
LINE
  5
323
330
1F
100
AcDbEntity
  8
1
  6
CONTINUOUS
 62
   253
100
AcDbLine
 10
-304.4604247394162
 20
-418.9217461779108
 30
0.0
 11
-304.4604247394162
 21
-226.3782538220891
 31
0.0
  0
LINE
  5
324
330
1F
100
AcDbEntity
  8
1
  6
CONTINUOUS
 62
   253
100
AcDbLine
 10
-784.4292095365572
 20
-230.2232303701898
 30
0.0
 11
-784.4292095365572
 21
-415.0767696298099
 31
0.0
  0
LINE
  5
325
330
1F
100
AcDbEntity
  8
1
  6
CONTINUOUS
 62
   253
100
AcDbLine
 10
-805.3647434054762
 20
-226.3609349295344
 30
0.0
 11
-805.3647434054762
 21
-418.9390650704653
 31
0.0
  0
LINE
  5
326
330
1F
100
AcDbEntity
  8
1
  6
CONTINUOUS
 62
   253
100
AcDbLine
 10
70.50306340291345
 20
-230.2232303701898
 30
0.0
 11
70.50306340291345
 21
-415.0767696298099
 31
0.0
  0
LINE
  5
327
330
1F
100
AcDbEntity
  8
1
  6
CONTINUOUS
 62
   253
100
AcDbLine
 10
47.43859727183253
 20
-226.3609349295344
 30
0.0
 11
47.43859727183253
 21
-418.9390650704653
 31
0.0
  0
LINE
  5
328
330
1F
100
AcDbEntity
  8
1
  6
CONTINUOUS
 62
   253
100
AcDbLine
 10
-740.4292095365572
 20
-230.2232303701898
 30
0.0
 11
-740.4292095365572
 21
-415.0767696298099
 31
0.0
  0
LINE
  5
329
330
1F
100
AcDbEntity
  8
1
  6
CENTER
 62
     1
100
AcDbLine
 10
-1226.45
 20
-322.6499999999999
 30
0.0
 11
-1028.45
 21
-322.6499999999999
 31
0.0
  0
LINE
  5
32A
330
1F
100
AcDbEntity
  8
1
  6
CONTINUOUS
 62
   253
100
AcDbLine
 10
271.5707904634427
 20
-230.2232303701898
 30
0.0
 11
271.5707904634427
 21
-415.0767696298099
 31
0.0
  0
LINE
  5
32B
330
1F
100
AcDbEntity
  8
1
  6
CONTINUOUS
 62
   253
100
AcDbLine
 10
-717.3647434054764
 20
-226.3609349295344
 30
0.0
 11
-717.3647434054764
 21
-418.9390650704653
 31
0.0
  0
LINE
  5
32C
330
1F
100
AcDbEntity
  8
1
  6
CONTINUOUS
 62
   253
100
AcDbLine
 10
-457.4969365970865
 20
-230.2232303701898
 30
0.0
 11
-457.4969365970865
 21
-415.0767696298099
 31
0.0
  0
LINE
  5
32D
330
1F
100
AcDbEntity
  8
1
  6
CONTINUOUS
 62
   253
100
AcDbLine
 10
-700.4604247394163
 20
-418.9217461779108
 30
0.0
 11
-700.4604247394163
 21
-226.3782538220891
 31
0.0
  0
LINE
  5
32E
330
1F
100
AcDbEntity
  8
1
  6
CONTINUOUS
 62
   253
100
AcDbLine
 10
-656.4604247394163
 20
-418.9217461779108
 30
0.0
 11
-656.4604247394163
 21
-226.3782538220891
 31
0.0
  0
LINE
  5
32F
330
1F
100
AcDbEntity
  8
1
  6
CONTINUOUS
 62
   253
100
AcDbLine
 10
30.53427860577262
 20
-418.9217461779108
 30
0.0
 11
30.53427860577262
 21
-226.3782538220891
 31
0.0
  0
LINE
  5
330
330
1F
100
AcDbEntity
  8
1
  6
CONTINUOUS
 62
   253
100
AcDbLine
 10
-673.3647434054764
 20
-226.3609349295344
 30
0.0
 11
-673.3647434054764
 21
-418.9390650704653
 31
0.0
  0
LINE
  5
331
330
1F
100
AcDbEntity
  8
1
  6
CONTINUOUS
 62
   253
100
AcDbLine
 10
-744.4604247394165
 20
-418.9217461779108
 30
0.0
 11
-744.4604247394165
 21
-226.3782538220891
 31
0.0
  0
LINE
  5
332
330
1F
100
AcDbEntity
  8
1
  6
CONTINUOUS
 62
   253
100
AcDbLine
 10
-677.4327122888493
 20
-414.9642035403015
 30
0.0
 11
-677.4327122888493
 21
-230.3357964596984
 31
0.0
  0
LINE
  5
333
330
1F
100
AcDbEntity
  8
1
  6
CONTINUOUS
 62
   253
100
AcDbLine
 10
-281.4327122888491
 20
-414.9642035403015
 30
0.0
 11
-281.4327122888491
 21
-230.3357964596984
 31
0.0
  0
LINE
  5
334
330
1F
100
AcDbEntity
  8
1
  6
CONTINUOUS
 62
   253
100
AcDbLine
 10
223.5395752605836
 20
-418.9217461779108
 30
0.0
 11
223.5395752605836
 21
-226.3782538220891
 31
0.0
  0
LINE
  5
335
330
1F
100
AcDbEntity
  8
1
  6
CONTINUOUS
 62
   253
100
AcDbLine
 10
-636.7043858598596
 20
-400.6089009651546
 30
0.0
 11
-636.7043858598596
 21
-244.6910990348452
 31
0.0
  0
LINE
  5
336
330
1F
100
AcDbEntity
  8
1
  6
CONTINUOUS
 62
   253
100
AcDbLine
 10
-737.2217602737843
 20
-400.6089009651546
 30
0.0
 11
-737.2217602737843
 21
-244.6910990348452
 31
0.0
  0
LINE
  5
337
330
1F
100
AcDbEntity
  8
1
  6
CONTINUOUS
 62
   253
100
AcDbLine
 10
-108.7043858598598
 20
-400.6089009651546
 30
0.0
 11
-108.7043858598598
 21
-244.6910990348452
 31
0.0
  0
LINE
  5
338
330
1F
100
AcDbEntity
  8
1
  6
CONTINUOUS
 62
   253
100
AcDbLine
 10
179.5395752605836
 20
-418.9217461779108
 30
0.0
 11
179.5395752605836
 21
-226.3782538220891
 31
0.0
  0
LINE
  5
339
330
1F
100
AcDbEntity
  8
1
  6
CONTINUOUS
 62
   253
100
AcDbLine
 10
-121.2217602737839
 20
-400.6089009651546
 30
0.0
 11
-121.2217602737839
 21
-244.6910990348452
 31
0.0
  0
LINE
  5
33A
330
1F
100
AcDbEntity
  8
1
  6
CONTINUOUS
 62
   253
100
AcDbLine
 10
74.53427860577256
 20
-418.9217461779108
 30
0.0
 11
74.53427860577256
 21
-226.3782538220891
 31
0.0
  0
LINE
  5
33B
330
1F
100
AcDbEntity
  8
1
  6
CONTINUOUS
 62
   253
100
AcDbLine
 10
-409.4657213942273
 20
-418.9217461779108
 30
0.0
 11
-409.4657213942273
 21
-226.3782538220891
 31
0.0
  0
LINE
  5
33C
330
1F
100
AcDbEntity
  8
1
  6
CONTINUOUS
 62
   253
100
AcDbLine
 10
-193.432712288849
 20
-414.9642035403015
 30
0.0
 11
-193.432712288849
 21
-230.3357964596984
 31
0.0
  0
LINE
  5
33D
330
1F
100
AcDbEntity
  8
1
  6
CONTINUOUS
 62
   253
100
AcDbLine
 10
139.5065661552054
 20
-414.9642035403015
 30
0.0
 11
139.5065661552054
 21
-230.3357964596984
 31
0.0
  0
LINE
  5
33E
330
1F
100
AcDbEntity
  8
1
  6
CONTINUOUS
 62
   253
100
AcDbLine
 10
230.7782397262159
 20
-400.6089009651546
 30
0.0
 11
230.7782397262159
 21
-244.6910990348452
 31
0.0
  0
LINE
  5
33F
330
1F
100
AcDbEntity
  8
1
  6
CONTINUOUS
 62
   253
100
AcDbLine
 10
-876.4604247394163
 20
-418.9217461779108
 30
0.0
 11
-876.4604247394163
 21
-226.3782538220891
 31
0.0
  0
LINE
  5
340
330
1F
100
AcDbEntity
  8
1
  6
CONTINUOUS
 62
   253
100
AcDbLine
 10
-832.4604247394162
 20
-418.9217461779108
 30
0.0
 11
-832.4604247394162
 21
-226.3782538220891
 31
0.0
  0
LINE
  5
341
330
1F
100
AcDbEntity
  8
1
  6
CONTINUOUS
 62
   253
100
AcDbLine
 10
-348.4604247394163
 20
-418.9217461779108
 30
0.0
 11
-348.4604247394163
 21
-226.3782538220891
 31
0.0
  0
LINE
  5
342
330
1F
100
AcDbEntity
  8
1
  6
CONTINUOUS
 62
   253
100
AcDbLine
 10
-216.4604247394163
 20
-418.9217461779108
 30
0.0
 11
-216.4604247394163
 21
-226.3782538220891
 31
0.0
  0
LINE
  5
343
330
1F
100
AcDbEntity
  8
1
  6
CONTINUOUS
 62
   253
100
AcDbLine
 10
-432.4934338447945
 20
-414.9642035403015
 30
0.0
 11
-432.4934338447945
 21
-230.3357964596984
 31
0.0
  0
LINE
  5
344
330
1F
100
AcDbEntity
  8
1
  6
CONTINUOUS
 62
   253
100
AcDbLine
 10
-13.46572139422741
 20
-418.9217461779108
 30
0.0
 11
-13.46572139422741
 21
-226.3782538220891
 31
0.0
  0
LINE
  5
345
330
1F
100
AcDbEntity
  8
1
  6
CONTINUOUS
 62
   253
100
AcDbLine
 10
-497.4657213942273
 20
-418.9217461779108
 30
0.0
 11
-497.4657213942273
 21
-226.3782538220891
 31
0.0
  0
LINE
  5
346
330
1F
100
AcDbEntity
  8
1
  6
CONTINUOUS
 62
   253
100
AcDbLine
 10
-260.4604247394163
 20
-418.9217461779108
 30
0.0
 11
-260.4604247394163
 21
-226.3782538220891
 31
0.0
  0
LINE
  5
347
330
1F
100
AcDbEntity
  8
1
  6
CONTINUOUS
 62
   253
100
AcDbLine
 10
-36.49343384479459
 20
-414.9642035403015
 30
0.0
 11
-36.49343384479459
 21
-230.3357964596984
 31
0.0
  0
LINE
  5
348
330
1F
100
AcDbEntity
  8
1
  6
CONTINUOUS
 62
   253
100
AcDbLine
 10
-585.4657213942273
 20
-418.9217461779108
 30
0.0
 11
-585.4657213942273
 21
-226.3782538220891
 31
0.0
  0
LINE
  5
349
330
1F
100
AcDbEntity
  8
1
  6
CONTINUOUS
 62
   253
100
AcDbLine
 10
-541.4657213942273
 20
-418.9217461779108
 30
0.0
 11
-541.4657213942273
 21
-226.3782538220891
 31
0.0
  0
LINE
  5
34A
330
1F
100
AcDbEntity
  8
1
  6
CONTINUOUS
 62
   253
100
AcDbLine
 10
-564.4934338447945
 20
-414.9642035403015
 30
0.0
 11
-564.4934338447945
 21
-230.3357964596984
 31
0.0
  0
LINE
  5
34B
330
1F
100
AcDbEntity
  8
1
  6
CONTINUOUS
 62
   253
100
AcDbLine
 10
51.50656615520543
 20
-414.9642035403015
 30
0.0
 11
51.50656615520543
 21
-230.3357964596984
 31
0.0
  0
LINE
  5
34C
330
1F
100
AcDbEntity
  8
1
  6
CONTINUOUS
 62
   253
100
AcDbLine
 10
-80.49343384479457
 20
-414.9642035403015
 30
0.0
 11
-80.49343384479457
 21
-230.3357964596984
 31
0.0
  0
LINE
  5
34D
330
1F
100
AcDbEntity
  8
1
  6
CONTINUOUS
 62
   253
100
AcDbLine
 10
-165.221760273784
 20
-400.6089009651546
 30
0.0
 11
-165.221760273784
 21
-244.6910990348452
 31
0.0
  0
LINE
  5
34E
330
1F
100
AcDbEntity
  8
1
  6
CONTINUOUS
 62
   253
100
AcDbLine
 10
-649.2217602737842
 20
-400.6089009651546
 30
0.0
 11
-649.2217602737842
 21
-244.6910990348452
 31
0.0
  0
LINE
  5
34F
330
1F
100
AcDbEntity
  8
1
  6
CONTINUOUS
 62
   253
100
AcDbLine
 10
-548.7043858598596
 20
-400.6089009651546
 30
0.0
 11
-548.7043858598596
 21
-244.6910990348452
 31
0.0
  0
LINE
  5
350
330
1F
100
AcDbEntity
  8
1
  6
CONTINUOUS
 62
   253
100
AcDbLine
 10
-869.221760273784
 20
-400.6089009651546
 30
0.0
 11
-869.221760273784
 21
-244.6910990348452
 31
0.0
  0
LINE
  5
351
330
1F
100
AcDbEntity
  8
1
  6
CONTINUOUS
 62
   253
100
AcDbLine
 10
274.7782397262159
 20
-400.6089009651546
 30
0.0
 11
274.7782397262159
 21
-244.6910990348452
 31
0.0
  0
LINE
  5
352
330
1F
100
AcDbEntity
  8
1
  6
CONTINUOUS
 62
   253
100
AcDbLine
 10
290.5672877111508
 20
-414.9642035403015
 30
0.0
 11
290.5672877111508
 21
-230.3357964596984
 31
0.0
  0
LINE
  5
353
330
1F
100
AcDbEntity
  8
1
  6
CONTINUOUS
 62
   253
100
AcDbLine
 10
246.5672877111508
 20
-414.9642035403015
 30
0.0
 11
246.5672877111508
 21
-230.3357964596984
 31
0.0
  0
LINE
  5
354
330
1F
100
AcDbEntity
  8
1
  6
CONTINUOUS
 62
   253
100
AcDbLine
 10
-629.4657213942274
 20
-418.9217461779108
 30
0.0
 11
-629.4657213942274
 21
-226.3782538220891
 31
0.0
  0
LINE
  5
355
330
1F
100
AcDbEntity
  8
1
  6
CONTINUOUS
 62
   253
100
AcDbLine
 10
-172.4604247394164
 20
-418.9217461779108
 30
0.0
 11
-172.4604247394164
 21
-226.3782538220891
 31
0.0
  0
LINE
  5
356
330
1F
100
AcDbEntity
  8
1
  6
CONTINUOUS
 62
   253
100
AcDbLine
 10
7.506566155205396
 20
-414.9642035403015
 30
0.0
 11
7.506566155205396
 21
-230.3357964596984
 31
0.0
  0
LINE
  5
357
330
1F
100
AcDbEntity
  8
1
  6
CONTINUOUS
 62
   253
100
AcDbLine
 10
-897.4327122888492
 20
-414.9642035403015
 30
0.0
 11
-897.4327122888492
 21
-230.3357964596984
 31
0.0
  0
LINE
  5
358
330
1F
100
AcDbEntity
  8
1
  6
CONTINUOUS
 62
   253
100
AcDbLine
 10
-369.4327122888491
 20
-414.9642035403015
 30
0.0
 11
-369.4327122888491
 21
-230.3357964596984
 31
0.0
  0
LINE
  5
359
330
1F
100
AcDbEntity
  8
1
  6
CONTINUOUS
 62
   253
100
AcDbLine
 10
-476.4934338447945
 20
-414.9642035403015
 30
0.0
 11
-476.4934338447945
 21
-230.3357964596984
 31
0.0
  0
LINE
  5
35A
330
1F
100
AcDbEntity
  8
1
  6
CONTINUOUS
 62
   253
100
AcDbLine
 10
-520.4934338447945
 20
-414.9642035403015
 30
0.0
 11
-520.4934338447945
 21
-230.3357964596984
 31
0.0
  0
LINE
  5
35B
330
1F
100
AcDbEntity
  8
1
  6
CONTINUOUS
 62
   253
100
AcDbLine
 10
-608.4934338447945
 20
-414.9642035403015
 30
0.0
 11
-608.4934338447945
 21
-230.3357964596984
 31
0.0
  0
LINE
  5
35C
330
1F
100
AcDbEntity
  8
1
  6
CONTINUOUS
 62
   253
100
AcDbLine
 10
118.5342786057726
 20
-418.9217461779108
 30
0.0
 11
118.5342786057726
 21
-226.3782538220891
 31
0.0
  0
LINE
  5
35D
330
1F
100
AcDbEntity
  8
1
  6
CONTINUOUS
 62
   253
100
AcDbLine
 10
-149.4327122888491
 20
-414.9642035403015
 30
0.0
 11
-149.4327122888491
 21
-230.3357964596984
 31
0.0
  0
LINE
  5
35E
330
1F
100
AcDbEntity
  8
1
  6
CONTINUOUS
 62
   253
100
AcDbLine
 10
-765.4327122888493
 20
-414.9642035403015
 30
0.0
 11
-765.4327122888493
 21
-230.3357964596984
 31
0.0
  0
LINE
  5
35F
330
1F
100
AcDbEntity
  8
1
  6
CONTINUOUS
 62
   253
100
AcDbLine
 10
-325.4327122888492
 20
-414.9642035403015
 30
0.0
 11
-325.4327122888492
 21
-230.3357964596984
 31
0.0
  0
LINE
  5
360
330
1F
100
AcDbEntity
  8
1
  6
CONTINUOUS
 62
   253
100
AcDbLine
 10
-128.4604247394163
 20
-418.9217461779108
 30
0.0
 11
-128.4604247394163
 21
-226.3782538220891
 31
0.0
  0
LINE
  5
361
330
1F
100
AcDbEntity
  8
1
  6
CONTINUOUS
 62
   253
100
AcDbLine
 10
-592.7043858598595
 20
-400.6089009651546
 30
0.0
 11
-592.7043858598595
 21
-244.6910990348452
 31
0.0
  0
LINE
  5
362
330
1F
100
AcDbEntity
  8
1
  6
CONTINUOUS
 62
   253
100
AcDbLine
 10
-460.7043858598596
 20
-400.6089009651546
 30
0.0
 11
-460.7043858598596
 21
-244.6910990348452
 31
0.0
  0
LINE
  5
363
330
1F
100
AcDbEntity
  8
1
  6
CONTINUOUS
 62
   253
100
AcDbLine
 10
-253.221760273784
 20
-400.6089009651546
 30
0.0
 11
-253.221760273784
 21
-244.6910990348452
 31
0.0
  0
LINE
  5
364
330
1F
100
AcDbEntity
  8
1
  6
CONTINUOUS
 62
   253
100
AcDbLine
 10
-788.4604247394165
 20
-418.9217461779108
 30
0.0
 11
-788.4604247394165
 21
-226.3782538220891
 31
0.0
  0
LINE
  5
365
330
1F
100
AcDbEntity
  8
1
  6
CONTINUOUS
 62
   253
100
AcDbLine
 10
-209.221760273784
 20
-400.6089009651546
 30
0.0
 11
-209.221760273784
 21
-244.6910990348452
 31
0.0
  0
LINE
  5
366
330
1F
100
AcDbEntity
  8
1
  6
CONTINUOUS
 62
   253
100
AcDbLine
 10
111.2956141401402
 20
-400.6089009651546
 30
0.0
 11
111.2956141401402
 21
-244.6910990348452
 31
0.0
  0
LINE
  5
367
330
1F
100
AcDbEntity
  8
1
  6
CONTINUOUS
 62
   253
100
AcDbLine
 10
158.5672877111508
 20
-414.9642035403015
 30
0.0
 11
158.5672877111508
 21
-230.3357964596984
 31
0.0
  0
LINE
  5
368
330
1F
100
AcDbEntity
  8
1
  6
CONTINUOUS
 62
   253
100
AcDbLine
 10
-721.4327122888493
 20
-414.9642035403015
 30
0.0
 11
-721.4327122888493
 21
-230.3357964596984
 31
0.0
  0
LINE
  5
369
330
1F
100
AcDbEntity
  8
1
  6
CONTINUOUS
 62
   253
100
AcDbLine
 10
-453.4657213942273
 20
-418.9217461779108
 30
0.0
 11
-453.4657213942273
 21
-226.3782538220891
 31
0.0
  0
LINE
  5
36A
330
1F
100
AcDbEntity
  8
1
  6
CONTINUOUS
 62
   253
100
AcDbLine
 10
-57.46572139422739
 20
-418.9217461779108
 30
0.0
 11
-57.46572139422739
 21
-226.3782538220891
 31
0.0
  0
LINE
  5
36B
330
1F
100
AcDbEntity
  8
1
  6
CONTINUOUS
 62
   253
100
AcDbLine
 10
-809.4327122888494
 20
-414.9642035403015
 30
0.0
 11
-809.4327122888494
 21
-230.3357964596984
 31
0.0
  0
LINE
  5
36C
330
1F
100
AcDbEntity
  8
1
  6
CONTINUOUS
 62
   253
100
AcDbLine
 10
95.50656615520542
 20
-414.9642035403015
 30
0.0
 11
95.50656615520542
 21
-230.3357964596984
 31
0.0
  0
LINE
  5
36D
330
1F
100
AcDbEntity
  8
1
  6
CONTINUOUS
 62
   253
100
AcDbLine
 10
-853.4327122888492
 20
-414.9642035403015
 30
0.0
 11
-853.4327122888492
 21
-230.3357964596984
 31
0.0
  0
LINE
  5
36E
330
1F
100
AcDbEntity
  8
1
  6
CONTINUOUS
 62
   253
100
AcDbLine
 10
-237.4327122888491
 20
-414.9642035403015
 30
0.0
 11
-237.4327122888491
 21
-230.3357964596984
 31
0.0
  0
LINE
  5
36F
330
1F
100
AcDbEntity
  8
1
  6
CONTINUOUS
 62
   253
100
AcDbLine
 10
-388.4934338447945
 20
-414.9642035403015
 30
0.0
 11
-388.4934338447945
 21
-230.3357964596984
 31
0.0
  0
LINE
  5
370
330
1F
100
AcDbEntity
  8
1
  6
CONTINUOUS
 62
   253
100
AcDbLine
 10
-101.4657213942274
 20
-418.9217461779108
 30
0.0
 11
-101.4657213942274
 21
-226.3782538220891
 31
0.0
  0
ARC
  5
371
330
1F
100
AcDbEntity
  8
1
  6
CONTINUOUS
 62
   253
100
AcDbCircle
 10
447.4179905470854
 20
-323.5952770561545
 30
0.0
 40
3.412069714595106
100
AcDbArc
 50
339.9452200518907
 51
2.224175987983244
  0
LINE
  5
372
330
1F
100
AcDbEntity
  8
1
  6
CONTINUOUS
 62
   253
100
AcDbLine
 10
319.0369269331781
 20
-427.1499999999999
 30
0.0
 11
319.0369269331781
 21
-218.1499999999999
 31
0.0
  0
ARC
  5
373
330
1F
100
AcDbEntity
  8
1
  6
CONTINUOUS
 62
   253
100
AcDbCircle
 10
447.4759590554516
 20
-321.7101725602158
 30
0.0
 40
3.353934903940183
100
AcDbArc
 50
357.8304181033562
 51
21.27848104605107
  0
ARC
  5
374
330
1F
100
AcDbEntity
  8
1
  6
CONTINUOUS
 62
     7
100
AcDbCircle
 10
548.5136337974441
 20
-234.572495901923
 30
0.0
 40
3.186478610405483
100
AcDbArc
 50
94.55692129432342
 51
134.5007057967261
  0
LINE
  5
375
330
1F
100
AcDbEntity
  8
1
  6
CONTINUOUS
 62
     7
100
AcDbLine
 10
321.2957459782806
 20
-414.8212194558011
 30
0.0
 11
321.0291647224963
 21
-414.8398838632032
 31
0.0
  0
LINE
  5
376
330
1F
100
AcDbEntity
  8
1
  6
CONTINUOUS
 62
     7
100
AcDbLine
 10
-906.963073066822
 20
-398.6499999999999
 30
0.0
 11
-902.6647131808925
 21
-398.6499999999999
 31
0.0
  0
LINE
  5
377
330
1F
100
AcDbEntity
  8
1
  6
CONTINUOUS
 62
     7
100
AcDbLine
 10
330.0369269331781
 20
-371.631472888248
 30
0.0
 11
330.0369269331781
 21
-412.3621489082808
 31
0.0
  0
LINE
  5
378
330
1F
100
AcDbEntity
  8
1
  6
CONTINUOUS
 62
   253
100
AcDbLine
 10
555.0446891438596
 20
-414.8398838632032
 30
0.0
 11
555.0446891438596
 21
-424.9327118067513
 31
0.0
  0
LINE
  5
379
330
1F
100
AcDbEntity
  8
1
  6
CONTINUOUS
 62
   253
100
AcDbLine
 10
450.8274897096852
 20
-411.5205904774487
 30
0.0
 11
450.8274897096852
 21
-411.5168729959747
 31
0.0
  0
LINE
  5
37A
330
1F
100
AcDbEntity
  8
1
  6
CONTINUOUS
 62
   253
100
AcDbLine
 10
321.0291647224966
 20
-414.8398838632032
 30
0.0
 11
321.0291647224965
 21
-424.9327118067513
 31
0.0
  0
LINE
  5
37B
330
1F
100
AcDbEntity
  8
1
  6
CONTINUOUS
 62
     7
100
AcDbLine
 10
556.036926933178
 20
-219.1499999999999
 30
0.0
 11
556.036926933178
 21
-426.1499999999999
 31
0.0
  0
LINE
  5
37C
330
1F
100
AcDbEntity
  8
1
  6
CONTINUOUS
 62
     7
100
AcDbLine
 10
555.0446891438584
 20
-366.9532554992523
 30
0.0
 11
554.7781078880755
 21
-366.987299546552
 31
0.0
  0
LINE
  5
37D
330
1F
100
AcDbEntity
  8
1
  6
CONTINUOUS
 62
   253
100
AcDbLine
 10
449.6280368486469
 20
-325.1062847337932
 30
0.0
 11
450.4536994539224
 21
-324.9448697125756
 31
0.0
  0
LINE
  5
37E
330
1F
100
AcDbEntity
  8
1
  6
CONTINUOUS
 62
   253
100
AcDbLine
 10
450.4536994539224
 20
-320.3551302874242
 30
0.0
 11
449.6280368486469
 21
-320.1937152662066
 31
0.0
  0
ARC
  5
37F
330
1F
100
AcDbEntity
  8
1
  6
CONTINUOUS
 62
     7
100
AcDbCircle
 10
549.0371845327192
 20
-371.6316705513279
 30
0.0
 40
3.000257606052283
100
AcDbArc
 50
105.0037747626202
 51
179.9962252373832
  0
LINE
  5
380
330
1F
100
AcDbEntity
  8
1
  6
CONTINUOUS
 62
   253
100
AcDbLine
 10
449.6280368486469
 20
-238.2915810868958
 30
0.0
 11
449.6280368486469
 21
-320.1937152662065
 31
0.0
  0
LINE
  5
381
330
1F
100
AcDbEntity
  8
1
  6
CONTINUOUS
 62
   253
100
AcDbLine
 10
449.6280368486469
 20
-325.1062847337932
 30
0.0
 11
449.6280368486469
 21
-407.008418913104
 31
0.0
  0
LINE
  5
382
330
1F
100
AcDbEntity
  8
1
  6
CONTINUOUS
 62
     7
100
AcDbLine
 10
327.8133840684857
 20
-235.3401876535099
 30
0.0
 11
321.2957459782809
 21
-234.3829199708981
 31
0.0
  0
LINE
  5
383
330
1F
100
AcDbEntity
  8
1
  6
CONTINUOUS
 62
   253
100
AcDbLine
 10
321.0291647224974
 20
-278.3467445007475
 30
0.0
 11
321.029164722498
 21
-366.9532554992524
 31
0.0
  0
LINE
  5
384
330
1F
100
AcDbEntity
  8
1
  6
CONTINUOUS
 62
     7
100
AcDbLine
 10
554.7781078880756
 20
-366.987299546552
 30
0.0
 11
548.2604697978705
 21
-368.7336954093808
 31
0.0
  0
LINE
  5
385
330
1F
100
AcDbEntity
  8
1
  6
CONTINUOUS
 62
     7
100
AcDbLine
 10
321.2957459782805
 20
-366.987299546552
 30
0.0
 11
327.8133840684855
 21
-368.7336954093808
 31
0.0
  0
LINE
  5
386
330
1F
100
AcDbEntity
  8
1
  6
CONTINUOUS
 62
     7
100
AcDbLine
 10
555.0446891438584
 20
-230.4601161367966
 30
0.0
 11
554.7781078880755
 21
-230.4787805441988
 31
0.0
  0
LINE
  5
387
330
1F
100
AcDbEntity
  8
1
  6
CONTINUOUS
 62
     7
100
AcDbLine
 10
548.2604697978709
 20
-276.566304590619
 30
0.0
 11
554.7781078880755
 21
-278.3127004534477
 31
0.0
  0
LINE
  5
388
330
1F
100
AcDbEntity
  8
1
  6
CONTINUOUS
 62
     7
100
AcDbLine
 10
548.2604697978704
 20
-413.903909916591
 30
0.0
 11
554.7781078880755
 21
-414.8212194558009
 31
0.0
  0
LINE
  5
389
330
1F
100
AcDbEntity
  8
1
  6
CONTINUOUS
 62
     7
100
AcDbLine
 10
583.036926933178
 20
-221.1499999999999
 30
0.0
 11
583.036926933178
 21
-424.1499999999999
 31
0.0
  0
LINE
  5
38A
330
1F
100
AcDbEntity
  8
1
  6
CONTINUOUS
 62
   253
100
AcDbLine
 10
555.0446891438585
 20
-220.3672881932486
 30
0.0
 11
555.0446891438585
 21
-230.4601161367966
 31
0.0
  0
LINE
  5
38B
330
1F
100
AcDbEntity
  8
1
  6
CONTINUOUS
 62
     7
100
AcDbLine
 10
546.036926933178
 20
-371.631472888248
 30
0.0
 11
546.036926933178
 21
-412.3621489082808
 31
0.0
  0
LINE
  5
38C
330
1F
100
AcDbEntity
  8
1
  6
CONTINUOUS
 62
     7
100
AcDbLine
 10
-902.6647131808925
 20
-246.6499999999999
 30
0.0
 11
-906.963073066822
 21
-246.6499999999999
 31
0.0
  0
LINE
  5
38D
330
1F
100
AcDbEntity
  8
1
  6
CONTINUOUS
 62
     7
100
AcDbLine
 10
321.0291647224977
 20
-230.4601161367966
 30
0.0
 11
321.2957459782807
 21
-230.4787805441988
 31
0.0
  0
LINE
  5
38E
330
1F
100
AcDbEntity
  8
1
  6
CONTINUOUS
 62
     7
100
AcDbLine
 10
554.7781078880755
 20
-414.8212194558011
 30
0.0
 11
555.0446891438598
 21
-414.8398838632032
 31
0.0
  0
LINE
  5
38F
330
1F
100
AcDbEntity
  8
1
  6
CONTINUOUS
 62
     7
100
AcDbLine
 10
320.0369269331781
 20
-219.1499999999999
 30
0.0
 11
320.0369269331781
 21
-426.1499999999999
 31
0.0
  0
LINE
  5
390
330
1F
100
AcDbEntity
  8
1
  6
CONTINUOUS
 62
     7
100
AcDbLine
 10
554.7781078880755
 20
-278.3127004534478
 30
0.0
 11
555.0446891438598
 21
-278.3467445007476
 31
0.0
  0
LINE
  5
391
330
1F
100
AcDbEntity
  8
1
  6
CONTINUOUS
 62
     7
100
AcDbLine
 10
330.0369269331781
 20
-232.9378510917191
 30
0.0
 11
330.0369269331781
 21
-273.6685271117518
 31
0.0
  0
LINE
  5
392
330
1F
100
AcDbEntity
  8
1
  6
CONTINUOUS
 62
     7
100
AcDbLine
 10
321.2957459782805
 20
-414.821219455801
 30
0.0
 11
327.8133840684853
 21
-413.9039099165911
 31
0.0
  0
LINE
  5
393
330
1F
100
AcDbEntity
  8
1
  6
CONTINUOUS
 62
     7
100
AcDbLine
 10
546.036926933178
 20
-232.9378510917191
 30
0.0
 11
546.036926933178
 21
-273.6685271117518
 31
0.0
  0
LINE
  5
394
330
1F
100
AcDbEntity
  8
1
  6
CONTINUOUS
 62
     7
100
AcDbLine
 10
321.0291647224978
 20
-366.9532554992523
 30
0.0
 11
321.2957459782807
 21
-366.987299546552
 31
0.0
  0
LINE
  5
395
330
1F
100
AcDbEntity
  8
1
  6
CONTINUOUS
 62
     7
100
AcDbLine
 10
321.2957459782806
 20
-278.3127004534478
 30
0.0
 11
321.0291647224964
 21
-278.3467445007476
 31
0.0
  0
LINE
  5
396
330
1F
100
AcDbEntity
  8
1
  6
CONTINUOUS
 62
     7
100
AcDbLine
 10
554.7781078880757
 20
-230.4787805441987
 30
0.0
 11
548.2604697978705
 21
-231.3960900834086
 31
0.0
  0
ARC
  5
397
330
1F
100
AcDbEntity
  8
1
  6
CONTINUOUS
 62
     7
100
AcDbCircle
 10
548.6204369150798
 20
-410.3932011564864
 30
0.0
 40
3.529114949069825
100
AcDbArc
 50
231.684557354267
 51
264.1456915161634
  0
ARC
  5
398
330
1F
100
AcDbEntity
  8
1
  6
CONTINUOUS
 62
     7
100
AcDbCircle
 10
327.4534169512761
 20
-410.3932011564859
 30
0.0
 40
3.529114949070364
100
AcDbArc
 50
275.8543084838384
 51
308.3154426457295
  0
LINE
  5
399
330
1F
100
AcDbEntity
  8
1
  6
CONTINUOUS
 62
     7
100
AcDbLine
 10
327.8133840684853
 20
-276.566304590619
 30
0.0
 11
321.2957459782806
 21
-278.3127004534477
 31
0.0
  0
ARC
  5
39A
330
1F
100
AcDbEntity
  8
1
  6
CONTINUOUS
 62
     7
100
AcDbCircle
 10
327.0360549874815
 20
-273.6678580442866
 30
0.0
 40
3.000872020283514
100
AcDbArc
 50
285.0127745342043
 51
359.9872254657908
  0
LINE
  5
39B
330
1F
100
AcDbEntity
  8
1
  6
CONTINUOUS
 62
     7
100
AcDbLine
 10
327.8133840684857
 20
-231.3960900834087
 30
0.0
 11
321.2957459782807
 21
-230.4787805441988
 31
0.0
  0
LINE
  5
39C
330
1F
100
AcDbEntity
  8
1
  6
CONTINUOUS
 62
   253
100
AcDbLine
 10
321.0291647224977
 20
-220.3672881932486
 30
0.0
 11
321.0291647224977
 21
-230.4601161367966
 31
0.0
  0
LINE
  5
39D
330
1F
100
AcDbEntity
  8
1
  6
CONTINUOUS
 62
   253
100
AcDbLine
 10
557.036926933178
 20
-427.1499999999999
 30
0.0
 11
557.036926933178
 21
-218.1499999999999
 31
0.0
  0
ARC
  5
39E
330
1F
100
AcDbEntity
  8
1
  6
CONTINUOUS
 62
     7
100
AcDbCircle
 10
327.560220068912
 20
-234.572495901923
 30
0.0
 40
3.186478610405483
100
AcDbArc
 50
45.49929420327395
 51
85.44307870567661
  0
LINE
  5
39F
330
1F
100
AcDbEntity
  8
1
  6
CONTINUOUS
 62
   253
100
AcDbLine
 10
450.8274897096852
 20
-323.4628565234278
 30
0.0
 11
450.8274897096852
 21
-321.8371434765721
 31
0.0
  0
ARC
  5
3A0
330
1F
100
AcDbEntity
  8
1
  6
CONTINUOUS
 62
     7
100
AcDbCircle
 10
548.5083205702542
 20
-406.9265233903817
 30
0.0
 40
3.043398083823275
100
AcDbArc
 50
221.4119971149291
 51
265.328725608673
  0
ARC
  5
3A1
330
1F
100
AcDbEntity
  8
1
  6
CONTINUOUS
 62
     7
100
AcDbCircle
 10
549.0377988788747
 20
-273.6678580442867
 30
0.0
 40
3.000872020283403
100
AcDbArc
 50
180.012774534207
 51
254.9872254657951
  0
LINE
  5
3A2
330
1F
100
AcDbEntity
  8
1
  6
CONTINUOUS
 62
   253
100
AcDbLine
 10
555.0446891438587
 20
-278.3467445007475
 30
0.0
 11
555.0446891438581
 21
-366.9532554992524
 31
0.0
  0
LINE
  5
3A3
330
1F
100
AcDbEntity
  8
1
  6
CONTINUOUS
 62
   253
100
AcDbLine
 10
202.5672877111508
 20
-437.6499999999999
 30
0.0
 11
202.5672877111508
 21
-212.6499999999999
 31
0.0
  0
ARC
  5
3A4
330
1F
100
AcDbEntity
  8
1
  6
CONTINUOUS
 62
     7
100
AcDbCircle
 10
327.0366693336367
 20
-371.6316705513282
 30
0.0
 40
3.00025760605257
100
AcDbArc
 50
0.0037747626211058
 51
74.99622523737582
  0
ARC
  5
3A5
330
1F
100
AcDbEntity
  8
1
  6
CONTINUOUS
 62
     7
100
AcDbCircle
 10
327.4852843766445
 20
-238.6292050216368
 30
0.0
 40
3.30534183642577
100
AcDbArc
 50
47.83859606130728
 51
84.30324075158867
  0
LINE
  5
3A6
330
1F
100
AcDbEntity
  8
1
  6
CONTINUOUS
 62
   253
100
AcDbLine
 10
580.0369269331779
 20
-427.1499999999999
 30
0.0
 11
580.0369269331779
 21
-218.1499999999999
 31
0.0
  0
LINE
  5
3A7
330
1F
100
AcDbEntity
  8
1
  6
CONTINUOUS
 62
     7
100
AcDbLine
 10
321.2957459782806
 20
-410.9170800291017
 30
0.0
 11
327.8133840684856
 21
-409.9598123464899
 31
0.0
  0
LINE
  5
3A8
330
1F
100
AcDbEntity
  8
1
  6
CONTINUOUS
 62
   253
100
AcDbLine
 10
450.4536994539224
 20
-410.0954788028389
 30
0.0
 11
449.6280368486469
 21
-407.008418913104
 31
0.0
  0
LINE
  5
3A9
330
1F
100
AcDbEntity
  8
1
  6
CONTINUOUS
 62
   253
100
AcDbLine
 10
425.7293270698155
 20
-321.840533089328
 30
0.0
 11
425.7293270698155
 21
-323.4594669106717
 31
0.0
  0
LINE
  5
3AA
330
1F
100
AcDbEntity
  8
1
  6
CONTINUOUS
 62
   253
100
AcDbLine
 10
426.1031173255782
 20
-320.8510500733381
 30
0.0
 11
449.9707365407779
 21
-320.8510500733381
 31
0.0
  0
ARC
  5
3AB
330
1F
100
AcDbEntity
  8
1
  6
CONTINUOUS
 62
     7
100
AcDbCircle
 10
548.5885694897116
 20
-238.6292050216369
 30
0.0
 40
3.305341836425811
100
AcDbArc
 50
95.69675924841216
 51
132.1614039386921
  0
LINE
  5
3AC
330
1F
100
AcDbEntity
  8
1
  6
CONTINUOUS
 62
   253
100
AcDbLine
 10
426.9287799308538
 20
-320.6892635811245
 30
0.0
 11
426.1031173255782
 21
-320.8510500733382
 31
0.0
  0
LINE
  5
3AD
330
1F
100
AcDbEntity
  8
1
  6
CONTINUOUS
 62
   253
100
AcDbLine
 10
426.4458170177093
 20
-325.1062847337932
 30
0.0
 11
426.4458170177093
 21
-407.008418913104
 31
0.0
  0
LINE
  5
3AE
330
1F
100
AcDbEntity
  8
1
  6
CONTINUOUS
 62
   253
100
AcDbLine
 10
425.2463641566709
 20
-411.5205904774487
 30
0.0
 11
425.2463641566709
 21
-411.5168729959747
 31
0.0
  0
LINE
  5
3AF
330
1F
100
AcDbEntity
  8
1
  6
CONTINUOUS
 62
   253
100
AcDbLine
 10
425.6201544124337
 20
-410.0954788028389
 30
0.0
 11
426.4458170177093
 21
-407.008418913104
 31
0.0
  0
LINE
  5
3B0
330
1F
100
AcDbEntity
  8
1
  6
CONTINUOUS
 62
   253
100
AcDbLine
 10
450.8274897096853
 20
-233.7831270040252
 30
0.0
 11
450.8274897096853
 21
-233.7794095225512
 31
0.0
  0
LINE
  5
3B1
330
1F
100
AcDbEntity
  8
1
  6
CONTINUOUS
 62
   253
100
AcDbLine
 10
450.8274897096853
 20
-411.5168729959748
 30
0.0
 11
450.4536994539224
 21
-410.0954788028389
 31
0.0
  0
LINE
  5
3B2
330
1F
100
AcDbEntity
  8
1
  6
CONTINUOUS
 62
   253
100
AcDbLine
 10
425.6201544124337
 20
-235.2045211971609
 30
0.0
 11
425.2463641566709
 21
-233.7831270040251
 31
0.0
  0
ARC
  5
3B3
330
1F
100
AcDbEntity
  8
1
  6
CONTINUOUS
 62
   253
100
AcDbCircle
 10
438.0369269331781
 20
-475.2331921988692
 30
0.0
 40
155.4721622562254
100
AcDbArc
 50
85.72438919255298
 51
94.2756108074471
  0
LINE
  5
3B4
330
1F
100
AcDbEntity
  8
1
  6
CONTINUOUS
 62
   253
100
AcDbLine
 10
554.7781078880755
 20
-230.4787805441988
 30
0.0
 11
554.7781078880754
 21
-234.3829199708981
 31
0.0
  0
LINE
  5
3B5
330
1F
100
AcDbEntity
  8
1
  6
CONTINUOUS
 62
   253
100
AcDbLine
 10
327.8133840684854
 20
-413.9039099165912
 30
0.0
 11
327.8133840684854
 21
-409.9598123464899
 31
0.0
  0
ARC
  5
3B6
330
1F
100
AcDbEntity
  8
1
  6
CONTINUOUS
 62
   253
100
AcDbCircle
 10
428.5978948109058
 20
-321.7101725602159
 30
0.0
 40
3.3539349039414
100
AcDbArc
 50
158.721518953955
 51
182.1695818966411
  0
LINE
  5
3B7
330
1F
100
AcDbEntity
  8
1
  6
CONTINUOUS
 62
   253
100
AcDbLine
 10
426.4458170177093
 20
-238.2915810868958
 30
0.0
 11
426.4458170177093
 21
-320.1937152662065
 31
0.0
  0
LINE
  5
3B8
330
1F
100
AcDbEntity
  8
1
  6
CONTINUOUS
 62
   253
100
AcDbLine
 10
425.6201544124337
 20
-320.3551302874242
 30
0.0
 11
426.4458170177093
 21
-320.1937152662066
 31
0.0
  0
ARC
  5
3B9
330
1F
100
AcDbEntity
  8
1
  6
CONTINUOUS
 62
     7
100
AcDbCircle
 10
321.0228934394954
 20
-416.2762929104067
 30
0.0
 40
1.436422737176764
100
AcDbArc
 50
89.7498513631856
 51
112.3635650495785
  0
ARC
  5
3BA
330
1F
100
AcDbEntity
  8
1
  6
CONTINUOUS
 62
   253
100
AcDbCircle
 10
438.0369269331781
 20
-410.0612960755181
 30
0.0
 40
11.49311113325526
100
AcDbArc
 50
14.87129215373123
 51
165.1287078462688
  0
LINE
  5
3BB
330
1F
100
AcDbEntity
  8
1
  6
CONTINUOUS
 62
   253
100
AcDbLine
 10
449.9707365407779
 20
-235.1013241930507
 30
0.0
 11
449.1450739355024
 21
-238.1883943652078
 31
0.0
  0
ARC
  5
3BC
330
1F
100
AcDbEntity
  8
1
  6
CONTINUOUS
 62
     7
100
AcDbCircle
 10
555.049243529507
 20
-236.2121934113452
 30
0.0
 40
1.849258190729431
100
AcDbArc
 50
71.5327010719364
 51
98.43101980997017
  0
ARC
  5
3BD
330
1F
100
AcDbEntity
  8
1
  6
CONTINUOUS
 62
     7
100
AcDbCircle
 10
321.0246103368492
 20
-236.2121934113451
 30
0.0
 40
1.849258190729321
100
AcDbArc
 50
81.56898019002932
 51
108.4672989280647
  0
ARC
  5
3BE
330
1F
100
AcDbEntity
  8
1
  6
CONTINUOUS
 62
     7
100
AcDbCircle
 10
327.565533296102
 20
-406.926523390382
 30
0.0
 40
3.043398083822934
100
AcDbArc
 50
274.6712743913253
 51
318.5880028850742
  0
ARC
  5
3BF
330
1F
100
AcDbEntity
  8
1
  6
CONTINUOUS
 62
   253
100
AcDbCircle
 10
438.0369269331781
 20
-410.0880707573039
 30
0.0
 40
11.99325162555856
100
AcDbArc
 50
14.87920620294085
 51
165.1207937970593
  0
LINE
  5
3C0
330
1F
100
AcDbEntity
  8
1
  6
CONTINUOUS
 62
   253
100
AcDbLine
 10
425.2463641566709
 20
-323.4628565234278
 30
0.0
 11
425.2463641566709
 21
-321.8371434765721
 31
0.0
  0
LINE
  5
3C1
330
1F
100
AcDbEntity
  8
1
  6
CONTINUOUS
 62
   253
100
AcDbLine
 10
449.9707365407779
 20
-324.4489499266616
 30
0.0
 11
426.1031173255782
 21
-324.4489499266616
 31
0.0
  0
LINE
  5
3C2
330
1F
100
AcDbEntity
  8
1
  6
CONTINUOUS
 62
   253
100
AcDbLine
 10
426.1031173255782
 20
-324.4489499266616
 30
0.0
 11
426.9287799308538
 21
-324.6107364188753
 31
0.0
  0
LINE
  5
3C3
330
1F
100
AcDbEntity
  8
1
  6
CONTINUOUS
 62
   253
100
AcDbLine
 10
548.2604697978704
 20
-235.34018765351
 30
0.0
 11
548.2604697978704
 21
-231.3960900834087
 31
0.0
  0
LINE
  5
3C4
330
1F
100
AcDbEntity
  8
1
  6
CONTINUOUS
 62
   253
100
AcDbLine
 10
425.2463641566709
 20
-411.5168729959748
 30
0.0
 11
425.6201544124337
 21
-410.0954788028389
 31
0.0
  0
LINE
  5
3C5
330
1F
100
AcDbEntity
  8
1
  6
CONTINUOUS
 62
   253
100
AcDbLine
 10
450.4536994539224
 20
-235.2045211971609
 30
0.0
 11
450.8274897096853
 21
-233.7831270040251
 31
0.0
  0
ARC
  5
3C6
330
1F
100
AcDbEntity
  8
1
  6
CONTINUOUS
 62
   253
100
AcDbCircle
 10
448.4626855174409
 20
-323.5054272779898
 30
0.0
 40
1.882402442382596
100
AcDbArc
 50
337.7889984728969
 51
1.399061496494994
  0
LINE
  5
3C7
330
1F
100
AcDbEntity
  8
1
  6
CONTINUOUS
 62
   253
100
AcDbLine
 10
426.4458170177093
 20
-238.2915810868958
 30
0.0
 11
425.6201544124337
 21
-235.2045211971609
 31
0.0
  0
LINE
  5
3C8
330
1F
100
AcDbEntity
  8
1
  6
CONTINUOUS
 62
   253
100
AcDbLine
 10
425.7293270698155
 20
-323.4594669106717
 30
0.0
 11
450.3445267965407
 21
-323.4594669106717
 31
0.0
  0
LINE
  5
3C9
330
1F
100
AcDbEntity
  8
1
  6
CONTINUOUS
 62
   253
100
AcDbLine
 10
425.2463641566709
 20
-233.7831270040252
 30
0.0
 11
425.2463641566709
 21
-233.7794095225512
 31
0.0
  0
ARC
  5
3CA
330
1F
100
AcDbEntity
  8
1
  6
CONTINUOUS
 62
   253
100
AcDbCircle
 10
438.0369269331781
 20
-235.2120639426821
 30
0.0
 40
11.99321703772533
100
AcDbArc
 50
194.8785842714186
 51
345.1214157285813
  0
LINE
  5
3CB
330
1F
100
AcDbEntity
  8
1
  6
CONTINUOUS
 62
   253
100
AcDbLine
 10
449.6280368486469
 20
-238.2915810868958
 30
0.0
 11
450.4536994539224
 21
-235.2045211971609
 31
0.0
  0
LINE
  5
3CC
330
1F
100
AcDbEntity
  8
1
  6
CONTINUOUS
 62
   253
100
AcDbLine
 10
548.2604697978707
 20
-413.9039099165912
 30
0.0
 11
548.2604697978707
 21
-409.9598123464899
 31
0.0
  0
LINE
  5
3CD
330
1F
100
AcDbEntity
  8
1
  6
CONTINUOUS
 62
   253
100
AcDbLine
 10
321.2957459782806
 20
-410.9170800291018
 30
0.0
 11
321.2957459782806
 21
-414.8212194558011
 31
0.0
  0
ARC
  5
3CE
330
1F
100
AcDbEntity
  8
1
  6
CONTINUOUS
 62
   253
100
AcDbCircle
 10
438.0369269331781
 20
-458.2579282215779
 30
0.0
 40
138.0164063464296
100
AcDbArc
 50
85.38359900448532
 51
94.61640099551462
  0
LINE
  5
3CF
330
1F
100
AcDbEntity
  8
1
  6
CONTINUOUS
 62
   253
100
AcDbLine
 10
449.9707365407779
 20
-410.1986758069492
 30
0.0
 11
450.3445267965407
 21
-411.1462980204286
 31
0.0
  0
ARC
  5
3D0
330
1F
100
AcDbEntity
  8
1
  6
CONTINUOUS
 62
   253
100
AcDbCircle
 10
448.5230687777757
 20
-321.7856524335019
 30
0.0
 40
1.822284610182276
100
AcDbArc
 50
358.2741963225396
 51
23.22488553866782
  0
ARC
  5
3D1
330
1F
100
AcDbEntity
  8
1
  6
CONTINUOUS
 62
   253
100
AcDbCircle
 10
427.611168348914
 20
-323.5054272779901
 30
0.0
 40
1.882402442381327
100
AcDbArc
 50
178.6009385034939
 51
202.2110015271078
  0
LINE
  5
3D2
330
1F
100
AcDbEntity
  8
1
  6
CONTINUOUS
 62
   253
100
AcDbLine
 10
449.1450739355024
 20
-320.6892635811245
 30
0.0
 11
449.9707365407779
 21
-320.8510500733382
 31
0.0
  0
LINE
  5
3D3
330
1F
100
AcDbEntity
  8
1
  6
CONTINUOUS
 62
   253
100
AcDbLine
 10
321.2957459782807
 20
-230.4787805441988
 30
0.0
 11
321.2957459782809
 21
-234.3829199708981
 31
0.0
  0
LINE
  5
3D4
330
1F
100
AcDbEntity
  8
1
  6
CONTINUOUS
 62
   253
100
AcDbLine
 10
426.4458170177093
 20
-325.1062847337932
 30
0.0
 11
425.6201544124337
 21
-324.9448697125756
 31
0.0
  0
LINE
  5
3D5
330
1F
100
AcDbEntity
  8
1
  6
CONTINUOUS
 62
   253
100
AcDbLine
 10
449.1450739355024
 20
-407.1116056347921
 30
0.0
 11
449.9707365407779
 21
-410.1986758069492
 31
0.0
  0
ARC
  5
3D6
330
1F
100
AcDbEntity
  8
1
  6
CONTINUOUS
 62
   253
100
AcDbCircle
 10
438.0369269331781
 20
-187.0420717784391
 30
0.0
 40
138.0164063464125
100
AcDbArc
 50
265.3835990044847
 51
274.6164009955153
  0
ARC
  5
3D7
330
1F
100
AcDbEntity
  8
1
  6
CONTINUOUS
 62
     7
100
AcDbCircle
 10
555.0453856707827
 20
-228.9951782365642
 30
0.0
 40
1.464938065819575
100
AcDbArc
 50
269.9727578554221
 51
292.1406585572804
  0
ARC
  5
3D8
330
1F
100
AcDbEntity
  8
1
  6
CONTINUOUS
 62
   253
100
AcDbCircle
 10
427.5507850885817
 20
-321.785652433502
 30
0.0
 40
1.822284610183544
100
AcDbArc
 50
156.7751144613455
 51
181.7258036774557
  0
LINE
  5
3D9
330
1F
100
AcDbEntity
  8
1
  6
CONTINUOUS
 62
   253
100
AcDbLine
 10
554.7781078880755
 20
-410.9170800291018
 30
0.0
 11
554.7781078880755
 21
-414.8212194558011
 31
0.0
  0
ARC
  5
3DA
330
1F
100
AcDbEntity
  8
1
  6
CONTINUOUS
 62
   253
100
AcDbCircle
 10
438.0369269331781
 20
-169.9562812959655
 30
0.0
 40
155.5823813798671
100
AcDbArc
 50
265.7274237896736
 51
274.2725762103264
  0
LINE
  5
3DB
330
1F
100
AcDbEntity
  8
1
  6
CONTINUOUS
 62
   253
100
AcDbLine
 10
450.3445267965407
 20
-321.840533089328
 30
0.0
 11
425.7293270698155
 21
-321.840533089328
 31
0.0
  0
LINE
  5
3DC
330
1F
100
AcDbEntity
  8
1
  6
CONTINUOUS
 62
   253
100
AcDbLine
 10
426.1031173255782
 20
-235.1013241930507
 30
0.0
 11
426.9287799308538
 21
-238.1883943652078
 31
0.0
  0
LINE
  5
3DD
330
1F
100
AcDbEntity
  8
1
  6
CONTINUOUS
 62
   253
100
AcDbLine
 10
449.9707365407779
 20
-324.4489499266616
 30
0.0
 11
449.1450739355024
 21
-324.6107364188753
 31
0.0
  0
LINE
  5
3DE
330
1F
100
AcDbEntity
  8
1
  6
CONTINUOUS
 62
   253
100
AcDbLine
 10
450.3445267965407
 20
-321.840533089328
 30
0.0
 11
450.3445267965407
 21
-323.4594669106717
 31
0.0
  0
LINE
  5
3DF
330
1F
100
AcDbEntity
  8
1
  6
CONTINUOUS
 62
   253
100
AcDbLine
 10
450.3445267965407
 20
-234.1537019795712
 30
0.0
 11
449.9707365407779
 21
-235.1013241930507
 31
0.0
  0
LINE
  5
3E0
330
1F
100
AcDbEntity
  8
1
  6
CONTINUOUS
 62
   253
100
AcDbLine
 10
425.7293270698154
 20
-234.1537019795712
 30
0.0
 11
426.1031173255782
 21
-235.1013241930507
 31
0.0
  0
ARC
  5
3E1
330
1F
100
AcDbEntity
  8
1
  6
CONTINUOUS
 62
     7
100
AcDbCircle
 10
555.0524908245047
 20
-409.2213162110301
 30
0.0
 40
1.717818652385804
100
AcDbArc
 50
260.8089183462255
 51
294.5021984278992
  0
ARC
  5
3E2
330
1F
100
AcDbEntity
  8
1
  6
CONTINUOUS
 62
   253
100
AcDbCircle
 10
428.6558633192724
 20
-323.5952770561544
 30
0.0
 40
3.412069714596708
100
AcDbArc
 50
177.7758240120196
 51
200.0547799481013
  0
LINE
  5
3E3
330
1F
100
AcDbEntity
  8
1
  6
CONTINUOUS
 62
   253
100
AcDbLine
 10
327.8133840684857
 20
-235.34018765351
 30
0.0
 11
327.8133840684857
 21
-231.3960900834087
 31
0.0
  0
LINE
  5
3E4
330
1F
100
AcDbEntity
  8
1
  6
CONTINUOUS
 62
   253
100
AcDbLine
 10
426.1031173255782
 20
-410.1986758069492
 30
0.0
 11
449.9707365407779
 21
-410.1986758069492
 31
0.0
  0
LINE
  5
3E5
330
1F
100
AcDbEntity
  8
1
  6
CONTINUOUS
 62
     7
100
AcDbLine
 10
425.7293270698154
 20
-234.1537019795712
 30
0.0
 11
450.3445267965407
 21
-234.1537019795712
 31
0.0
  0
ARC
  5
3E6
330
1F
100
AcDbEntity
  8
1
  6
CONTINUOUS
 62
     7
100
AcDbCircle
 10
321.0213630418515
 20
-409.2213162110295
 30
0.0
 40
1.717818652386332
100
AcDbArc
 50
245.4978015721068
 51
279.1910816537733
  0
LINE
  5
3E7
330
1F
100
AcDbEntity
  8
1
  6
CONTINUOUS
 62
     7
100
AcDbLine
 10
548.2604697978704
 20
-409.9598123464898
 30
0.0
 11
554.7781078880755
 21
-410.9170800291017
 31
0.0
  0
LINE
  5
3E8
330
1F
100
AcDbEntity
  8
1
  6
CONTINUOUS
 62
     7
100
AcDbLine
 10
554.7781078880752
 20
-234.3829199708981
 30
0.0
 11
548.2604697978703
 21
-235.3401876535099
 31
0.0
  0
LINE
  5
3E9
330
1F
100
AcDbEntity
  8
1
  6
CONTINUOUS
 62
   253
100
AcDbLine
 10
426.9287799308538
 20
-407.1116056347921
 30
0.0
 11
426.1031173255782
 21
-410.1986758069492
 31
0.0
  0
ARC
  5
3EA
330
1F
100
AcDbEntity
  8
1
  6
CONTINUOUS
 62
     7
100
AcDbCircle
 10
-796.963073066822
 20
-369.6499999999999
 30
0.0
 40
50.00000000000004
100
AcDbArc
 50
260.3265031883329
 51
279.7908986569159
  0
ARC
  5
3EB
330
1F
100
AcDbEntity
  8
1
  6
CONTINUOUS
 62
     7
100
AcDbCircle
 10
171.0369269331781
 20
-369.6499999999999
 30
0.0
 40
49.99999999999996
100
AcDbArc
 50
260.3265031883325
 51
279.7908986569157
  0
ARC
  5
3EC
330
1F
100
AcDbEntity
  8
1
  6
CONTINUOUS
 62
     7
100
AcDbCircle
 10
259.0369269331781
 20
-369.6499999999999
 30
0.0
 40
49.99999999999995
100
AcDbArc
 50
260.3265031883325
 51
279.7908986569158
  0
ARC
  5
3ED
330
1F
100
AcDbEntity
  8
1
  6
CONTINUOUS
 62
     7
100
AcDbCircle
 10
-708.963073066822
 20
-369.6499999999999
 30
0.0
 40
49.99999999999996
100
AcDbArc
 50
260.3265031883325
 51
279.7908986569158
  0
ARC
  5
3EE
330
1F
100
AcDbEntity
  8
1
  6
CONTINUOUS
 62
     7
100
AcDbCircle
 10
39.03692693317812
 20
-275.6499999999999
 30
0.0
 40
50.0
100
AcDbArc
 50
80.32650318833258
 51
99.79089865691573
  0
LINE
  5
3EF
330
1F
100
AcDbEntity
  8
1
  6
CONTINUOUS
 62
   253
100
AcDbLine
 10
449.9707365407779
 20
-235.1013241930507
 30
0.0
 11
426.1031173255782
 21
-235.1013241930507
 31
0.0
  0
ARC
  5
3F0
330
1F
100
AcDbEntity
  8
1
  6
CONTINUOUS
 62
     7
100
AcDbCircle
 10
555.0509604268607
 20
-416.2762929104073
 30
0.0
 40
1.436422737177423
100
AcDbArc
 50
67.63643495042754
 51
90.25014863680984
  0
ARC
  5
3F1
330
1F
100
AcDbEntity
  8
1
  6
CONTINUOUS
 62
     7
100
AcDbCircle
 10
-576.9630730668218
 20
-275.6499999999999
 30
0.0
 40
50.00000000000001
100
AcDbArc
 50
80.32650318833251
 51
99.79089865691583
  0
LINE
  5
3F2
330
1F
100
AcDbEntity
  8
1
  6
CONTINUOUS
 62
   253
100
AcDbLine
 10
450.3445267965407
 20
-411.1462980204286
 30
0.0
 11
450.3445267965407
 21
-411.1499999999999
 31
0.0
  0
LINE
  5
3F3
330
1F
100
AcDbEntity
  8
1
  6
CONTINUOUS
 62
     7
100
AcDbLine
 10
450.3445267965407
 20
-411.1462980204286
 30
0.0
 11
425.7293270698154
 21
-411.1462980204286
 31
0.0
  0
ARC
  5
3F4
330
1F
100
AcDbEntity
  8
1
  6
CONTINUOUS
 62
     7
100
AcDbCircle
 10
-4.963073066821866
 20
-275.6499999999999
 30
0.0
 40
50.00000000000001
100
AcDbArc
 50
80.32650318833251
 51
99.79089865691583
  0
ARC
  5
3F5
330
1F
100
AcDbEntity
  8
1
  6
CONTINUOUS
 62
     7
100
AcDbCircle
 10
-224.9630730668218
 20
-275.6499999999999
 30
0.0
 40
50.0
100
AcDbArc
 50
80.20910134308416
 51
99.67349681166746
  0
ARC
  5
3F6
330
1F
100
AcDbEntity
  8
1
  6
CONTINUOUS
 62
     7
100
AcDbCircle
 10
127.0369269331781
 20
-369.6499999999999
 30
0.0
 40
50.00000000000005
100
AcDbArc
 50
260.2091013430842
 51
279.6734968116675
  0
ARC
  5
3F7
330
1F
100
AcDbEntity
  8
1
  6
CONTINUOUS
 62
     7
100
AcDbCircle
 10
-268.9630730668218
 20
-275.6499999999999
 30
0.0
 40
50.00000000000004
100
AcDbArc
 50
80.2091013430843
 51
99.67349681166749
  0
ARC
  5
3F8
330
1F
100
AcDbEntity
  8
1
  6
CONTINUOUS
 62
     7
100
AcDbCircle
 10
-356.9630730668218
 20
-275.6499999999999
 30
0.0
 40
50.0
100
AcDbArc
 50
80.20910134308416
 51
99.67349681166746
  0
ARC
  5
3F9
330
1F
100
AcDbEntity
  8
1
  6
CONTINUOUS
 62
     7
100
AcDbCircle
 10
259.0369269331781
 20
-275.6499999999999
 30
0.0
 40
50.00000000000005
100
AcDbArc
 50
80.2091013430842
 51
99.67349681166745
  0
ARC
  5
3FA
330
1F
100
AcDbEntity
  8
1
  6
CONTINUOUS
 62
     7
100
AcDbCircle
 10
-664.9630730668218
 20
-275.6499999999999
 30
0.0
 40
50.0
100
AcDbArc
 50
80.20910134308416
 51
99.67349681166746
  0
ARC
  5
3FB
330
1F
100
AcDbEntity
  8
1
  6
CONTINUOUS
 62
     7
100
AcDbCircle
 10
-488.9630730668217
 20
-275.6499999999999
 30
0.0
 40
49.99999999999999
100
AcDbArc
 50
80.32650318833264
 51
99.79089865691587
  0
ARC
  5
3FC
330
1F
100
AcDbEntity
  8
1
  6
CONTINUOUS
 62
     7
100
AcDbCircle
 10
83.0369269331781
 20
-275.6499999999999
 30
0.0
 40
50.00000000000001
100
AcDbArc
 50
80.32650318833251
 51
99.79089865691583
  0
ARC
  5
3FD
330
1F
100
AcDbEntity
  8
1
  6
CONTINUOUS
 62
     7
100
AcDbCircle
 10
-532.9630730668217
 20
-275.6499999999999
 30
0.0
 40
50.00000000000001
100
AcDbArc
 50
80.32650318833251
 51
99.79089865691583
  0
ARC
  5
3FE
330
1F
100
AcDbEntity
  8
1
  6
CONTINUOUS
 62
     7
100
AcDbCircle
 10
215.0369269331781
 20
-369.6499999999999
 30
0.0
 40
49.99999999999995
100
AcDbArc
 50
260.3265031883325
 51
279.7908986569158
  0
ARC
  5
3FF
330
1F
100
AcDbEntity
  8
1
  6
CONTINUOUS
 62
     7
100
AcDbCircle
 10
-840.9630730668218
 20
-369.6499999999999
 30
0.0
 40
49.99999999999996
100
AcDbArc
 50
260.3265031883325
 51
279.7908986569158
  0
ARC
  5
400
330
1F
100
AcDbEntity
  8
1
  6
CONTINUOUS
 62
     7
100
AcDbCircle
 10
-92.96307306682183
 20
-275.6499999999999
 30
0.0
 40
50.00000000000001
100
AcDbArc
 50
80.32650318833251
 51
99.79089865691583
  0
ARC
  5
401
330
1F
100
AcDbEntity
  8
1
  6
CONTINUOUS
 62
     7
100
AcDbCircle
 10
-884.9630730668218
 20
-275.6499999999999
 30
0.0
 40
50.0
100
AcDbArc
 50
80.20910134308416
 51
99.67349681166746
  0
ARC
  5
402
330
1F
100
AcDbEntity
  8
1
  6
CONTINUOUS
 62
     7
100
AcDbCircle
 10
-532.9630730668217
 20
-369.6499999999999
 30
0.0
 40
50.00000000000006
100
AcDbArc
 50
260.2091013430842
 51
279.6734968116675
  0
ARC
  5
403
330
1F
100
AcDbEntity
  8
1
  6
CONTINUOUS
 62
     7
100
AcDbCircle
 10
-620.9630730668218
 20
-275.6499999999999
 30
0.0
 40
50.00000000000001
100
AcDbArc
 50
80.32650318833251
 51
99.79089865691583
  0
ARC
  5
404
330
1F
100
AcDbEntity
  8
1
  6
CONTINUOUS
 62
     7
100
AcDbCircle
 10
171.0369269331781
 20
-275.6499999999999
 30
0.0
 40
50.00000000000005
100
AcDbArc
 50
80.20910134308423
 51
99.67349681166746
  0
ARC
  5
405
330
1F
100
AcDbEntity
  8
1
  6
CONTINUOUS
 62
     7
100
AcDbCircle
 10
-400.9630730668219
 20
-275.6499999999999
 30
0.0
 40
50.00000000000001
100
AcDbArc
 50
80.32650318833251
 51
99.79089865691572
  0
ARC
  5
406
330
1F
100
AcDbEntity
  8
1
  6
CONTINUOUS
 62
     7
100
AcDbCircle
 10
-180.9630730668219
 20
-369.6499999999999
 30
0.0
 40
50.00000000000005
100
AcDbArc
 50
260.3265031883326
 51
279.7908986569159
  0
ARC
  5
407
330
1F
100
AcDbEntity
  8
1
  6
CONTINUOUS
 62
     7
100
AcDbCircle
 10
-884.9630730668218
 20
-369.6499999999999
 30
0.0
 40
49.99999999999996
100
AcDbArc
 50
260.3265031883325
 51
279.7908986569158
  0
ARC
  5
408
330
1F
100
AcDbEntity
  8
1
  6
CONTINUOUS
 62
     7
100
AcDbCircle
 10
-48.96307306682185
 20
-369.6499999999999
 30
0.0
 40
50.00000000000006
100
AcDbArc
 50
260.2091013430842
 51
279.6734968116674
  0
ARC
  5
409
330
1F
100
AcDbEntity
  8
1
  6
CONTINUOUS
 62
     7
100
AcDbCircle
 10
39.03692693317812
 20
-369.6499999999999
 30
0.0
 40
50.00000000000005
100
AcDbArc
 50
260.2091013430842
 51
279.6734968116674
  0
LINE
  5
40A
330
1F
100
AcDbEntity
  8
1
  6
CONTINUOUS
 62
   253
100
AcDbLine
 10
450.3445267965407
 20
-234.1499999999999
 30
0.0
 11
450.3445267965407
 21
-234.1537019795712
 31
0.0
  0
ARC
  5
40B
330
1F
100
AcDbEntity
  8
1
  6
CONTINUOUS
 62
     7
100
AcDbCircle
 10
-312.9630730668218
 20
-369.6499999999999
 30
0.0
 40
49.99999999999996
100
AcDbArc
 50
260.3265031883325
 51
279.7908986569158
  0
ARC
  5
40C
330
1F
100
AcDbEntity
  8
1
  6
CONTINUOUS
 62
     7
100
AcDbCircle
 10
-356.9630730668218
 20
-369.6499999999999
 30
0.0
 40
49.99999999999996
100
AcDbArc
 50
260.3265031883325
 51
279.7908986569158
  0
ARC
  5
40D
330
1F
100
AcDbEntity
  8
1
  6
CONTINUOUS
 62
     7
100
AcDbCircle
 10
83.0369269331781
 20
-369.6499999999999
 30
0.0
 40
50.00000000000006
100
AcDbArc
 50
260.2091013430842
 51
279.6734968116675
  0
ARC
  5
40E
330
1F
100
AcDbEntity
  8
1
  6
CONTINUOUS
 62
     7
100
AcDbCircle
 10
-268.9630730668218
 20
-369.6499999999999
 30
0.0
 40
49.99999999999996
100
AcDbArc
 50
260.3265031883325
 51
279.7908986569157
  0
ARC
  5
40F
330
1F
100
AcDbEntity
  8
1
  6
CONTINUOUS
 62
     7
100
AcDbCircle
 10
-708.963073066822
 20
-275.6499999999999
 30
0.0
 40
50.0
100
AcDbArc
 50
80.20910134308416
 51
99.67349681166746
  0
ARC
  5
410
330
1F
100
AcDbEntity
  8
1
  6
CONTINUOUS
 62
     7
100
AcDbCircle
 10
321.0284681955735
 20
-228.9951782365636
 30
0.0
 40
1.464938065820074
100
AcDbArc
 50
247.8593414427229
 51
270.0272421445735
  0
ARC
  5
411
330
1F
100
AcDbEntity
  8
1
  6
CONTINUOUS
 62
     7
100
AcDbCircle
 10
-4.963073066821866
 20
-369.6499999999999
 30
0.0
 40
50.00000000000006
100
AcDbArc
 50
260.2091013430842
 51
279.6734968116675
  0
ARC
  5
412
330
1F
100
AcDbEntity
  8
1
  6
CONTINUOUS
 62
     7
100
AcDbCircle
 10
-752.963073066822
 20
-369.6499999999999
 30
0.0
 40
49.99999999999996
100
AcDbArc
 50
260.3265031883325
 51
279.7908986569158
  0
ARC
  5
413
330
1F
100
AcDbEntity
  8
1
  6
CONTINUOUS
 62
     7
100
AcDbCircle
 10
-92.96307306682183
 20
-369.6499999999999
 30
0.0
 40
50.00000000000006
100
AcDbArc
 50
260.2091013430842
 51
279.6734968116675
  0
ARC
  5
414
330
1F
100
AcDbEntity
  8
1
  6
CONTINUOUS
 62
     7
100
AcDbCircle
 10
-136.9630730668219
 20
-275.6499999999999
 30
0.0
 40
50.0
100
AcDbArc
 50
80.20910134308416
 51
99.67349681166746
  0
LINE
  5
415
330
1F
100
AcDbEntity
  8
1
  6
CONTINUOUS
 62
   253
100
AcDbLine
 10
425.7293270698155
 20
-234.1499999999999
 30
0.0
 11
425.7293270698155
 21
-234.1537019795712
 31
0.0
  0
ARC
  5
416
330
1F
100
AcDbEntity
  8
1
  6
CONTINUOUS
 62
     7
100
AcDbCircle
 10
-312.9630730668218
 20
-275.6499999999999
 30
0.0
 40
50.0
100
AcDbArc
 50
80.20910134308416
 51
99.67349681166746
  0
ARC
  5
417
330
1F
100
AcDbEntity
  8
1
  6
CONTINUOUS
 62
     7
100
AcDbCircle
 10
-576.9630730668218
 20
-369.6499999999999
 30
0.0
 40
50.00000000000006
100
AcDbArc
 50
260.2091013430842
 51
279.6734968116675
  0
LINE
  5
418
330
1F
100
AcDbEntity
  8
1
  6
CONTINUOUS
 62
   253
100
AcDbLine
 10
425.7293270698154
 20
-411.1462980204286
 30
0.0
 11
425.7293270698154
 21
-411.1499999999999
 31
0.0
  0
ARC
  5
419
330
1F
100
AcDbEntity
  8
1
  6
CONTINUOUS
 62
     7
100
AcDbCircle
 10
-136.9630730668219
 20
-369.6499999999999
 30
0.0
 40
49.99999999999996
100
AcDbArc
 50
260.3265031883325
 51
279.7908986569158
  0
LINE
  5
41A
330
1F
100
AcDbEntity
  8
1
  6
CONTINUOUS
 62
   253
100
AcDbLine
 10
426.1031173255782
 20
-410.1986758069492
 30
0.0
 11
425.7293270698154
 21
-411.1462980204286
 31
0.0
  0
ARC
  5
41B
330
1F
100
AcDbEntity
  8
1
  6
CONTINUOUS
 62
     7
100
AcDbCircle
 10
-180.9630730668219
 20
-275.6499999999999
 30
0.0
 40
50.0
100
AcDbArc
 50
80.20910134308416
 51
99.67349681166735
  0
ARC
  5
41C
330
1F
100
AcDbEntity
  8
1
  6
CONTINUOUS
 62
     7
100
AcDbCircle
 10
-400.9630730668219
 20
-369.6499999999999
 30
0.0
 40
50.00000000000004
100
AcDbArc
 50
260.2091013430843
 51
279.6734968116675
  0
ARC
  5
41D
330
1F
100
AcDbEntity
  8
1
  6
CONTINUOUS
 62
   253
100
AcDbCircle
 10
438.0369269331781
 20
-235.2387039244816
 30
0.0
 40
11.49311113325529
100
AcDbArc
 50
194.8712921537318
 51
345.1287078462682
  0
ARC
  5
41E
330
1F
100
AcDbEntity
  8
1
  6
CONTINUOUS
 62
     7
100
AcDbCircle
 10
-224.9630730668218
 20
-369.6499999999999
 30
0.0
 40
49.99999999999996
100
AcDbArc
 50
260.3265031883325
 51
279.7908986569158
  0
ARC
  5
41F
330
1F
100
AcDbEntity
  8
1
  6
CONTINUOUS
 62
     7
100
AcDbCircle
 10
-48.96307306682185
 20
-275.6499999999999
 30
0.0
 40
50.0
100
AcDbArc
 50
80.32650318833258
 51
99.79089865691581
  0
ARC
  5
420
330
1F
100
AcDbEntity
  8
1
  6
CONTINUOUS
 62
     7
100
AcDbCircle
 10
-488.9630730668217
 20
-369.6499999999999
 30
0.0
 40
50.00000000000006
100
AcDbArc
 50
260.2091013430842
 51
279.6734968116674
  0
ARC
  5
421
330
1F
100
AcDbEntity
  8
1
  6
CONTINUOUS
 62
     7
100
AcDbCircle
 10
-444.9630730668218
 20
-369.6499999999999
 30
0.0
 40
50.00000000000006
100
AcDbArc
 50
260.2091013430842
 51
279.6734968116675
  0
ARC
  5
422
330
1F
100
AcDbEntity
  8
1
  6
CONTINUOUS
 62
     7
100
AcDbCircle
 10
-664.9630730668218
 20
-369.6499999999999
 30
0.0
 40
49.99999999999996
100
AcDbArc
 50
260.3265031883325
 51
279.7908986569158
  0
ARC
  5
423
330
1F
100
AcDbEntity
  8
1
  6
CONTINUOUS
 62
     7
100
AcDbCircle
 10
-752.963073066822
 20
-275.6499999999999
 30
0.0
 40
50.0
100
AcDbArc
 50
80.20910134308416
 51
99.67349681166746
  0
ARC
  5
424
330
1F
100
AcDbEntity
  8
1
  6
CONTINUOUS
 62
     7
100
AcDbCircle
 10
215.0369269331781
 20
-275.6499999999999
 30
0.0
 40
50.00000000000005
100
AcDbArc
 50
80.2091013430842
 51
99.67349681166745
  0
ARC
  5
425
330
1F
100
AcDbEntity
  8
1
  6
CONTINUOUS
 62
     7
100
AcDbCircle
 10
-444.9630730668218
 20
-275.6499999999999
 30
0.0
 40
50.00000000000001
100
AcDbArc
 50
80.32650318833251
 51
99.79089865691583
  0
ARC
  5
426
330
1F
100
AcDbEntity
  8
1
  6
CONTINUOUS
 62
     7
100
AcDbCircle
 10
127.0369269331781
 20
-275.6499999999999
 30
0.0
 40
50.00000000000001
100
AcDbArc
 50
80.32650318833251
 51
99.79089865691573
  0
ARC
  5
427
330
1F
100
AcDbEntity
  8
1
  6
CONTINUOUS
 62
     7
100
AcDbCircle
 10
-620.9630730668218
 20
-369.6499999999999
 30
0.0
 40
50.00000000000006
100
AcDbArc
 50
260.2091013430842
 51
279.6734968116675
  0
ARC
  5
428
330
1F
100
AcDbEntity
  8
1
  6
CONTINUOUS
 62
     7
100
AcDbCircle
 10
-840.9630730668218
 20
-275.6499999999999
 30
0.0
 40
50.0
100
AcDbArc
 50
80.20910134308416
 51
99.67349681166746
  0
ARC
  5
429
330
1F
100
AcDbEntity
  8
1
  6
CONTINUOUS
 62
     7
100
AcDbCircle
 10
-892.5245763716109
 20
-231.289841436581
 30
0.0
 40
4.999999999999971
100
AcDbArc
 50
99.67349681166647
 51
168.9999999999995
  0
ARC
  5
42A
330
1F
100
AcDbEntity
  8
1
  6
CONTINUOUS
 62
     7
100
AcDbCircle
 10
207.4754236283891
 20
-231.289841436581
 30
0.0
 40
4.999999999999984
100
AcDbArc
 50
99.67349681166742
 51
168.9999999999999
  0
ARC
  5
42B
330
1F
100
AcDbEntity
  8
1
  6
CONTINUOUS
 62
     7
100
AcDbCircle
 10
-481.4015697620329
 20
-231.289841436581
 30
0.0
 40
4.999999999999947
100
AcDbArc
 50
11.00000000000016
 51
80.32650318833224
  0
ARC
  5
42C
330
1F
100
AcDbEntity
  8
1
  6
CONTINUOUS
 62
     7
100
AcDbCircle
 10
-144.5245763716109
 20
-231.289841436581
 30
0.0
 40
4.999999999999988
100
AcDbArc
 50
99.67349681166775
 51
168.9999999999995
  0
ARC
  5
42D
330
1F
100
AcDbEntity
  8
1
  6
CONTINUOUS
 62
     7
100
AcDbCircle
 10
207.4754236283891
 20
-414.0101585634188
 30
0.0
 40
4.999999999999991
100
AcDbArc
 50
191.0
 51
260.3265031883326
  0
ARC
  5
42E
330
1F
100
AcDbEntity
  8
1
  6
CONTINUOUS
 62
     7
100
AcDbCircle
 10
46.59843023796711
 20
-414.0101585634188
 30
0.0
 40
4.999999999999925
100
AcDbArc
 50
279.6734968116671
 51
348.9999999999999
  0
ARC
  5
42F
330
1F
100
AcDbEntity
  8
1
  6
CONTINUOUS
 62
     7
100
AcDbCircle
 10
-525.4015697620328
 20
-414.0101585634188
 30
0.0
 40
4.999999999999934
100
AcDbArc
 50
279.6734968116678
 51
348.9999999999995
  0
ARC
  5
430
330
1F
100
AcDbEntity
  8
1
  6
CONTINUOUS
 62
     7
100
AcDbCircle
 10
-188.5245763716108
 20
-414.0101585634188
 30
0.0
 40
4.999999999999958
100
AcDbArc
 50
191.0000000000005
 51
260.3265031883323
  0
ARC
  5
431
330
1F
100
AcDbEntity
  8
1
  6
CONTINUOUS
 62
     7
100
AcDbCircle
 10
-320.5245763716108
 20
-231.289841436581
 30
0.0
 40
4.999999999999988
100
AcDbArc
 50
99.67349681166775
 51
169.0000000000004
  0
ARC
  5
432
330
1F
100
AcDbEntity
  8
1
  6
CONTINUOUS
 62
     7
100
AcDbCircle
 10
-796.963073066822
 20
-275.6499999999999
 30
0.0
 40
50.0
100
AcDbArc
 50
80.20910134308416
 51
99.67349681166725
  0
ARC
  5
433
330
1F
100
AcDbEntity
  8
1
  6
CONTINUOUS
 62
     7
100
AcDbCircle
 10
-320.5245763716108
 20
-414.0101585634188
 30
0.0
 40
5.000000000000046
100
AcDbArc
 50
190.9999999999996
 51
260.3265031883323
  0
ARC
  5
434
330
1F
100
AcDbEntity
  8
1
  6
CONTINUOUS
 62
     7
100
AcDbCircle
 10
-85.40156976203284
 20
-414.0101585634188
 30
0.0
 40
4.999999999999934
100
AcDbArc
 50
279.6734968116678
 51
348.9999999999995
  0
ARC
  5
435
330
1F
100
AcDbEntity
  8
1
  6
CONTINUOUS
 62
     7
100
AcDbCircle
 10
251.4754236283891
 20
-414.0101585634188
 30
0.0
 40
4.999999999999991
100
AcDbArc
 50
191.0
 51
260.3265031883326
  0
ARC
  5
436
330
1F
100
AcDbEntity
  8
1
  6
CONTINUOUS
 62
     7
100
AcDbCircle
 10
134.5984302379671
 20
-231.289841436581
 30
0.0
 40
5.000000000000002
100
AcDbArc
 50
11.00000000000019
 51
80.32650318833291
  0
ARC
  5
437
330
1F
100
AcDbEntity
  8
1
  6
CONTINUOUS
 62
     7
100
AcDbCircle
 10
-85.40156976203284
 20
-231.289841436581
 30
0.0
 40
4.999999999999947
100
AcDbArc
 50
11.00000000000049
 51
80.32650318833227
  0
ARC
  5
438
330
1F
100
AcDbEntity
  8
1
  6
CONTINUOUS
 62
     7
100
AcDbCircle
 10
-892.5245763716109
 20
-414.0101585634188
 30
0.0
 40
4.999999999999958
100
AcDbArc
 50
191.0000000000005
 51
260.3265031883337
  0
ARC
  5
439
330
1F
100
AcDbEntity
  8
1
  6
CONTINUOUS
 62
     7
100
AcDbCircle
 10
134.5984302379671
 20
-414.0101585634188
 30
0.0
 40
4.999999999999925
100
AcDbArc
 50
279.6734968116671
 51
348.9999999999998
  0
ARC
  5
43A
330
1F
100
AcDbEntity
  8
1
  6
CONTINUOUS
 62
     7
100
AcDbCircle
 10
-393.4015697620328
 20
-414.0101585634188
 30
0.0
 40
4.999999999999916
100
AcDbArc
 50
279.6734968116665
 51
348.9999999999995
  0
ARC
  5
43B
330
1F
100
AcDbEntity
  8
1
  6
CONTINUOUS
 62
     7
100
AcDbCircle
 10
-393.4015697620328
 20
-231.289841436581
 30
0.0
 40
4.999999999999947
100
AcDbArc
 50
11.00000000000049
 51
80.32650318833356
  0
ARC
  5
43C
330
1F
100
AcDbEntity
  8
1
  6
CONTINUOUS
 62
     7
100
AcDbCircle
 10
-41.40156976203291
 20
-414.0101585634188
 30
0.0
 40
4.999999999999934
100
AcDbArc
 50
279.6734968116678
 51
348.9999999999999
  0
ENDSEC
  0
SECTION
  2
OBJECTS
  0
DICTIONARY
  5
C
330
0
100
AcDbDictionary
  3
ACAD_GROUP
350
D
  3
ACAD_LAYOUT
350
1A
  3
ACAD_MATERIAL
350
43
  3
ACAD_MLEADERSTYLE
350
6B
  3
ACAD_MLINESTYLE
350
17
  3
ACAD_PLOTSETTINGS
350
19
  3
ACAD_SCALELIST
350
47
  3
ACAD_VISUALSTYLE
350
2A
  3
ACDBHEADERROUNDTRIPXREC
350
43D
  3
ACDBVARIABLEDICTIONARY
350
45E
  0
DICTIONARY
  5
465
330
8
100
AcDbDictionary
280
     1
  3
ACAD_XREC_ROUNDTRIP
360
466
  0
DICTIONARY
  5
D
102
{ACAD_REACTORS
330
C
102
}
330
C
100
AcDbDictionary
  0
DICTIONARY
  5
1A
102
{ACAD_REACTORS
330
C
102
}
330
C
100
AcDbDictionary
  0
DICTIONARY
  5
43
102
{ACAD_REACTORS
330
C
102
}
330
C
100
AcDbDictionary
  3
BYBLOCK
350
45
  3
BYLAYER
350
44
  3
GLOBAL
350
46
  0
DICTIONARY
  5
6B
102
{ACAD_REACTORS
330
C
102
}
330
C
100
AcDbDictionary
  3
STANDARD
350
6C
  0
DICTIONARY
  5
17
102
{ACAD_REACTORS
330
C
102
}
330
C
100
AcDbDictionary
  3
STANDARD
350
18
  0
DICTIONARY
  5
19
102
{ACAD_REACTORS
330
C
102
}
330
C
100
AcDbDictionary
  0
DICTIONARY
  5
47
102
{ACAD_REACTORS
330
C
102
}
330
C
100
AcDbDictionary
  3
A0
350
48
  3
A1
350
49
  3
A2
350
4A
  3
A3
350
4B
  3
A4
350
4C
  3
A5
350
4D
  3
A6
350
4E
  3
A7
350
4F
  3
A8
350
50
  3
A9
350
51
  3
B0
350
52
  3
B1
350
53
  3
B2
350
54
  3
B3
350
55
  3
B4
350
56
  3
B5
350
57
  3
B6
350
58
  3
B7
350
59
  3
B8
350
5A
  3
B9
350
5B
  3
C0
350
5C
  3
C1
350
5D
  3
C2
350
5E
  3
C3
350
5F
  3
C4
350
60
  3
C5
350
61
  3
C6
350
62
  3
C7
350
63
  3
C8
350
64
  3
C9
350
65
  3
D0
350
66
  3
D1
350
67
  3
D2
350
68
  0
DICTIONARY
  5
2A
102
{ACAD_REACTORS
330
C
102
}
330
C
100
AcDbDictionary
  3
2DWIREFRAME
350
2F
  3
BASIC
350
32
  3
BRIGHTEN
350
36
  3
COLORCHANGE
350
3A
  3
CONCEPTUAL
350
34
  3
DIM
350
35
  3
EDGECOLOROFF
350
3D
  3
FACEPATTERN
350
39
  3
FLAT
350
2B
  3
FLATWITHEDGES
350
2C
  3
GOURAUD
350
2D
  3
GOURAUDWITHEDGES
350
2E
  3
HIDDEN
350
31
  3
JITTEROFF
350
3B
  3
LINEPATTERN
350
38
  3
OVERHANGOFF
350
3C
  3
REALISTIC
350
33
  3
SHADED
350
42
  3
SHADED_WITH_EDGES
350
41
  3
SHADES_OF_GRAY
350
3E
  3
SKETCHY
350
3F
  3
THICKEN
350
37
  3
WIREFRAME
350
30
  3
X-RAY
350
40
  0
DICTIONARY
  5
43D
102
{ACAD_REACTORS
330
C
102
}
330
C
100
AcDbDictionary
  3
CEPSNID
350
447
  3
CEPSNTYPE
350
446
  3
DIMSTYLEDATA
350
45D
  3
FINGERPRINTGUID
350
448
  3
HYPERLINKBASE
350
440
  3
INSUNITS
350
445
  3
LAYOUTDICT
350
442
  3
LWETCUNION
350
444
  3
PLOTSETDICT
350
443
  3
PSVPSCALE
350
44A
  3
PUCSBASE
350
44D
  3
PUCSORGBACK
350
453
  3
PUCSORGBOTTOM
350
44F
  3
PUCSORGFRONT
350
452
  3
PUCSORGLEFT
350
450
  3
PUCSORGRIGHT
350
451
  3
PUCSORGTOP
350
44E
  3
PUCSORTHOREF
350
44B
  3
PUCSORTHOVIEW
350
44C
  3
STYLESHEET
350
441
  3
TSTACKALIGN
350
43E
  3
TSTACKSIZE
350
43F
  3
UCSBASE
350
456
  3
UCSORGBACK
350
45C
  3
UCSORGBOTTOM
350
458
  3
UCSORGFRONT
350
45B
  3
UCSORGLEFT
350
459
  3
UCSORGRIGHT
350
45A
  3
UCSORGTOP
350
457
  3
UCSORTHOREF
350
454
  3
UCSORTHOVIEW
350
455
  3
VERSIONGUID
350
449
  0
DICTIONARY
  5
45E
102
{ACAD_REACTORS
330
C
102
}
330
C
100
AcDbDictionary
  3
CANNOSCALE
350
467
  3
CMLEADERSTYLE
350
460
  3
CTABLESTYLE
350
45F
  3
DIMASSOC
350
463
  3
HIDETEXT
350
464
  3
MSLTSCALE
350
468
  0
XRECORD
  5
466
102
{ACAD_REACTORS
330
465
102
}
330
465
100
AcDbXrecord
102
VTR_0.000_0.000_1.000_1.000_VISUALSTYLE
340
2F
102
VTR_0.000_0.000_1.000_1.000_GRIDDISPLAY
 70
     3
102
VTR_0.000_0.000_1.000_1.000_GRIDMAJOR
 70
     5
102
VTR_0.000_0.000_1.000_1.000_DEFAULTLIGHTING
280
     1
102
VTR_0.000_0.000_1.000_1.000_DEFAULTLIGHTINGTYPE
 70
     1
102
VTR_0.000_0.000_1.000_1.000_BRIGHTNESS
141
0.0
102
VTR_0.000_0.000_1.000_1.000_CONTRAST
142
0.0
  0
MATERIAL
  5
45
102
{ACAD_REACTORS
330
43
102
}
102
{ACAD_XDICTIONARY
360
46B
102
}
330
43
100
AcDbMaterial
  1
BYBLOCK
  0
MATERIAL
  5
44
102
{ACAD_REACTORS
330
43
102
}
102
{ACAD_XDICTIONARY
360
469
102
}
330
43
100
AcDbMaterial
  1
BYLAYER
  0
MATERIAL
  5
46
102
{ACAD_REACTORS
330
43
102
}
102
{ACAD_XDICTIONARY
360
46D
102
}
330
43
100
AcDbMaterial
  1
GLOBAL
  0
ACAD_PROXY_OBJECT
  5
6C
102
{ACAD_REACTORS
330
6B
102
}
330
6B
100
AcDbProxyObject
 90
      499
 91
      505
 93
      610
310
40901902A4063FBFFFFFE056BD1B81E855B9FC0AD7A3703D0AD73F4214DD185B99185C9900AD7A3703D0AC73F90141901A02B5E8DC0F42B1CFC02B5E8DC0F42B1CFE5764000000000000300FC0
340
14
340
0
340
11
340
0
 94
        0
1001
ACAD_MLEADERVER
1070
     2
  0
MLINESTYLE
  5
18
102
{ACAD_REACTORS
330
17
102
}
330
17
100
AcDbMlineStyle
  2
Standard
 70
     0
  3

 62
   256
 51
90.0
 52
90.0
 71
     2
 49
0.5
 62
   256
  6
BYLAYER
 49
-0.5
 62
   256
  6
BYLAYER
  0
ACAD_PROXY_OBJECT
  5
48
102
{ACAD_REACTORS
330
47
102
}
330
47
100
AcDbProxyObject
 90
      499
 91
      503
 93
       41
310
903313A31580
  0
ACAD_PROXY_OBJECT
  5
49
102
{ACAD_REACTORS
330
47
102
}
330
47
100
AcDbProxyObject
 90
      499
 91
      503
 93
      105
310
903313A324000000000000004000
  0
ACAD_PROXY_OBJECT
  5
4A
102
{ACAD_REACTORS
330
47
102
}
330
47
100
AcDbProxyObject
 90
      499
 91
      503
 93
      105
310
903313A344000000000000104000
  0
ACAD_PROXY_OBJECT
  5
4B
102
{ACAD_REACTORS
330
47
102
}
330
47
100
AcDbProxyObject
 90
      499
 91
      503
 93
      105
310
903313A354000000000000144000
  0
ACAD_PROXY_OBJECT
  5
4C
102
{ACAD_REACTORS
330
47
102
}
330
47
100
AcDbProxyObject
 90
      499
 91
      503
 93
      105
310
903313A384000000000000204000
  0
ACAD_PROXY_OBJECT
  5
4D
102
{ACAD_REACTORS
330
47
102
}
330
47
100
AcDbProxyObject
 90
      499
 91
      503
 93
      113
310
904313A31304000000000000244000
  0
ACAD_PROXY_OBJECT
  5
4E
102
{ACAD_REACTORS
330
47
102
}
330
47
100
AcDbProxyObject
 90
      499
 91
      503
 93
      113
310
904313A31364000000000000304000
  0
ACAD_PROXY_OBJECT
  5
4F
102
{ACAD_REACTORS
330
47
102
}
330
47
100
AcDbProxyObject
 90
      499
 91
      503
 93
      113
310
904313A32304000000000000344000
  0
ACAD_PROXY_OBJECT
  5
50
102
{ACAD_REACTORS
330
47
102
}
330
47
100
AcDbProxyObject
 90
      499
 91
      503
 93
      113
310
904313A333040000000000003E4000
  0
ACAD_PROXY_OBJECT
  5
51
102
{ACAD_REACTORS
330
47
102
}
330
47
100
AcDbProxyObject
 90
      499
 91
      503
 93
      113
310
904313A34304000000000000444000
  0
ACAD_PROXY_OBJECT
  5
52
102
{ACAD_REACTORS
330
47
102
}
330
47
100
AcDbProxyObject
 90
      499
 91
      503
 93
      113
310
904313A35304000000000000494000
  0
ACAD_PROXY_OBJECT
  5
53
102
{ACAD_REACTORS
330
47
102
}
330
47
100
AcDbProxyObject
 90
      499
 91
      503
 93
      121
310
905313A3130304000000000000594000
  0
ACAD_PROXY_OBJECT
  5
54
102
{ACAD_REACTORS
330
47
102
}
330
47
100
AcDbProxyObject
 90
      499
 91
      503
 93
      105
310
903323A310000000000000010100
  0
ACAD_PROXY_OBJECT
  5
55
102
{ACAD_REACTORS
330
47
102
}
330
47
100
AcDbProxyObject
 90
      499
 91
      503
 93
      105
310
903343A310000000000000410100
  0
ACAD_PROXY_OBJECT
  5
56
102
{ACAD_REACTORS
330
47
102
}
330
47
100
AcDbProxyObject
 90
      499
 91
      503
 93
      105
310
903383A310000000000000810100
  0
ACAD_PROXY_OBJECT
  5
57
102
{ACAD_REACTORS
330
47
102
}
330
47
100
AcDbProxyObject
 90
      499
 91
      503
 93
      113
310
90431303A310000000000000910100
  0
ACAD_PROXY_OBJECT
  5
58
102
{ACAD_REACTORS
330
47
102
}
330
47
100
AcDbProxyObject
 90
      499
 91
      503
 93
      121
310
9053130303A310000000000001650100
  0
ACAD_PROXY_OBJECT
  5
59
102
{ACAD_REACTORS
330
47
102
}
330
47
100
AcDbProxyObject
 90
      499
 91
      503
 93
      257
310
90E312F31323822203D2031272D3022000000000000200FC000000000000284000
  0
ACAD_PROXY_OBJECT
  5
5A
102
{ACAD_REACTORS
330
47
102
}
330
47
100
AcDbProxyObject
 90
      499
 91
      503
 93
      249
310
90D312F363422203D2031272D3022000000000000240FC000000000000284000
  0
ACAD_PROXY_OBJECT
  5
5B
102
{ACAD_REACTORS
330
47
102
}
330
47
100
AcDbProxyObject
 90
      499
 91
      503
 93
      249
310
90D312F333222203D2031272D3022000000000000280FC000000000000284000
  0
ACAD_PROXY_OBJECT
  5
5C
102
{ACAD_REACTORS
330
47
102
}
330
47
100
AcDbProxyObject
 90
      499
 91
      503
 93
      249
310
90D312F313622203D2031272D30220000000000002C0FC000000000000284000
  0
ACAD_PROXY_OBJECT
  5
5D
102
{ACAD_REACTORS
330
47
102
}
330
47
100
AcDbProxyObject
 90
      499
 91
      503
 93
      249
310
90D332F333222203D2031272D30220000000000002E0FC000000000000284000
  0
ACAD_PROXY_OBJECT
  5
5E
102
{ACAD_REACTORS
330
47
102
}
330
47
100
AcDbProxyObject
 90
      499
 91
      503
 93
      241
310
90C312F3822203D2031272D3022000000000000300FC000000000000284000
  0
ACAD_PROXY_OBJECT
  5
5F
102
{ACAD_REACTORS
330
47
102
}
330
47
100
AcDbProxyObject
 90
      499
 91
      503
 93
      249
310
90D332F313622203D2031272D3022000000000000320FC000000000000284000
  0
ACAD_PROXY_OBJECT
  5
60
102
{ACAD_REACTORS
330
47
102
}
330
47
100
AcDbProxyObject
 90
      499
 91
      503
 93
      241
310
90C312F3422203D2031272D3022000000000000340FC000000000000284000
  0
ACAD_PROXY_OBJECT
  5
61
102
{ACAD_REACTORS
330
47
102
}
330
47
100
AcDbProxyObject
 90
      499
 91
      503
 93
      241
310
90C332F3822203D2031272D3022000000000000360FC000000000000284000
  0
ACAD_PROXY_OBJECT
  5
62
102
{ACAD_REACTORS
330
47
102
}
330
47
100
AcDbProxyObject
 90
      499
 91
      503
 93
      241
310
90C312F3222203D2031272D3022000000000000380FC000000000000284000
  0
ACAD_PROXY_OBJECT
  5
63
102
{ACAD_REACTORS
330
47
102
}
330
47
100
AcDbProxyObject
 90
      499
 91
      503
 93
      241
310
90C332F3422203D2031272D30220000000000003A0FC000000000000284000
  0
ACAD_PROXY_OBJECT
  5
64
102
{ACAD_REACTORS
330
47
102
}
330
47
100
AcDbProxyObject
 90
      499
 91
      503
 93
      161
310
90A3122203D2031272D30224000000000000284000
  0
ACAD_PROXY_OBJECT
  5
65
102
{ACAD_REACTORS
330
47
102
}
330
47
100
AcDbProxyObject
 90
      499
 91
      503
 93
      257
310
90E312D312F3222203D2031272D30220000000000003E0FC000000000000284000
  0
ACAD_PROXY_OBJECT
  5
66
102
{ACAD_REACTORS
330
47
102
}
330
47
100
AcDbProxyObject
 90
      499
 91
      503
 93
      225
310
90A3322203D2031272D302200000000000002100000000000000284000
  0
ACAD_PROXY_OBJECT
  5
67
102
{ACAD_REACTORS
330
47
102
}
330
47
100
AcDbProxyObject
 90
      499
 91
      503
 93
      225
310
90A3622203D2031272D302200000000000006100000000000000284000
  0
ACAD_PROXY_OBJECT
  5
68
102
{ACAD_REACTORS
330
47
102
}
330
47
100
AcDbProxyObject
 90
      499
 91
      503
 93
      249
310
90D31272D3022203D2031272D30220000000000000A100000000000000284000
  0
ACAD_PROXY_OBJECT
  5
2F
102
{ACAD_REACTORS
330
2A
102
}
330
2A
100
AcDbProxyObject
 90
      499
 91
      501
 93
      436
310
42CC9915DA5C99599C985B595049028333333333333E33F0000000000000F90107901411070040501600405405064090741402480A0340
1001
ACAD
1000
AcDbSavedByObjectVersion
1070
     0
  0
ACAD_PROXY_OBJECT
  5
32
102
{ACAD_REACTORS
330
2A
102
}
330
2A
100
AcDbProxyObject
 90
      499
 91
      501
 93
      388
310
4150985CDA58D07406404333333333333E33F0000000000000F90107A41107004050150841D405064090741402480A0350
1001
ACAD
1000
AcDbSavedByObjectVersion
1070
     0
  0
ACAD_PROXY_OBJECT
  5
36
102
{ACAD_REACTORS
330
2A
102
}
330
2A
100
AcDbProxyObject
 90
      499
 91
      501
 93
      428
310
42109C9A59DA1D195B90C409028333333333333E33F0000000000000F9010790141107004050150841D405064090741402480A029950
1001
ACAD
1000
AcDbSavedByObjectVersion
1070
     0
  0
ACAD_PROXY_OBJECT
  5
3A
102
{ACAD_REACTORS
330
2A
102
}
330
2A
100
AcDbProxyObject
 90
      499
 91
      501
 93
      452
310
42D0DBDB1BDC90DA185B99D95104090240C333333333333E33F0000000000000F90108901411070040501508421405064090741402480A0350
1001
ACAD
1000
AcDbSavedByObjectVersion
1070
     0
  0
ACAD_PROXY_OBJECT
  5
34
102
{ACAD_REACTORS
330
2A
102
}
330
2A
100
AcDbProxyObject
 90
      499
 91
      501
 93
      500
310
4290DBDB98D95C1D1D585B10940D028333333333333E33F0000000000000F90107902409070040501000000000018199010841D405064090740C02480A0340
1001
ACAD
1000
AcDbSavedByObjectVersion
1070
     0
  0
ACAD_PROXY_OBJECT
  5
35
102
{ACAD_REACTORS
330
2A
102
}
330
2A
100
AcDbProxyObject
 90
      499
 91
      501
 93
      412
310
40D11A5B50B409028333333333333E33F0000000000000F9010790141107004050150841D405064090741402480A02677FFFFFD0
1001
ACAD
1000
AcDbSavedByObjectVersion
1070
     0
  0
ACAD_PROXY_OBJECT
  5
3D
102
{ACAD_REACTORS
330
2A
102
}
330
2A
100
AcDbProxyObject
 90
      499
 91
      501
 93
      452
310
43115919D950DBDB1BDC93D999916409028333333333333E33F0000000000000F9010790141107004050150841D405064090741402480A0350
1001
ACAD
1000
AcDbSavedByObjectVersion
1070
     0
  0
ACAD_PROXY_OBJECT
  5
39
102
{ACAD_REACTORS
330
2A
102
}
330
2A
100
AcDbProxyObject
 90
      499
 91
      501
 93
      444
310
42D19858D95C185D1D195C9B90F409028333333333333E33F0000000000000F9010790141107004050150841D405064090741402480A0350
1001
ACAD
1000
AcDbSavedByObjectVersion
1070
     0
  0
ACAD_PROXY_OBJECT
  5
2B
102
{ACAD_REACTORS
330
2A
102
}
330
2A
100
AcDbProxyObject
 90
      499
 91
      501
 93
      380
310
41119B185D240901404333333333333E33F0000000000000F9010740A907004050150841D405064090741402480A1B50
1001
ACAD
1000
AcDbSavedByObjectVersion
1070
     0
  0
ACAD_PROXY_OBJECT
  5
2C
102
{ACAD_REACTORS
330
2A
102
}
330
2A
100
AcDbProxyObject
 90
      499
 91
      501
 93
      468
310
43519B185D15DA5D1A115919D95CD0140901404333333333333E33F0000000000000F90107409019070040501600405405064090741402480A1B50
1001
ACAD
1000
AcDbSavedByObjectVersion
1070
     0
  0
ACAD_PROXY_OBJECT
  5
2D
102
{ACAD_REACTORS
330
2A
102
}
330
2A
100
AcDbProxyObject
 90
      499
 91
      501
 93
      404
310
41D1DBDD5C985D5910240902404333333333333E33F0000000000000F9010740A9070040501641D405064090741402480A1B50
1001
ACAD
1000
AcDbSavedByObjectVersion
1070
     0
  0
ACAD_PROXY_OBJECT
  5
2E
102
{ACAD_REACTORS
330
2A
102
}
330
2A
100
AcDbProxyObject
 90
      499
 91
      501
 93
      492
310
4411DBDD5C985D5915DA5D1A115919D95CD0340902404333333333333E33F0000000000000F90107409019070040501600405405064090741402480A1B50
1001
ACAD
1000
AcDbSavedByObjectVersion
1070
     0
  0
ACAD_PROXY_OBJECT
  5
31
102
{ACAD_REACTORS
330
2A
102
}
330
2A
100
AcDbProxyObject
 90
      499
 91
      501
 93
      476
310
41921A5919195B90640502408333333333333E33F0000000000000F901079024090700405020000000000001110200405405064090740C02480A0340
1001
ACAD
1000
AcDbSavedByObjectVersion
1070
     0
  0
ACAD_PROXY_OBJECT
  5
3B
102
{ACAD_REACTORS
330
2A
102
}
330
2A
100
AcDbProxyObject
 90
      499
 91
      501
 93
      428
310
42529A5D1D195C93D999914409028333333333333E33F0000000000000F9010790141107004050150A41D405064090741402480A0350
1001
ACAD
1000
AcDbSavedByObjectVersion
1070
     0
  0
ACAD_PROXY_OBJECT
  5
38
102
{ACAD_REACTORS
330
2A
102
}
330
2A
100
AcDbProxyObject
 90
      499
 91
      501
 93
      444
310
42D31A5B995C185D1D195C9B90E409028333333333333E33F0000000000000F9010790141107004050750841D405064090741402483A0350
1001
ACAD
1000
AcDbSavedByObjectVersion
1070
     0
  0
ACAD_PROXY_OBJECT
  5
3C
102
{ACAD_REACTORS
330
2A
102
}
330
2A
100
AcDbProxyObject
 90
      499
 91
      501
 93
      444
310
42D3DD995C9A185B99D3D999915409028333333333333E33F0000000000000F9010790141107004050150941D405064090741402480A0350
1001
ACAD
1000
AcDbSavedByObjectVersion
1070
     0
  0
ACAD_PROXY_OBJECT
  5
33
102
{ACAD_REACTORS
330
2A
102
}
330
2A
100
AcDbProxyObject
 90
      499
 91
      501
 93
      428
310
425499585B1A5CDD1A58D08409038333333333333E33F0000000000000F9010740A907004050150800405405064090740C02480A1B40
1001
ACAD
1000
AcDbSavedByObjectVersion
1070
     0
  0
ACAD_PROXY_OBJECT
  5
42
102
{ACAD_REACTORS
330
2A
102
}
330
2A
100
AcDbProxyObject
 90
      499
 91
      501
 93
      420
310
4194DA1859195911B40902404333333333333E33F0000000000000F9010740A41107004050150800405405064090840C02480A0B40
1001
ACAD
1000
AcDbSavedByObjectVersion
1070
     0
  0
ACAD_PROXY_OBJECT
  5
41
102
{ACAD_REACTORS
330
2A
102
}
330
2A
100
AcDbProxyObject
 90
      499
 91
      501
 93
      516
310
4454DA18591959081DDA5D1A08195919D95CD1A40902404333333333333E33F0000000000000F901074090142907004050250800405405064090740C02480A0B40
1001
ACAD
1000
AcDbSavedByObjectVersion
1070
     0
  0
ACAD_PROXY_OBJECT
  5
3E
102
{ACAD_REACTORS
330
2A
102
}
330
2A
100
AcDbProxyObject
 90
      499
 91
      501
 93
      532
310
4394DA1859195CC81BD98811DC985E5174090240C333333333333E33F0000000000000F901079024090741D01000000000000111010841D405064090740C02480A0340
1001
ACAD
1000
AcDbSavedByObjectVersion
1070
     0
  0
ACAD_PROXY_OBJECT
  5
3F
102
{ACAD_REACTORS
330
2A
102
}
330
2A
100
AcDbProxyObject
 90
      499
 91
      501
 93
      476
310
41D4DAD95D18DA1E51840502408333333333333E33F0000000000000F901079024090741D01000000000000111010B41D405064090741802480A0340
1001
ACAD
1000
AcDbSavedByObjectVersion
1070
     0
  0
ACAD_PROXY_OBJECT
  5
37
102
{ACAD_REACTORS
330
2A
102
}
330
2A
100
AcDbProxyObject
 90
      499
 91
      501
 93
      412
310
41D51A1A58DAD95B90D409028333333333333E33F0000000000000F9010790141107004050150C41D405064090741402480A0350
1001
ACAD
1000
AcDbSavedByObjectVersion
1070
     0
  0
ACAD_PROXY_OBJECT
  5
30
102
{ACAD_REACTORS
330
2A
102
}
330
2A
100
AcDbProxyObject
 90
      499
 91
      501
 93
      420
310
4255DA5C99599C985B595059028333333333333E33F0000000000000F90107901411070040501600405405064090740C02480A0340
1001
ACAD
1000
AcDbSavedByObjectVersion
1070
     0
  0
ACAD_PROXY_OBJECT
  5
40
102
{ACAD_REACTORS
330
2A
102
}
330
2A
100
AcDbProxyObject
 90
      499
 91
      501
 93
      404
310
41560B54985E51940902404000000000000E03F0000000000000F9010740501907004050150841D405064090740C02480A1B40
1001
ACAD
1000
AcDbSavedByObjectVersion
1070
     0
  0
XRECORD
  5
447
102
{ACAD_REACTORS
330
43D
102
}
330
43D
100
AcDbXrecord
340
0
  0
XRECORD
  5
446
102
{ACAD_REACTORS
330
43D
102
}
330
43D
100
AcDbXrecord
 90
        0
  0
XRECORD
  5
45D
102
{ACAD_REACTORS
330
43D
102
}
330
43D
100
AcDbXrecord
1000
DSTYLE
1002
{
1070
   179
 70
     2
1070
   171
 70
     2
1070
   143
 40
25.4
1070
   274
 70
     2
1070
    41
 40
3.0
1070
   141
 40
0.09
1070
    43
 40
0.38
1070
   278
 70
    46
1070
    44
 40
1.5
1070
    42
 40
0.0625
1070
   147
 40
1.5
1070
   272
 70
     4
1070
    73
 70
     1
1070
   172
 70
     0
1070
    74
 70
     1
1070
   283
 70
     1
1070
   340
340
6F
1070
   140
 40
3.0
1070
   284
 70
     0
1070
    78
 70
     0
1002
}
  0
XRECORD
  5
448
102
{ACAD_REACTORS
330
43D
102
}
330
43D
100
AcDbXrecord
  1
{C920ABA9-7CCD-4FF8-AEA2-1139F450EAFE}
  0
XRECORD
  5
440
102
{ACAD_REACTORS
330
43D
102
}
330
43D
100
AcDbXrecord
  1

  0
XRECORD
  5
445
102
{ACAD_REACTORS
330
43D
102
}
330
43D
100
AcDbXrecord
 90
        4
  0
XRECORD
  5
442
102
{ACAD_REACTORS
330
43D
102
}
330
43D
100
AcDbXrecord
340
1A
  0
XRECORD
  5
444
102
{ACAD_REACTORS
330
43D
102
}
330
43D
100
AcDbXrecord
 90
    10269
  0
XRECORD
  5
443
102
{ACAD_REACTORS
330
43D
102
}
330
43D
100
AcDbXrecord
340
19
  0
XRECORD
  5
44A
102
{ACAD_REACTORS
330
43D
102
}
330
43D
100
AcDbXrecord
 40
0.0
  0
XRECORD
  5
44D
102
{ACAD_REACTORS
330
43D
102
}
330
43D
100
AcDbXrecord
340
0
  0
XRECORD
  5
453
102
{ACAD_REACTORS
330
43D
102
}
330
43D
100
AcDbXrecord
 10
0.0
 20
0.0
 30
0.0
  0
XRECORD
  5
44F
102
{ACAD_REACTORS
330
43D
102
}
330
43D
100
AcDbXrecord
 10
0.0
 20
0.0
 30
0.0
  0
XRECORD
  5
452
102
{ACAD_REACTORS
330
43D
102
}
330
43D
100
AcDbXrecord
 10
0.0
 20
0.0
 30
0.0
  0
XRECORD
  5
450
102
{ACAD_REACTORS
330
43D
102
}
330
43D
100
AcDbXrecord
 10
0.0
 20
0.0
 30
0.0
  0
XRECORD
  5
451
102
{ACAD_REACTORS
330
43D
102
}
330
43D
100
AcDbXrecord
 10
0.0
 20
0.0
 30
0.0
  0
XRECORD
  5
44E
102
{ACAD_REACTORS
330
43D
102
}
330
43D
100
AcDbXrecord
 10
0.0
 20
0.0
 30
0.0
  0
XRECORD
  5
44B
102
{ACAD_REACTORS
330
43D
102
}
330
43D
100
AcDbXrecord
340
0
  0
XRECORD
  5
44C
102
{ACAD_REACTORS
330
43D
102
}
330
43D
100
AcDbXrecord
 70
     0
  0
XRECORD
  5
441
102
{ACAD_REACTORS
330
43D
102
}
330
43D
100
AcDbXrecord
  1

  0
XRECORD
  5
43E
102
{ACAD_REACTORS
330
43D
102
}
330
43D
100
AcDbXrecord
 90
        1
  0
XRECORD
  5
43F
102
{ACAD_REACTORS
330
43D
102
}
330
43D
100
AcDbXrecord
 90
       70
  0
XRECORD
  5
456
102
{ACAD_REACTORS
330
43D
102
}
330
43D
100
AcDbXrecord
340
0
  0
XRECORD
  5
45C
102
{ACAD_REACTORS
330
43D
102
}
330
43D
100
AcDbXrecord
 10
0.0
 20
0.0
 30
0.0
  0
XRECORD
  5
458
102
{ACAD_REACTORS
330
43D
102
}
330
43D
100
AcDbXrecord
 10
0.0
 20
0.0
 30
0.0
  0
XRECORD
  5
45B
102
{ACAD_REACTORS
330
43D
102
}
330
43D
100
AcDbXrecord
 10
0.0
 20
0.0
 30
0.0
  0
XRECORD
  5
459
102
{ACAD_REACTORS
330
43D
102
}
330
43D
100
AcDbXrecord
 10
0.0
 20
0.0
 30
0.0
  0
XRECORD
  5
45A
102
{ACAD_REACTORS
330
43D
102
}
330
43D
100
AcDbXrecord
 10
0.0
 20
0.0
 30
0.0
  0
XRECORD
  5
457
102
{ACAD_REACTORS
330
43D
102
}
330
43D
100
AcDbXrecord
 10
0.0
 20
0.0
 30
0.0
  0
XRECORD
  5
454
102
{ACAD_REACTORS
330
43D
102
}
330
43D
100
AcDbXrecord
340
0
  0
XRECORD
  5
455
102
{ACAD_REACTORS
330
43D
102
}
330
43D
100
AcDbXrecord
 70
     0
  0
XRECORD
  5
449
102
{ACAD_REACTORS
330
43D
102
}
330
43D
100
AcDbXrecord
  1
{FAEB1C32-E019-11D5-929B-00C0DF256EC4}
  0
DICTIONARYVAR
  5
467
102
{ACAD_REACTORS
330
45E
102
}
330
45E
100
DictionaryVariables
280
     0
  1
1:1
  0
DICTIONARYVAR
  5
460
102
{ACAD_REACTORS
330
45E
102
}
330
45E
100
DictionaryVariables
280
     0
  1
Standard
  0
DICTIONARYVAR
  5
45F
102
{ACAD_REACTORS
330
45E
102
}
330
45E
100
DictionaryVariables
280
     0
  1
Standard
  0
DICTIONARYVAR
  5
463
102
{ACAD_REACTORS
330
45E
102
}
330
45E
100
DictionaryVariables
280
     0
  1
2
  0
DICTIONARYVAR
  5
464
102
{ACAD_REACTORS
330
45E
102
}
330
45E
100
DictionaryVariables
280
     0
  1
1
  0
DICTIONARYVAR
  5
468
102
{ACAD_REACTORS
330
45E
102
}
330
45E
100
DictionaryVariables
280
     0
  1
1
  0
DICTIONARY
  5
46B
330
45
100
AcDbDictionary
280
     1
  3
ACAD_XREC_ROUNDTRIP
360
46C
  0
DICTIONARY
  5
469
330
44
100
AcDbDictionary
280
     1
  3
ACAD_XREC_ROUNDTRIP
360
46A
  0
DICTIONARY
  5
46D
330
46
100
AcDbDictionary
280
     1
  3
ACAD_XREC_ROUNDTRIP
360
46E
  0
XRECORD
  5
46C
102
{ACAD_REACTORS
330
46B
102
}
330
46B
100
AcDbXrecord
102
MATERIAL
148
0.0
149
0.0
149
0.0
 93
        0
 94
      127
282
     0
 72
     1
 77
     1
171
     1
175
     1
179
     1
273
     0
  0
XRECORD
  5
46A
102
{ACAD_REACTORS
330
469
102
}
330
469
100
AcDbXrecord
102
MATERIAL
148
0.0
149
0.0
149
0.0
 93
        0
 94
      127
282
     0
 72
     1
 77
     1
171
     1
175
     1
179
     1
273
     0
  0
XRECORD
  5
46E
102
{ACAD_REACTORS
330
46D
102
}
330
46D
100
AcDbXrecord
102
MATERIAL
148
0.0
149
0.0
149
0.0
 93
        0
 94
      127
282
     0
 72
     1
 77
     1
171
     1
175
     1
179
     1
273
     0
  0
ENDSEC
  0
EOF
