  0
SECTION
  2
HEADER
  9
$ACADVER
  1
AC1006
  9
$DWGCODEPAGE
  3
ansi_932
  9
$INSBASE
 10
0.0
 20
0.0
 30
0.0
  9
$EXTMIN
 10
0.0
 20
-1090.0
  9
$EXTMAX
 10
2415.0
 20
10.0
  9
$LIMMIN
 10
0.0
 20
0.0
  9
$LIMMAX
 10
12.0
 20
9.0
  9
$ORTHOMODE
 70
     0
  9
$REGENMODE
 70
     1
  9
$FILLMODE
 70
     1
  9
$QTEXTMODE
 70
     0
  9
$MIRRTEXT
 70
     1
  9
$DRAGMODE
 70
     2
  9
$LTSCALE
 40
1.0
  9
$OSMODE
 70
    37
  9
$ATTMODE
 70
     1
  9
$TEXTSIZE
 40
0.2
  9
$TRACEWID
 40
0.05
  9
$TEXTSTYLE
  7
STANDARD
  9
$CLAYER
  8
0
  9
$CELTYPE
  6
BYLAYER
  9
$CECOLOR
 62
   256
  9
$DIMSCALE
 40
1.0
  9
$DIMASZ
 40
3.0
  9
$DIMEXO
 40
0.0625
  9
$DIMDLI
 40
0.38
  9
$DIMRND
 40
0.0
  9
$DIMDLE
 40
0.0
  9
$DIMEXE
 40
1.5
  9
$DIMTP
 40
0.0
  9
$DIMTM
 40
0.0
  9
$DIMTXT
 40
3.0
  9
$DIMCEN
 40
0.09
  9
$DIMTSZ
 40
0.0
  9
$DIMTOL
 70
     0
  9
$DIMLIM
 70
     0
  9
$DIMTIH
 70
     1
  9
$DIMTOH
 70
     1
  9
$DIMSE1
 70
     0
  9
$DIMSE2
 70
     0
  9
$DIMTAD
 70
     1
  9
$DIMZIN
 70
     0
  9
$DIMBLK
  1

  9
$DIMASO
 70
     1
  9
$DIMSHO
 70
     1
  9
$DIMPOST
  1

  9
$DIMAPOST
  1

  9
$DIMALT
 70
     0
  9
$DIMALTD
 70
     2
  9
$DIMALTF
 40
25.4
  9
$DIMLFAC
 40
1.0
  9
$DIMTOFL
 70
     0
  9
$DIMTVP
 40
0.0
  9
$DIMTIX
 70
     0
  9
$DIMSOXD
 70
     0
  9
$DIMSAH
 70
     0
  9
$DIMBLK1
  1

  9
$DIMBLK2
  1

  9
$LUNITS
 70
     2
  9
$LUPREC
 70
     4
  9
$SKETCHINC
 40
0.1
  9
$FILLETRAD
 40
0.5
  9
$AUNITS
 70
     0
  9
$AUPREC
 70
     0
  9
$MENU
  1
.
  9
$ELEVATION
 40
0.0
  9
$THICKNESS
 40
0.0
  9
$LIMCHECK
 70
     0
  9
$CHAMFERA
 40
0.0
  9
$CHAMFERB
 40
0.0
  9
$SKPOLY
 70
     0
  9
$TDCREATE
 40
2460119.720595486
  9
$TDUPDATE
 40
2460119.720595926
  9
$TDINDWG
 40
0.0000000116
  9
$TDUSRTIMER
 40
0.0000000116
  9
$USRTIMER
 70
     1
  9
$ANGBASE
 50
0.0
  9
$ANGDIR
 70
     0
  9
$PDMODE
 70
     0
  9
$PDSIZE
 40
0.0
  9
$PLINEWID
 40
0.0
  9
$COORDS
 70
     1
  9
$SPLFRAME
 70
     0
  9
$SPLINETYPE
 70
     6
  9
$SPLINESEGS
 70
     8
  9
$ATTDIA
 70
     0
  9
$ATTREQ
 70
     1
  9
$HANDLING
 70
     1
  9
$HANDSEED
  5
46B
  9
$SURFTAB1
 70
     6
  9
$SURFTAB2
 70
     6
  9
$SURFTYPE
 70
     6
  9
$SURFU
 70
     6
  9
$SURFV
 70
     6
  9
$UCSNAME
  2

  9
$UCSORG
 10
0.0
 20
0.0
 30
0.0
  9
$UCSXDIR
 10
1.0
 20
0.0
 30
0.0
  9
$UCSYDIR
 10
0.0
 20
1.0
 30
0.0
  9
$USERI1
 70
     0
  9
$USERI2
 70
     0
  9
$USERI3
 70
     0
  9
$USERI4
 70
     0
  9
$USERI5
 70
     0
  9
$USERR1
 40
0.0
  9
$USERR2
 40
0.0
  9
$USERR3
 40
0.0
  9
$USERR4
 40
0.0
  9
$USERR5
 40
0.0
  9
$WORLDVIEW
 70
     1
  0
ENDSEC
  0
SECTION
  2
TABLES
  0
TABLE
  2
VPORT
 70
     1
  0
VPORT
  2
*ACTIVE
 70
     0
 10
0.0
 20
0.0
 11
1.0
 21
1.0
 12
1207.5
 22
-540.0
 13
0.0
 23
0.0
 14
0.5
 24
0.5
 15
0.5
 25
0.5
 16
0.0
 26
0.0
 36
1.0
 17
0.0
 27
0.0
 37
0.0
 40
1100.0
 41
1.6
 42
50.0
 43
0.0
 44
0.0
 50
0.0
 51
0.0
 71
     0
 72
   100
 73
     1
 74
     3
 75
     0
 76
     0
 77
     0
 78
     0
  0
ENDTAB
  0
TABLE
  2
LTYPE
 70
     2
  0
LTYPE
  2
CONTINUOUS
 70
     0
  3
Solid line
 72
    65
 73
     0
 40
0.0
  0
LTYPE
  2
CENTER
 70
     0
  3

 72
    65
 73
     0
 40
0.0
  0
ENDTAB
  0
TABLE
  2
LAYER
 70
     2
  0
LAYER
  2
0
 70
     0
 62
     7
  6
CONTINUOUS
  0
LAYER
  2
1
 70
     0
 62
     7
  6
CONTINUOUS
  0
ENDTAB
  0
TABLE
  2
STYLE
 70
     2
  0
STYLE
  2
STANDARD
 70
     0
 40
0.0
 41
1.0
 50
0.0
 71
     0
 42
0.2
  3
txt
  4

  0
STYLE
  2
ＭＳ_ゴシック
 70
     0
 40
0.0
 41
1.0
 50
0.0
 71
     0
 42
0.2
  3
ＭＳ ゴシック.shx
  4

  0
ENDTAB
  0
TABLE
  2
VIEW
 70
     0
  0
ENDTAB
  0
TABLE
  2
UCS
 70
     0
  0
ENDTAB
  0
ENDSEC
  0
SECTION
  2
BLOCKS
  0
ENDSEC
  0
SECTION
  2
ENTITIES
  0
TEXT
  5
70
  8
0
  6
CONTINUOUS
 62
     7
 10
815.0608040515193
 20
-1090.524602976116
 30
0.0
 40
5.0
  1
N-KFEP-100CK
  0
TEXT
  5
71
  8
1
  6
CONTINUOUS
 62
     7
 10
768.6587618512133
 20
-1101.609786134688
 30
0.0
 40
10.0
  1
Ｎ－ＫＦＥＰ－１００ＣＫ
 41
0.771692
 51
15.0
  0
LINE
  5
72
  8
1
  6
CONTINUOUS
 62
     7
 10
1432.676708326292
 20
-933.4999999647005
 30
0.0
 11
1441.303010908092
 21
-933.4999999647005
 31
0.0
  0
ARC
  5
73
  8
1
  6
CONTINUOUS
 62
     7
 10
1327.076708326343
 20
-1068.0000000354
 30
0.0
 40
3.500000000002501
 50
190.0
 51
270.0
  0
LINE
  5
74
  8
1
  6
CONTINUOUS
 62
     7
 10
1365.549838043646
 20
-1068.6077686572
 30
0.0
 11
1367.232330539146
 21
-1059.0658795559
 31
0.0
  0
LINE
  5
75
  8
1
  6
CONTINUOUS
 62
     7
 10
1286.456859617247
 20
-994.9999994803001
 30
0.0
 11
1286.456859617247
 21
-1010.0000005198
 31
0.0
  0
LINE
  5
76
  8
1
  6
CONTINUOUS
 62
     7
 10
1153.839859617294
 20
-994.9999994803001
 30
0.0
 11
1153.839859617294
 21
-935.0960777868
 31
0.0
  0
LINE
  5
77
  8
1
  6
CONTINUOUS
 62
     7
 10
1153.839859617294
 20
-1010.0000005198
 30
0.0
 11
1153.839859617294
 21
-1069.9039222133
 31
0.0
  0
LINE
  5
78
  8
1
  6
CONTINUOUS
 62
     7
 10
1259.949838043643
 20
-1068.6077686572
 30
0.0
 11
1261.632330539144
 21
-1059.0658795559
 31
0.0
  0
ARC
  5
79
  8
1
  6
CONTINUOUS
 62
     7
 10
1115.876708326394
 20
-1068.0000000354
 30
0.0
 40
3.499999999998948
 50
190.0
 51
270.0
  0
LINE
  5
7A
  8
1
  6
CONTINUOUS
 62
     7
 10
1324.139859617245
 20
-935.0960777868005
 30
0.0
 11
1324.139859617245
 21
-994.9999994803005
 31
0.0
  0
ARC
  5
7B
  8
1
  6
CONTINUOUS
 62
     7
 10
1316.894349921645
 20
-945.5000000000002
 30
0.0
 40
2.499999999997726
 50
190.0
 51
270.0
  0
LINE
  5
7C
  8
1
  6
CONTINUOUS
 62
     7
 10
1297.739859617246
 20
-935.0960777868005
 30
0.0
 11
1297.739859617246
 21
-994.9999994803005
 31
0.0
  0
LINE
  5
7D
  8
1
  6
CONTINUOUS
 62
     7
 10
1158.494349921694
 20
-948.0000000000001
 30
0.0
 11
1161.085369312794
 21
-948.0000000000001
 31
0.0
  0
ARC
  5
7E
  8
1
  6
CONTINUOUS
 62
     7
 10
1335.703010908142
 20
-936.9999999647002
 30
0.0
 40
3.500000000002501
 50
10.0
 51
90.0
  0
LINE
  5
7F
  8
1
  6
CONTINUOUS
 62
     7
 10
1350.539859617244
 20
-1069.9039222133
 30
0.0
 11
1350.539859617244
 21
-1010.0000005198
 31
0.0
  0
ARC
  5
80
  8
1
  6
CONTINUOUS
 62
     7
 10
1266.685369312741
 20
-1059.5
 30
0.0
 40
2.500000000004832
 50
10.0
 51
90.0
  0
LINE
  5
81
  8
1
  6
CONTINUOUS
 62
     7
 10
1154.456859617296
 20
-994.9999994803001
 30
0.0
 11
1154.456859617296
 21
-1010.0000005198
 31
0.0
  0
LINE
  5
82
  8
1
  6
CONTINUOUS
 62
     7
 10
1259.439859617243
 20
-994.9999994803001
 30
0.0
 11
1259.439859617243
 21
-935.0960777868
 31
0.0
  0
ARC
  5
83
  8
1
  6
CONTINUOUS
 62
     7
 10
1309.303010908143
 20
-936.9999999647002
 30
0.0
 40
3.500000000002501
 50
10.0
 51
90.0
  0
LINE
  5
84
  8
1
  6
CONTINUOUS
 62
     7
 10
1365.549838043646
 20
-936.3922313429002
 30
0.0
 11
1367.232330539146
 21
-945.9341204442004
 31
0.0
  0
LINE
  5
85
  8
1
  6
CONTINUOUS
 62
     7
 10
1312.856859617246
 20
-1010.0000005198
 30
0.0
 11
1297.122859617246
 21
-1010.0000005198
 31
0.0
  0
ARC
  5
86
  8
1
  6
CONTINUOUS
 62
     7
 10
1142.276708326393
 20
-936.9999999647002
 30
0.0
 40
3.500000000002501
 50
90.0
 51
170.0
  0
LINE
  5
87
  8
1
  6
CONTINUOUS
 62
     7
 10
1286.456859617247
 20
-1010.0000005198
 30
0.0
 11
1270.722859617247
 21
-1010.0000005198
 31
0.0
  0
LINE
  5
88
  8
1
  6
CONTINUOUS
 62
     7
 10
1482.029881190795
 20
-1068.6077686572
 30
0.0
 11
1480.347388695295
 21
-1059.0658795559
 31
0.0
  0
ARC
  5
89
  8
1
  6
CONTINUOUS
 62
     7
 10
1353.476708326342
 20
-936.9999999647002
 30
0.0
 40
3.500000000002501
 50
90.0
 51
170.0
  0
ARC
  5
8A
  8
1
  6
CONTINUOUS
 62
     7
 10
1319.485369312745
 20
-945.5000000000002
 30
0.0
 40
2.499999999997726
 50
270.0
 51
349.9999999999999
  0
LINE
  5
8B
  8
1
  6
CONTINUOUS
 62
     7
 10
1270.829881190847
 20
-936.3922313429002
 30
0.0
 11
1269.147388695347
 21
-945.9341204442004
 31
0.0
  0
LINE
  5
8C
  8
1
  6
CONTINUOUS
 62
     7
 10
1138.722859617294
 20
-994.9999994803001
 30
0.0
 11
1138.722859617294
 21
-1010.0000005198
 31
0.0
  0
LINE
  5
8D
  8
1
  6
CONTINUOUS
 62
     7
 10
1444.856859617194
 20
-994.9999994803001
 30
0.0
 11
1444.856859617194
 21
-1010.0000005198
 31
0.0
  0
LINE
  5
8E
  8
1
  6
CONTINUOUS
 62
     7
 10
1327.076708326343
 20
-1071.5000000354
 30
0.0
 11
1335.703010908143
 21
-1071.5000000354
 31
0.0
  0
ARC
  5
8F
  8
1
  6
CONTINUOUS
 62
     7
 10
1369.694349921642
 20
-945.5000000000002
 30
0.0
 40
2.500000000004832
 50
190.0
 51
270.0
  0
LINE
  5
90
  8
1
  6
CONTINUOUS
 62
     7
 10
1286.349838043642
 20
-936.3922313429002
 30
0.0
 11
1288.032330539143
 21
-945.9341204442004
 31
0.0
  0
ARC
  5
91
  8
1
  6
CONTINUOUS
 62
     7
 10
1369.694349921642
 20
-1059.5
 30
0.0
 40
2.500000000004832
 50
90.0
 51
170.0
  0
LINE
  5
92
  8
1
  6
CONTINUOUS
 62
     7
 10
1312.239859617244
 20
-994.9999994803001
 30
0.0
 11
1312.239859617244
 21
-935.0960777868
 31
0.0
  0
LINE
  5
93
  8
1
  6
CONTINUOUS
 62
     7
 10
1312.856859617246
 20
-994.9999994803001
 30
0.0
 11
1297.122859617246
 21
-994.9999994803001
 31
0.0
  0
LINE
  5
94
  8
1
  6
CONTINUOUS
 62
     7
 10
1497.039859617197
 20
-994.9999994803001
 30
0.0
 11
1497.039859617197
 21
-935.0960777868
 31
0.0
  0
LINE
  5
95
  8
1
  6
CONTINUOUS
 62
     7
 10
1115.876708326394
 20
-933.4999999647005
 30
0.0
 11
1124.503010908194
 21
-933.4999999647005
 31
0.0
  0
ARC
  5
96
  8
1
  6
CONTINUOUS
 62
     7
 10
1309.303010908143
 20
-1068.0000000354
 30
0.0
 40
3.500000000002501
 50
270.0
 51
349.9999999999999
  0
ARC
  5
97
  8
1
  6
CONTINUOUS
 62
     7
 10
1134.685369312793
 20
-945.5000000000002
 30
0.0
 40
2.500000000004832
 50
270.0
 51
349.9999999999999
  0
LINE
  5
98
  8
1
  6
CONTINUOUS
 62
     7
 10
1324.139859617245
 20
-1069.9039222133
 30
0.0
 11
1324.139859617245
 21
-1010.0000005198
 31
0.0
  0
LINE
  5
99
  8
1
  6
CONTINUOUS
 62
     7
 10
1154.349838043694
 20
-1068.6077686572
 30
0.0
 11
1156.032330539193
 21
-1059.0658795559
 31
0.0
  0
LINE
  5
9A
  8
1
  6
CONTINUOUS
 62
     7
 10
1128.05685961729
 20
-1010.0000005198
 30
0.0
 11
1112.322859617291
 21
-1010.0000005198
 31
0.0
  0
LINE
  5
9B
  8
1
  6
CONTINUOUS
 62
     7
 10
1300.676708326344
 20
-933.4999999647005
 30
0.0
 11
1309.303010908144
 21
-933.4999999647005
 31
0.0
  0
ARC
  5
9C
  8
1
  6
CONTINUOUS
 62
     7
 10
1316.894349921645
 20
-1059.5
 30
0.0
 40
2.499999999997726
 50
90.0
 51
170.0
  0
LINE
  5
9D
  8
1
  6
CONTINUOUS
 62
     7
 10
1154.456859617296
 20
-1010.0000005198
 30
0.0
 11
1138.722859617297
 21
-1010.0000005198
 31
0.0
  0
ARC
  5
9E
  8
1
  6
CONTINUOUS
 62
     7
 10
1528.094349921543
 20
-945.5000000000002
 30
0.0
 40
2.500000000004832
 50
190.0
 51
270.0
  0
ARC
  5
9F
  8
1
  6
CONTINUOUS
 62
     7
 10
1264.094349921643
 20
-945.5000000000002
 30
0.0
 40
2.499999999997726
 50
190.0
 51
270.0
  0
LINE
  5
A0
  8
1
  6
CONTINUOUS
 62
     7
 10
1132.094349921695
 20
-1057.0
 30
0.0
 11
1134.685369312795
 21
-1057.0
 31
0.0
  0
LINE
  5
A1
  8
1
  6
CONTINUOUS
 62
     7
 10
1138.829881190892
 20
-1068.6077686572
 30
0.0
 11
1137.147388695392
 21
-1059.0658795559
 31
0.0
  0
LINE
  5
A2
  8
1
  6
CONTINUOUS
 62
     7
 10
1349.922859617242
 20
-994.9999994803001
 30
0.0
 11
1349.922859617242
 21
-1010.0000005198
 31
0.0
  0
LINE
  5
A3
  8
1
  6
CONTINUOUS
 62
     7
 10
1259.949838043643
 20
-936.3922313429002
 30
0.0
 11
1261.632330539144
 21
-945.9341204442004
 31
0.0
  0
ARC
  5
A4
  8
1
  6
CONTINUOUS
 62
     7
 10
1564.676708326244
 20
-936.9999999647002
 30
0.0
 40
3.499999999998948
 50
90.0
 51
170.0
  0
ARC
  5
A5
  8
1
  6
CONTINUOUS
 62
     7
 10
1335.703010908142
 20
-1068.0000000354
 30
0.0
 40
3.500000000002501
 50
270.0
 51
349.9999999999999
  0
LINE
  5
A6
  8
1
  6
CONTINUOUS
 62
     7
 10
1350.029881190844
 20
-936.3922313429002
 30
0.0
 11
1348.347388695344
 21
-945.9341204442004
 31
0.0
  0
LINE
  5
A7
  8
1
  6
CONTINUOUS
 62
     7
 10
1339.149838043647
 20
-1068.6077686572
 30
0.0
 11
1340.832330539147
 21
-1059.0658795559
 31
0.0
  0
LINE
  5
A8
  8
1
  6
CONTINUOUS
 62
     7
 10
1350.029881190844
 20
-1068.6077686572
 30
0.0
 11
1348.347388695344
 21
-1059.0658795559
 31
0.0
  0
ARC
  5
A9
  8
1
  6
CONTINUOUS
 62
     7
 10
1293.085369312747
 20
-945.5000000000002
 30
0.0
 40
2.499999999997726
 50
270.0
 51
349.9999999999999
  0
LINE
  5
AA
  8
1
  6
CONTINUOUS
 62
     7
 10
1550.349838043546
 20
-1068.6077686572
 30
0.0
 11
1552.032330539045
 21
-1059.0658795559
 31
0.0
  0
LINE
  5
AB
  8
1
  6
CONTINUOUS
 62
     7
 10
1270.722859617242
 20
-994.9999994803001
 30
0.0
 11
1270.722859617242
 21
-1010.0000005198
 31
0.0
  0
LINE
  5
AC
  8
1
  6
CONTINUOUS
 62
     7
 10
1274.276708326345
 20
-1071.5000000354
 30
0.0
 11
1282.903010908145
 21
-1071.5000000354
 31
0.0
  0
LINE
  5
AD
  8
1
  6
CONTINUOUS
 62
     7
 10
1112.939859617293
 20
-935.0960777868005
 30
0.0
 11
1112.939859617293
 21
-994.9999994803005
 31
0.0
  0
ARC
  5
AE
  8
1
  6
CONTINUOUS
 62
     7
 10
1520.503010908045
 20
-1068.0000000354
 30
0.0
 40
3.499999999998948
 50
270.0
 51
349.9999999999999
  0
LINE
  5
AF
  8
1
  6
CONTINUOUS
 62
     7
 10
1339.256859617245
 20
-1010.0000005198
 30
0.0
 11
1323.522859617246
 21
-1010.0000005198
 31
0.0
  0
ARC
  5
B0
  8
1
  6
CONTINUOUS
 62
     7
 10
1282.903010908144
 20
-936.9999999647002
 30
0.0
 40
3.500000000002501
 50
10.0
 51
90.0
  0
LINE
  5
B1
  8
1
  6
CONTINUOUS
 62
     7
 10
1115.876708326394
 20
-1071.5000000354
 30
0.0
 11
1124.503010908194
 21
-1071.5000000354
 31
0.0
  0
LINE
  5
B2
  8
1
  6
CONTINUOUS
 62
     7
 10
1297.122859617241
 20
-994.9999994803001
 30
0.0
 11
1297.122859617241
 21
-1010.0000005198
 31
0.0
  0
LINE
  5
B3
  8
1
  6
CONTINUOUS
 62
     7
 10
1128.05685961729
 20
-994.9999994803001
 30
0.0
 11
1128.05685961729
 21
-1010.0000005198
 31
0.0
  0
LINE
  5
B4
  8
1
  6
CONTINUOUS
 62
     7
 10
1142.276708326393
 20
-1071.5000000354
 30
0.0
 11
1150.903010908194
 21
-1071.5000000354
 31
0.0
  0
LINE
  5
B5
  8
1
  6
CONTINUOUS
 62
     7
 10
1316.894349921645
 20
-1057.0
 30
0.0
 11
1319.485369312745
 21
-1057.0
 31
0.0
  0
LINE
  5
B6
  8
1
  6
CONTINUOUS
 62
     7
 10
1339.149838043647
 20
-936.3922313429002
 30
0.0
 11
1340.832330539147
 21
-945.9341204442004
 31
0.0
  0
LINE
  5
B7
  8
1
  6
CONTINUOUS
 62
     7
 10
1168.676708326396
 20
-1071.5000000354
 30
0.0
 11
1177.303010908195
 21
-1071.5000000354
 31
0.0
  0
LINE
  5
B8
  8
1
  6
CONTINUOUS
 62
     7
 10
1127.949838043692
 20
-1068.6077686572
 30
0.0
 11
1129.632330539191
 21
-1059.0658795559
 31
0.0
  0
ARC
  5
B9
  8
1
  6
CONTINUOUS
 62
     7
 10
1290.494349921646
 20
-945.5000000000002
 30
0.0
 40
2.499999999997726
 50
190.0
 51
270.0
  0
ARC
  5
BA
  8
1
  6
CONTINUOUS
 62
     7
 10
1300.676708326344
 20
-1068.0000000354
 30
0.0
 40
3.500000000002501
 50
190.0
 51
270.0
  0
LINE
  5
BB
  8
1
  6
CONTINUOUS
 62
     7
 10
1550.456859617144
 20
-994.9999994803001
 30
0.0
 11
1550.456859617144
 21
-1010.0000005198
 31
0.0
  0
ARC
  5
BC
  8
1
  6
CONTINUOUS
 62
     7
 10
1511.876708326243
 20
-936.9999999647002
 30
0.0
 40
3.500000000002501
 50
90.0
 51
170.0
  0
ARC
  5
BD
  8
1
  6
CONTINUOUS
 62
     7
 10
1580.894349921544
 20
-1059.5
 30
0.0
 40
2.500000000001279
 50
90.0
 51
170.0
  0
LINE
  5
BE
  8
1
  6
CONTINUOUS
 62
     7
 10
1350.539859617244
 20
-935.0960777868005
 30
0.0
 11
1350.539859617244
 21
-994.9999994803005
 31
0.0
  0
ARC
  5
BF
  8
1
  6
CONTINUOUS
 62
     7
 10
1158.494349921694
 20
-945.5000000000002
 30
0.0
 40
2.499999999997726
 50
190.0
 51
270.0
  0
LINE
  5
C0
  8
1
  6
CONTINUOUS
 62
     7
 10
1300.676708326344
 20
-1071.5000000354
 30
0.0
 11
1309.303010908144
 21
-1071.5000000354
 31
0.0
  0
LINE
  5
C1
  8
1
  6
CONTINUOUS
 62
     7
 10
1139.339859617296
 20
-1069.9039222133
 30
0.0
 11
1139.339859617296
 21
-1010.0000005198
 31
0.0
  0
LINE
  5
C2
  8
1
  6
CONTINUOUS
 62
     7
 10
1138.829881190892
 20
-936.3922313429002
 30
0.0
 11
1137.147388695392
 21
-945.9341204442004
 31
0.0
  0
LINE
  5
C3
  8
1
  6
CONTINUOUS
 62
     7
 10
1139.339859617296
 20
-935.0960777868005
 30
0.0
 11
1139.339859617296
 21
-994.9999994803005
 31
0.0
  0
ARC
  5
C4
  8
1
  6
CONTINUOUS
 62
     7
 10
1124.503010908194
 20
-1068.0000000354
 30
0.0
 40
3.500000000002501
 50
270.0
 51
349.9999999999999
  0
LINE
  5
C5
  8
1
  6
CONTINUOUS
 62
     7
 10
1285.839859617242
 20
-1010.0000005198
 30
0.0
 11
1285.839859617242
 21
-1069.9039222133
 31
0.0
  0
ARC
  5
C6
  8
1
  6
CONTINUOUS
 62
     7
 10
1142.276708326393
 20
-1068.0000000354
 30
0.0
 40
3.500000000002501
 50
190.0
 51
270.0
  0
ARC
  5
C7
  8
1
  6
CONTINUOUS
 62
     7
 10
1528.094349921543
 20
-1059.5
 30
0.0
 40
2.500000000004832
 50
90.0
 51
170.0
  0
LINE
  5
C8
  8
1
  6
CONTINUOUS
 62
     7
 10
1312.856859617246
 20
-994.9999994803001
 30
0.0
 11
1312.856859617246
 21
-1010.0000005198
 31
0.0
  0
LINE
  5
C9
  8
1
  6
CONTINUOUS
 62
     7
 10
1132.094349921695
 20
-948.0000000000001
 30
0.0
 11
1134.685369312795
 21
-948.0000000000001
 31
0.0
  0
LINE
  5
CA
  8
1
  6
CONTINUOUS
 62
     7
 10
1365.656859617244
 20
-1010.0000005198
 30
0.0
 11
1349.922859617244
 21
-1010.0000005198
 31
0.0
  0
LINE
  5
CB
  8
1
  6
CONTINUOUS
 62
     7
 10
1353.476708326342
 20
-933.4999999647005
 30
0.0
 11
1362.103010908142
 21
-933.4999999647005
 31
0.0
  0
ARC
  5
CC
  8
1
  6
CONTINUOUS
 62
     7
 10
1319.485369312745
 20
-1059.5
 30
0.0
 40
2.499999999997726
 50
10.0
 51
90.0
  0
ARC
  5
CD
  8
1
  6
CONTINUOUS
 62
     7
 10
1504.285369312649
 20
-1059.5
 30
0.0
 40
2.499999999997726
 50
10.0
 51
90.0
  0
LINE
  5
CE
  8
1
  6
CONTINUOUS
 62
     7
 10
1508.939859617145
 20
-1069.9039222133
 30
0.0
 11
1508.939859617145
 21
-1010.0000005198
 31
0.0
  0
ARC
  5
CF
  8
1
  6
CONTINUOUS
 62
     7
 10
1353.476708326342
 20
-1068.0000000354
 30
0.0
 40
3.500000000002501
 50
190.0
 51
270.0
  0
LINE
  5
D0
  8
1
  6
CONTINUOUS
 62
     7
 10
1297.229881190846
 20
-936.3922313429002
 30
0.0
 11
1295.547388695345
 21
-945.9341204442004
 31
0.0
  0
LINE
  5
D1
  8
1
  6
CONTINUOUS
 62
     7
 10
1312.239859617244
 20
-1010.0000005198
 30
0.0
 11
1312.239859617244
 21
-1069.9039222133
 31
0.0
  0
LINE
  5
D2
  8
1
  6
CONTINUOUS
 62
     7
 10
1127.439859617291
 20
-994.9999994803001
 30
0.0
 11
1127.439859617291
 21
-935.0960777868
 31
0.0
  0
LINE
  5
D3
  8
1
  6
CONTINUOUS
 62
     7
 10
1154.456859617296
 20
-994.9999994803001
 30
0.0
 11
1138.722859617297
 21
-994.9999994803001
 31
0.0
  0
ARC
  5
D4
  8
1
  6
CONTINUOUS
 62
     7
 10
1520.503010908045
 20
-936.9999999647002
 30
0.0
 40
3.499999999998948
 50
10.0
 51
90.0
  0
LINE
  5
D5
  8
1
  6
CONTINUOUS
 62
     7
 10
1523.949838043543
 20
-1068.6077686572
 30
0.0
 11
1525.632330539043
 21
-1059.0658795559
 31
0.0
  0
LINE
  5
D6
  8
1
  6
CONTINUOUS
 62
     7
 10
1528.094349921543
 20
-948.0000000000001
 30
0.0
 11
1530.685369312643
 21
-948.0000000000001
 31
0.0
  0
LINE
  5
D7
  8
1
  6
CONTINUOUS
 62
     7
 10
1127.439859617291
 20
-1010.0000005198
 30
0.0
 11
1127.439859617291
 21
-1069.9039222133
 31
0.0
  0
LINE
  5
D8
  8
1
  6
CONTINUOUS
 62
     7
 10
1297.739859617246
 20
-1069.9039222133
 30
0.0
 11
1297.739859617246
 21
-1010.0000005198
 31
0.0
  0
LINE
  5
D9
  8
1
  6
CONTINUOUS
 62
     7
 10
1127.949838043692
 20
-936.3922313429002
 30
0.0
 11
1129.632330539191
 21
-945.9341204442004
 31
0.0
  0
ARC
  5
DA
  8
1
  6
CONTINUOUS
 62
     7
 10
1150.903010908196
 20
-1068.0000000354
 30
0.0
 40
3.499999999998948
 50
270.0
 51
349.9999999999999
  0
LINE
  5
DB
  8
1
  6
CONTINUOUS
 62
     7
 10
1564.676708326244
 20
-933.4999999647005
 30
0.0
 11
1573.303010908045
 21
-933.4999999647005
 31
0.0
  0
ARC
  5
DC
  8
1
  6
CONTINUOUS
 62
     7
 10
1591.076708326243
 20
-1068.0000000354
 30
0.0
 40
3.500000000002501
 50
190.0
 51
270.0
  0
LINE
  5
DD
  8
1
  6
CONTINUOUS
 62
     7
 10
1376.939859617197
 20
-935.0960777868005
 30
0.0
 11
1376.939859617197
 21
-994.9999994803005
 31
0.0
  0
LINE
  5
DE
  8
1
  6
CONTINUOUS
 62
     7
 10
1379.876708326294
 20
-933.4999999647005
 30
0.0
 11
1388.503010908094
 21
-933.4999999647005
 31
0.0
  0
ARC
  5
DF
  8
1
  6
CONTINUOUS
 62
     7
 10
1626.103010908044
 20
-936.9999999647002
 30
0.0
 40
3.499999999998948
 50
10.0
 51
90.0
  0
LINE
  5
E0
  8
1
  6
CONTINUOUS
 62
     7
 10
1471.256859617193
 20
-1010.0000005198
 30
0.0
 11
1455.522859617192
 21
-1010.0000005198
 31
0.0
  0
LINE
  5
E1
  8
1
  6
CONTINUOUS
 62
     7
 10
1406.276708326293
 20
-933.4999999647005
 30
0.0
 11
1414.903010908094
 21
-933.4999999647005
 31
0.0
  0
ARC
  5
E2
  8
1
  6
CONTINUOUS
 62
     7
 10
1448.894349921593
 20
-945.5000000000002
 30
0.0
 40
2.500000000001279
 50
190.0
 51
270.0
  0
LINE
  5
E3
  8
1
  6
CONTINUOUS
 62
     7
 10
1448.894349921593
 20
-1057.0
 30
0.0
 11
1451.485369312693
 21
-1057.0
 31
0.0
  0
ARC
  5
E4
  8
1
  6
CONTINUOUS
 62
     7
 10
1583.485369312645
 20
-1059.5
 30
0.0
 40
2.500000000001279
 50
10.0
 51
90.0
  0
LINE
  5
E5
  8
1
  6
CONTINUOUS
 62
     7
 10
1591.076708326243
 20
-933.4999999647005
 30
0.0
 11
1599.703010908042
 21
-933.4999999647005
 31
0.0
  0
LINE
  5
E6
  8
1
  6
CONTINUOUS
 62
     7
 10
1603.256859617145
 20
-994.9999994803001
 30
0.0
 11
1603.256859617145
 21
-1010.0000005198
 31
0.0
  0
LINE
  5
E7
  8
1
  6
CONTINUOUS
 62
     7
 10
1422.494349921594
 20
-1057.0
 30
0.0
 11
1425.085369312695
 21
-1057.0
 31
0.0
  0
LINE
  5
E8
  8
1
  6
CONTINUOUS
 62
     7
 10
1475.294349921591
 20
-948.0000000000001
 30
0.0
 11
1477.885369312692
 21
-948.0000000000001
 31
0.0
  0
ARC
  5
E9
  8
1
  6
CONTINUOUS
 62
     7
 10
1441.303010908095
 20
-1068.0000000354
 30
0.0
 40
3.499999999998948
 50
270.0
 51
349.9999999999999
  0
ARC
  5
EA
  8
1
  6
CONTINUOUS
 62
     7
 10
1379.876708326294
 20
-1068.0000000354
 30
0.0
 40
3.500000000002501
 50
190.0
 51
270.0
  0
ARC
  5
EB
  8
1
  6
CONTINUOUS
 62
     7
 10
1422.494349921594
 20
-945.5000000000002
 30
0.0
 40
2.499999999997726
 50
190.0
 51
270.0
  0
ARC
  5
EC
  8
1
  6
CONTINUOUS
 62
     7
 10
1388.503010908094
 20
-1068.0000000354
 30
0.0
 40
3.500000000002501
 50
270.0
 51
349.9999999999999
  0
LINE
  5
ED
  8
1
  6
CONTINUOUS
 62
     7
 10
1629.549838043546
 20
-936.3922313429002
 30
0.0
 11
1631.232330539047
 21
-945.9341204442004
 31
0.0
  0
LINE
  5
EE
  8
1
  6
CONTINUOUS
 62
     7
 10
1471.149838043595
 20
-936.3922313429002
 30
0.0
 11
1472.832330539096
 21
-945.9341204442004
 31
0.0
  0
LINE
  5
EF
  8
1
  6
CONTINUOUS
 62
     7
 10
1602.639859617143
 20
-1010.0000005198
 30
0.0
 11
1602.639859617143
 21
-1069.9039222133
 31
0.0
  0
ARC
  5
F0
  8
1
  6
CONTINUOUS
 62
     7
 10
1607.294349921543
 20
-945.5000000000002
 30
0.0
 40
2.500000000001279
 50
190.0
 51
270.0
  0
LINE
  5
F1
  8
1
  6
CONTINUOUS
 62
     7
 10
1772.429881190694
 20
-936.3922313429002
 30
0.0
 11
1770.747388695194
 21
-945.9341204442004
 31
0.0
  0
LINE
  5
F2
  8
1
  6
CONTINUOUS
 62
     7
 10
1629.656859617144
 20
-994.9999994803001
 30
0.0
 11
1629.656859617144
 21
-1010.0000005198
 31
0.0
  0
LINE
  5
F3
  8
1
  6
CONTINUOUS
 62
     7
 10
1719.522859617095
 20
-994.9999994803001
 30
0.0
 11
1719.522859617095
 21
-1010.0000005198
 31
0.0
  0
LINE
  5
F4
  8
1
  6
CONTINUOUS
 62
     7
 10
1613.922859617146
 20
-994.9999994803001
 30
0.0
 11
1613.922859617146
 21
-1010.0000005198
 31
0.0
  0
LINE
  5
F5
  8
1
  6
CONTINUOUS
 62
     7
 10
1402.829881190795
 20
-936.3922313429002
 30
0.0
 11
1401.147388695296
 21
-945.9341204442004
 31
0.0
  0
LINE
  5
F6
  8
1
  6
CONTINUOUS
 62
     7
 10
1588.139859617145
 20
-935.0960777868005
 30
0.0
 11
1588.139859617145
 21
-994.9999994803005
 31
0.0
  0
LINE
  5
F7
  8
1
  6
CONTINUOUS
 62
     7
 10
1456.139859617197
 20
-935.0960777868005
 30
0.0
 11
1456.139859617197
 21
-994.9999994803005
 31
0.0
  0
LINE
  5
F8
  8
1
  6
CONTINUOUS
 62
     7
 10
1587.629881190745
 20
-936.3922313429002
 30
0.0
 11
1585.947388695244
 21
-945.9341204442004
 31
0.0
  0
ARC
  5
F9
  8
1
  6
CONTINUOUS
 62
     7
 10
1406.276708326293
 20
-936.9999999647002
 30
0.0
 40
3.500000000002501
 50
90.0
 51
170.0
  0
ARC
  5
FA
  8
1
  6
CONTINUOUS
 62
     7
 10
1459.076708326294
 20
-1068.0000000354
 30
0.0
 40
3.499999999998948
 50
190.0
 51
270.0
  0
LINE
  5
FB
  8
1
  6
CONTINUOUS
 62
     7
 10
1429.229881190794
 20
-1068.6077686572
 30
0.0
 11
1427.547388695295
 21
-1059.0658795559
 31
0.0
  0
LINE
  5
FC
  8
1
  6
CONTINUOUS
 62
     7
 10
1471.149838043595
 20
-1068.6077686572
 30
0.0
 11
1472.832330539096
 21
-1059.0658795559
 31
0.0
  0
ARC
  5
FD
  8
1
  6
CONTINUOUS
 62
     7
 10
1396.094349921595
 20
-945.5000000000002
 30
0.0
 40
2.499999999997726
 50
190.0
 51
270.0
  0
LINE
  5
FE
  8
1
  6
CONTINUOUS
 62
     7
 10
1761.656859617096
 20
-994.9999994803001
 30
0.0
 11
1745.922859617095
 21
-994.9999994803001
 31
0.0
  0
ARC
  5
FF
  8
1
  6
CONTINUOUS
 62
     7
 10
1379.876708326294
 20
-936.9999999647002
 30
0.0
 40
3.500000000002501
 50
90.0
 51
170.0
  0
ARC
  5
100
  8
1
  6
CONTINUOUS
 62
     7
 10
1396.094349921595
 20
-1059.5
 30
0.0
 40
2.499999999997726
 50
90.0
 51
170.0
  0
LINE
  5
101
  8
1
  6
CONTINUOUS
 62
     7
 10
1607.294349921543
 20
-1057.0
 30
0.0
 11
1609.885369312643
 21
-1057.0
 31
0.0
  0
LINE
  5
102
  8
1
  6
CONTINUOUS
 62
     7
 10
1629.039859617146
 20
-1010.0000005198
 30
0.0
 11
1629.039859617146
 21
-1069.9039222133
 31
0.0
  0
ARC
  5
103
  8
1
  6
CONTINUOUS
 62
     7
 10
1388.503010908094
 20
-936.9999999647002
 30
0.0
 40
3.500000000002501
 50
10.0
 51
90.0
  0
LINE
  5
104
  8
1
  6
CONTINUOUS
 62
     7
 10
1497.549838043598
 20
-1068.6077686572
 30
0.0
 11
1499.232330539098
 21
-1059.0658795559
 31
0.0
  0
ARC
  5
105
  8
1
  6
CONTINUOUS
 62
     7
 10
1425.085369312698
 20
-1059.5
 30
0.0
 40
2.499999999997726
 50
10.0
 51
90.0
  0
ARC
  5
106
  8
1
  6
CONTINUOUS
 62
     7
 10
1617.476708326245
 20
-1068.0000000354
 30
0.0
 40
3.499999999998948
 50
190.0
 51
270.0
  0
LINE
  5
107
  8
1
  6
CONTINUOUS
 62
     7
 10
1402.829881190795
 20
-1068.6077686572
 30
0.0
 11
1401.147388695296
 21
-1059.0658795559
 31
0.0
  0
ARC
  5
108
  8
1
  6
CONTINUOUS
 62
     7
 10
1451.485369312697
 20
-1059.5
 30
0.0
 40
2.499999999997726
 50
10.0
 51
90.0
  0
ARC
  5
109
  8
1
  6
CONTINUOUS
 62
     7
 10
1607.294349921543
 20
-1059.5
 30
0.0
 40
2.500000000001279
 50
90.0
 51
170.0
  0
LINE
  5
10A
  8
1
  6
CONTINUOUS
 62
     7
 10
1603.149838043547
 20
-1068.6077686572
 30
0.0
 11
1604.832330539047
 21
-1059.0658795559
 31
0.0
  0
ARC
  5
10B
  8
1
  6
CONTINUOUS
 62
     7
 10
1494.103010908093
 20
-936.9999999647002
 30
0.0
 40
3.500000000002501
 50
10.0
 51
90.0
  0
ARC
  5
10C
  8
1
  6
CONTINUOUS
 62
     7
 10
1617.476708326245
 20
-936.9999999647002
 30
0.0
 40
3.499999999998948
 50
90.0
 51
170.0
  0
LINE
  5
10D
  8
1
  6
CONTINUOUS
 62
     7
 10
1603.256859617145
 20
-1010.0000005198
 30
0.0
 11
1587.522859617145
 21
-1010.0000005198
 31
0.0
  0
LINE
  5
10E
  8
1
  6
CONTINUOUS
 62
     7
 10
1471.256859617193
 20
-994.9999994803001
 30
0.0
 11
1455.522859617192
 21
-994.9999994803001
 31
0.0
  0
ARC
  5
10F
  8
1
  6
CONTINUOUS
 62
     7
 10
1633.694349921549
 20
-945.5000000000002
 30
0.0
 40
2.499999999997726
 50
190.0
 51
270.0
  0
LINE
  5
110
  8
1
  6
CONTINUOUS
 62
     7
 10
1614.029881190747
 20
-1068.6077686572
 30
0.0
 11
1612.347388695246
 21
-1059.0658795559
 31
0.0
  0
LINE
  5
111
  8
1
  6
CONTINUOUS
 62
     7
 10
1418.349838043598
 20
-1068.6077686572
 30
0.0
 11
1420.032330539097
 21
-1059.0658795559
 31
0.0
  0
LINE
  5
112
  8
1
  6
CONTINUOUS
 62
     7
 10
1603.256859617145
 20
-994.9999994803001
 30
0.0
 11
1587.522859617145
 21
-994.9999994803001
 31
0.0
  0
LINE
  5
113
  8
1
  6
CONTINUOUS
 62
     7
 10
1422.494349921594
 20
-948.0000000000001
 30
0.0
 11
1425.085369312695
 21
-948.0000000000001
 31
0.0
  0
ARC
  5
114
  8
1
  6
CONTINUOUS
 62
     7
 10
1432.676708326292
 20
-1068.0000000354
 30
0.0
 40
3.500000000002501
 50
190.0
 51
270.0
  0
ARC
  5
115
  8
1
  6
CONTINUOUS
 62
     7
 10
1501.694349921594
 20
-945.5000000000002
 30
0.0
 40
2.500000000001279
 50
190.0
 51
270.0
  0
ARC
  5
116
  8
1
  6
CONTINUOUS
 62
     7
 10
1274.276708326345
 20
-1068.0000000354
 30
0.0
 40
3.499999999998948
 50
190.0
 51
270.0
  0
ARC
  5
117
  8
1
  6
CONTINUOUS
 62
     7
 10
1599.703010908045
 20
-936.9999999647002
 30
0.0
 40
3.499999999998948
 50
10.0
 51
90.0
  0
LINE
  5
118
  8
1
  6
CONTINUOUS
 62
     7
 10
1432.676708326292
 20
-1071.5000000354
 30
0.0
 11
1441.303010908092
 21
-1071.5000000354
 31
0.0
  0
LINE
  5
119
  8
1
  6
CONTINUOUS
 62
     7
 10
1418.349838043598
 20
-936.3922313429002
 30
0.0
 11
1420.032330539097
 21
-945.9341204442004
 31
0.0
  0
LINE
  5
11A
  8
1
  6
CONTINUOUS
 62
     7
 10
1497.549838043598
 20
-936.3922313429002
 30
0.0
 11
1499.232330539098
 21
-945.9341204442004
 31
0.0
  0
LINE
  5
11B
  8
1
  6
CONTINUOUS
 62
     7
 10
1444.239859617192
 20
-994.9999994803001
 30
0.0
 11
1444.239859617192
 21
-935.0960777868
 31
0.0
  0
ARC
  5
11C
  8
1
  6
CONTINUOUS
 62
     7
 10
1293.085369312747
 20
-1059.5
 30
0.0
 40
2.499999999997726
 50
10.0
 51
90.0
  0
ARC
  5
11D
  8
1
  6
CONTINUOUS
 62
     7
 10
1485.476708326293
 20
-936.9999999647002
 30
0.0
 40
3.499999999998948
 50
90.0
 51
170.0
  0
LINE
  5
11E
  8
1
  6
CONTINUOUS
 62
     7
 10
1391.439859617195
 20
-1010.0000005198
 30
0.0
 11
1391.439859617195
 21
-1069.9039222133
 31
0.0
  0
LINE
  5
11F
  8
1
  6
CONTINUOUS
 62
     7
 10
1448.894349921593
 20
-948.0000000000001
 30
0.0
 11
1451.485369312693
 21
-948.0000000000001
 31
0.0
  0
LINE
  5
120
  8
1
  6
CONTINUOUS
 62
     7
 10
1497.656859617196
 20
-994.9999994803001
 30
0.0
 11
1497.656859617196
 21
-1010.0000005198
 31
0.0
  0
LINE
  5
121
  8
1
  6
CONTINUOUS
 62
     7
 10
1392.056859617197
 20
-994.9999994803001
 30
0.0
 11
1392.056859617197
 21
-1010.0000005198
 31
0.0
  0
LINE
  5
122
  8
1
  6
CONTINUOUS
 62
     7
 10
1614.539859617144
 20
-1069.9039222133
 30
0.0
 11
1614.539859617144
 21
-1010.0000005198
 31
0.0
  0
LINE
  5
123
  8
1
  6
CONTINUOUS
 62
     7
 10
1271.339859617244
 20
-1069.9039222133
 30
0.0
 11
1271.339859617244
 21
-1010.0000005198
 31
0.0
  0
LINE
  5
124
  8
1
  6
CONTINUOUS
 62
     7
 10
1392.056859617197
 20
-994.9999994803001
 30
0.0
 11
1376.322859617197
 21
-994.9999994803001
 31
0.0
  0
LINE
  5
125
  8
1
  6
CONTINUOUS
 62
     7
 10
1391.949838043595
 20
-1068.6077686572
 30
0.0
 11
1393.632330539095
 21
-1059.0658795559
 31
0.0
  0
LINE
  5
126
  8
1
  6
CONTINUOUS
 62
     7
 10
1485.476708326293
 20
-1071.5000000354
 30
0.0
 11
1494.103010908093
 21
-1071.5000000354
 31
0.0
  0
LINE
  5
127
  8
1
  6
CONTINUOUS
 62
     7
 10
1475.294349921591
 20
-1057.0
 30
0.0
 11
1477.885369312692
 21
-1057.0
 31
0.0
  0
ARC
  5
128
  8
1
  6
CONTINUOUS
 62
     7
 10
1422.494349921594
 20
-1059.5
 30
0.0
 40
2.499999999997726
 50
90.0
 51
170.0
  0
LINE
  5
129
  8
1
  6
CONTINUOUS
 62
     7
 10
1497.039859617197
 20
-1010.0000005198
 30
0.0
 11
1497.039859617197
 21
-1069.9039222133
 31
0.0
  0
LINE
  5
12A
  8
1
  6
CONTINUOUS
 62
     7
 10
1429.739859617194
 20
-935.0960777868005
 30
0.0
 11
1429.739859617194
 21
-994.9999994803005
 31
0.0
  0
LINE
  5
12B
  8
1
  6
CONTINUOUS
 62
     7
 10
1629.656859617144
 20
-1010.0000005198
 30
0.0
 11
1613.922859617143
 21
-1010.0000005198
 31
0.0
  0
ARC
  5
12C
  8
1
  6
CONTINUOUS
 62
     7
 10
1591.076708326243
 20
-936.9999999647002
 30
0.0
 40
3.500000000002501
 50
90.0
 51
170.0
  0
LINE
  5
12D
  8
1
  6
CONTINUOUS
 62
     7
 10
1247.876708326346
 20
-1071.5000000354
 30
0.0
 11
1256.503010908146
 21
-1071.5000000354
 31
0.0
  0
ARC
  5
12E
  8
1
  6
CONTINUOUS
 62
     7
 10
1467.703010908094
 20
-936.9999999647002
 30
0.0
 40
3.499999999998948
 50
10.0
 51
90.0
  0
LINE
  5
12F
  8
1
  6
CONTINUOUS
 62
     7
 10
1396.094349921595
 20
-948.0000000000001
 30
0.0
 11
1398.685369312695
 21
-948.0000000000001
 31
0.0
  0
ARC
  5
130
  8
1
  6
CONTINUOUS
 62
     7
 10
1414.903010908092
 20
-936.9999999647002
 30
0.0
 40
3.500000000002501
 50
10.0
 51
90.0
  0
LINE
  5
131
  8
1
  6
CONTINUOUS
 62
     7
 10
1417.839859617194
 20
-1010.0000005198
 30
0.0
 11
1417.839859617194
 21
-1069.9039222133
 31
0.0
  0
LINE
  5
132
  8
1
  6
CONTINUOUS
 62
     7
 10
1587.522859617147
 20
-994.9999994803001
 30
0.0
 11
1587.522859617147
 21
-1010.0000005198
 31
0.0
  0
LINE
  5
133
  8
1
  6
CONTINUOUS
 62
     7
 10
1418.456859617196
 20
-994.9999994803001
 30
0.0
 11
1402.722859617196
 21
-994.9999994803001
 31
0.0
  0
LINE
  5
134
  8
1
  6
CONTINUOUS
 62
     7
 10
1497.656859617196
 20
-994.9999994803001
 30
0.0
 11
1481.922859617196
 21
-994.9999994803001
 31
0.0
  0
LINE
  5
135
  8
1
  6
CONTINUOUS
 62
     7
 10
1392.056859617197
 20
-1010.0000005198
 30
0.0
 11
1376.322859617197
 21
-1010.0000005198
 31
0.0
  0
LINE
  5
136
  8
1
  6
CONTINUOUS
 62
     7
 10
1481.922859617197
 20
-994.9999994803001
 30
0.0
 11
1481.922859617197
 21
-1010.0000005198
 31
0.0
  0
ARC
  5
137
  8
1
  6
CONTINUOUS
 62
     7
 10
1459.076708326294
 20
-936.9999999647002
 30
0.0
 40
3.499999999998948
 50
90.0
 51
170.0
  0
ARC
  5
138
  8
1
  6
CONTINUOUS
 62
     7
 10
1432.676708326292
 20
-936.9999999647002
 30
0.0
 40
3.500000000002501
 50
90.0
 51
170.0
  0
LINE
  5
139
  8
1
  6
CONTINUOUS
 62
     7
 10
1444.856859617194
 20
-1010.0000005198
 30
0.0
 11
1429.122859617194
 21
-1010.0000005198
 31
0.0
  0
LINE
  5
13A
  8
1
  6
CONTINUOUS
 62
     7
 10
1274.276708326345
 20
-933.4999999647005
 30
0.0
 11
1282.903010908145
 21
-933.4999999647005
 31
0.0
  0
LINE
  5
13B
  8
1
  6
CONTINUOUS
 62
     7
 10
1270.829881190847
 20
-1068.6077686572
 30
0.0
 11
1269.147388695347
 21
-1059.0658795559
 31
0.0
  0
LINE
  5
13C
  8
1
  6
CONTINUOUS
 62
     7
 10
1617.476708326245
 20
-1071.5000000354
 30
0.0
 11
1626.103010908044
 21
-1071.5000000354
 31
0.0
  0
LINE
  5
13D
  8
1
  6
CONTINUOUS
 62
     7
 10
1339.256859617245
 20
-994.9999994803001
 30
0.0
 11
1323.522859617246
 21
-994.9999994803001
 31
0.0
  0
LINE
  5
13E
  8
1
  6
CONTINUOUS
 62
     7
 10
1482.539859617196
 20
-935.0960777868005
 30
0.0
 11
1482.539859617196
 21
-994.9999994803005
 31
0.0
  0
LINE
  5
13F
  8
1
  6
CONTINUOUS
 62
     7
 10
1588.139859617145
 20
-1069.9039222133
 30
0.0
 11
1588.139859617145
 21
-1010.0000005198
 31
0.0
  0
ARC
  5
140
  8
1
  6
CONTINUOUS
 62
     7
 10
1451.485369312697
 20
-945.5000000000002
 30
0.0
 40
2.499999999997726
 50
270.0
 51
349.9999999999999
  0
LINE
  5
141
  8
1
  6
CONTINUOUS
 62
     7
 10
1417.839859617194
 20
-994.9999994803001
 30
0.0
 11
1417.839859617194
 21
-935.0960777868
 31
0.0
  0
LINE
  5
142
  8
1
  6
CONTINUOUS
 62
     7
 10
1429.229881190794
 20
-936.3922313429002
 30
0.0
 11
1427.547388695295
 21
-945.9341204442004
 31
0.0
  0
LINE
  5
143
  8
1
  6
CONTINUOUS
 62
     7
 10
1418.456859617196
 20
-1010.0000005198
 30
0.0
 11
1402.722859617196
 21
-1010.0000005198
 31
0.0
  0
LINE
  5
144
  8
1
  6
CONTINUOUS
 62
     7
 10
1602.639859617143
 20
-994.9999994803001
 30
0.0
 11
1602.639859617143
 21
-935.0960777868
 31
0.0
  0
ARC
  5
145
  8
1
  6
CONTINUOUS
 62
     7
 10
1256.503010908145
 20
-936.9999999647002
 30
0.0
 40
3.499999999998948
 50
10.0
 51
90.0
  0
LINE
  5
146
  8
1
  6
CONTINUOUS
 62
     7
 10
1323.522859617247
 20
-994.9999994803001
 30
0.0
 11
1323.522859617247
 21
-1010.0000005198
 31
0.0
  0
LINE
  5
147
  8
1
  6
CONTINUOUS
 62
     7
 10
1396.094349921595
 20
-1057.0
 30
0.0
 11
1398.685369312695
 21
-1057.0
 31
0.0
  0
ARC
  5
148
  8
1
  6
CONTINUOUS
 62
     7
 10
1448.894349921593
 20
-1059.5
 30
0.0
 40
2.500000000001279
 50
90.0
 51
170.0
  0
LINE
  5
149
  8
1
  6
CONTINUOUS
 62
     7
 10
1429.739859617194
 20
-1069.9039222133
 30
0.0
 11
1429.739859617194
 21
-1010.0000005198
 31
0.0
  0
LINE
  5
14A
  8
1
  6
CONTINUOUS
 62
     7
 10
1290.494349921646
 20
-948.0000000000001
 30
0.0
 11
1293.085369312746
 21
-948.0000000000001
 31
0.0
  0
LINE
  5
14B
  8
1
  6
CONTINUOUS
 62
     7
 10
1327.076708326343
 20
-933.4999999647005
 30
0.0
 11
1335.703010908143
 21
-933.4999999647005
 31
0.0
  0
ARC
  5
14C
  8
1
  6
CONTINUOUS
 62
     7
 10
1633.694349921549
 20
-1059.5
 30
0.0
 40
2.499999999997726
 50
90.0
 51
170.0
  0
LINE
  5
14D
  8
1
  6
CONTINUOUS
 62
     7
 10
1444.749838043597
 20
-936.3922313429002
 30
0.0
 11
1446.432330539097
 21
-945.9341204442004
 31
0.0
  0
LINE
  5
14E
  8
1
  6
CONTINUOUS
 62
     7
 10
1614.539859617144
 20
-935.0960777868005
 30
0.0
 11
1614.539859617144
 21
-994.9999994803005
 31
0.0
  0
LINE
  5
14F
  8
1
  6
CONTINUOUS
 62
     7
 10
1286.349838043642
 20
-1068.6077686572
 30
0.0
 11
1288.032330539143
 21
-1059.0658795559
 31
0.0
  0
ARC
  5
150
  8
1
  6
CONTINUOUS
 62
     7
 10
1414.903010908092
 20
-1068.0000000354
 30
0.0
 40
3.500000000002501
 50
270.0
 51
349.9999999999999
  0
LINE
  5
151
  8
1
  6
CONTINUOUS
 62
     7
 10
1482.539859617196
 20
-1069.9039222133
 30
0.0
 11
1482.539859617196
 21
-1010.0000005198
 31
0.0
  0
LINE
  5
152
  8
1
  6
CONTINUOUS
 62
     7
 10
1603.149838043547
 20
-936.3922313429002
 30
0.0
 11
1604.832330539047
 21
-945.9341204442004
 31
0.0
  0
ARC
  5
153
  8
1
  6
CONTINUOUS
 62
     7
 10
1467.703010908094
 20
-1068.0000000354
 30
0.0
 40
3.499999999998948
 50
270.0
 51
349.9999999999999
  0
LINE
  5
154
  8
1
  6
CONTINUOUS
 62
     7
 10
1482.029881190795
 20
-936.3922313429002
 30
0.0
 11
1480.347388695295
 21
-945.9341204442004
 31
0.0
  0
ARC
  5
155
  8
1
  6
CONTINUOUS
 62
     7
 10
1345.885369312748
 20
-945.5000000000002
 30
0.0
 40
2.499999999997726
 50
270.0
 51
349.9999999999999
  0
ARC
  5
156
  8
1
  6
CONTINUOUS
 62
     7
 10
1441.303010908095
 20
-936.9999999647002
 30
0.0
 40
3.499999999998948
 50
10.0
 51
90.0
  0
LINE
  5
157
  8
1
  6
CONTINUOUS
 62
     7
 10
1470.639859617195
 20
-994.9999994803001
 30
0.0
 11
1470.639859617195
 21
-935.0960777868
 31
0.0
  0
ARC
  5
158
  8
1
  6
CONTINUOUS
 62
     7
 10
1343.294349921643
 20
-945.5000000000002
 30
0.0
 40
2.500000000004832
 50
190.0
 51
270.0
  0
LINE
  5
159
  8
1
  6
CONTINUOUS
 62
     7
 10
1485.476708326293
 20
-933.4999999647005
 30
0.0
 11
1494.103010908093
 21
-933.4999999647005
 31
0.0
  0
LINE
  5
15A
  8
1
  6
CONTINUOUS
 62
     7
 10
1323.629881190845
 20
-1068.6077686572
 30
0.0
 11
1321.947388695345
 21
-1059.0658795559
 31
0.0
  0
ARC
  5
15B
  8
1
  6
CONTINUOUS
 62
     7
 10
1343.294349921643
 20
-1059.5
 30
0.0
 40
2.500000000004832
 50
90.0
 51
170.0
  0
LINE
  5
15C
  8
1
  6
CONTINUOUS
 62
     7
 10
1338.639859617247
 20
-1010.0000005198
 30
0.0
 11
1338.639859617247
 21
-1069.9039222133
 31
0.0
  0
LINE
  5
15D
  8
1
  6
CONTINUOUS
 62
     7
 10
1312.749838043645
 20
-1068.6077686572
 30
0.0
 11
1314.432330539145
 21
-1059.0658795559
 31
0.0
  0
ARC
  5
15E
  8
1
  6
CONTINUOUS
 62
     7
 10
1406.276708326293
 20
-1068.0000000354
 30
0.0
 40
3.500000000002501
 50
190.0
 51
270.0
  0
ARC
  5
15F
  8
1
  6
CONTINUOUS
 62
     7
 10
1290.494349921646
 20
-1059.5
 30
0.0
 40
2.499999999997726
 50
90.0
 51
170.0
  0
LINE
  5
160
  8
1
  6
CONTINUOUS
 62
     7
 10
1323.629881190845
 20
-936.3922313429002
 30
0.0
 11
1321.947388695345
 21
-945.9341204442004
 31
0.0
  0
LINE
  5
161
  8
1
  6
CONTINUOUS
 62
     7
 10
1290.494349921646
 20
-1057.0
 30
0.0
 11
1293.085369312746
 21
-1057.0
 31
0.0
  0
LINE
  5
162
  8
1
  6
CONTINUOUS
 62
     7
 10
1459.076708326294
 20
-1071.5000000354
 30
0.0
 11
1467.703010908094
 21
-1071.5000000354
 31
0.0
  0
ARC
  5
163
  8
1
  6
CONTINUOUS
 62
     7
 10
1266.685369312741
 20
-945.5000000000002
 30
0.0
 40
2.500000000004832
 50
270.0
 51
349.9999999999999
  0
LINE
  5
164
  8
1
  6
CONTINUOUS
 62
     7
 10
1339.256859617245
 20
-994.9999994803001
 30
0.0
 11
1339.256859617245
 21
-1010.0000005198
 31
0.0
  0
ARC
  5
165
  8
1
  6
CONTINUOUS
 62
     7
 10
1247.876708326346
 20
-1068.0000000354
 30
0.0
 40
3.499999999998948
 50
190.0
 51
270.0
  0
LINE
  5
166
  8
1
  6
CONTINUOUS
 62
     7
 10
1260.056859617245
 20
-1010.0000005198
 30
0.0
 11
1244.322859617245
 21
-1010.0000005198
 31
0.0
  0
ARC
  5
167
  8
1
  6
CONTINUOUS
 62
     7
 10
1256.503010908145
 20
-1068.0000000354
 30
0.0
 40
3.499999999998948
 50
270.0
 51
349.9999999999999
  0
ARC
  5
168
  8
1
  6
CONTINUOUS
 62
     7
 10
1282.903010908144
 20
-1068.0000000354
 30
0.0
 40
3.500000000002501
 50
270.0
 51
349.9999999999999
  0
LINE
  5
169
  8
1
  6
CONTINUOUS
 62
     7
 10
1247.876708326346
 20
-933.4999999647005
 30
0.0
 11
1256.503010908146
 21
-933.4999999647005
 31
0.0
  0
LINE
  5
16A
  8
1
  6
CONTINUOUS
 62
     7
 10
1459.076708326294
 20
-933.4999999647005
 30
0.0
 11
1467.703010908094
 21
-933.4999999647005
 31
0.0
  0
ARC
  5
16B
  8
1
  6
CONTINUOUS
 62
     7
 10
1247.876708326346
 20
-936.9999999647002
 30
0.0
 40
3.499999999998948
 50
90.0
 51
170.0
  0
ARC
  5
16C
  8
1
  6
CONTINUOUS
 62
     7
 10
1264.094349921643
 20
-1059.5
 30
0.0
 40
2.499999999997726
 50
90.0
 51
170.0
  0
LINE
  5
16D
  8
1
  6
CONTINUOUS
 62
     7
 10
1365.656859617244
 20
-994.9999994803001
 30
0.0
 11
1349.922859617244
 21
-994.9999994803001
 31
0.0
  0
ARC
  5
16E
  8
1
  6
CONTINUOUS
 62
     7
 10
1327.076708326343
 20
-936.9999999647002
 30
0.0
 40
3.500000000002501
 50
90.0
 51
170.0
  0
ARC
  5
16F
  8
1
  6
CONTINUOUS
 62
     7
 10
1425.085369312698
 20
-945.5000000000002
 30
0.0
 40
2.499999999997726
 50
270.0
 51
349.9999999999999
  0
LINE
  5
170
  8
1
  6
CONTINUOUS
 62
     7
 10
1271.339859617244
 20
-935.0960777868005
 30
0.0
 11
1271.339859617244
 21
-994.9999994803005
 31
0.0
  0
LINE
  5
171
  8
1
  6
CONTINUOUS
 62
     7
 10
1508.939859617145
 20
-935.0960777868005
 30
0.0
 11
1508.939859617145
 21
-994.9999994803005
 31
0.0
  0
LINE
  5
172
  8
1
  6
CONTINUOUS
 62
     7
 10
1470.639859617195
 20
-1010.0000005198
 30
0.0
 11
1470.639859617195
 21
-1069.9039222133
 31
0.0
  0
ARC
  5
173
  8
1
  6
CONTINUOUS
 62
     7
 10
1274.276708326345
 20
-936.9999999647002
 30
0.0
 40
3.499999999998948
 50
90.0
 51
170.0
  0
LINE
  5
174
  8
1
  6
CONTINUOUS
 62
     7
 10
1297.229881190846
 20
-1068.6077686572
 30
0.0
 11
1295.547388695345
 21
-1059.0658795559
 31
0.0
  0
LINE
  5
175
  8
1
  6
CONTINUOUS
 62
     7
 10
1455.629881190796
 20
-936.3922313429002
 30
0.0
 11
1453.947388695295
 21
-945.9341204442004
 31
0.0
  0
LINE
  5
176
  8
1
  6
CONTINUOUS
 62
     7
 10
1471.256859617193
 20
-994.9999994803001
 30
0.0
 11
1471.256859617193
 21
-1010.0000005198
 31
0.0
  0
LINE
  5
177
  8
1
  6
CONTINUOUS
 62
     7
 10
1455.629881190796
 20
-1068.6077686572
 30
0.0
 11
1453.947388695295
 21
-1059.0658795559
 31
0.0
  0
LINE
  5
178
  8
1
  6
CONTINUOUS
 62
     7
 10
1285.839859617242
 20
-994.9999994803001
 30
0.0
 11
1285.839859617242
 21
-935.0960777868
 31
0.0
  0
LINE
  5
179
  8
1
  6
CONTINUOUS
 62
     7
 10
1444.856859617194
 20
-994.9999994803001
 30
0.0
 11
1429.122859617194
 21
-994.9999994803001
 31
0.0
  0
LINE
  5
17A
  8
1
  6
CONTINUOUS
 62
     7
 10
1244.939859617245
 20
-935.0960777868005
 30
0.0
 11
1244.939859617245
 21
-994.9999994803005
 31
0.0
  0
LINE
  5
17B
  8
1
  6
CONTINUOUS
 62
     7
 10
1264.094349921643
 20
-948.0000000000001
 30
0.0
 11
1266.685369312743
 21
-948.0000000000001
 31
0.0
  0
LINE
  5
17C
  8
1
  6
CONTINUOUS
 62
     7
 10
1456.139859617197
 20
-1069.9039222133
 30
0.0
 11
1456.139859617197
 21
-1010.0000005198
 31
0.0
  0
LINE
  5
17D
  8
1
  6
CONTINUOUS
 62
     7
 10
1244.939859617245
 20
-1069.9039222133
 30
0.0
 11
1244.939859617245
 21
-1010.0000005198
 31
0.0
  0
LINE
  5
17E
  8
1
  6
CONTINUOUS
 62
     7
 10
1264.094349921643
 20
-1057.0
 30
0.0
 11
1266.685369312743
 21
-1057.0
 31
0.0
  0
LINE
  5
17F
  8
1
  6
CONTINUOUS
 62
     7
 10
1429.122859617192
 20
-994.9999994803001
 30
0.0
 11
1429.122859617192
 21
-1010.0000005198
 31
0.0
  0
ARC
  5
180
  8
1
  6
CONTINUOUS
 62
     7
 10
1300.676708326344
 20
-936.9999999647002
 30
0.0
 40
3.500000000002501
 50
90.0
 51
170.0
  0
LINE
  5
181
  8
1
  6
CONTINUOUS
 62
     7
 10
1353.476708326342
 20
-1071.5000000354
 30
0.0
 11
1362.103010908142
 21
-1071.5000000354
 31
0.0
  0
ARC
  5
182
  8
1
  6
CONTINUOUS
 62
     7
 10
1345.885369312748
 20
-1059.5
 30
0.0
 40
2.499999999997726
 50
10.0
 51
90.0
  0
LINE
  5
183
  8
1
  6
CONTINUOUS
 62
     7
 10
1444.239859617192
 20
-1010.0000005198
 30
0.0
 11
1444.239859617192
 21
-1069.9039222133
 31
0.0
  0
LINE
  5
184
  8
1
  6
CONTINUOUS
 62
     7
 10
1379.876708326294
 20
-1071.5000000354
 30
0.0
 11
1388.503010908094
 21
-1071.5000000354
 31
0.0
  0
LINE
  5
185
  8
1
  6
CONTINUOUS
 62
     7
 10
1260.056859617245
 20
-994.9999994803001
 30
0.0
 11
1260.056859617245
 21
-1010.0000005198
 31
0.0
  0
LINE
  5
186
  8
1
  6
CONTINUOUS
 62
     7
 10
1343.294349921643
 20
-948.0000000000001
 30
0.0
 11
1345.885369312743
 21
-948.0000000000001
 31
0.0
  0
LINE
  5
187
  8
1
  6
CONTINUOUS
 62
     7
 10
1455.522859617198
 20
-994.9999994803001
 30
0.0
 11
1455.522859617198
 21
-1010.0000005198
 31
0.0
  0
LINE
  5
188
  8
1
  6
CONTINUOUS
 62
     7
 10
1260.056859617245
 20
-994.9999994803001
 30
0.0
 11
1244.322859617245
 21
-994.9999994803001
 31
0.0
  0
LINE
  5
189
  8
1
  6
CONTINUOUS
 62
     7
 10
1528.094349921543
 20
-1057.0
 30
0.0
 11
1530.685369312643
 21
-1057.0
 31
0.0
  0
LINE
  5
18A
  8
1
  6
CONTINUOUS
 62
     7
 10
1312.749838043645
 20
-936.3922313429002
 30
0.0
 11
1314.432330539145
 21
-945.9341204442004
 31
0.0
  0
LINE
  5
18B
  8
1
  6
CONTINUOUS
 62
     7
 10
1511.876708326243
 20
-933.4999999647005
 30
0.0
 11
1520.503010908043
 21
-933.4999999647005
 31
0.0
  0
ARC
  5
18C
  8
1
  6
CONTINUOUS
 62
     7
 10
1485.476708326293
 20
-1068.0000000354
 30
0.0
 40
3.499999999998948
 50
190.0
 51
270.0
  0
LINE
  5
18D
  8
1
  6
CONTINUOUS
 62
     7
 10
1343.294349921643
 20
-1057.0
 30
0.0
 11
1345.885369312743
 21
-1057.0
 31
0.0
  0
LINE
  5
18E
  8
1
  6
CONTINUOUS
 62
     7
 10
1497.656859617196
 20
-1010.0000005198
 30
0.0
 11
1481.922859617196
 21
-1010.0000005198
 31
0.0
  0
LINE
  5
18F
  8
1
  6
CONTINUOUS
 62
     7
 10
1316.894349921645
 20
-948.0000000000001
 30
0.0
 11
1319.485369312745
 21
-948.0000000000001
 31
0.0
  0
LINE
  5
190
  8
1
  6
CONTINUOUS
 62
     7
 10
1338.639859617247
 20
-994.9999994803001
 30
0.0
 11
1338.639859617247
 21
-935.0960777868
 31
0.0
  0
ARC
  5
191
  8
1
  6
CONTINUOUS
 62
     7
 10
1494.103010908093
 20
-1068.0000000354
 30
0.0
 40
3.500000000002501
 50
270.0
 51
349.9999999999999
  0
LINE
  5
192
  8
1
  6
CONTINUOUS
 62
     7
 10
1259.439859617243
 20
-1010.0000005198
 30
0.0
 11
1259.439859617243
 21
-1069.9039222133
 31
0.0
  0
LINE
  5
193
  8
1
  6
CONTINUOUS
 62
     7
 10
1286.456859617247
 20
-994.9999994803001
 30
0.0
 11
1270.722859617247
 21
-994.9999994803001
 31
0.0
  0
LINE
  5
194
  8
1
  6
CONTINUOUS
 62
     7
 10
1867.256859617045
 20
-994.9999994803001
 30
0.0
 11
1851.522859617045
 21
-994.9999994803001
 31
0.0
  0
ARC
  5
195
  8
1
  6
CONTINUOUS
 62
     7
 10
1871.294349921443
 20
-945.5000000000002
 30
0.0
 40
2.500000000001279
 50
190.0
 51
270.0
  0
ARC
  5
196
  8
1
  6
CONTINUOUS
 62
     7
 10
1818.494349921492
 20
-1059.5
 30
0.0
 40
2.500000000001279
 50
90.0
 51
170.0
  0
LINE
  5
197
  8
1
  6
CONTINUOUS
 62
     7
 10
1867.149838043447
 20
-936.3922313429002
 30
0.0
 11
1868.832330538947
 21
-945.9341204442004
 31
0.0
  0
ARC
  5
198
  8
1
  6
CONTINUOUS
 62
     7
 10
1881.476708326141
 20
-1068.0000000354
 30
0.0
 40
3.500000000002501
 50
190.0
 51
270.0
  0
LINE
  5
199
  8
1
  6
CONTINUOUS
 62
     7
 10
1911.375078871925
 20
-994.9999994803001
 30
0.0
 11
1904.322859617042
 21
-994.9999994803001
 31
0.0
  0
LINE
  5
19A
  8
1
  6
CONTINUOUS
 62
     7
 10
1855.076708326146
 20
-933.4999999647005
 30
0.0
 11
1863.703010907945
 21
-933.4999999647005
 31
0.0
  0
LINE
  5
19B
  8
1
  6
CONTINUOUS
 62
     7
 10
1893.039859617046
 20
-994.9999994803001
 30
0.0
 11
1893.039859617046
 21
-935.0960777868
 31
0.0
  0
LINE
  5
19C
  8
1
  6
CONTINUOUS
 62
     7
 10
1825.122859617094
 20
-994.9999994803001
 30
0.0
 11
1825.122859617094
 21
-1010.0000005198
 31
0.0
  0
LINE
  5
19D
  8
1
  6
CONTINUOUS
 62
     7
 10
1878.029881190643
 20
-1068.6077686572
 30
0.0
 11
1876.347388695144
 21
-1059.0658795559
 31
0.0
  0
LINE
  5
19E
  8
1
  6
CONTINUOUS
 62
     7
 10
1813.839859617091
 20
-994.9999994803001
 30
0.0
 11
1813.839859617091
 21
-935.0960777868
 31
0.0
  0
LINE
  5
19F
  8
1
  6
CONTINUOUS
 62
     7
 10
1867.256859617045
 20
-994.9999994803001
 30
0.0
 11
1867.256859617045
 21
-1010.0000005198
 31
0.0
  0
ARC
  5
1A0
  8
1
  6
CONTINUOUS
 62
     7
 10
1863.703010907942
 20
-1068.0000000354
 30
0.0
 40
3.500000000002501
 50
270.0
 51
349.9999999999999
  0
LINE
  5
1A1
  8
1
  6
CONTINUOUS
 62
     7
 10
1893.656859617044
 20
-994.9999994803001
 30
0.0
 11
1893.656859617044
 21
-1010.0000005198
 31
0.0
  0
LINE
  5
1A2
  8
1
  6
CONTINUOUS
 62
     7
 10
1799.339859617093
 20
-935.0960777868005
 30
0.0
 11
1799.339859617093
 21
-994.9999994803005
 31
0.0
  0
ARC
  5
1A3
  8
1
  6
CONTINUOUS
 62
     7
 10
1828.676708326193
 20
-936.9999999647002
 30
0.0
 40
3.499999999998948
 50
90.0
 51
170.0
  0
LINE
  5
1A4
  8
1
  6
CONTINUOUS
 62
     7
 10
1867.149838043447
 20
-1068.6077686572
 30
0.0
 11
1868.832330538947
 21
-1059.0658795559
 31
0.0
  0
LINE
  5
1A5
  8
1
  6
CONTINUOUS
 62
     7
 10
1818.494349921492
 20
-1057.0
 30
0.0
 11
1821.085369312591
 21
-1057.0
 31
0.0
  0
LINE
  5
1A6
  8
1
  6
CONTINUOUS
 62
     7
 10
1802.276708326191
 20
-933.4999999647005
 30
0.0
 11
1810.90301090799
 21
-933.4999999647005
 31
0.0
  0
LINE
  5
1A7
  8
1
  6
CONTINUOUS
 62
     7
 10
1814.456859617093
 20
-994.9999994803001
 30
0.0
 11
1814.456859617093
 21
-1010.0000005198
 31
0.0
  0
ARC
  5
1A8
  8
1
  6
CONTINUOUS
 62
     7
 10
1802.276708326191
 20
-936.9999999647002
 30
0.0
 40
3.500000000002501
 50
90.0
 51
170.0
  0
ARC
  5
1A9
  8
1
  6
CONTINUOUS
 62
     7
 10
1818.494349921492
 20
-945.5000000000002
 30
0.0
 40
2.500000000001279
 50
190.0
 51
270.0
  0
ARC
  5
1AA
  8
1
  6
CONTINUOUS
 62
     7
 10
1863.703010907942
 20
-936.9999999647002
 30
0.0
 40
3.500000000002501
 50
10.0
 51
90.0
  0
LINE
  5
1AB
  8
1
  6
CONTINUOUS
 62
     7
 10
1897.694349921442
 20
-948.0000000000001
 30
0.0
 11
1900.285369312542
 21
-948.0000000000001
 31
0.0
  0
LINE
  5
1AC
  8
1
  6
CONTINUOUS
 62
     7
 10
1840.856859617092
 20
-994.9999994803001
 30
0.0
 11
1825.122859617091
 21
-994.9999994803001
 31
0.0
  0
LINE
  5
1AD
  8
1
  6
CENTER
 62
     1
 10
2091.849193480718
 20
-1002.5
 30
0.0
 11
961.7140598721934
 21
-1002.5
 31
0.0
  0
LINE
  5
1AF
  8
1
  6
CONTINUOUS
 62
     7
 10
1814.456859617093
 20
-994.9999994803001
 30
0.0
 11
1798.722859617093
 21
-994.9999994803001
 31
0.0
  0
LINE
  5
1B0
  8
1
  6
CONTINUOUS
 62
     7
 10
1825.739859617092
 20
-935.0960777868005
 30
0.0
 11
1825.739859617092
 21
-994.9999994803005
 31
0.0
  0
ARC
  5
1B1
  8
1
  6
CONTINUOUS
 62
     7
 10
1837.303010907993
 20
-1068.0000000354
 30
0.0
 40
3.499999999998948
 50
270.0
 51
349.9999999999999
  0
LINE
  5
1B2
  8
1
  6
CONTINUOUS
 62
     7
 10
1814.349838043496
 20
-1068.6077686572
 30
0.0
 11
1816.032330538995
 21
-1059.0658795559
 31
0.0
  0
LINE
  5
1B3
  8
1
  6
CONTINUOUS
 62
     7
 10
1798.829881190693
 20
-1068.6077686572
 30
0.0
 11
1797.147388695193
 21
-1059.0658795559
 31
0.0
  0
LINE
  5
1B4
  8
1
  6
CONTINUOUS
 62
     7
 10
1828.676708326193
 20
-1071.5000000354
 30
0.0
 11
1837.303010907993
 21
-1071.5000000354
 31
0.0
  0
LINE
  5
1B5
  8
1
  6
CONTINUOUS
 62
     7
 10
1855.076708326146
 20
-1071.5000000354
 30
0.0
 11
1863.703010907945
 21
-1071.5000000354
 31
0.0
  0
LINE
  5
1B6
  8
1
  6
CONTINUOUS
 62
     7
 10
1893.549838043446
 20
-1068.6077686572
 30
0.0
 11
1895.232330538945
 21
-1059.0658795559
 31
0.0
  0
LINE
  5
1B7
  8
1
  6
CONTINUOUS
 62
     7
 10
1787.439859617089
 20
-994.9999994803001
 30
0.0
 11
1787.439859617089
 21
-935.0960777868
 31
0.0
  0
LINE
  5
1B8
  8
1
  6
CONTINUOUS
 62
     7
 10
1904.939859617043
 20
-935.0960777868005
 30
0.0
 11
1904.939859617043
 21
-994.9999994803005
 31
0.0
  0
LINE
  5
1B9
  8
1
  6
CONTINUOUS
 62
     7
 10
1840.856859617092
 20
-1010.0000005198
 30
0.0
 11
1825.122859617091
 21
-1010.0000005198
 31
0.0
  0
ARC
  5
1BA
  8
1
  6
CONTINUOUS
 62
     7
 10
1855.076708326146
 20
-1068.0000000354
 30
0.0
 40
3.499999999995396
 50
190.0
 51
270.0
  0
LINE
  5
1BB
  8
1
  6
CONTINUOUS
 62
     7
 10
1792.094349921493
 20
-948.0000000000001
 30
0.0
 11
1794.685369312592
 21
-948.0000000000001
 31
0.0
  0
LINE
  5
1BC
  8
1
  6
CONTINUOUS
 62
     7
 10
1866.639859617047
 20
-1010.0000005198
 30
0.0
 11
1866.639859617047
 21
-1069.9039222133
 31
0.0
  0
LINE
  5
1BD
  8
1
  6
CONTINUOUS
 62
     7
 10
1897.694349921442
 20
-1057.0
 30
0.0
 11
1900.285369312542
 21
-1057.0
 31
0.0
  0
ARC
  5
1BE
  8
1
  6
CONTINUOUS
 62
     7
 10
1881.476708326141
 20
-936.9999999647002
 30
0.0
 40
3.500000000002501
 50
90.0
 51
170.0
  0
ARC
  5
1BF
  8
1
  6
CONTINUOUS
 62
     7
 10
1855.076708326146
 20
-936.9999999647002
 30
0.0
 40
3.499999999995396
 50
90.0
 51
170.0
  0
LINE
  5
1C0
  8
1
  6
CONTINUOUS
 62
     7
 10
1911.375078871814
 20
-1010.0000005198
 30
0.0
 11
1904.322859617042
 21
-1010.0000005198
 31
0.0
  0
LINE
  5
1C1
  8
1
  6
CONTINUOUS
 62
     7
 10
1893.656859617044
 20
-994.9999994803001
 30
0.0
 11
1877.922859617044
 21
-994.9999994803001
 31
0.0
  0
LINE
  5
1C2
  8
1
  6
CONTINUOUS
 62
     7
 10
1867.256859617045
 20
-1010.0000005198
 30
0.0
 11
1851.522859617045
 21
-1010.0000005198
 31
0.0
  0
LINE
  5
1C3
  8
1
  6
CONTINUOUS
 62
     7
 10
1907.876708326144
 20
-1071.5000000354
 30
0.0
 11
1911.375078871363
 21
-1071.5000000354
 31
0.0
  0
LINE
  5
1C4
  8
1
  6
CONTINUOUS
 62
     7
 10
1825.229881190695
 20
-1068.6077686572
 30
0.0
 11
1823.547388695194
 21
-1059.0658795559
 31
0.0
  0
LINE
  5
1C5
  8
1
  6
CONTINUOUS
 62
     7
 10
1881.476708326141
 20
-1071.5000000354
 30
0.0
 11
1890.103010907942
 21
-1071.5000000354
 31
0.0
  0
ARC
  5
1C6
  8
1
  6
CONTINUOUS
 62
     7
 10
1810.903010907994
 20
-936.9999999647002
 30
0.0
 40
3.499999999998948
 50
10.0
 51
90.0
  0
LINE
  5
1C7
  8
1
  6
CENTER
 62
     1
 10
2415.0
 20
-1002.5
 30
0.0
 11
2235.0
 21
-1002.5
 31
0.0
  0
ARC
  5
1C8
  8
1
  6
CONTINUOUS
 62
     7
 10
1802.276708326191
 20
-1068.0000000354
 30
0.0
 40
3.500000000002501
 50
190.0
 51
270.0
  0
ARC
  5
1C9
  8
1
  6
CONTINUOUS
 62
     7
 10
1897.694349921442
 20
-1059.5
 30
0.0
 40
2.500000000001279
 50
90.0
 51
170.0
  0
LINE
  5
1CA
  8
1
  6
CONTINUOUS
 62
     7
 10
1798.722859617095
 20
-994.9999994803001
 30
0.0
 11
1798.722859617095
 21
-1010.0000005198
 31
0.0
  0
ARC
  5
1CB
  8
1
  6
CONTINUOUS
 62
     7
 10
1837.303010907993
 20
-936.9999999647002
 30
0.0
 40
3.499999999998948
 50
10.0
 51
90.0
  0
ARC
  5
1CC
  8
1
  6
CONTINUOUS
 62
     7
 10
1871.294349921443
 20
-1059.5
 30
0.0
 40
2.500000000001279
 50
90.0
 51
170.0
  0
LINE
  5
1CD
  8
1
  6
CONTINUOUS
 62
     7
 10
1871.294349921443
 20
-1057.0
 30
0.0
 11
1873.885369312543
 21
-1057.0
 31
0.0
  0
LINE
  5
1CE
  8
1
  6
CONTINUOUS
 62
     7
 10
1798.829881190693
 20
-936.3922313429002
 30
0.0
 11
1797.147388695193
 21
-945.9341204442004
 31
0.0
  0
LINE
  5
1CF
  8
1
  6
CONTINUOUS
 62
     7
 10
1814.349838043496
 20
-936.3922313429002
 30
0.0
 11
1816.032330538995
 21
-945.9341204442004
 31
0.0
  0
LINE
  5
1D0
  8
1
  6
CONTINUOUS
 62
     7
 10
1907.876708326144
 20
-933.4999999647005
 30
0.0
 11
1911.375078872376
 21
-933.4999999647005
 31
0.0
  0
LINE
  5
1D1
  8
1
  6
CONTINUOUS
 62
     7
 10
1893.549838043446
 20
-936.3922313429002
 30
0.0
 11
1895.232330538945
 21
-945.9341204442004
 31
0.0
  0
LINE
  5
1D2
  8
1
  6
CONTINUOUS
 62
     7
 10
1881.476708326141
 20
-933.4999999647005
 30
0.0
 11
1890.103010907942
 21
-933.4999999647005
 31
0.0
  0
ARC
  5
1D3
  8
1
  6
CONTINUOUS
 62
     7
 10
1784.503010907991
 20
-1068.0000000354
 30
0.0
 40
3.500000000002501
 50
270.0
 51
350.0000000000007
  0
LINE
  5
1D4
  8
1
  6
CONTINUOUS
 62
     7
 10
1799.339859617093
 20
-1069.9039222133
 30
0.0
 11
1799.339859617093
 21
-1010.0000005198
 31
0.0
  0
LINE
  5
1D5
  8
1
  6
CONTINUOUS
 62
     7
 10
1878.029881190643
 20
-936.3922313429002
 30
0.0
 11
1876.347388695144
 21
-945.9341204442004
 31
0.0
  0
LINE
  5
1D6
  8
1
  6
CONTINUOUS
 62
     7
 10
1789.996600843574
 20
-1058.140055587282
 30
0.0
 11
1789.996600843574
 21
-946.859944412719
 31
0.0
  0
LINE
  5
1D7
  8
1
  6
CONTINUOUS
 62
     7
 10
1904.939859617043
 20
-1069.9039222133
 30
0.0
 11
1904.939859617043
 21
-1010.0000005198
 31
0.0
  0
ARC
  5
1D8
  8
1
  6
CONTINUOUS
 62
     7
 10
1150.903010908196
 20
-936.9999999647002
 30
0.0
 40
3.499999999998948
 50
10.0
 51
90.0
  0
LINE
  5
1D9
  8
1
  6
CONTINUOUS
 62
     7
 10
1154.349838043694
 20
-936.3922313429002
 30
0.0
 11
1156.032330539193
 21
-945.9341204442004
 31
0.0
  0
LINE
  5
1DA
  8
1
  6
CONTINUOUS
 62
     7
 10
1075.256859617345
 20
-1010.0000005198
 30
0.0
 11
1059.522859617345
 21
-1010.0000005198
 31
0.0
  0
LINE
  5
1DB
  8
1
  6
CONTINUOUS
 62
     7
 10
1112.429881190896
 20
-1068.6077686572
 30
0.0
 11
1110.747388695397
 21
-1059.0658795559
 31
0.0
  0
LINE
  5
1DC
  8
1
  6
CONTINUOUS
 62
     7
 10
1128.05685961729
 20
-994.9999994803001
 30
0.0
 11
1112.322859617291
 21
-994.9999994803001
 31
0.0
  0
ARC
  5
1DD
  8
1
  6
CONTINUOUS
 62
     7
 10
1554.494349921542
 20
-1059.5
 30
0.0
 40
2.500000000004832
 50
90.0
 51
170.0
  0
LINE
  5
1DE
  8
1
  6
CONTINUOUS
 62
     7
 10
1576.749838043548
 20
-936.3922313429002
 30
0.0
 11
1578.432330539048
 21
-945.9341204442004
 31
0.0
  0
ARC
  5
1DF
  8
1
  6
CONTINUOUS
 62
     7
 10
1538.276708326245
 20
-936.9999999647002
 30
0.0
 40
3.499999999998948
 50
90.0
 51
170.0
  0
LINE
  5
1E0
  8
1
  6
CONTINUOUS
 62
     7
 10
1823.183118390607
 20
-946.8599444127192
 30
0.0
 11
1823.183118390607
 21
-1058.140055587282
 31
0.0
  0
LINE
  5
1E1
  8
1
  6
CONTINUOUS
 62
     7
 10
1893.039859617046
 20
-1010.0000005198
 30
0.0
 11
1893.039859617046
 21
-1069.9039222133
 31
0.0
  0
ARC
  5
1E2
  8
1
  6
CONTINUOUS
 62
     7
 10
1792.094349921493
 20
-1059.5
 30
0.0
 40
2.500000000001279
 50
90.0
 51
170.0
  0
ARC
  5
1E3
  8
1
  6
CONTINUOUS
 62
     7
 10
1890.103010907944
 20
-936.9999999647002
 30
0.0
 40
3.499999999998948
 50
10.0
 51
90.0
  0
LINE
  5
1E4
  8
1
  6
CONTINUOUS
 62
     7
 10
1866.639859617047
 20
-994.9999994803001
 30
0.0
 11
1866.639859617047
 21
-935.0960777868
 31
0.0
  0
LINE
  5
1E5
  8
1
  6
CONTINUOUS
 62
     7
 10
1878.539859617044
 20
-935.0960777868005
 30
0.0
 11
1878.539859617044
 21
-994.9999994803005
 31
0.0
  0
ARC
  5
1E6
  8
1
  6
CONTINUOUS
 62
     7
 10
1907.876708326144
 20
-936.9999999647002
 30
0.0
 40
3.499999999998948
 50
90.0
 51
170.0
  0
LINE
  5
1E7
  8
1
  6
CONTINUOUS
 62
     7
 10
1508.322859617143
 20
-994.9999994803001
 30
0.0
 11
1508.322859617143
 21
-1010.0000005198
 31
0.0
  0
LINE
  5
1E8
  8
1
  6
CONTINUOUS
 62
     7
 10
1878.539859617044
 20
-1069.9039222133
 30
0.0
 11
1878.539859617044
 21
-1010.0000005198
 31
0.0
  0
ARC
  5
1E9
  8
1
  6
CONTINUOUS
 62
     7
 10
1784.503010907991
 20
-936.9999999647002
 30
0.0
 40
3.500000000002501
 50
9.99999999999921
 51
90.0
  0
LINE
  5
1EA
  8
1
  6
CONTINUOUS
 62
     7
 10
1508.429881190744
 20
-936.3922313429002
 30
0.0
 11
1506.747388695244
 21
-945.9341204442004
 31
0.0
  0
LINE
  5
1EB
  8
1
  6
CONTINUOUS
 62
     7
 10
1060.139859617345
 20
-935.0960777868005
 30
0.0
 11
1060.139859617345
 21
-994.9999994803005
 31
0.0
  0
LINE
  5
1EC
  8
1
  6
CONTINUOUS
 62
     7
 10
1825.739859617092
 20
-1069.9039222133
 30
0.0
 11
1825.739859617092
 21
-1010.0000005198
 31
0.0
  0
LINE
  5
1ED
  8
1
  6
CONTINUOUS
 62
     7
 10
1535.339859617147
 20
-935.0960777868005
 30
0.0
 11
1535.339859617147
 21
-994.9999994803005
 31
0.0
  0
LINE
  5
1EE
  8
1
  6
CONTINUOUS
 62
     7
 10
1787.949838043497
 20
-1068.6077686572
 30
0.0
 11
1789.632330538997
 21
-1059.0658795559
 31
0.0
  0
ARC
  5
1EF
  8
1
  6
CONTINUOUS
 62
     7
 10
1897.694349921442
 20
-945.5000000000002
 30
0.0
 40
2.500000000001279
 50
190.0
 51
270.0
  0
LINE
  5
1F0
  8
1
  6
CONTINUOUS
 62
     7
 10
1796.783118390608
 20
-946.8599444127192
 30
0.0
 11
1796.783118390608
 21
-1058.140055587282
 31
0.0
  0
LINE
  5
1F1
  8
1
  6
CONTINUOUS
 62
     7
 10
1524.056859617145
 20
-994.9999994803001
 30
0.0
 11
1524.056859617145
 21
-1010.0000005198
 31
0.0
  0
ARC
  5
1F2
  8
1
  6
CONTINUOUS
 62
     7
 10
1900.285369312543
 20
-1059.5
 30
0.0
 40
2.500000000001279
 50
10.0
 51
90.0
  0
LINE
  5
1F3
  8
1
  6
CONTINUOUS
 62
     7
 10
1904.429881190646
 20
-936.3922313429002
 30
0.0
 11
1902.747388695147
 21
-945.9341204442004
 31
0.0
  0
LINE
  5
1F4
  8
1
  6
CONTINUOUS
 62
     7
 10
1813.839859617091
 20
-1010.0000005198
 30
0.0
 11
1813.839859617091
 21
-1069.9039222133
 31
0.0
  0
LINE
  5
1F5
  8
1
  6
CONTINUOUS
 62
     7
 10
1904.429881190646
 20
-1068.6077686572
 30
0.0
 11
1902.747388695147
 21
-1059.0658795559
 31
0.0
  0
LINE
  5
1F6
  8
1
  6
CONTINUOUS
 62
     7
 10
1871.294349921443
 20
-948.0000000000001
 30
0.0
 11
1873.885369312543
 21
-948.0000000000001
 31
0.0
  0
ARC
  5
1F7
  8
1
  6
CONTINUOUS
 62
     7
 10
1873.885369312544
 20
-945.5000000000002
 30
0.0
 40
2.500000000001279
 50
270.0
 51
349.9999999999999
  0
ARC
  5
1F8
  8
1
  6
CONTINUOUS
 62
     7
 10
1794.685369312594
 20
-1059.5
 30
0.0
 40
2.500000000001279
 50
10.0
 51
90.0
  0
ARC
  5
1F9
  8
1
  6
CONTINUOUS
 62
     7
 10
1907.876708326144
 20
-1068.0000000354
 30
0.0
 40
3.499999999998948
 50
190.0
 51
270.0
  0
LINE
  5
1FA
  8
1
  6
CONTINUOUS
 62
     7
 10
1792.094349921493
 20
-1057.0
 30
0.0
 11
1794.685369312592
 21
-1057.0
 31
0.0
  0
ARC
  5
1FB
  8
1
  6
CONTINUOUS
 62
     7
 10
1873.885369312544
 20
-1059.5
 30
0.0
 40
2.500000000001279
 50
10.0
 51
90.0
  0
ARC
  5
1FC
  8
1
  6
CONTINUOUS
 62
     7
 10
1900.285369312543
 20
-945.5000000000002
 30
0.0
 40
2.500000000001279
 50
270.0
 51
349.9999999999999
  0
LINE
  5
1FD
  8
1
  6
CONTINUOUS
 62
     7
 10
1893.656859617044
 20
-1010.0000005198
 30
0.0
 11
1877.922859617044
 21
-1010.0000005198
 31
0.0
  0
ARC
  5
1FE
  8
1
  6
CONTINUOUS
 62
     7
 10
1132.094349921695
 20
-945.5000000000002
 30
0.0
 40
2.499999999997726
 50
190.0
 51
270.0
  0
LINE
  5
1FF
  8
1
  6
CONTINUOUS
 62
     7
 10
1142.276708326393
 20
-933.4999999647005
 30
0.0
 11
1150.903010908194
 21
-933.4999999647005
 31
0.0
  0
LINE
  5
200
  8
1
  6
CONTINUOUS
 62
     7
 10
1523.439859617147
 20
-994.9999994803001
 30
0.0
 11
1523.439859617147
 21
-935.0960777868
 31
0.0
  0
ARC
  5
201
  8
1
  6
CONTINUOUS
 62
     7
 10
1063.076708326443
 20
-1068.0000000354
 30
0.0
 40
3.500000000002501
 50
190.0
 51
270.0
  0
LINE
  5
202
  8
1
  6
CONTINUOUS
 62
     7
 10
1840.239859617094
 20
-922.5000000000001
 30
0.0
 11
1840.239859617094
 21
-1077.5
 31
0.0
  0
LINE
  5
203
  8
1
  6
CONTINUOUS
 62
     7
 10
1103.596600843827
 20
-946.8599444127192
 30
0.0
 11
1103.596600843827
 21
-1058.140055587282
 31
0.0
  0
LINE
  5
204
  8
1
  6
CONTINUOUS
 62
     7
 10
1877.922859617045
 20
-994.9999994803001
 30
0.0
 11
1877.922859617045
 21
-1010.0000005198
 31
0.0
  0
LINE
  5
205
  8
1
  6
CONTINUOUS
 62
     7
 10
1852.139859617045
 20
-1077.5
 30
0.0
 11
1852.139859617045
 21
-922.5000000000001
 31
0.0
  0
LINE
  5
206
  8
1
  6
CONTINUOUS
 62
     7
 10
1077.196600843828
 20
-946.8599444127192
 30
0.0
 11
1077.196600843828
 21
-1058.140055587282
 31
0.0
  0
LINE
  5
207
  8
1
  6
CONTINUOUS
 62
     7
 10
1511.876708326243
 20
-1071.5000000354
 30
0.0
 11
1520.503010908043
 21
-1071.5000000354
 31
0.0
  0
LINE
  5
208
  8
1
  6
CONTINUOUS
 62
     7
 10
1816.39660084358
 20
-946.8599444127192
 30
0.0
 11
1816.39660084358
 21
-1058.140055587282
 31
0.0
  0
LINE
  5
209
  8
1
  6
CONTINUOUS
 62
     7
 10
1869.196600843531
 20
-946.8599444127192
 30
0.0
 11
1869.196600843531
 21
-1058.140055587282
 31
0.0
  0
LINE
  5
20A
  8
1
  6
CONTINUOUS
 62
     7
 10
1508.429881190744
 20
-1068.6077686572
 30
0.0
 11
1506.747388695244
 21
-1059.0658795559
 31
0.0
  0
LINE
  5
20B
  8
1
  6
CONTINUOUS
 62
     7
 10
1904.322859617044
 20
-994.9999994803001
 30
0.0
 11
1904.322859617044
 21
-1010.0000005198
 31
0.0
  0
ARC
  5
20C
  8
1
  6
CONTINUOUS
 62
     7
 10
1890.103010907944
 20
-1068.0000000354
 30
0.0
 40
3.499999999998948
 50
270.0
 51
349.9999999999999
  0
LINE
  5
20D
  8
1
  6
CONTINUOUS
 62
     7
 10
1787.949838043497
 20
-936.3922313429002
 30
0.0
 11
1789.632330538997
 21
-945.9341204442004
 31
0.0
  0
LINE
  5
20E
  8
1
  6
CONTINUOUS
 62
     7
 10
1875.983118390559
 20
-946.8599444127192
 30
0.0
 11
1875.983118390559
 21
-1058.140055587282
 31
0.0
  0
LINE
  5
20F
  8
1
  6
CONTINUOUS
 62
     7
 10
1902.383118390558
 20
-1058.140055587282
 30
0.0
 11
1902.383118390558
 21
-946.859944412719
 31
0.0
  0
LINE
  5
210
  8
1
  6
CONTINUOUS
 62
     7
 10
1895.59660084353
 20
-946.8599444127192
 30
0.0
 11
1895.59660084353
 21
-1058.140055587282
 31
0.0
  0
ARC
  5
211
  8
1
  6
CONTINUOUS
 62
     7
 10
1055.485369312842
 20
-1059.5
 30
0.0
 40
2.500000000004832
 50
10.0
 51
90.0
  0
LINE
  5
212
  8
1
  6
CONTINUOUS
 62
     7
 10
1576.239859617141
 20
-994.9999994803001
 30
0.0
 11
1576.239859617141
 21
-935.0960777868
 31
0.0
  0
LINE
  5
213
  8
1
  6
CONTINUOUS
 62
     7
 10
1576.749838043548
 20
-1068.6077686572
 30
0.0
 11
1578.432330539048
 21
-1059.0658795559
 31
0.0
  0
LINE
  5
214
  8
1
  6
CONTINUOUS
 62
     7
 10
1554.494349921542
 20
-1057.0
 30
0.0
 11
1557.085369312642
 21
-1057.0
 31
0.0
  0
ARC
  5
215
  8
1
  6
CONTINUOUS
 62
     7
 10
1554.494349921542
 20
-945.5000000000002
 30
0.0
 40
2.500000000004832
 50
190.0
 51
270.0
  0
ARC
  5
216
  8
1
  6
CONTINUOUS
 62
     7
 10
1115.876708326394
 20
-936.9999999647002
 30
0.0
 40
3.499999999998948
 50
90.0
 51
170.0
  0
LINE
  5
217
  8
1
  6
CONTINUOUS
 62
     7
 10
1233.039859617294
 20
-994.9999994803001
 30
0.0
 11
1233.039859617294
 21
-935.0960777868
 31
0.0
  0
ARC
  5
218
  8
1
  6
CONTINUOUS
 62
     7
 10
1134.685369312793
 20
-1059.5
 30
0.0
 40
2.500000000004832
 50
10.0
 51
90.0
  0
LINE
  5
219
  8
1
  6
CONTINUOUS
 62
     7
 10
1112.429881190896
 20
-936.3922313429002
 30
0.0
 11
1110.747388695397
 21
-945.9341204442004
 31
0.0
  0
ARC
  5
21A
  8
1
  6
CONTINUOUS
 62
     7
 10
1557.085369312646
 20
-1059.5
 30
0.0
 40
2.499999999997726
 50
10.0
 51
90.0
  0
LINE
  5
21B
  8
1
  6
CONTINUOUS
 62
     7
 10
1158.494349921694
 20
-1057.0
 30
0.0
 11
1161.085369312794
 21
-1057.0
 31
0.0
  0
LINE
  5
21C
  8
1
  6
CONTINUOUS
 62
     7
 10
1233.039859617294
 20
-1010.0000005198
 30
0.0
 11
1233.039859617294
 21
-1069.9039222133
 31
0.0
  0
LINE
  5
21D
  8
1
  6
CONTINUOUS
 62
     7
 10
1112.939859617293
 20
-1069.9039222133
 30
0.0
 11
1112.939859617293
 21
-1010.0000005198
 31
0.0
  0
LINE
  5
21E
  8
1
  6
CONTINUOUS
 62
     7
 10
1561.739859617146
 20
-935.0960777868005
 30
0.0
 11
1561.739859617146
 21
-994.9999994803005
 31
0.0
  0
ARC
  5
21F
  8
1
  6
CONTINUOUS
 62
     7
 10
1089.476708326445
 20
-936.9999999647002
 30
0.0
 40
3.499999999998948
 50
90.0
 51
170.0
  0
LINE
  5
220
  8
1
  6
CENTER
 62
     1
 10
2325.0
 20
-923.8538983608
 30
0.0
 11
2325.0
 21
-1078.4753363804
 31
0.0
  0
LINE
  5
221
  8
1
  6
CONTINUOUS
 62
     7
 10
1085.922859617342
 20
-994.9999994803001
 30
0.0
 11
1085.922859617342
 21
-1010.0000005198
 31
0.0
  0
ARC
  5
222
  8
1
  6
CONTINUOUS
 62
     7
 10
857.0000000454007
 20
-970.4999999641
 30
0.0
 40
36.99999999999548
 50
0.0
 51
90.0000000003
  0
ARC
  5
223
  8
1
  6
CONTINUOUS
 62
     7
 10
1081.885369312841
 20
-945.5000000000002
 30
0.0
 40
2.500000000004832
 50
270.0
 51
349.9999999999999
  0
LINE
  5
224
  8
1
  6
CONTINUOUS
 62
     7
 10
1523.949838043543
 20
-936.3922313429002
 30
0.0
 11
1525.632330539043
 21
-945.9341204442004
 31
0.0
  0
LINE
  5
225
  8
1
  6
CONTINUOUS
 62
     7
 10
1235.596600843782
 20
-946.8599444127192
 30
0.0
 11
1235.596600843782
 21
-1058.140055587282
 31
0.0
  0
LINE
  5
226
  8
1
  6
CONTINUOUS
 62
     7
 10
1524.056859617145
 20
-1010.0000005198
 30
0.0
 11
1508.322859617145
 21
-1010.0000005198
 31
0.0
  0
LINE
  5
227
  8
1
  6
CONTINUOUS
 62
     7
 10
1050.796600843826
 20
-1058.140055587282
 30
0.0
 11
1050.796600843826
 21
-946.859944412719
 31
0.0
  0
LINE
  5
228
  8
1
  6
CONTINUOUS
 62
     7
 10
755.9999999546014
 20
-1034.5000000358
 30
0.0
 11
755.9999999546014
 21
-1010.6171444233
 31
0.0
  0
LINE
  5
229
  8
1
  6
CONTINUOUS
 62
     7
 10
1561.229881190746
 20
-936.3922313429002
 30
0.0
 11
1559.547388695245
 21
-945.9341204442004
 31
0.0
  0
LINE
  5
22A
  8
1
  6
CONTINUOUS
 62
     7
 10
1059.522859617343
 20
-994.9999994803001
 30
0.0
 11
1059.522859617343
 21
-1010.0000005198
 31
0.0
  0
LINE
  5
22B
  8
1
  6
CONTINUOUS
 62
     7
 10
1561.229881190746
 20
-1068.6077686572
 30
0.0
 11
1559.547388695245
 21
-1059.0658795559
 31
0.0
  0
ARC
  5
22C
  8
1
  6
CONTINUOUS
 62
     7
 10
1029.085369312843
 20
-1059.5
 30
0.0
 40
2.500000000001279
 50
10.0
 51
90.0
  0
ARC
  5
22D
  8
1
  6
CONTINUOUS
 62
     7
 10
857.0000000454007
 20
-1034.5000000358
 30
0.0
 40
19.49999999999719
 50
269.9999999999
 51
0.0
  0
ARC
  5
22E
  8
1
  6
CONTINUOUS
 62
     7
 10
792.9999999546004
 20
-1034.5000000358
 30
0.0
 40
22.50000000000085
 50
180.0
 51
270.0000000001
  0
LINE
  5
22F
  8
1
  6
CONTINUOUS
 62
     7
 10
1580.894349921544
 20
-948.0000000000001
 30
0.0
 11
1583.485369312644
 21
-948.0000000000001
 31
0.0
  0
ARC
  5
230
  8
1
  6
CONTINUOUS
 62
     7
 10
1573.303010908043
 20
-1068.0000000354
 30
0.0
 40
3.500000000002501
 50
270.0
 51
349.9999999999999
  0
LINE
  5
231
  8
1
  6
CONTINUOUS
 62
     7
 10
857.0000000451982
 20
-933.4999999546001
 30
0.0
 11
792.9999999547981
 21
-933.4999999547
 31
0.0
  0
LINE
  5
232
  8
1
  6
CONTINUOUS
 62
     7
 10
1060.139859617345
 20
-1069.9039222133
 30
0.0
 11
1060.139859617345
 21
-1010.0000005198
 31
0.0
  0
LINE
  5
233
  8
1
  6
CONTINUOUS
 62
     7
 10
1524.056859617145
 20
-994.9999994803001
 30
0.0
 11
1508.322859617145
 21
-994.9999994803001
 31
0.0
  0
ARC
  5
234
  8
1
  6
CONTINUOUS
 62
     7
 10
2044.975153921017
 20
-1052.513148261517
 30
0.0
 40
3.599999999998715
 50
105.0
 51
180.0000908811
  0
LINE
  5
235
  8
1
  6
CONTINUOUS
 62
     7
 10
1939.730301963723
 20
-957.2976205866001
 30
0.0
 11
1944.706752387623
 21
-955.9641847144001
 31
0.0
  0
ARC
  5
236
  8
1
  6
CONTINUOUS
 62
     7
 10
1504.285369312649
 20
-945.5000000000002
 30
0.0
 40
2.499999999997726
 50
270.0
 51
349.9999999999999
  0
LINE
  5
237
  8
1
  6
CONTINUOUS
 62
     7
 10
1101.039859617342
 20
-994.9999994803001
 30
0.0
 11
1101.039859617342
 21
-935.0960777868
 31
0.0
  0
ARC
  5
238
  8
1
  6
CONTINUOUS
 62
     7
 10
1158.494349921694
 20
-1059.5
 30
0.0
 40
2.499999999997726
 50
90.0
 51
170.0
  0
LINE
  5
239
  8
1
  6
CONTINUOUS
 62
     7
 10
1086.029881190947
 20
-936.3922313429002
 30
0.0
 11
1084.347388695447
 21
-945.9341204442004
 31
0.0
  0
ARC
  5
23A
  8
1
  6
CONTINUOUS
 62
     7
 10
1511.876708326243
 20
-1068.0000000354
 30
0.0
 40
3.500000000002501
 50
190.0
 51
270.0
  0
LINE
  5
23B
  8
1
  6
CONTINUOUS
 62
     7
 10
1086.539859617344
 20
-1069.9039222133
 30
0.0
 11
1086.539859617344
 21
-1010.0000005198
 31
0.0
  0
LINE
  5
23C
  8
1
  6
CONTINUOUS
 62
     7
 10
1101.656859617344
 20
-1010.0000005198
 30
0.0
 11
1085.922859617344
 21
-1010.0000005198
 31
0.0
  0
LINE
  5
23D
  8
1
  6
CONTINUOUS
 62
     7
 10
1101.549838043743
 20
-1068.6077686572
 30
0.0
 11
1103.232330539243
 21
-1059.0658795559
 31
0.0
  0
LINE
  5
23E
  8
1
  6
CONTINUOUS
 62
     7
 10
1534.829881190747
 20
-1068.6077686572
 30
0.0
 11
1533.147388695248
 21
-1059.0658795559
 31
0.0
  0
LINE
  5
23F
  8
1
  6
CONTINUOUS
 62
     7
 10
1101.656859617344
 20
-994.9999994803001
 30
0.0
 11
1085.922859617344
 21
-994.9999994803001
 31
0.0
  0
LINE
  5
240
  8
1
  6
CONTINUOUS
 62
     7
 10
1554.494349921542
 20
-948.0000000000001
 30
0.0
 11
1557.085369312642
 21
-948.0000000000001
 31
0.0
  0
ARC
  5
241
  8
1
  6
CONTINUOUS
 62
     7
 10
1132.094349921695
 20
-1059.5
 30
0.0
 40
2.499999999997726
 50
90.0
 51
170.0
  0
LINE
  5
242
  8
1
  6
CONTINUOUS
 62
     7
 10
2359.651778912402
 20
-928.0612118945004
 30
0.0
 11
2327.499970993702
 21
-927.4999999997002
 31
0.0
  0
ARC
  5
243
  8
1
  6
CONTINUOUS
 62
     7
 10
1045.303010908243
 20
-936.9999999647002
 30
0.0
 40
3.500000000002501
 50
10.0
 51
90.0
  0
ARC
  5
244
  8
1
  6
CONTINUOUS
 62
     7
 10
1530.685369312648
 20
-1059.5
 30
0.0
 40
2.499999999997726
 50
10.0
 51
90.0
  0
ARC
  5
245
  8
1
  6
CONTINUOUS
 62
     7
 10
792.9999999546004
 20
-970.4999999641
 30
0.0
 40
19.49999999999719
 50
89.9999999999
 51
180.0
  0
ARC
  5
246
  8
1
  6
CONTINUOUS
 62
     7
 10
1124.503010908194
 20
-936.9999999647002
 30
0.0
 40
3.500000000002501
 50
10.0
 51
90.0
  0
LINE
  5
247
  8
1
  6
CONTINUOUS
 62
     7
 10
1086.539859617344
 20
-935.0960777868005
 30
0.0
 11
1086.539859617344
 21
-994.9999994803005
 31
0.0
  0
LINE
  5
248
  8
1
  6
CONTINUOUS
 62
     7
 10
1550.456859617144
 20
-994.9999994803001
 30
0.0
 11
1534.722859617145
 21
-994.9999994803001
 31
0.0
  0
LINE
  5
249
  8
1
  6
CONTINUOUS
 62
     7
 10
1550.349838043546
 20
-936.3922313429002
 30
0.0
 11
1552.032330539045
 21
-945.9341204442004
 31
0.0
  0
ARC
  5
24A
  8
1
  6
CONTINUOUS
 62
     7
 10
1105.694349921743
 20
-1059.5
 30
0.0
 40
2.499999999997726
 50
90.0
 51
170.0
  0
ARC
  5
24B
  8
1
  6
CONTINUOUS
 62
     7
 10
1036.676708326444
 20
-1068.0000000354
 30
0.0
 40
3.499999999998948
 50
190.0
 51
270.0
  0
LINE
  5
24C
  8
1
  6
CONTINUOUS
 62
     7
 10
773.4999999545997
 20
-1034.5000000358
 30
0.0
 11
773.4999999545997
 21
-970.4999999641
 31
0.0
  0
LINE
  5
24D
  8
1
  6
CONTINUOUS
 62
     7
 10
1564.676708326244
 20
-1071.5000000354
 30
0.0
 11
1573.303010908045
 21
-1071.5000000354
 31
0.0
  0
LINE
  5
24E
  8
1
  6
CONTINUOUS
 62
     7
 10
1112.322859617295
 20
-994.9999994803001
 30
0.0
 11
1112.322859617295
 21
-1010.0000005198
 31
0.0
  0
LINE
  5
24F
  8
1
  6
CONTINUOUS
 62
     7
 10
1550.456859617144
 20
-1010.0000005198
 30
0.0
 11
1534.722859617145
 21
-1010.0000005198
 31
0.0
  0
LINE
  5
250
  8
1
  6
CONTINUOUS
 62
     7
 10
1110.383118390812
 20
-946.8599444127192
 30
0.0
 11
1110.383118390812
 21
-1058.140055587282
 31
0.0
  0
LINE
  5
251
  8
1
  6
CONTINUOUS
 62
     7
 10
1947.374974089522
 20
-1071.2600001871
 30
0.0
 11
1938.974974000623
 21
-1071.3160001877
 31
0.0
  0
LINE
  5
252
  8
1
  6
CONTINUOUS
 62
     7
 10
2359.651778912402
 20
-1076.9387881056
 30
0.0
 11
2327.499970993702
 21
-1077.5000000003
 31
0.0
  0
ARC
  5
253
  8
1
  6
CONTINUOUS
 62
     7
 10
857.0000000454007
 20
-1034.5000000358
 30
0.0
 40
22.50000000000085
 50
269.9999999999
 51
0.0
  0
LINE
  5
254
  8
1
  6
CONTINUOUS
 62
     7
 10
1523.439859617147
 20
-1010.0000005198
 30
0.0
 11
1523.439859617147
 21
-1069.9039222133
 31
0.0
  0
LINE
  5
255
  8
1
  6
CONTINUOUS
 62
     7
 10
1031.183118390861
 20
-1058.140055587282
 30
0.0
 11
1031.183118390861
 21
-946.859944412719
 31
0.0
  0
LINE
  5
256
  8
1
  6
CONTINUOUS
 62
     7
 10
1911.375078872419
 20
-927.4999999647002
 30
0.0
 11
1911.375078871319
 21
-1077.5000000353
 31
0.0
  0
LINE
  5
257
  8
1
  6
CONTINUOUS
 62
     7
 10
1549.839859617145
 20
-1010.0000005198
 30
0.0
 11
1549.839859617145
 21
-1069.9039222133
 31
0.0
  0
LINE
  5
258
  8
1
  6
CONTINUOUS
 62
     7
 10
1655.439859617098
 20
-1010.0000005198
 30
0.0
 11
1655.439859617098
 21
-1069.9039222133
 31
0.0
  0
ARC
  5
259
  8
1
  6
CONTINUOUS
 62
     7
 10
792.9999999546004
 20
-1034.5000000358
 30
0.0
 40
19.49999999999719
 50
180.0
 51
270.0000000001
  0
LINE
  5
25A
  8
1
  6
CONTINUOUS
 62
     7
 10
1939.730301963723
 20
-1047.7023794134
 30
0.0
 11
1944.706752387623
 21
-1049.0358152856
 31
0.0
  0
LINE
  5
25B
  8
1
  6
CONTINUOUS
 62
     7
 10
1105.694349921743
 20
-948.0000000000001
 30
0.0
 11
1108.285369312842
 21
-948.0000000000001
 31
0.0
  0
LINE
  5
25C
  8
1
  6
CONTINUOUS
 62
     7
 10
770.4999999545996
 20
-1034.5000000358
 30
0.0
 11
770.4999999545996
 21
-970.4999999641
 31
0.0
  0
ARC
  5
25D
  8
1
  6
CONTINUOUS
 62
     7
 10
792.9999999546004
 20
-1034.5000000358
 30
0.0
 40
37.00000000000259
 50
180.0
 51
270.0000000003
  0
LINE
  5
25E
  8
1
  6
CONTINUOUS
 62
     7
 10
1655.949838043499
 20
-936.3922313429002
 30
0.0
 11
1657.632330538998
 21
-945.9341204442004
 31
0.0
  0
ARC
  5
25F
  8
1
  6
CONTINUOUS
 62
     7
 10
1546.903010908044
 20
-936.9999999647002
 30
0.0
 40
3.499999999998948
 50
10.0
 51
90.0
  0
ARC
  5
260
  8
1
  6
CONTINUOUS
 62
     7
 10
1530.685369312648
 20
-945.5000000000002
 30
0.0
 40
2.499999999997726
 50
270.0
 51
349.9999999999999
  0
LINE
  5
261
  8
1
  6
CONTINUOUS
 62
     7
 10
1549.839859617145
 20
-994.9999994803001
 30
0.0
 11
1549.839859617145
 21
-935.0960777868
 31
0.0
  0
ARC
  5
262
  8
1
  6
CONTINUOUS
 62
     7
 10
1089.476708326445
 20
-1068.0000000354
 30
0.0
 40
3.499999999998948
 50
190.0
 51
270.0
  0
LINE
  5
263
  8
1
  6
CONTINUOUS
 62
     7
 10
2291.749999999899
 20
-1072.75
 30
0.0
 11
2358.249999999899
 21
-1072.75
 31
0.0
  0
ARC
  5
264
  8
1
  6
CONTINUOUS
 62
     7
 10
857.0000000454007
 20
-970.4999999641
 30
0.0
 40
22.50000000000085
 50
0.0
 51
90.0000000001
  0
LINE
  5
265
  8
1
  6
CONTINUOUS
 62
     7
 10
2290.348221087499
 20
-1076.9387881056
 30
0.0
 11
2322.5000290062
 21
-1077.5000000003
 31
0.0
  0
LINE
  5
266
  8
1
  6
CONTINUOUS
 62
     7
 10
890.5000036443993
 20
-1010.0000006254
 30
0.0
 11
894.0000000453989
 21
-1010.6171444233
 31
0.0
  0
LINE
  5
267
  8
1
  6
CONTINUOUS
 62
     7
 10
1535.339859617147
 20
-1069.9039222133
 30
0.0
 11
1535.339859617147
 21
-1010.0000005198
 31
0.0
  0
LINE
  5
268
  8
1
  6
CONTINUOUS
 62
     7
 10
759.4999963556978
 20
-994.9999993745002
 30
0.0
 11
755.9999999545979
 21
-994.3828555766003
 31
0.0
  0
ARC
  5
269
  8
1
  6
CONTINUOUS
 62
     7
 10
1071.703010908246
 20
-1068.0000000354
 30
0.0
 40
3.499999999998948
 50
270.0
 51
349.9999999999999
  0
LINE
  5
26A
  8
1
  6
CONTINUOUS
 62
     7
 10
997.9966008438281
 20
-946.8599444127192
 30
0.0
 11
997.9966008438281
 21
-1058.140055587282
 31
0.0
  0
LINE
  5
26B
  8
1
  6
CONTINUOUS
 62
     7
 10
792.9999999547035
 20
-1054.0000000453
 30
0.0
 11
857.000000045403
 21
-1054.0000000453
 31
0.0
  0
LINE
  5
26C
  8
1
  6
CONTINUOUS
 62
     7
 10
759.4999963556978
 20
-1010.0000006254
 30
0.0
 11
759.500003615698
 21
-994.9999993745002
 31
0.0
  0
LINE
  5
26D
  8
1
  6
CONTINUOUS
 62
     7
 10
890.5000036443993
 20
-1010.0000006254
 30
0.0
 11
890.4999963842992
 21
-994.9999993745002
 31
0.0
  0
LINE
  5
26E
  8
1
  6
CONTINUOUS
 62
     7
 10
1534.722859617149
 20
-994.9999994803001
 30
0.0
 11
1534.722859617149
 21
-1010.0000005198
 31
0.0
  0
LINE
  5
26F
  8
1
  6
CONTINUOUS
 62
     7
 10
1083.983118390859
 20
-946.8599444127192
 30
0.0
 11
1083.983118390859
 21
-1058.140055587282
 31
0.0
  0
ARC
  5
270
  8
1
  6
CONTINUOUS
 62
     7
 10
1105.694349921743
 20
-945.5000000000002
 30
0.0
 40
2.499999999997726
 50
190.0
 51
270.0
  0
LINE
  5
271
  8
1
  6
CONTINUOUS
 62
     7
 10
1580.894349921544
 20
-1057.0
 30
0.0
 11
1583.485369312644
 21
-1057.0
 31
0.0
  0
ARC
  5
272
  8
1
  6
CONTINUOUS
 62
     7
 10
1538.276708326245
 20
-1068.0000000354
 30
0.0
 40
3.499999999998948
 50
190.0
 51
270.0
  0
LINE
  5
273
  8
1
  6
CONTINUOUS
 62
     7
 10
2049.775193554518
 20
-927.499999965917
 30
0.0
 11
2049.775147209518
 21
-956.718066043817
 31
0.0
  0
ARC
  5
274
  8
1
  6
CONTINUOUS
 62
     7
 10
1670.276708326193
 20
-936.9999999647002
 30
0.0
 40
3.500000000002501
 50
90.0
 51
170.0
  0
ARC
  5
275
  8
1
  6
CONTINUOUS
 62
     7
 10
1660.094349921495
 20
-1059.5
 30
0.0
 40
2.500000000001279
 50
90.0
 51
170.0
  0
LINE
  5
276
  8
1
  6
CONTINUOUS
 62
     7
 10
1947.375003825217
 20
-952.4868460294999
 30
0.0
 11
1947.374964191717
 21
-927.4999999647
 31
0.0
  0
LINE
  5
277
  8
1
  6
CONTINUOUS
 62
     7
 10
1534.829881190747
 20
-936.3922313429002
 30
0.0
 11
1533.147388695248
 21
-945.9341204442004
 31
0.0
  0
LINE
  5
278
  8
1
  6
CONTINUOUS
 62
     7
 10
1947.375003825217
 20
-1052.5131539705
 30
0.0
 11
1947.374964191717
 21
-1077.5000000353
 31
0.0
  0
LINE
  5
279
  8
1
  6
CONTINUOUS
 62
     7
 10
1538.276708326245
 20
-1071.5000000354
 30
0.0
 11
1546.903010908046
 21
-1071.5000000354
 31
0.0
  0
ARC
  5
27A
  8
1
  6
CONTINUOUS
 62
     7
 10
1715.485369312597
 20
-945.5000000000002
 30
0.0
 40
2.499999999997726
 50
270.0
 51
349.9999999999999
  0
LINE
  5
27B
  8
1
  6
CONTINUOUS
 62
     7
 10
1538.276708326245
 20
-933.4999999647005
 30
0.0
 11
1546.903010908046
 21
-933.4999999647005
 31
0.0
  0
LINE
  5
27C
  8
1
  6
CONTINUOUS
 62
     7
 10
792.9999999547035
 20
-950.9999999546002
 30
0.0
 11
857.000000045403
 21
-950.9999999546002
 31
0.0
  0
LINE
  5
27D
  8
1
  6
CONTINUOUS
 62
     7
 10
857.0000000451982
 20
-1071.5000000454
 30
0.0
 11
792.9999999547981
 21
-1071.5000000452
 31
0.0
  0
LINE
  5
27E
  8
1
  6
CONTINUOUS
 62
     7
 10
894.0000000453963
 20
-970.4999999641
 30
0.0
 11
894.0000000453963
 21
-994.3828555766
 31
0.0
  0
LINE
  5
27F
  8
1
  6
CONTINUOUS
 62
     7
 10
1938.97496419172
 20
-927.4999999647002
 30
0.0
 11
1938.975010536721
 21
-956.7180660426002
 31
0.0
  0
LINE
  5
280
  8
1
  6
CONTINUOUS
 62
     7
 10
2041.375153921018
 20
-1052.513153971717
 30
0.0
 11
2041.375193554519
 21
-1077.500000036517
 31
0.0
  0
ARC
  5
281
  8
1
  6
CONTINUOUS
 62
     7
 10
1081.885369312841
 20
-1059.5
 30
0.0
 40
2.500000000004832
 50
10.0
 51
90.0
  0
ARC
  5
282
  8
1
  6
CONTINUOUS
 62
     7
 10
792.9999999546004
 20
-970.4999999641
 30
0.0
 40
22.50000000000085
 50
89.9999999999
 51
180.0
  0
ARC
  5
283
  8
1
  6
CONTINUOUS
 62
     7
 10
1696.676708326195
 20
-1068.0000000354
 30
0.0
 40
3.499999999998948
 50
190.0
 51
270.0
  0
LINE
  5
284
  8
1
  6
CONTINUOUS
 62
     7
 10
759.4999963556978
 20
-1010.0000006254
 30
0.0
 11
755.9999999545979
 21
-1010.6171444233
 31
0.0
  0
LINE
  5
285
  8
1
  6
CONTINUOUS
 62
     7
 10
1089.476708326445
 20
-933.4999999647005
 30
0.0
 11
1098.103010908246
 21
-933.4999999647005
 31
0.0
  0
ARC
  5
286
  8
1
  6
CONTINUOUS
 62
     7
 10
1564.676708326244
 20
-1068.0000000354
 30
0.0
 40
3.499999999998948
 50
190.0
 51
270.0
  0
LINE
  5
287
  8
1
  6
CENTER
 62
     1
 10
825.0000000000006
 20
-932.7175987668002
 30
0.0
 11
825.0000000000006
 21
-1072.2824012331
 31
0.0
  0
ARC
  5
288
  8
1
  6
CONTINUOUS
 62
     7
 10
1943.775003825222
 20
-952.4868517398002
 30
0.0
 40
3.599999999995163
 50
285.0
 51
0.0000908810999931
  0
LINE
  5
289
  8
1
  6
CONTINUOUS
 62
     7
 10
1643.876708326198
 20
-1071.5000000354
 30
0.0
 11
1652.503010907996
 21
-1071.5000000354
 31
0.0
  0
LINE
  5
28A
  8
1
  6
CONTINUOUS
 62
     7
 10
2250.561211894405
 20
-1037.1517789124
 30
0.0
 11
2249.999999999605
 21
-1004.9999709937
 31
0.0
  0
LINE
  5
28B
  8
1
  6
CONTINUOUS
 62
     7
 10
1101.039859617342
 20
-1010.0000005198
 30
0.0
 11
1101.039859617342
 21
-1069.9039222133
 31
0.0
  0
ARC
  5
28C
  8
1
  6
CONTINUOUS
 62
     7
 10
1546.903010908044
 20
-1068.0000000354
 30
0.0
 40
3.499999999998948
 50
270.0
 51
349.9999999999999
  0
LINE
  5
28D
  8
1
  6
CONTINUOUS
 62
     7
 10
1101.549838043743
 20
-936.3922313429002
 30
0.0
 11
1103.232330539243
 21
-945.9341204442004
 31
0.0
  0
LINE
  5
28E
  8
1
  6
CONTINUOUS
 62
     7
 10
755.9999999546014
 20
-970.4999999641
 30
0.0
 11
755.9999999546014
 21
-994.3828555766
 31
0.0
  0
LINE
  5
28F
  8
1
  6
CENTER
 62
     1
 10
895.9261514337
 20
-1002.5
 30
0.0
 11
748.9763204098998
 21
-1002.5
 31
0.0
  0
LINE
  5
290
  8
1
  6
CONTINUOUS
 62
     7
 10
2049.019855782516
 20
-957.2976205878169
 30
0.0
 11
2044.043405358617
 21
-955.9641847156171
 31
0.0
  0
LINE
  5
291
  8
1
  6
CONTINUOUS
 62
     7
 10
2049.775193554518
 20
-1077.500000036517
 30
0.0
 11
2049.775147209518
 21
-1048.281933958717
 31
0.0
  0
LINE
  5
292
  8
1
  6
CONTINUOUS
 62
     7
 10
1237.694349921694
 20
-948.0000000000001
 30
0.0
 11
1240.285369312794
 21
-948.0000000000001
 31
0.0
  0
LINE
  5
293
  8
1
  6
CONTINUOUS
 62
     7
 10
1640.939859617097
 20
-935.0960777868005
 30
0.0
 11
1640.939859617097
 21
-994.9999994803005
 31
0.0
  0
ARC
  5
294
  8
1
  6
CONTINUOUS
 62
     7
 10
857.0000000454007
 20
-1034.5000000358
 30
0.0
 40
36.99999999999548
 50
269.9999999997
 51
0.0
  0
LINE
  5
295
  8
1
  6
CONTINUOUS
 62
     7
 10
2399.4387881055
 20
-1037.1517789124
 30
0.0
 11
2400.000000000301
 21
-1004.9999709937
 31
0.0
  0
LINE
  5
296
  8
1
  6
CONTINUOUS
 62
     7
 10
1656.056859617097
 20
-1010.0000005198
 30
0.0
 11
1640.322859617097
 21
-1010.0000005198
 31
0.0
  0
LINE
  5
297
  8
1
  6
CONTINUOUS
 62
     7
 10
1108.285369312794
 20
-1057.0
 30
0.0
 11
1106.989859617294
 21
-1057.0
 31
0.0
  0
LINE
  5
298
  8
1
  6
CONTINUOUS
 62
     7
 10
792.9999999547035
 20
-947.9999999546001
 30
0.0
 11
857.000000045403
 21
-947.9999999546001
 31
0.0
  0
ARC
  5
299
  8
1
  6
CONTINUOUS
 62
     7
 10
2044.975153921017
 20
-952.4868517410174
 30
0.0
 40
3.599999999998715
 50
179.9999091189
 51
255.0
  0
LINE
  5
29A
  8
1
  6
CONTINUOUS
 62
     7
 10
2400.000000000302
 20
-1004.9999709937
 30
0.0
 11
2400.000000000302
 21
-1000.0000290063
 31
0.0
  0
LINE
  5
29B
  8
1
  6
CONTINUOUS
 62
     7
 10
876.500000045398
 20
-1034.5000000358
 30
0.0
 11
876.500000045398
 21
-970.4999999641
 31
0.0
  0
LINE
  5
29C
  8
1
  6
CONTINUOUS
 62
     7
 10
1656.056859617097
 20
-994.9999994803001
 30
0.0
 11
1656.056859617097
 21
-1010.0000005198
 31
0.0
  0
LINE
  5
29D
  8
1
  6
CONTINUOUS
 62
     7
 10
1643.876708326198
 20
-933.4999999647005
 30
0.0
 11
1652.503010907996
 21
-933.4999999647005
 31
0.0
  0
ARC
  5
29E
  8
1
  6
CONTINUOUS
 62
     7
 10
1731.703010907994
 20
-1068.0000000354
 30
0.0
 40
3.500000000002501
 50
270.0
 51
349.9999999999999
  0
LINE
  5
29F
  8
1
  6
CONTINUOUS
 62
     7
 10
1696.676708326195
 20
-1071.5000000354
 30
0.0
 11
1705.303010907995
 21
-1071.5000000354
 31
0.0
  0
LINE
  5
2A0
  8
1
  6
CONTINUOUS
 62
     7
 10
2273.999999999903
 20
-970.5000000000001
 30
0.0
 11
2273.999999999903
 21
-1034.5
 31
0.0
  0
ARC
  5
2A1
  8
1
  6
CONTINUOUS
 62
     7
 10
2358.944956451706
 20
-968.5550435483001
 30
0.0
 40
40.49999999999798
 50
1.0
 51
89.00000000000001
  0
ARC
  5
2A2
  8
1
  6
CONTINUOUS
 62
     7
 10
1943.775003825222
 20
-1052.5131482603
 30
0.0
 40
3.599999999995163
 50
0.0
 51
75.0
  0
LINE
  5
2A3
  8
1
  6
CONTINUOUS
 62
     7
 10
2358.2499999999
 20
-932.2500000000005
 30
0.0
 11
2291.7499999999
 21
-932.2500000000005
 31
0.0
  0
LINE
  5
2A4
  8
1
  6
CONTINUOUS
 62
     7
 10
1723.076708326194
 20
-933.4999999647005
 30
0.0
 11
1731.703010907994
 21
-933.4999999647005
 31
0.0
  0
ARC
  5
2A5
  8
1
  6
CONTINUOUS
 62
     7
 10
1775.876708326196
 20
-1068.0000000354
 30
0.0
 40
3.499999999998948
 50
190.0
 51
270.0
  0
LINE
  5
2A6
  8
1
  6
CONTINUOUS
 62
     7
 10
1734.639859617098
 20
-1010.0000005198
 30
0.0
 11
1734.639859617098
 21
-1069.9039222133
 31
0.0
  0
LINE
  5
2A7
  8
1
  6
CONTINUOUS
 62
     7
 10
2077.375078873819
 20
-927.499999965917
 30
0.0
 11
2077.375078874919
 21
-1077.500000036517
 31
0.0
  0
LINE
  5
2A8
  8
1
  6
CONTINUOUS
 62
     7
 10
2041.37518365682
 20
-933.7399998141176
 30
0.0
 11
2049.775183745619
 21
-933.6839998135175
 31
0.0
  0
LINE
  5
2A9
  8
1
  6
CONTINUOUS
 62
     7
 10
1765.694349921497
 20
-948.0000000000001
 30
0.0
 11
1768.285369312597
 21
-948.0000000000001
 31
0.0
  0
LINE
  5
2AA
  8
1
  6
CONTINUOUS
 62
     7
 10
1686.494349921494
 20
-1057.0
 30
0.0
 11
1689.085369312594
 21
-1057.0
 31
0.0
  0
LINE
  5
2AB
  8
1
  6
CONTINUOUS
 62
     7
 10
1057.58311839086
 20
-946.8599444127192
 30
0.0
 11
1057.58311839086
 21
-1058.140055587282
 31
0.0
  0
LINE
  5
2AC
  8
1
  6
CONTINUOUS
 62
     7
 10
2041.375153921018
 20
-952.4868460307176
 30
0.0
 11
2041.375193554519
 21
-927.4999999659175
 31
0.0
  0
ARC
  5
2AD
  8
1
  6
CONTINUOUS
 62
     7
 10
1749.476708326197
 20
-1068.0000000354
 30
0.0
 40
3.499999999998948
 50
190.0
 51
270.0
  0
LINE
  5
2AE
  8
1
  6
CONTINUOUS
 62
     7
 10
890.5000036443993
 20
-994.9999993745002
 30
0.0
 11
894.0000000453989
 21
-994.3828555766003
 31
0.0
  0
LINE
  5
2AF
  8
1
  6
CONTINUOUS
 62
     7
 10
1947.374974089522
 20
-933.7399998128999
 30
0.0
 11
1938.974974000623
 21
-933.6839998123
 31
0.0
  0
LINE
  5
2B0
  8
1
  6
CONTINUOUS
 62
     7
 10
1666.829881190695
 20
-1068.6077686572
 30
0.0
 11
1665.147388695195
 21
-1059.0658795559
 31
0.0
  0
LINE
  5
2B1
  8
1
  6
CONTINUOUS
 62
     7
 10
1101.656859617344
 20
-994.9999994803001
 30
0.0
 11
1101.656859617344
 21
-1010.0000005198
 31
0.0
  0
LINE
  5
2B2
  8
1
  6
CONTINUOUS
 62
     7
 10
879.5000000454016
 20
-1034.5000000358
 30
0.0
 11
879.5000000454016
 21
-970.4999999641
 31
0.0
  0
LINE
  5
2B3
  8
1
  6
CONTINUOUS
 62
     7
 10
1655.439859617098
 20
-994.9999994803001
 30
0.0
 11
1655.439859617098
 21
-935.0960777868
 31
0.0
  0
ARC
  5
2B4
  8
1
  6
CONTINUOUS
 62
     7
 10
1939.57501053672
 20
-1048.2819349092
 30
0.0
 40
0.5999999999986017
 50
75.0
 51
179.9999091189
  0
LINE
  5
2B5
  8
1
  6
CONTINUOUS
 62
     7
 10
1660.094349921495
 20
-948.0000000000001
 30
0.0
 11
1662.685369312595
 21
-948.0000000000001
 31
0.0
  0
LINE
  5
2B6
  8
1
  6
CONTINUOUS
 62
     7
 10
1004.783118390863
 20
-946.8599444127192
 30
0.0
 11
1004.783118390863
 21
-1058.140055587282
 31
0.0
  0
LINE
  5
2B7
  8
1
  6
CONTINUOUS
 62
     7
 10
1938.97496419172
 20
-1077.5000000353
 30
0.0
 11
1938.975010536721
 21
-1048.2819339575
 31
0.0
  0
LINE
  5
2B8
  8
1
  6
CONTINUOUS
 62
     7
 10
1024.396600843827
 20
-946.8599444127192
 30
0.0
 11
1024.396600843827
 21
-1058.140055587282
 31
0.0
  0
ARC
  5
2B9
  8
1
  6
CONTINUOUS
 62
     7
 10
2291.749999999899
 20
-969.2500000000003
 30
0.0
 40
37.00000000000614
 50
90.0
 51
180.0
  0
ARC
  5
2BA
  8
1
  6
CONTINUOUS
 62
     7
 10
2291.749999999899
 20
-1035.75
 30
0.0
 40
37.00000000000614
 50
180.0
 51
270.0
  0
LINE
  5
2BB
  8
1
  6
CONTINUOUS
 62
     7
 10
1735.256859617097
 20
-994.9999994803001
 30
0.0
 11
1735.256859617097
 21
-1010.0000005198
 31
0.0
  0
ARC
  5
2BC
  8
1
  6
CONTINUOUS
 62
     7
 10
1731.703010907994
 20
-936.9999999647002
 30
0.0
 40
3.500000000002501
 50
10.0
 51
90.0
  0
LINE
  5
2BD
  8
1
  6
CONTINUOUS
 62
     7
 10
894.0000000453963
 20
-1034.5000000358
 30
0.0
 11
894.0000000453963
 21
-1010.6171444233
 31
0.0
  0
LINE
  5
2BE
  8
1
  6
CONTINUOUS
 62
     7
 10
1739.294349921495
 20
-948.0000000000001
 30
0.0
 11
1741.885369312595
 21
-948.0000000000001
 31
0.0
  0
LINE
  5
2BF
  8
1
  6
CONTINUOUS
 62
     7
 10
1681.839859617097
 20
-994.9999994803001
 30
0.0
 11
1681.839859617097
 21
-935.0960777868
 31
0.0
  0
LINE
  5
2C0
  8
1
  6
CONTINUOUS
 62
     7
 10
2399.4387881055
 20
-967.8482210876005
 30
0.0
 11
2400.000000000301
 21
-1000.0000290063
 31
0.0
  0
ARC
  5
2C1
  8
1
  6
CONTINUOUS
 62
     7
 10
1939.57501053672
 20
-956.7180650908999
 30
0.0
 40
0.5999999999986017
 50
180.0000908811
 51
285.0
  0
LINE
  5
2C2
  8
1
  6
CONTINUOUS
 62
     7
 10
978.3831183908602
 20
-946.8599444127192
 30
0.0
 11
978.3831183908602
 21
-1058.140055587282
 31
0.0
  0
ARC
  5
2C3
  8
1
  6
CONTINUOUS
 62
     7
 10
1660.094349921495
 20
-945.5000000000002
 30
0.0
 40
2.500000000001279
 50
190.0
 51
270.0
  0
ARC
  5
2C4
  8
1
  6
CONTINUOUS
 62
     7
 10
2049.175147209519
 20
-1048.281934910417
 30
0.0
 40
0.5999999999986017
 50
0.0000908811
 51
105.0
  0
LINE
  5
2C5
  8
1
  6
CONTINUOUS
 62
     7
 10
2327.499970993704
 20
-1077.5000000003
 30
0.0
 11
2322.500029006204
 21
-1077.5000000003
 31
0.0
  0
LINE
  5
2C6
  8
1
  6
CONTINUOUS
 62
     7
 10
1233.656859617296
 20
-994.9999994803001
 30
0.0
 11
1233.656859617296
 21
-1010.0000005198
 31
0.0
  0
LINE
  5
2C7
  8
1
  6
CONTINUOUS
 62
     7
 10
1660.094349921495
 20
-1057.0
 30
0.0
 11
1662.685369312595
 21
-1057.0
 31
0.0
  0
LINE
  5
2C8
  8
1
  6
CONTINUOUS
 62
     7
 10
1682.456859617095
 20
-994.9999994803001
 30
0.0
 11
1666.722859617096
 21
-994.9999994803001
 31
0.0
  0
LINE
  5
2C9
  8
1
  6
CONTINUOUS
 62
     7
 10
1686.494349921494
 20
-948.0000000000001
 30
0.0
 11
1689.085369312594
 21
-948.0000000000001
 31
0.0
  0
LINE
  5
2CA
  8
1
  6
CONTINUOUS
 62
     7
 10
1749.476708326197
 20
-1071.5000000354
 30
0.0
 11
1758.103010907996
 21
-1071.5000000354
 31
0.0
  0
LINE
  5
2CB
  8
1
  6
CONTINUOUS
 62
     7
 10
1775.876708326196
 20
-933.4999999647005
 30
0.0
 11
1784.503010907996
 21
-933.4999999647005
 31
0.0
  0
LINE
  5
2CC
  8
1
  6
CONTINUOUS
 62
     7
 10
2041.37518365682
 20
-1071.260000188317
 30
0.0
 11
2049.775183745619
 21
-1071.316000188917
 31
0.0
  0
ARC
  5
2CD
  8
1
  6
CONTINUOUS
 62
     7
 10
1636.285369312597
 20
-945.5000000000002
 30
0.0
 40
2.499999999997726
 50
270.0
 51
349.9999999999999
  0
LINE
  5
2CE
  8
1
  6
CONTINUOUS
 62
     7
 10
2049.019855782516
 20
-1047.702379414617
 30
0.0
 11
2044.043405358617
 21
-1049.035815286817
 31
0.0
  0
ARC
  5
2CF
  8
1
  6
CONTINUOUS
 62
     7
 10
1662.685369312596
 20
-945.5000000000002
 30
0.0
 40
2.500000000001279
 50
270.0
 51
349.9999999999999
  0
LINE
  5
2D0
  8
1
  6
CONTINUOUS
 62
     7
 10
1696.676708326195
 20
-933.4999999647005
 30
0.0
 11
1705.303010907995
 21
-933.4999999647005
 31
0.0
  0
LINE
  5
2D1
  8
1
  6
CONTINUOUS
 62
     7
 10
1640.429881190696
 20
-1068.6077686572
 30
0.0
 11
1638.747388695196
 21
-1059.0658795559
 31
0.0
  0
LINE
  5
2D2
  8
1
  6
CONTINUOUS
 62
     7
 10
1656.056859617097
 20
-994.9999994803001
 30
0.0
 11
1640.322859617097
 21
-994.9999994803001
 31
0.0
  0
LINE
  5
2D3
  8
1
  6
CONTINUOUS
 62
     7
 10
1693.739859617094
 20
-935.0960777868005
 30
0.0
 11
1693.739859617094
 21
-994.9999994803005
 31
0.0
  0
ARC
  5
2D4
  8
1
  6
CONTINUOUS
 62
     7
 10
2292.999999999901
 20
-1034.5
 30
0.0
 40
19.0000000000019
 50
180.0
 51
270.0
  0
ARC
  5
2D5
  8
1
  6
CONTINUOUS
 62
     7
 10
1758.103010907992
 20
-936.9999999647002
 30
0.0
 40
3.500000000002501
 50
10.0
 51
90.0
  0
ARC
  5
2D6
  8
1
  6
CONTINUOUS
 62
     7
 10
1715.485369312597
 20
-1059.5
 30
0.0
 40
2.499999999997726
 50
10.0
 51
90.0
  0
LINE
  5
2D7
  8
1
  6
CONTINUOUS
 62
     7
 10
1640.429881190696
 20
-936.3922313429002
 30
0.0
 11
1638.747388695196
 21
-945.9341204442004
 31
0.0
  0
ARC
  5
2D8
  8
1
  6
CONTINUOUS
 62
     7
 10
2291.055043548302
 20
-1036.4449564517
 30
0.0
 40
40.50000000000153
 50
181.0
 51
269.0
  0
LINE
  5
2D9
  8
1
  6
CONTINUOUS
 62
     7
 10
1682.456859617095
 20
-994.9999994803001
 30
0.0
 11
1682.456859617095
 21
-1010.0000005198
 31
0.0
  0
LINE
  5
2DA
  8
1
  6
CONTINUOUS
 62
     7
 10
2254.749999999903
 20
-969.2500000000003
 30
0.0
 11
2254.749999999903
 21
-1035.75
 31
0.0
  0
LINE
  5
2DB
  8
1
  6
CONTINUOUS
 62
     7
 10
1708.239859617096
 20
-1010.0000005198
 30
0.0
 11
1708.239859617096
 21
-1069.9039222133
 31
0.0
  0
ARC
  5
2DC
  8
1
  6
CONTINUOUS
 62
     7
 10
1652.503010907993
 20
-1068.0000000354
 30
0.0
 40
3.500000000002501
 50
270.0
 51
349.9999999999999
  0
LINE
  5
2DD
  8
1
  6
CONTINUOUS
 62
     7
 10
1735.149838043495
 20
-936.3922313429002
 30
0.0
 11
1736.832330538995
 21
-945.9341204442004
 31
0.0
  0
ARC
  5
2DE
  8
1
  6
CONTINUOUS
 62
     7
 10
1739.294349921495
 20
-945.5000000000002
 30
0.0
 40
2.500000000001279
 50
190.0
 51
270.0
  0
LINE
  5
2DF
  8
1
  6
CONTINUOUS
 62
     7
 10
1708.749838043496
 20
-936.3922313429002
 30
0.0
 11
1710.432330538996
 21
-945.9341204442004
 31
0.0
  0
LINE
  5
2E0
  8
1
  6
CONTINUOUS
 62
     7
 10
792.9999999547035
 20
-1057.0000000453
 30
0.0
 11
857.000000045403
 21
-1057.0000000453
 31
0.0
  0
LINE
  5
2E1
  8
1
  6
CONTINUOUS
 62
     7
 10
2250.561211894405
 20
-967.8482210876005
 30
0.0
 11
2249.999999999605
 21
-1000.0000290063
 31
0.0
  0
ARC
  5
2E2
  8
1
  6
CONTINUOUS
 62
     7
 10
857.0000000454007
 20
-970.4999999641
 30
0.0
 40
19.49999999999719
 50
0.0
 51
90.0000000001
  0
ARC
  5
2E3
  8
1
  6
CONTINUOUS
 62
     7
 10
792.9999999546004
 20
-970.4999999641
 30
0.0
 40
37.00000000000259
 50
89.99999999969998
 51
180.0
  0
LINE
  5
2E4
  8
1
  6
CONTINUOUS
 62
     7
 10
1708.239859617096
 20
-994.9999994803001
 30
0.0
 11
1708.239859617096
 21
-935.0960777868
 31
0.0
  0
LINE
  5
2E5
  8
1
  6
CONTINUOUS
 62
     7
 10
1712.894349921492
 20
-948.0000000000001
 30
0.0
 11
1715.485369312593
 21
-948.0000000000001
 31
0.0
  0
LINE
  5
2E6
  8
1
  6
CONTINUOUS
 62
     7
 10
1708.749838043496
 20
-1068.6077686572
 30
0.0
 11
1710.432330538996
 21
-1059.0658795559
 31
0.0
  0
LINE
  5
2E7
  8
1
  6
CONTINUOUS
 62
     7
 10
2290.348221087499
 20
-928.0612118945004
 30
0.0
 11
2322.5000290062
 21
-927.4999999997002
 31
0.0
  0
LINE
  5
2E8
  8
1
  6
CONTINUOUS
 62
     7
 10
1693.122859617096
 20
-994.9999994803001
 30
0.0
 11
1693.122859617096
 21
-1010.0000005198
 31
0.0
  0
LINE
  5
2E9
  8
1
  6
CONTINUOUS
 62
     7
 10
1367.596600843731
 20
-946.8599444127192
 30
0.0
 11
1367.596600843731
 21
-1058.140055587282
 31
0.0
  0
LINE
  5
2EA
  8
1
  6
CONTINUOUS
 62
     7
 10
1244.322859617243
 20
-994.9999994803001
 30
0.0
 11
1244.322859617243
 21
-1010.0000005198
 31
0.0
  0
ARC
  5
2EB
  8
1
  6
CONTINUOUS
 62
     7
 10
1696.676708326195
 20
-936.9999999647002
 30
0.0
 40
3.499999999998948
 50
90.0
 51
170.0
  0
ARC
  5
2EC
  8
1
  6
CONTINUOUS
 62
     7
 10
1652.503010907993
 20
-936.9999999647002
 30
0.0
 40
3.500000000002501
 50
10.0
 51
90.0
  0
ARC
  5
2ED
  8
1
  6
CONTINUOUS
 62
     7
 10
1686.494349921494
 20
-945.5000000000002
 30
0.0
 40
2.500000000001279
 50
190.0
 51
270.0
  0
ARC
  5
2EE
  8
1
  6
CONTINUOUS
 62
     7
 10
1670.276708326193
 20
-1068.0000000354
 30
0.0
 40
3.500000000002501
 50
190.0
 51
270.0
  0
ARC
  5
2EF
  8
1
  6
CONTINUOUS
 62
     7
 10
2292.999999999901
 20
-970.5000000000001
 30
0.0
 40
19.0000000000019
 50
90.0
 51
180.0
  0
LINE
  5
2F0
  8
1
  6
CONTINUOUS
 62
     7
 10
1240.285369312745
 20
-1057.0
 30
0.0
 11
1238.989859617245
 21
-1057.0
 31
0.0
  0
ARC
  5
2F1
  8
1
  6
CONTINUOUS
 62
     7
 10
1686.494349921494
 20
-1059.5
 30
0.0
 40
2.500000000001279
 50
90.0
 51
170.0
  0
ARC
  5
2F2
  8
1
  6
CONTINUOUS
 62
     7
 10
2358.250000000003
 20
-969.2500000000003
 30
0.0
 40
36.99999999999903
 50
0.0
 51
90.0
  0
ARC
  5
2F3
  8
1
  6
CONTINUOUS
 62
     7
 10
1723.076708326194
 20
-936.9999999647002
 30
0.0
 40
3.499999999998948
 50
90.0
 51
170.0
  0
ARC
  5
2F4
  8
1
  6
CONTINUOUS
 62
     7
 10
1643.876708326198
 20
-936.9999999647002
 30
0.0
 40
3.499999999995396
 50
90.0
 51
170.0
  0
ARC
  5
2F5
  8
1
  6
CONTINUOUS
 62
     7
 10
2358.944956451706
 20
-1036.4449564517
 30
0.0
 40
40.49999999999798
 50
271.0
 51
358.9999999999999
  0
LINE
  5
2F6
  8
1
  6
CONTINUOUS
 62
     7
 10
1719.629881190696
 20
-936.3922313429002
 30
0.0
 11
1717.947388695196
 21
-945.9341204442004
 31
0.0
  0
LINE
  5
2F7
  8
1
  6
CONTINUOUS
 62
     7
 10
2292.999999999901
 20
-1053.5
 30
0.0
 11
2356.999999999901
 21
-1053.5
 31
0.0
  0
LINE
  5
2F8
  8
1
  6
CONTINUOUS
 62
     7
 10
1719.629881190696
 20
-1068.6077686572
 30
0.0
 11
1717.947388695196
 21
-1059.0658795559
 31
0.0
  0
LINE
  5
2F9
  8
1
  6
CONTINUOUS
 62
     7
 10
1640.939859617097
 20
-1069.9039222133
 30
0.0
 11
1640.939859617097
 21
-1010.0000005198
 31
0.0
  0
ARC
  5
2FA
  8
1
  6
CONTINUOUS
 62
     7
 10
1643.876708326198
 20
-1068.0000000354
 30
0.0
 40
3.499999999995396
 50
190.0
 51
270.0
  0
LINE
  5
2FB
  8
1
  6
CONTINUOUS
 62
     7
 10
1682.349838043498
 20
-1068.6077686572
 30
0.0
 11
1684.032330538997
 21
-1059.0658795559
 31
0.0
  0
ARC
  5
2FC
  8
1
  6
CONTINUOUS
 62
     7
 10
1475.294349921591
 20
-1059.5
 30
0.0
 40
2.500000000004832
 50
90.0
 51
170.0
  0
LINE
  5
2FD
  8
1
  6
CONTINUOUS
 62
     7
 10
2395.250000000002
 20
-969.2500000000003
 30
0.0
 11
2395.250000000002
 21
-1035.75
 31
0.0
  0
ARC
  5
2FE
  8
1
  6
CONTINUOUS
 62
     7
 10
1678.903010907996
 20
-1068.0000000354
 30
0.0
 40
3.499999999998948
 50
270.0
 51
349.9999999999999
  0
LINE
  5
2FF
  8
1
  6
CONTINUOUS
 62
     7
 10
1655.949838043499
 20
-1068.6077686572
 30
0.0
 11
1657.632330538998
 21
-1059.0658795559
 31
0.0
  0
ARC
  5
300
  8
1
  6
CONTINUOUS
 62
     7
 10
2049.175147209519
 20
-956.7180650921176
 30
0.0
 40
0.5999999999986017
 50
255.0
 51
0.0
  0
LINE
  5
301
  8
1
  6
CONTINUOUS
 62
     7
 10
1215.983118390811
 20
-946.8599444127192
 30
0.0
 11
1215.983118390811
 21
-1058.140055587282
 31
0.0
  0
ARC
  5
302
  8
1
  6
CONTINUOUS
 62
     7
 10
1739.294349921495
 20
-1059.5
 30
0.0
 40
2.500000000001279
 50
90.0
 51
170.0
  0
LINE
  5
303
  8
1
  6
CONTINUOUS
 62
     7
 10
2249.999999999603
 20
-1004.9999709937
 30
0.0
 11
2249.999999999603
 21
-1000.0000290063
 31
0.0
  0
ARC
  5
304
  8
1
  6
CONTINUOUS
 62
     7
 10
2357.0
 20
-1034.5
 30
0.0
 40
19.0000000000019
 50
270.0
 51
0.0
  0
ARC
  5
305
  8
1
  6
CONTINUOUS
 62
     7
 10
1705.303010907995
 20
-936.9999999647002
 30
0.0
 40
3.499999999998948
 50
10.0
 51
90.0
  0
LINE
  5
306
  8
1
  6
CONTINUOUS
 62
     7
 10
2327.499970993704
 20
-927.4999999997002
 30
0.0
 11
2322.500029006204
 21
-927.4999999997002
 31
0.0
  0
LINE
  5
307
  8
1
  6
CONTINUOUS
 62
     7
 10
1772.939859617094
 20
-935.0960777868005
 30
0.0
 11
1772.939859617094
 21
-994.9999994803005
 31
0.0
  0
LINE
  5
308
  8
1
  6
CONTINUOUS
 62
     7
 10
1136.783118390811
 20
-946.8599444127192
 30
0.0
 11
1136.783118390811
 21
-1058.140055587282
 31
0.0
  0
LINE
  5
309
  8
1
  6
CONTINUOUS
 62
     7
 10
2357.0
 20
-951.5
 30
0.0
 11
2292.9999999999
 21
-951.5
 31
0.0
  0
LINE
  5
30A
  8
1
  6
CONTINUOUS
 62
     7
 10
1372.285369312697
 20
-1057.0
 30
0.0
 11
1370.989859617197
 21
-1057.0
 31
0.0
  0
LINE
  5
30B
  8
1
  6
CONTINUOUS
 62
     7
 10
1631.59660084363
 20
-946.8599444127192
 30
0.0
 11
1631.59660084363
 21
-1058.140055587282
 31
0.0
  0
LINE
  5
30C
  8
1
  6
CONTINUOUS
 62
     7
 10
1712.894349921492
 20
-1057.0
 30
0.0
 11
1715.485369312593
 21
-1057.0
 31
0.0
  0
LINE
  5
30D
  8
1
  6
CONTINUOUS
 62
     7
 10
1667.339859617095
 20
-1069.9039222133
 30
0.0
 11
1667.339859617095
 21
-1010.0000005198
 31
0.0
  0
LINE
  5
30E
  8
1
  6
CONTINUOUS
 62
     7
 10
1681.839859617097
 20
-1010.0000005198
 30
0.0
 11
1681.839859617097
 21
-1069.9039222133
 31
0.0
  0
LINE
  5
30F
  8
1
  6
CONTINUOUS
 62
     7
 10
1670.276708326193
 20
-933.4999999647005
 30
0.0
 11
1678.903010907994
 21
-933.4999999647005
 31
0.0
  0
LINE
  5
310
  8
1
  6
CONTINUOUS
 62
     7
 10
1268.783118390759
 20
-946.8599444127192
 30
0.0
 11
1268.783118390759
 21
-1058.140055587282
 31
0.0
  0
LINE
  5
311
  8
1
  6
CONTINUOUS
 62
     7
 10
1746.029881190695
 20
-1068.6077686572
 30
0.0
 11
1744.347388695194
 21
-1059.0658795559
 31
0.0
  0
LINE
  5
312
  8
1
  6
CONTINUOUS
 62
     7
 10
1684.396600843582
 20
-946.8599444127192
 30
0.0
 11
1684.396600843582
 21
-1058.140055587282
 31
0.0
  0
LINE
  5
313
  8
1
  6
CONTINUOUS
 62
     7
 10
1911.375078872419
 20
-927.499999965917
 30
0.0
 11
2077.37507887242
 21
-927.499999965917
 31
0.0
  0
LINE
  5
314
  8
1
  6
CONTINUOUS
 62
     7
 10
1746.539859617096
 20
-935.0960777868005
 30
0.0
 11
1746.539859617096
 21
-994.9999994803005
 31
0.0
  0
LINE
  5
315
  8
1
  6
CONTINUOUS
 62
     7
 10
1911.375078873819
 20
-1077.5000000353
 30
0.0
 11
2077.375078874919
 21
-1077.5000000353
 31
0.0
  0
LINE
  5
316
  8
1
  6
CONTINUOUS
 62
     7
 10
1427.18311839071
 20
-1058.140055587282
 30
0.0
 11
1427.18311839071
 21
-946.859944412719
 31
0.0
  0
ARC
  5
317
  8
1
  6
CONTINUOUS
 62
     7
 10
1211.294349921695
 20
-1059.5
 30
0.0
 40
2.499999999997726
 50
90.0
 51
170.0
  0
ARC
  5
318
  8
1
  6
CONTINUOUS
 62
     7
 10
2358.250000000003
 20
-1035.75
 30
0.0
 40
36.99999999999903
 50
270.0
 51
0.0
  0
ARC
  5
319
  8
1
  6
CONTINUOUS
 62
     7
 10
1477.885369312696
 20
-945.5000000000002
 30
0.0
 40
2.499999999997726
 50
270.0
 51
349.9999999999999
  0
LINE
  5
31A
  8
1
  6
CONTINUOUS
 62
     7
 10
1693.739859617094
 20
-1069.9039222133
 30
0.0
 11
1693.739859617094
 21
-1010.0000005198
 31
0.0
  0
ARC
  5
31B
  8
1
  6
CONTINUOUS
 62
     7
 10
1636.285369312597
 20
-1059.5
 30
0.0
 40
2.499999999997726
 50
10.0
 51
90.0
  0
LINE
  5
31C
  8
1
  6
CONTINUOUS
 62
     7
 10
1376.429881190796
 20
-1068.6077686572
 30
0.0
 11
1374.747388695296
 21
-1059.0658795559
 31
0.0
  0
LINE
  5
31D
  8
1
  6
CONTINUOUS
 62
     7
 10
1376.429881190796
 20
-936.3922313429002
 30
0.0
 11
1374.747388695296
 21
-945.9341204442004
 31
0.0
  0
LINE
  5
31E
  8
1
  6
CONTINUOUS
 62
     7
 10
1559.183118390661
 20
-1058.140055587282
 30
0.0
 11
1559.183118390661
 21
-946.859944412719
 31
0.0
  0
LINE
  5
31F
  8
1
  6
CONTINUOUS
 62
     7
 10
1666.722859617097
 20
-994.9999994803001
 30
0.0
 11
1666.722859617097
 21
-1010.0000005198
 31
0.0
  0
ARC
  5
320
  8
1
  6
CONTINUOUS
 62
     7
 10
1712.894349921492
 20
-945.5000000000002
 30
0.0
 40
2.500000000004832
 50
190.0
 51
270.0
  0
LINE
  5
321
  8
1
  6
CONTINUOUS
 62
     7
 10
1735.149838043495
 20
-1068.6077686572
 30
0.0
 11
1736.832330538995
 21
-1059.0658795559
 31
0.0
  0
LINE
  5
322
  8
1
  6
CONTINUOUS
 62
     7
 10
1341.196600843732
 20
-946.8599444127192
 30
0.0
 11
1341.196600843732
 21
-1058.140055587282
 31
0.0
  0
LINE
  5
323
  8
1
  6
CONTINUOUS
 62
     7
 10
1209.196600843783
 20
-946.8599444127192
 30
0.0
 11
1209.196600843783
 21
-1058.140055587282
 31
0.0
  0
LINE
  5
324
  8
1
  6
CONTINUOUS
 62
     7
 10
1723.076708326194
 20
-1071.5000000354
 30
0.0
 11
1731.703010907994
 21
-1071.5000000354
 31
0.0
  0
LINE
  5
325
  8
1
  6
CONTINUOUS
 62
     7
 10
1682.456859617095
 20
-1010.0000005198
 30
0.0
 11
1666.722859617096
 21
-1010.0000005198
 31
0.0
  0
LINE
  5
326
  8
1
  6
CONTINUOUS
 62
     7
 10
1393.99660084368
 20
-946.8599444127192
 30
0.0
 11
1393.99660084368
 21
-1058.140055587282
 31
0.0
  0
LINE
  5
327
  8
1
  6
CONTINUOUS
 62
     7
 10
1734.639859617098
 20
-994.9999994803001
 30
0.0
 11
1734.639859617098
 21
-935.0960777868
 31
0.0
  0
LINE
  5
328
  8
1
  6
CONTINUOUS
 62
     7
 10
1720.139859617093
 20
-935.0960777868005
 30
0.0
 11
1720.139859617093
 21
-994.9999994803005
 31
0.0
  0
LINE
  5
329
  8
1
  6
CONTINUOUS
 62
     7
 10
1682.349838043498
 20
-936.3922313429002
 30
0.0
 11
1684.032330538997
 21
-945.9341204442004
 31
0.0
  0
LINE
  5
32A
  8
1
  6
CONTINUOUS
 62
     7
 10
1717.583118390608
 20
-946.8599444127192
 30
0.0
 11
1717.583118390608
 21
-1058.140055587282
 31
0.0
  0
ARC
  5
32B
  8
1
  6
CONTINUOUS
 62
     7
 10
1662.685369312596
 20
-1059.5
 30
0.0
 40
2.500000000001279
 50
10.0
 51
90.0
  0
LINE
  5
32C
  8
1
  6
CONTINUOUS
 62
     7
 10
1761.039859617097
 20
-1010.0000005198
 30
0.0
 11
1761.039859617097
 21
-1069.9039222133
 31
0.0
  0
LINE
  5
32D
  8
1
  6
CONTINUOUS
 62
     7
 10
1347.983118390759
 20
-946.8599444127192
 30
0.0
 11
1347.983118390759
 21
-1058.140055587282
 31
0.0
  0
LINE
  5
32E
  8
1
  6
CONTINUOUS
 62
     7
 10
1506.38311839066
 20
-946.8599444127192
 30
0.0
 11
1506.38311839066
 21
-1058.140055587282
 31
0.0
  0
LINE
  5
32F
  8
1
  6
CONTINUOUS
 62
     7
 10
1321.58311839076
 20
-946.8599444127192
 30
0.0
 11
1321.58311839076
 21
-1058.140055587282
 31
0.0
  0
LINE
  5
330
  8
1
  6
CONTINUOUS
 62
     7
 10
1182.796600843777
 20
-1058.140055587282
 30
0.0
 11
1182.796600843777
 21
-946.859944412719
 31
0.0
  0
ARC
  5
331
  8
1
  6
CONTINUOUS
 62
     7
 10
1362.103010908144
 20
-936.9999999647002
 30
0.0
 40
3.499999999998948
 50
9.999999999999625
 51
90.0
  0
LINE
  5
332
  8
1
  6
CONTINUOUS
 62
     7
 10
2376.000000000003
 20
-970.5000000000001
 30
0.0
 11
2376.000000000003
 21
-1034.5
 31
0.0
  0
ARC
  5
333
  8
1
  6
CONTINUOUS
 62
     7
 10
1705.303010907995
 20
-1068.0000000354
 30
0.0
 40
3.499999999998948
 50
270.0
 51
349.9999999999999
  0
LINE
  5
334
  8
1
  6
CONTINUOUS
 62
     7
 10
1763.596600843582
 20
-946.8599444127192
 30
0.0
 11
1763.596600843582
 21
-1058.140055587282
 31
0.0
  0
LINE
  5
335
  8
1
  6
CONTINUOUS
 62
     7
 10
1708.856859617094
 20
-994.9999994803001
 30
0.0
 11
1708.856859617094
 21
-1010.0000005198
 31
0.0
  0
LINE
  5
336
  8
1
  6
CONTINUOUS
 62
     7
 10
1761.549838043494
 20
-1068.6077686572
 30
0.0
 11
1763.232330538994
 21
-1059.0658795559
 31
0.0
  0
LINE
  5
337
  8
1
  6
CONTINUOUS
 62
     7
 10
1168.676708326396
 20
-933.4999999647005
 30
0.0
 11
1177.303010908195
 21
-933.4999999647005
 31
0.0
  0
ARC
  5
338
  8
1
  6
CONTINUOUS
 62
     7
 10
1372.285369312697
 20
-945.5000000000002
 30
0.0
 40
2.499999999997726
 50
270.0
 51
349.9999999999999
  0
ARC
  5
339
  8
1
  6
CONTINUOUS
 62
     7
 10
1098.103010908245
 20
-936.9999999647002
 30
0.0
 40
3.499999999998948
 50
9.999999999999625
 51
90.0
  0
LINE
  5
33A
  8
1
  6
CONTINUOUS
 62
     7
 10
1400.783118390711
 20
-946.8599444127192
 30
0.0
 11
1400.783118390711
 21
-1058.140055587282
 31
0.0
  0
ARC
  5
33B
  8
1
  6
CONTINUOUS
 62
     7
 10
1230.103010908193
 20
-936.9999999647002
 30
0.0
 40
3.500000000002501
 50
9.999999999999625
 51
90.0
  0
ARC
  5
33C
  8
1
  6
CONTINUOUS
 62
     7
 10
1168.676708326396
 20
-936.9999999647002
 30
0.0
 40
3.499999999998948
 50
90.0
 51
170.0
  0
LINE
  5
33D
  8
1
  6
CONTINUOUS
 62
     7
 10
1473.19660084368
 20
-946.8599444127192
 30
0.0
 11
1473.19660084368
 21
-1058.140055587282
 31
0.0
  0
LINE
  5
33E
  8
1
  6
CONTINUOUS
 62
     7
 10
1242.38311839076
 20
-946.8599444127192
 30
0.0
 11
1242.38311839076
 21
-1058.140055587282
 31
0.0
  0
LINE
  5
33F
  8
1
  6
CONTINUOUS
 62
     7
 10
1365.039859617246
 20
-994.9999994803001
 30
0.0
 11
1365.039859617246
 21
-935.0960777868
 31
0.0
  0
LINE
  5
340
  8
1
  6
CONTINUOUS
 62
     7
 10
1693.229881190697
 20
-936.3922313429002
 30
0.0
 11
1691.547388695199
 21
-945.9341204442004
 31
0.0
  0
ARC
  5
341
  8
1
  6
CONTINUOUS
 62
     7
 10
2357.0
 20
-970.5000000000001
 30
0.0
 40
19.0000000000019
 50
0.0
 51
90.0
  0
LINE
  5
342
  8
1
  6
CONTINUOUS
 62
     7
 10
1693.229881190697
 20
-1068.6077686572
 30
0.0
 11
1691.547388695199
 21
-1059.0658795559
 31
0.0
  0
LINE
  5
343
  8
1
  6
CONTINUOUS
 62
     7
 10
1640.322859617098
 20
-994.9999994803001
 30
0.0
 11
1640.322859617098
 21
-1010.0000005198
 31
0.0
  0
LINE
  5
344
  8
1
  6
CONTINUOUS
 62
     7
 10
1479.983118390711
 20
-946.8599444127192
 30
0.0
 11
1479.983118390711
 21
-1058.140055587282
 31
0.0
  0
ARC
  5
345
  8
1
  6
CONTINUOUS
 62
     7
 10
1098.103010908245
 20
-1068.0000000354
 30
0.0
 40
3.499999999998948
 50
270.0
 51
350.0000000000005
  0
LINE
  5
346
  8
1
  6
CONTINUOUS
 62
     7
 10
1670.276708326193
 20
-1071.5000000354
 30
0.0
 11
1678.903010907994
 21
-1071.5000000354
 31
0.0
  0
LINE
  5
347
  8
1
  6
CONTINUOUS
 62
     7
 10
1739.294349921495
 20
-1057.0
 30
0.0
 11
1741.885369312595
 21
-1057.0
 31
0.0
  0
ARC
  5
348
  8
1
  6
CONTINUOUS
 62
     7
 10
2291.055043548203
 20
-968.5550435483001
 30
0.0
 40
40.50000000000153
 50
91.0
 51
179.0
  0
LINE
  5
349
  8
1
  6
CONTINUOUS
 62
     7
 10
1552.396600843627
 20
-946.8599444127192
 30
0.0
 11
1552.396600843627
 21
-1058.140055587282
 31
0.0
  0
LINE
  5
34A
  8
1
  6
CONTINUOUS
 62
     7
 10
1708.856859617094
 20
-994.9999994803001
 30
0.0
 11
1693.122859617094
 21
-994.9999994803001
 31
0.0
  0
LINE
  5
34B
  8
1
  6
CONTINUOUS
 62
     7
 10
1501.694349921594
 20
-948.0000000000001
 30
0.0
 11
1504.285369312695
 21
-948.0000000000001
 31
0.0
  0
LINE
  5
34C
  8
1
  6
CONTINUOUS
 62
     7
 10
1605.196600843632
 20
-946.8599444127192
 30
0.0
 11
1605.196600843632
 21
-1058.140055587282
 31
0.0
  0
ARC
  5
34D
  8
1
  6
CONTINUOUS
 62
     7
 10
1689.085369312595
 20
-1059.5
 30
0.0
 40
2.500000000001279
 50
10.0
 51
90.0
  0
LINE
  5
34E
  8
1
  6
CONTINUOUS
 62
     7
 10
1446.796600843677
 20
-1058.140055587282
 30
0.0
 11
1446.796600843677
 21
-946.859944412719
 31
0.0
  0
LINE
  5
34F
  8
1
  6
CONTINUOUS
 62
     7
 10
1184.894349921693
 20
-1057.0
 30
0.0
 11
1187.485369312792
 21
-1057.0
 31
0.0
  0
LINE
  5
350
  8
1
  6
CONTINUOUS
 62
     7
 10
1638.383118390612
 20
-946.8599444127192
 30
0.0
 11
1638.383118390612
 21
-1058.140055587282
 31
0.0
  0
ARC
  5
351
  8
1
  6
CONTINUOUS
 62
     7
 10
1678.903010907996
 20
-936.9999999647002
 30
0.0
 40
3.499999999998948
 50
10.0
 51
90.0
  0
ARC
  5
352
  8
1
  6
CONTINUOUS
 62
     7
 10
1187.48536931279
 20
-1059.5
 30
0.0
 40
2.500000000004832
 50
10.0
 51
90.0
  0
ARC
  5
353
  8
1
  6
CONTINUOUS
 62
     7
 10
1475.294349921591
 20
-945.5000000000002
 30
0.0
 40
2.500000000004832
 50
190.0
 51
270.0
  0
LINE
  5
354
  8
1
  6
CONTINUOUS
 62
     7
 10
1374.383118390712
 20
-946.8599444127192
 30
0.0
 11
1374.383118390712
 21
-1058.140055587282
 31
0.0
  0
ARC
  5
355
  8
1
  6
CONTINUOUS
 62
     7
 10
1372.285369312697
 20
-1059.5
 30
0.0
 40
2.499999999997726
 50
10.00000000000005
 51
90.0
  0
ARC
  5
356
  8
1
  6
CONTINUOUS
 62
     7
 10
1362.103010908144
 20
-1068.0000000354
 30
0.0
 40
3.499999999998948
 50
270.0
 51
350.0000000000005
  0
LINE
  5
357
  8
1
  6
CONTINUOUS
 62
     7
 10
1585.58311839066
 20
-946.8599444127192
 30
0.0
 11
1585.58311839066
 21
-1058.140055587282
 31
0.0
  0
ARC
  5
358
  8
1
  6
CONTINUOUS
 62
     7
 10
1177.303010908195
 20
-1068.0000000354
 30
0.0
 40
3.499999999998948
 50
270.0
 51
349.9999999999999
  0
ARC
  5
359
  8
1
  6
CONTINUOUS
 62
     7
 10
1184.894349921693
 20
-1059.5
 30
0.0
 40
2.499999999997726
 50
90.0
 51
170.0
  0
ARC
  5
35A
  8
1
  6
CONTINUOUS
 62
     7
 10
1230.103010908193
 20
-1068.0000000354
 30
0.0
 40
3.500000000002501
 50
270.0
 51
350.0000000000005
  0
LINE
  5
35B
  8
1
  6
CONTINUOUS
 62
     7
 10
1633.694349921549
 20
-1057.0
 30
0.0
 11
1636.285369312649
 21
-1057.0
 31
0.0
  0
LINE
  5
35C
  8
1
  6
CONTINUOUS
 62
     7
 10
1206.639859617291
 20
-1010.0000005198
 30
0.0
 11
1206.639859617291
 21
-1069.9039222133
 31
0.0
  0
LINE
  5
35D
  8
1
  6
CONTINUOUS
 62
     7
 10
1156.396600843779
 20
-946.8599444127192
 30
0.0
 11
1156.396600843779
 21
-1058.140055587282
 31
0.0
  0
LINE
  5
35E
  8
1
  6
CONTINUOUS
 62
     7
 10
1710.796600843581
 20
-1058.140055587282
 30
0.0
 11
1710.796600843581
 21
-946.859944412719
 31
0.0
  0
LINE
  5
35F
  8
1
  6
CONTINUOUS
 62
     7
 10
1737.196600843583
 20
-946.8599444127192
 30
0.0
 11
1737.196600843583
 21
-1058.140055587282
 31
0.0
  0
LINE
  5
360
  8
1
  6
CONTINUOUS
 62
     7
 10
1761.656859617096
 20
-994.9999994803001
 30
0.0
 11
1761.656859617096
 21
-1010.0000005198
 31
0.0
  0
LINE
  5
361
  8
1
  6
CONTINUOUS
 62
     7
 10
976.2853693128419
 20
-1057.0
 30
0.0
 11
974.9898596173425
 21
-1057.0
 31
0.0
  0
LINE
  5
362
  8
1
  6
CONTINUOUS
 62
     7
 10
1211.294349921695
 20
-948.0000000000001
 30
0.0
 11
1213.885369312796
 21
-948.0000000000001
 31
0.0
  0
LINE
  5
363
  8
1
  6
CONTINUOUS
 62
     7
 10
1206.639859617291
 20
-994.9999994803001
 30
0.0
 11
1206.639859617291
 21
-935.0960777868
 31
0.0
  0
LINE
  5
364
  8
1
  6
CONTINUOUS
 62
     7
 10
1180.239859617293
 20
-1010.0000005198
 30
0.0
 11
1180.239859617293
 21
-1069.9039222133
 31
0.0
  0
LINE
  5
365
  8
1
  6
CONTINUOUS
 62
     7
 10
1163.18311839081
 20
-1058.140055587282
 30
0.0
 11
1163.18311839081
 21
-946.859944412719
 31
0.0
  0
LINE
  5
366
  8
1
  6
CONTINUOUS
 62
     7
 10
1802.276708326191
 20
-1071.5000000354
 30
0.0
 11
1810.90301090799
 21
-1071.5000000354
 31
0.0
  0
ARC
  5
367
  8
1
  6
CONTINUOUS
 62
     7
 10
1810.903010907994
 20
-1068.0000000354
 30
0.0
 40
3.499999999998948
 50
270.0
 51
349.9999999999999
  0
LINE
  5
368
  8
1
  6
CONTINUOUS
 62
     7
 10
1295.183118390761
 20
-1058.140055587282
 30
0.0
 11
1295.183118390761
 21
-946.859944412719
 31
0.0
  0
LINE
  5
369
  8
1
  6
CONTINUOUS
 62
     7
 10
1376.322859617191
 20
-994.9999994803001
 30
0.0
 11
1376.322859617191
 21
-1010.0000005198
 31
0.0
  0
LINE
  5
36A
  8
1
  6
CONTINUOUS
 62
     7
 10
1244.429881190848
 20
-1068.6077686572
 30
0.0
 11
1242.747388695348
 21
-1059.0658795559
 31
0.0
  0
ARC
  5
36B
  8
1
  6
CONTINUOUS
 62
     7
 10
1237.694349921694
 20
-945.5000000000002
 30
0.0
 40
2.500000000001279
 50
190.0
 51
270.0
  0
ARC
  5
36C
  8
1
  6
CONTINUOUS
 62
     7
 10
1161.085369312795
 20
-1059.5
 30
0.0
 40
2.500000000001279
 50
10.0
 51
90.0
  0
ARC
  5
36D
  8
1
  6
CONTINUOUS
 62
     7
 10
1108.285369312794
 20
-945.5000000000002
 30
0.0
 40
2.499999999997726
 50
270.0
 51
349.9999999999999
  0
LINE
  5
36E
  8
1
  6
CONTINUOUS
 62
     7
 10
1578.796600843626
 20
-1058.140055587282
 30
0.0
 11
1578.796600843626
 21
-946.859944412719
 31
0.0
  0
ARC
  5
36F
  8
1
  6
CONTINUOUS
 62
     7
 10
1184.894349921693
 20
-945.5000000000002
 30
0.0
 40
2.499999999997726
 50
190.0
 51
270.0
  0
LINE
  5
370
  8
1
  6
CONTINUOUS
 62
     7
 10
1221.476708326393
 20
-933.4999999647005
 30
0.0
 11
1230.103010908194
 21
-933.4999999647005
 31
0.0
  0
ARC
  5
371
  8
1
  6
CONTINUOUS
 62
     7
 10
1161.085369312795
 20
-945.5000000000002
 30
0.0
 40
2.500000000001279
 50
270.0
 51
349.9999999999999
  0
LINE
  5
372
  8
1
  6
CONTINUOUS
 62
     7
 10
1369.694349921642
 20
-948.0000000000001
 30
0.0
 11
1372.285369312742
 21
-948.0000000000001
 31
0.0
  0
LINE
  5
373
  8
1
  6
CONTINUOUS
 62
     7
 10
1633.694349921549
 20
-948.0000000000001
 30
0.0
 11
1636.285369312649
 21
-948.0000000000001
 31
0.0
  0
LINE
  5
374
  8
1
  6
CONTINUOUS
 62
     7
 10
1611.983118390659
 20
-946.8599444127192
 30
0.0
 11
1611.983118390659
 21
-1058.140055587282
 31
0.0
  0
LINE
  5
375
  8
1
  6
CONTINUOUS
 62
     7
 10
1218.029881190895
 20
-936.3922313429002
 30
0.0
 11
1216.347388695395
 21
-945.9341204442004
 31
0.0
  0
LINE
  5
376
  8
1
  6
CONTINUOUS
 62
     7
 10
1787.439859617089
 20
-1010.0000005198
 30
0.0
 11
1787.439859617089
 21
-1069.9039222133
 31
0.0
  0
LINE
  5
377
  8
1
  6
CONTINUOUS
 62
     7
 10
1189.583118390809
 20
-946.8599444127192
 30
0.0
 11
1189.583118390809
 21
-1058.140055587282
 31
0.0
  0
ARC
  5
378
  8
1
  6
CONTINUOUS
 62
     7
 10
1689.085369312595
 20
-945.5000000000002
 30
0.0
 40
2.500000000001279
 50
270.0
 51
349.9999999999999
  0
ARC
  5
379
  8
1
  6
CONTINUOUS
 62
     7
 10
1240.285369312745
 20
-945.5000000000002
 30
0.0
 40
2.500000000001279
 50
270.0
 51
349.9999999999999
  0
LINE
  5
37A
  8
1
  6
CONTINUOUS
 62
     7
 10
1165.739859617295
 20
-935.0960777868005
 30
0.0
 11
1165.739859617295
 21
-994.9999994803005
 31
0.0
  0
LINE
  5
37B
  8
1
  6
CONTINUOUS
 62
     7
 10
1288.396600843727
 20
-946.8599444127192
 30
0.0
 11
1288.396600843727
 21
-1058.140055587282
 31
0.0
  0
ARC
  5
37C
  8
1
  6
CONTINUOUS
 62
     7
 10
1240.285369312745
 20
-1059.5
 30
0.0
 40
2.500000000001279
 50
10.00000000000005
 51
90.0
  0
ARC
  5
37D
  8
1
  6
CONTINUOUS
 62
     7
 10
1768.285369312595
 20
-945.5000000000002
 30
0.0
 40
2.499999999997726
 50
270.0
 51
349.9999999999999
  0
ARC
  5
37E
  8
1
  6
CONTINUOUS
 62
     7
 10
1723.076708326194
 20
-1068.0000000354
 30
0.0
 40
3.499999999998948
 50
190.0
 51
270.0
  0
LINE
  5
37F
  8
1
  6
CONTINUOUS
 62
     7
 10
1828.676708326193
 20
-933.4999999647005
 30
0.0
 11
1837.303010907993
 21
-933.4999999647005
 31
0.0
  0
LINE
  5
380
  8
1
  6
CONTINUOUS
 62
     7
 10
1211.294349921695
 20
-1057.0
 30
0.0
 11
1213.885369312796
 21
-1057.0
 31
0.0
  0
LINE
  5
381
  8
1
  6
CONTINUOUS
 62
     7
 10
1708.856859617094
 20
-1010.0000005198
 30
0.0
 11
1693.122859617094
 21
-1010.0000005198
 31
0.0
  0
LINE
  5
382
  8
1
  6
CONTINUOUS
 62
     7
 10
1261.996600843728
 20
-946.8599444127192
 30
0.0
 11
1261.996600843728
 21
-1058.140055587282
 31
0.0
  0
LINE
  5
383
  8
1
  6
CONTINUOUS
 62
     7
 10
1772.322859617096
 20
-994.9999994803001
 30
0.0
 11
1772.322859617096
 21
-1010.0000005198
 31
0.0
  0
LINE
  5
384
  8
1
  6
CONTINUOUS
 62
     7
 10
1244.429881190848
 20
-936.3922313429002
 30
0.0
 11
1242.747388695348
 21
-945.9341204442004
 31
0.0
  0
ARC
  5
385
  8
1
  6
CONTINUOUS
 62
     7
 10
1108.285369312794
 20
-1059.5
 30
0.0
 40
2.499999999997726
 50
10.00000000000005
 51
90.0
  0
ARC
  5
386
  8
1
  6
CONTINUOUS
 62
     7
 10
1203.703010908194
 20
-1068.0000000354
 30
0.0
 40
3.500000000002501
 50
270.0
 51
349.9999999999999
  0
LINE
  5
387
  8
1
  6
CONTINUOUS
 62
     7
 10
1667.339859617095
 20
-935.0960777868005
 30
0.0
 11
1667.339859617095
 21
-994.9999994803005
 31
0.0
  0
ARC
  5
388
  8
1
  6
CONTINUOUS
 62
     7
 10
1712.894349921492
 20
-1059.5
 30
0.0
 40
2.500000000004832
 50
90.0
 51
170.0
  0
LINE
  5
389
  8
1
  6
CONTINUOUS
 62
     7
 10
1666.829881190695
 20
-936.3922313429002
 30
0.0
 11
1665.147388695195
 21
-945.9341204442004
 31
0.0
  0
LINE
  5
38A
  8
1
  6
CONTINUOUS
 62
     7
 10
1365.039859617246
 20
-1010.0000005198
 30
0.0
 11
1365.039859617246
 21
-1069.9039222133
 31
0.0
  0
LINE
  5
38B
  8
1
  6
CONTINUOUS
 62
     7
 10
1664.783118390611
 20
-946.8599444127192
 30
0.0
 11
1664.783118390611
 21
-1058.140055587282
 31
0.0
  0
LINE
  5
38C
  8
1
  6
CONTINUOUS
 62
     7
 10
1743.983118390611
 20
-946.8599444127192
 30
0.0
 11
1743.983118390611
 21
-1058.140055587282
 31
0.0
  0
LINE
  5
38D
  8
1
  6
CONTINUOUS
 62
     7
 10
1691.183118390609
 20
-1058.140055587282
 30
0.0
 11
1691.183118390609
 21
-946.859944412719
 31
0.0
  0
LINE
  5
38E
  8
1
  6
CONTINUOUS
 62
     7
 10
1052.894349921745
 20
-1057.0
 30
0.0
 11
1055.485369312845
 21
-1057.0
 31
0.0
  0
LINE
  5
38F
  8
1
  6
CONTINUOUS
 62
     7
 10
1180.856859617295
 20
-1010.0000005198
 30
0.0
 11
1165.122859617293
 21
-1010.0000005198
 31
0.0
  0
LINE
  5
390
  8
1
  6
CONTINUOUS
 62
     7
 10
983.8767083264428
 20
-1071.5000000354
 30
0.0
 11
992.5030109082425
 21
-1071.5000000354
 31
0.0
  0
ARC
  5
391
  8
1
  6
CONTINUOUS
 62
     7
 10
976.2853693128419
 20
-1059.5
 30
0.0
 40
2.499999999997726
 50
10.0
 51
90.0
  0
LINE
  5
392
  8
1
  6
CONTINUOUS
 62
     7
 10
1499.596600843682
 20
-946.8599444127192
 30
0.0
 11
1499.596600843682
 21
-1058.140055587282
 31
0.0
  0
LINE
  5
393
  8
1
  6
CONTINUOUS
 62
     7
 10
1814.456859617093
 20
-1010.0000005198
 30
0.0
 11
1798.722859617093
 21
-1010.0000005198
 31
0.0
  0
ARC
  5
394
  8
1
  6
CONTINUOUS
 62
     7
 10
1213.885369312796
 20
-1059.5
 30
0.0
 40
2.499999999997726
 50
10.0
 51
90.0
  0
LINE
  5
395
  8
1
  6
CONTINUOUS
 62
     7
 10
1233.656859617296
 20
-1010.0000005198
 30
0.0
 11
1217.922859617297
 21
-1010.0000005198
 31
0.0
  0
ARC
  5
396
  8
1
  6
CONTINUOUS
 62
     7
 10
1168.676708326396
 20
-1068.0000000354
 30
0.0
 40
3.499999999998948
 50
190.0
 51
270.0
  0
LINE
  5
397
  8
1
  6
CONTINUOUS
 62
     7
 10
1048.239859617341
 20
-1010.0000005198
 30
0.0
 11
1048.239859617341
 21
-1069.9039222133
 31
0.0
  0
LINE
  5
398
  8
1
  6
CONTINUOUS
 62
     7
 10
1000.094349921743
 20
-948.0000000000001
 30
0.0
 11
1002.685369312843
 21
-948.0000000000001
 31
0.0
  0
LINE
  5
399
  8
1
  6
CONTINUOUS
 62
     7
 10
1195.076708326395
 20
-933.4999999647005
 30
0.0
 11
1203.703010908194
 21
-933.4999999647005
 31
0.0
  0
ARC
  5
39A
  8
1
  6
CONTINUOUS
 62
     7
 10
1794.685369312594
 20
-945.5000000000002
 30
0.0
 40
2.500000000001279
 50
270.0
 51
349.9999999999999
  0
LINE
  5
39B
  8
1
  6
CONTINUOUS
 62
     7
 10
1825.229881190695
 20
-936.3922313429002
 30
0.0
 11
1823.547388695194
 21
-945.9341204442004
 31
0.0
  0
LINE
  5
39C
  8
1
  6
CONTINUOUS
 62
     7
 10
1314.796600843729
 20
-1058.140055587282
 30
0.0
 11
1314.796600843729
 21
-946.859944412719
 31
0.0
  0
ARC
  5
39D
  8
1
  6
CONTINUOUS
 62
     7
 10
1821.085369312593
 20
-1059.5
 30
0.0
 40
2.500000000001279
 50
10.0
 51
90.0
  0
ARC
  5
39E
  8
1
  6
CONTINUOUS
 62
     7
 10
1002.685369312844
 20
-945.5000000000002
 30
0.0
 40
2.499999999997726
 50
270.0
 51
349.9999999999999
  0
LINE
  5
39F
  8
1
  6
CONTINUOUS
 62
     7
 10
980.9398596173415
 20
-935.0960777868005
 30
0.0
 11
980.9398596173415
 21
-994.9999994803005
 31
0.0
  0
LINE
  5
3A0
  8
1
  6
CONTINUOUS
 62
     7
 10
1022.456859617344
 20
-1010.0000005198
 30
0.0
 11
1006.722859617343
 21
-1010.0000005198
 31
0.0
  0
ARC
  5
3A1
  8
1
  6
CONTINUOUS
 62
     7
 10
1036.676708326444
 20
-936.9999999647002
 30
0.0
 40
3.499999999998948
 50
90.0
 51
170.0
  0
LINE
  5
3A2
  8
1
  6
CONTINUOUS
 62
     7
 10
996.0568596173416
 20
-994.9999994803001
 30
0.0
 11
980.3228596173415
 21
-994.9999994803001
 31
0.0
  0
LINE
  5
3A3
  8
1
  6
CONTINUOUS
 62
     7
 10
1048.749838043741
 20
-1068.6077686572
 30
0.0
 11
1050.432330539241
 21
-1059.0658795559
 31
0.0
  0
LINE
  5
3A4
  8
1
  6
CONTINUOUS
 62
     7
 10
1525.996600843628
 20
-946.8599444127192
 30
0.0
 11
1525.996600843628
 21
-1058.140055587282
 31
0.0
  0
LINE
  5
3A5
  8
1
  6
CONTINUOUS
 62
     7
 10
996.0568596173416
 20
-994.9999994803001
 30
0.0
 11
996.0568596173416
 21
-1010.0000005198
 31
0.0
  0
LINE
  5
3A6
  8
1
  6
CONTINUOUS
 62
     7
 10
983.8767083264428
 20
-933.4999999647005
 30
0.0
 11
992.5030109082425
 21
-933.4999999647005
 31
0.0
  0
LINE
  5
3A7
  8
1
  6
CONTINUOUS
 62
     7
 10
1770.38311839061
 20
-946.8599444127192
 30
0.0
 11
1770.38311839061
 21
-1058.140055587282
 31
0.0
  0
LINE
  5
3A8
  8
1
  6
CONTINUOUS
 62
     7
 10
1033.229881190942
 20
-1068.6077686572
 30
0.0
 11
1031.547388695443
 21
-1059.0658795559
 31
0.0
  0
LINE
  5
3A9
  8
1
  6
CONTINUOUS
 62
     7
 10
1079.294349921744
 20
-948.0000000000001
 30
0.0
 11
1081.885369312844
 21
-948.0000000000001
 31
0.0
  0
ARC
  5
3AA
  8
1
  6
CONTINUOUS
 62
     7
 10
1792.094349921493
 20
-945.5000000000002
 30
0.0
 40
2.500000000001279
 50
190.0
 51
270.0
  0
LINE
  5
3AB
  8
1
  6
CONTINUOUS
 62
     7
 10
1006.722859617342
 20
-994.9999994803001
 30
0.0
 11
1006.722859617342
 21
-1010.0000005198
 31
0.0
  0
ARC
  5
3AC
  8
1
  6
CONTINUOUS
 62
     7
 10
1029.085369312843
 20
-945.5000000000002
 30
0.0
 40
2.500000000001279
 50
270.0
 51
349.9999999999999
  0
LINE
  5
3AD
  8
1
  6
CONTINUOUS
 62
     7
 10
1007.33985961734
 20
-1069.9039222133
 30
0.0
 11
1007.33985961734
 21
-1010.0000005198
 31
0.0
  0
LINE
  5
3AE
  8
1
  6
CONTINUOUS
 62
     7
 10
1788.056859617094
 20
-994.9999994803001
 30
0.0
 11
1788.056859617094
 21
-1010.0000005198
 31
0.0
  0
ARC
  5
3AF
  8
1
  6
CONTINUOUS
 62
     7
 10
1221.476708326393
 20
-1068.0000000354
 30
0.0
 40
3.500000000002501
 50
190.0
 51
270.0
  0
ARC
  5
3B0
  8
1
  6
CONTINUOUS
 62
     7
 10
983.8767083264428
 20
-936.9999999647002
 30
0.0
 40
3.500000000002501
 50
90.0
 51
170.0
  0
ARC
  5
3B1
  8
1
  6
CONTINUOUS
 62
     7
 10
992.5030109082455
 20
-1068.0000000354
 30
0.0
 40
3.499999999995396
 50
270.0
 51
349.9999999999999
  0
LINE
  5
3B2
  8
1
  6
CONTINUOUS
 62
     7
 10
1184.894349921693
 20
-948.0000000000001
 30
0.0
 11
1187.485369312792
 21
-948.0000000000001
 31
0.0
  0
LINE
  5
3B3
  8
1
  6
CONTINUOUS
 62
     7
 10
1453.583118390712
 20
-946.8599444127192
 30
0.0
 11
1453.583118390712
 21
-1058.140055587282
 31
0.0
  0
LINE
  5
3B4
  8
1
  6
CONTINUOUS
 62
     7
 10
995.9498380437437
 20
-1068.6077686572
 30
0.0
 11
997.6323305392438
 21
-1059.0658795559
 31
0.0
  0
LINE
  5
3B5
  8
1
  6
CONTINUOUS
 62
     7
 10
1075.149838043744
 20
-1068.6077686572
 30
0.0
 11
1076.832330539244
 21
-1059.0658795559
 31
0.0
  0
LINE
  5
3B6
  8
1
  6
CONTINUOUS
 62
     7
 10
1036.676708326444
 20
-933.4999999647005
 30
0.0
 11
1045.303010908244
 21
-933.4999999647005
 31
0.0
  0
LINE
  5
3B7
  8
1
  6
CONTINUOUS
 62
     7
 10
1048.856859617339
 20
-1010.0000005198
 30
0.0
 11
1033.12285961734
 21
-1010.0000005198
 31
0.0
  0
ARC
  5
3B8
  8
1
  6
CONTINUOUS
 62
     7
 10
1000.094349921743
 20
-945.5000000000002
 30
0.0
 40
2.500000000001279
 50
190.0
 51
270.0
  0
LINE
  5
3B9
  8
1
  6
CONTINUOUS
 62
     7
 10
1165.229881190898
 20
-936.3922313429002
 30
0.0
 11
1163.547388695397
 21
-945.9341204442004
 31
0.0
  0
ARC
  5
3BA
  8
1
  6
CONTINUOUS
 62
     7
 10
1000.094349921743
 20
-1059.5
 30
0.0
 40
2.500000000001279
 50
90.0
 51
170.0
  0
LINE
  5
3BB
  8
1
  6
CONTINUOUS
 62
     7
 10
1657.996600843583
 20
-946.8599444127192
 30
0.0
 11
1657.996600843583
 21
-1058.140055587282
 31
0.0
  0
LINE
  5
3BC
  8
1
  6
CONTINUOUS
 62
     7
 10
1000.094349921743
 20
-1057.0
 30
0.0
 11
1002.685369312843
 21
-1057.0
 31
0.0
  0
LINE
  5
3BD
  8
1
  6
CONTINUOUS
 62
     7
 10
995.4398596173432
 20
-994.9999994803001
 30
0.0
 11
995.4398596173432
 21
-935.0960777868
 31
0.0
  0
LINE
  5
3BE
  8
1
  6
CONTINUOUS
 62
     7
 10
1129.996600843776
 20
-946.8599444127192
 30
0.0
 11
1129.996600843776
 21
-1058.140055587282
 31
0.0
  0
LINE
  5
3BF
  8
1
  6
CONTINUOUS
 62
     7
 10
1059.629881190941
 20
-1068.6077686572
 30
0.0
 11
1057.947388695442
 21
-1059.0658795559
 31
0.0
  0
LINE
  5
3C0
  8
1
  6
CONTINUOUS
 62
     7
 10
1532.783118390662
 20
-946.8599444127192
 30
0.0
 11
1532.783118390662
 21
-1058.140055587282
 31
0.0
  0
ARC
  5
3C1
  8
1
  6
CONTINUOUS
 62
     7
 10
1828.676708326193
 20
-1068.0000000354
 30
0.0
 40
3.499999999998948
 50
190.0
 51
270.0
  0
LINE
  5
3C2
  8
1
  6
CONTINUOUS
 62
     7
 10
1165.739859617295
 20
-1069.9039222133
 30
0.0
 11
1165.739859617295
 21
-1010.0000005198
 31
0.0
  0
LINE
  5
3C3
  8
1
  6
CONTINUOUS
 62
     7
 10
1207.256859617297
 20
-994.9999994803001
 30
0.0
 11
1207.256859617297
 21
-1010.0000005198
 31
0.0
  0
LINE
  5
3C4
  8
1
  6
CONTINUOUS
 62
     7
 10
1818.494349921492
 20
-948.0000000000001
 30
0.0
 11
1821.085369312591
 21
-948.0000000000001
 31
0.0
  0
ARC
  5
3C5
  8
1
  6
CONTINUOUS
 62
     7
 10
1477.885369312696
 20
-1059.5
 30
0.0
 40
2.499999999997726
 50
10.0
 51
90.0
  0
LINE
  5
3C6
  8
1
  6
CONTINUOUS
 62
     7
 10
1180.856859617295
 20
-994.9999994803001
 30
0.0
 11
1180.856859617295
 21
-1010.0000005198
 31
0.0
  0
ARC
  5
3C7
  8
1
  6
CONTINUOUS
 62
     7
 10
1187.48536931279
 20
-945.5000000000002
 30
0.0
 40
2.500000000004832
 50
270.0
 51
349.9999999999999
  0
ARC
  5
3C8
  8
1
  6
CONTINUOUS
 62
     7
 10
1821.085369312593
 20
-945.5000000000002
 30
0.0
 40
2.500000000001279
 50
270.0
 51
349.9999999999999
  0
LINE
  5
3C9
  8
1
  6
CONTINUOUS
 62
     7
 10
1365.656859617244
 20
-994.9999994803001
 30
0.0
 11
1365.656859617244
 21
-1010.0000005198
 31
0.0
  0
LINE
  5
3CA
  8
1
  6
CONTINUOUS
 62
     7
 10
1420.396600843678
 20
-946.8599444127192
 30
0.0
 11
1420.396600843678
 21
-1058.140055587282
 31
0.0
  0
LINE
  5
3CB
  8
1
  6
CONTINUOUS
 62
     7
 10
1165.229881190898
 20
-1068.6077686572
 30
0.0
 11
1163.547388695397
 21
-1059.0658795559
 31
0.0
  0
LINE
  5
3CC
  8
1
  6
CONTINUOUS
 62
     7
 10
1233.549838043694
 20
-936.3922313429002
 30
0.0
 11
1235.232330539194
 21
-945.9341204442004
 31
0.0
  0
ARC
  5
3CD
  8
1
  6
CONTINUOUS
 62
     7
 10
1063.076708326443
 20
-936.9999999647002
 30
0.0
 40
3.500000000002501
 50
90.0
 51
170.0
  0
LINE
  5
3CE
  8
1
  6
CONTINUOUS
 62
     7
 10
1006.82988119094
 20
-1068.6077686572
 30
0.0
 11
1005.147388695439
 21
-1059.0658795559
 31
0.0
  0
LINE
  5
3CF
  8
1
  6
CONTINUOUS
 62
     7
 10
974.9898596173465
 20
-948.0000000000001
 30
0.0
 11
974.9898596173465
 21
-1057.0
 31
0.0
  0
LINE
  5
3D0
  8
1
  6
CONTINUOUS
 62
     7
 10
1207.149838043692
 20
-936.3922313429002
 30
0.0
 11
1208.832330539193
 21
-945.9341204442004
 31
0.0
  0
ARC
  5
3D1
  8
1
  6
CONTINUOUS
 62
     7
 10
1213.885369312796
 20
-945.5000000000002
 30
0.0
 40
2.499999999997726
 50
270.0
 51
349.9999999999999
  0
ARC
  5
3D2
  8
1
  6
CONTINUOUS
 62
     7
 10
1237.694349921694
 20
-1059.5
 30
0.0
 40
2.500000000001279
 50
90.0
 51
170.0
  0
ARC
  5
3D3
  8
1
  6
CONTINUOUS
 62
     7
 10
1052.894349921745
 20
-945.5000000000002
 30
0.0
 40
2.499999999997726
 50
190.0
 51
270.0
  0
LINE
  5
3D4
  8
1
  6
CONTINUOUS
 62
     7
 10
1022.349838043743
 20
-936.3922313429002
 30
0.0
 11
1024.032330539243
 21
-945.9341204442004
 31
0.0
  0
LINE
  5
3D5
  8
1
  6
CONTINUOUS
 62
     7
 10
1052.894349921745
 20
-948.0000000000001
 30
0.0
 11
1055.485369312845
 21
-948.0000000000001
 31
0.0
  0
ARC
  5
3D6
  8
1
  6
CONTINUOUS
 62
     7
 10
1211.294349921695
 20
-945.5000000000002
 30
0.0
 40
2.499999999997726
 50
190.0
 51
270.0
  0
LINE
  5
3D7
  8
1
  6
CONTINUOUS
 62
     7
 10
1720.139859617093
 20
-1069.9039222133
 30
0.0
 11
1720.139859617093
 21
-1010.0000005198
 31
0.0
  0
LINE
  5
3D8
  8
1
  6
CONTINUOUS
 62
     7
 10
1063.076708326443
 20
-933.4999999647005
 30
0.0
 11
1071.703010908243
 21
-933.4999999647005
 31
0.0
  0
LINE
  5
3D9
  8
1
  6
CONTINUOUS
 62
     7
 10
1207.256859617297
 20
-994.9999994803001
 30
0.0
 11
1191.522859617296
 21
-994.9999994803001
 31
0.0
  0
LINE
  5
3DA
  8
1
  6
CONTINUOUS
 62
     7
 10
1218.539859617296
 20
-1069.9039222133
 30
0.0
 11
1218.539859617296
 21
-1010.0000005198
 31
0.0
  0
LINE
  5
3DB
  8
1
  6
CONTINUOUS
 62
     7
 10
1021.839859617342
 20
-994.9999994803001
 30
0.0
 11
1021.839859617342
 21
-935.0960777868
 31
0.0
  0
LINE
  5
3DC
  8
1
  6
CONTINUOUS
 62
     7
 10
1207.149838043692
 20
-1068.6077686572
 30
0.0
 11
1208.832330539193
 21
-1059.0658795559
 31
0.0
  0
LINE
  5
3DD
  8
1
  6
CONTINUOUS
 62
     7
 10
1180.749838043693
 20
-936.3922313429002
 30
0.0
 11
1182.432330539194
 21
-945.9341204442004
 31
0.0
  0
LINE
  5
3DE
  8
1
  6
CONTINUOUS
 62
     7
 10
1074.639859617344
 20
-994.9999994803001
 30
0.0
 11
1074.639859617344
 21
-935.0960777868
 31
0.0
  0
LINE
  5
3DF
  8
1
  6
CONTINUOUS
 62
     7
 10
1022.456859617344
 20
-994.9999994803001
 30
0.0
 11
1006.722859617343
 21
-994.9999994803001
 31
0.0
  0
LINE
  5
3E0
  8
1
  6
CONTINUOUS
 62
     7
 10
1629.039859617146
 20
-994.9999994803001
 30
0.0
 11
1629.039859617146
 21
-935.0960777868
 31
0.0
  0
ARC
  5
3E1
  8
1
  6
CONTINUOUS
 62
     7
 10
1195.076708326395
 20
-1068.0000000354
 30
0.0
 40
3.499999999998948
 50
190.0
 51
270.0
  0
LINE
  5
3E2
  8
1
  6
CONTINUOUS
 62
     7
 10
1192.139859617293
 20
-935.0960777868005
 30
0.0
 11
1192.139859617293
 21
-994.9999994803005
 31
0.0
  0
LINE
  5
3E3
  8
1
  6
CONTINUOUS
 62
     7
 10
1192.139859617293
 20
-1069.9039222133
 30
0.0
 11
1192.139859617293
 21
-1010.0000005198
 31
0.0
  0
ARC
  5
3E4
  8
1
  6
CONTINUOUS
 62
     7
 10
1203.703010908194
 20
-936.9999999647002
 30
0.0
 40
3.500000000002501
 50
10.0
 51
90.0
  0
LINE
  5
3E5
  8
1
  6
CONTINUOUS
 62
     7
 10
1075.256859617345
 20
-994.9999994803001
 30
0.0
 11
1075.256859617345
 21
-1010.0000005198
 31
0.0
  0
LINE
  5
3E6
  8
1
  6
CONTINUOUS
 62
     7
 10
980.9398596173415
 20
-1069.9039222133
 30
0.0
 11
980.9398596173415
 21
-1010.0000005198
 31
0.0
  0
LINE
  5
3E7
  8
1
  6
CONTINUOUS
 62
     7
 10
1048.749838043741
 20
-936.3922313429002
 30
0.0
 11
1050.432330539241
 21
-945.9341204442004
 31
0.0
  0
LINE
  5
3E8
  8
1
  6
CONTINUOUS
 62
     7
 10
1033.739859617346
 20
-1069.9039222133
 30
0.0
 11
1033.739859617346
 21
-1010.0000005198
 31
0.0
  0
ARC
  5
3E9
  8
1
  6
CONTINUOUS
 62
     7
 10
1018.903010908244
 20
-1068.0000000354
 30
0.0
 40
3.499999999998948
 50
270.0
 51
349.9999999999999
  0
ARC
  5
3EA
  8
1
  6
CONTINUOUS
 62
     7
 10
1079.294349921744
 20
-945.5000000000002
 30
0.0
 40
2.499999999997726
 50
190.0
 51
270.0
  0
LINE
  5
3EB
  8
1
  6
CONTINUOUS
 62
     7
 10
1033.739859617346
 20
-935.0960777868005
 30
0.0
 11
1033.739859617346
 21
-994.9999994803005
 31
0.0
  0
ARC
  5
3EC
  8
1
  6
CONTINUOUS
 62
     7
 10
976.2853693128419
 20
-945.5000000000002
 30
0.0
 40
2.499999999997726
 50
270.0
 51
349.9999999999999
  0
LINE
  5
3ED
  8
1
  6
CONTINUOUS
 62
     7
 10
1006.82988119094
 20
-936.3922313429002
 30
0.0
 11
1005.147388695439
 21
-945.9341204442004
 31
0.0
  0
ARC
  5
3EE
  8
1
  6
CONTINUOUS
 62
     7
 10
1045.303010908243
 20
-1068.0000000354
 30
0.0
 40
3.500000000002501
 50
270.0
 51
349.9999999999999
  0
LINE
  5
3EF
  8
1
  6
CONTINUOUS
 62
     7
 10
1026.494349921742
 20
-1057.0
 30
0.0
 11
1029.085369312842
 21
-1057.0
 31
0.0
  0
LINE
  5
3F0
  8
1
  6
CONTINUOUS
 62
     7
 10
1207.256859617297
 20
-1010.0000005198
 30
0.0
 11
1191.522859617296
 21
-1010.0000005198
 31
0.0
  0
ARC
  5
3F1
  8
1
  6
CONTINUOUS
 62
     7
 10
983.8767083264428
 20
-1068.0000000354
 30
0.0
 40
3.500000000002501
 50
190.0
 51
270.0
  0
LINE
  5
3F2
  8
1
  6
CONTINUOUS
 62
     7
 10
1059.629881190941
 20
-936.3922313429002
 30
0.0
 11
1057.947388695442
 21
-945.9341204442004
 31
0.0
  0
LINE
  5
3F3
  8
1
  6
CONTINUOUS
 62
     7
 10
1221.476708326393
 20
-1071.5000000354
 30
0.0
 11
1230.103010908194
 21
-1071.5000000354
 31
0.0
  0
ARC
  5
3F4
  8
1
  6
CONTINUOUS
 62
     7
 10
1055.485369312842
 20
-945.5000000000002
 30
0.0
 40
2.500000000004832
 50
270.0
 51
349.9999999999999
  0
LINE
  5
3F5
  8
1
  6
CONTINUOUS
 62
     7
 10
996.0568596173416
 20
-1010.0000005198
 30
0.0
 11
980.3228596173415
 21
-1010.0000005198
 31
0.0
  0
LINE
  5
3F6
  8
1
  6
CONTINUOUS
 62
     7
 10
1048.856859617339
 20
-994.9999994803001
 30
0.0
 11
1048.856859617339
 21
-1010.0000005198
 31
0.0
  0
LINE
  5
3F7
  8
1
  6
CONTINUOUS
 62
     7
 10
1191.629881190896
 20
-1068.6077686572
 30
0.0
 11
1189.947388695396
 21
-1059.0658795559
 31
0.0
  0
ARC
  5
3F8
  8
1
  6
CONTINUOUS
 62
     7
 10
1765.694349921497
 20
-1059.5
 30
0.0
 40
2.499999999997726
 50
90.0
 51
170.0
  0
LINE
  5
3F9
  8
1
  6
CONTINUOUS
 62
     7
 10
1033.229881190942
 20
-936.3922313429002
 30
0.0
 11
1031.547388695443
 21
-945.9341204442004
 31
0.0
  0
ARC
  5
3FA
  8
1
  6
CONTINUOUS
 62
     7
 10
1052.894349921745
 20
-1059.5
 30
0.0
 40
2.499999999997726
 50
90.0
 51
170.0
  0
LINE
  5
3FB
  8
1
  6
CONTINUOUS
 62
     7
 10
1063.076708326443
 20
-1071.5000000354
 30
0.0
 11
1071.703010908243
 21
-1071.5000000354
 31
0.0
  0
LINE
  5
3FC
  8
1
  6
CONTINUOUS
 62
     7
 10
1048.239859617341
 20
-994.9999994803001
 30
0.0
 11
1048.239859617341
 21
-935.0960777868
 31
0.0
  0
LINE
  5
3FD
  8
1
  6
CONTINUOUS
 62
     7
 10
1010.276708326445
 20
-1071.5000000354
 30
0.0
 11
1018.903010908245
 21
-1071.5000000354
 31
0.0
  0
LINE
  5
3FE
  8
1
  6
CONTINUOUS
 62
     7
 10
1048.856859617339
 20
-994.9999994803001
 30
0.0
 11
1033.12285961734
 21
-994.9999994803001
 31
0.0
  0
LINE
  5
3FF
  8
1
  6
CONTINUOUS
 62
     7
 10
1033.122859617345
 20
-994.9999994803001
 30
0.0
 11
1033.122859617345
 21
-1010.0000005198
 31
0.0
  0
LINE
  5
400
  8
1
  6
CONTINUOUS
 62
     7
 10
1022.349838043743
 20
-1068.6077686572
 30
0.0
 11
1024.032330539243
 21
-1059.0658795559
 31
0.0
  0
ARC
  5
401
  8
1
  6
CONTINUOUS
 62
     7
 10
1071.703010908246
 20
-936.9999999647002
 30
0.0
 40
3.499999999998948
 50
10.0
 51
90.0
  0
LINE
  5
402
  8
1
  6
CONTINUOUS
 62
     7
 10
1086.029881190947
 20
-1068.6077686572
 30
0.0
 11
1084.347388695447
 21
-1059.0658795559
 31
0.0
  0
ARC
  5
403
  8
1
  6
CONTINUOUS
 62
     7
 10
1010.276708326445
 20
-936.9999999647002
 30
0.0
 40
3.499999999998948
 50
90.0
 51
170.0
  0
LINE
  5
404
  8
1
  6
CONTINUOUS
 62
     7
 10
1075.149838043744
 20
-936.3922313429002
 30
0.0
 11
1076.832330539244
 21
-945.9341204442004
 31
0.0
  0
ARC
  5
405
  8
1
  6
CONTINUOUS
 62
     7
 10
1002.685369312844
 20
-1059.5
 30
0.0
 40
2.499999999997726
 50
10.0
 51
90.0
  0
ARC
  5
406
  8
1
  6
CONTINUOUS
 62
     7
 10
1580.894349921544
 20
-945.5000000000002
 30
0.0
 40
2.500000000001279
 50
190.0
 51
270.0
  0
ARC
  5
407
  8
1
  6
CONTINUOUS
 62
     7
 10
1177.303010908195
 20
-936.9999999647002
 30
0.0
 40
3.499999999998948
 50
10.0
 51
90.0
  0
LINE
  5
408
  8
1
  6
CONTINUOUS
 62
     7
 10
1036.676708326444
 20
-1071.5000000354
 30
0.0
 11
1045.303010908244
 21
-1071.5000000354
 31
0.0
  0
ARC
  5
409
  8
1
  6
CONTINUOUS
 62
     7
 10
1026.494349921742
 20
-945.5000000000002
 30
0.0
 40
2.500000000001279
 50
190.0
 51
270.0
  0
LINE
  5
40A
  8
1
  6
CONTINUOUS
 62
     7
 10
1079.294349921744
 20
-1057.0
 30
0.0
 11
1081.885369312844
 21
-1057.0
 31
0.0
  0
LINE
  5
40B
  8
1
  6
CONTINUOUS
 62
     7
 10
1074.639859617344
 20
-1010.0000005198
 30
0.0
 11
1074.639859617344
 21
-1069.9039222133
 31
0.0
  0
LINE
  5
40C
  8
1
  6
CONTINUOUS
 62
     7
 10
1022.456859617344
 20
-994.9999994803001
 30
0.0
 11
1022.456859617344
 21
-1010.0000005198
 31
0.0
  0
LINE
  5
40D
  8
1
  6
CONTINUOUS
 62
     7
 10
976.2853693128419
 20
-948.0000000000001
 30
0.0
 11
974.9898596173425
 21
-948.0000000000001
 31
0.0
  0
LINE
  5
40E
  8
1
  6
CONTINUOUS
 62
     7
 10
1217.92285961729
 20
-994.9999994803001
 30
0.0
 11
1217.92285961729
 21
-1010.0000005198
 31
0.0
  0
ARC
  5
40F
  8
1
  6
CONTINUOUS
 62
     7
 10
1010.276708326445
 20
-1068.0000000354
 30
0.0
 40
3.499999999998948
 50
190.0
 51
270.0
  0
LINE
  5
410
  8
1
  6
CENTER
 62
     7
 10
2077.375078872423
 20
-927.499999965917
 30
0.0
 11
2077.375078871323
 21
-1077.500000036517
 31
0.0
  0
LINE
  5
411
  8
1
  6
CONTINUOUS
 62
     7
 10
1614.029881190747
 20
-936.3922313429002
 30
0.0
 11
1612.347388695246
 21
-945.9341204442004
 31
0.0
  0
LINE
  5
412
  8
1
  6
CONTINUOUS
 62
     7
 10
1218.539859617296
 20
-935.0960777868005
 30
0.0
 11
1218.539859617296
 21
-994.9999994803005
 31
0.0
  0
LINE
  5
413
  8
1
  6
CONTINUOUS
 62
     7
 10
1021.839859617342
 20
-1010.0000005198
 30
0.0
 11
1021.839859617342
 21
-1069.9039222133
 31
0.0
  0
ARC
  5
414
  8
1
  6
CONTINUOUS
 62
     7
 10
1195.076708326395
 20
-936.9999999647002
 30
0.0
 40
3.499999999998948
 50
90.0
 51
170.0
  0
LINE
  5
415
  8
1
  6
CONTINUOUS
 62
     7
 10
1749.476708326197
 20
-933.4999999647005
 30
0.0
 11
1758.103010907996
 21
-933.4999999647005
 31
0.0
  0
LINE
  5
416
  8
1
  6
CONTINUOUS
 62
     7
 10
1607.294349921543
 20
-948.0000000000001
 30
0.0
 11
1609.885369312643
 21
-948.0000000000001
 31
0.0
  0
ARC
  5
417
  8
1
  6
CONTINUOUS
 62
     7
 10
1398.685369312692
 20
-1059.5
 30
0.0
 40
2.500000000001279
 50
10.0
 51
90.0
  0
ARC
  5
418
  8
1
  6
CONTINUOUS
 62
     7
 10
1501.694349921594
 20
-1059.5
 30
0.0
 40
2.500000000001279
 50
90.0
 51
170.0
  0
LINE
  5
419
  8
1
  6
CONTINUOUS
 62
     7
 10
1761.656859617096
 20
-1010.0000005198
 30
0.0
 11
1745.922859617095
 21
-1010.0000005198
 31
0.0
  0
LINE
  5
41A
  8
1
  6
CONTINUOUS
 62
     7
 10
1406.276708326293
 20
-1071.5000000354
 30
0.0
 11
1414.903010908094
 21
-1071.5000000354
 31
0.0
  0
LINE
  5
41B
  8
1
  6
CONTINUOUS
 62
     7
 10
1026.494349921742
 20
-948.0000000000001
 30
0.0
 11
1029.085369312842
 21
-948.0000000000001
 31
0.0
  0
LINE
  5
41C
  8
1
  6
CONTINUOUS
 62
     7
 10
1180.749838043693
 20
-1068.6077686572
 30
0.0
 11
1182.432330539194
 21
-1059.0658795559
 31
0.0
  0
ARC
  5
41D
  8
1
  6
CONTINUOUS
 62
     7
 10
1079.294349921744
 20
-1059.5
 30
0.0
 40
2.499999999997726
 50
90.0
 51
170.0
  0
LINE
  5
41E
  8
1
  6
CONTINUOUS
 62
     7
 10
1772.429881190694
 20
-1068.6077686572
 30
0.0
 11
1770.747388695194
 21
-1059.0658795559
 31
0.0
  0
LINE
  5
41F
  8
1
  6
CONTINUOUS
 62
     7
 10
1233.656859617296
 20
-994.9999994803001
 30
0.0
 11
1217.922859617297
 21
-994.9999994803001
 31
0.0
  0
ARC
  5
420
  8
1
  6
CONTINUOUS
 62
     7
 10
992.5030109082455
 20
-936.9999999647002
 30
0.0
 40
3.499999999995396
 50
10.0
 51
90.0
  0
ARC
  5
421
  8
1
  6
CONTINUOUS
 62
     7
 10
1018.903010908244
 20
-936.9999999647002
 30
0.0
 40
3.499999999998948
 50
10.0
 51
90.0
  0
LINE
  5
422
  8
1
  6
CONTINUOUS
 62
     7
 10
1561.122859617148
 20
-994.9999994803001
 30
0.0
 11
1561.122859617148
 21
-1010.0000005198
 31
0.0
  0
LINE
  5
423
  8
1
  6
CONTINUOUS
 62
     7
 10
1195.076708326395
 20
-1071.5000000354
 30
0.0
 11
1203.703010908194
 21
-1071.5000000354
 31
0.0
  0
LINE
  5
424
  8
1
  6
CONTINUOUS
 62
     7
 10
980.429881190941
 20
-936.3922313429002
 30
0.0
 11
978.7473886954409
 21
-945.9341204442004
 31
0.0
  0
ARC
  5
425
  8
1
  6
CONTINUOUS
 62
     7
 10
1583.485369312645
 20
-945.5000000000002
 30
0.0
 40
2.500000000001279
 50
270.0
 51
349.9999999999999
  0
LINE
  5
426
  8
1
  6
CONTINUOUS
 62
     7
 10
1075.256859617345
 20
-994.9999994803001
 30
0.0
 11
1059.522859617345
 21
-994.9999994803001
 31
0.0
  0
LINE
  5
427
  8
1
  6
CONTINUOUS
 62
     7
 10
1576.856859617146
 20
-994.9999994803001
 30
0.0
 11
1561.122859617146
 21
-994.9999994803001
 31
0.0
  0
LINE
  5
428
  8
1
  6
CONTINUOUS
 62
     7
 10
1391.949838043595
 20
-936.3922313429002
 30
0.0
 11
1393.632330539095
 21
-945.9341204442004
 31
0.0
  0
ARC
  5
429
  8
1
  6
CONTINUOUS
 62
     7
 10
1749.476708326197
 20
-936.9999999647002
 30
0.0
 40
3.499999999998948
 50
90.0
 51
170.0
  0
ARC
  5
42A
  8
1
  6
CONTINUOUS
 62
     7
 10
1758.103010907992
 20
-1068.0000000354
 30
0.0
 40
3.500000000002501
 50
270.0
 51
349.9999999999999
  0
LINE
  5
42B
  8
1
  6
CONTINUOUS
 62
     7
 10
1376.939859617197
 20
-1069.9039222133
 30
0.0
 11
1376.939859617197
 21
-1010.0000005198
 31
0.0
  0
LINE
  5
42C
  8
1
  6
CONTINUOUS
 62
     7
 10
1007.33985961734
 20
-935.0960777868005
 30
0.0
 11
1007.33985961734
 21
-994.9999994803005
 31
0.0
  0
LINE
  5
42D
  8
1
  6
CONTINUOUS
 62
     7
 10
1587.629881190745
 20
-1068.6077686572
 30
0.0
 11
1585.947388695244
 21
-1059.0658795559
 31
0.0
  0
ARC
  5
42E
  8
1
  6
CONTINUOUS
 62
     7
 10
1557.085369312646
 20
-945.5000000000002
 30
0.0
 40
2.499999999997726
 50
270.0
 51
349.9999999999999
  0
LINE
  5
42F
  8
1
  6
CONTINUOUS
 62
     7
 10
1391.439859617195
 20
-994.9999994803001
 30
0.0
 11
1391.439859617195
 21
-935.0960777868
 31
0.0
  0
ARC
  5
430
  8
1
  6
CONTINUOUS
 62
     7
 10
1626.103010908044
 20
-1068.0000000354
 30
0.0
 40
3.499999999998948
 50
270.0
 51
349.9999999999999
  0
LINE
  5
431
  8
1
  6
CONTINUOUS
 62
     7
 10
1191.522859617291
 20
-994.9999994803001
 30
0.0
 11
1191.522859617291
 21
-1010.0000005198
 31
0.0
  0
LINE
  5
432
  8
1
  6
CONTINUOUS
 62
     7
 10
1402.722859617197
 20
-994.9999994803001
 30
0.0
 11
1402.722859617197
 21
-1010.0000005198
 31
0.0
  0
LINE
  5
433
  8
1
  6
CONTINUOUS
 62
     7
 10
1403.339859617196
 20
-1069.9039222133
 30
0.0
 11
1403.339859617196
 21
-1010.0000005198
 31
0.0
  0
LINE
  5
434
  8
1
  6
CONTINUOUS
 62
     7
 10
1233.549838043694
 20
-1068.6077686572
 30
0.0
 11
1235.232330539194
 21
-1059.0658795559
 31
0.0
  0
LINE
  5
435
  8
1
  6
CONTINUOUS
 62
     7
 10
1576.856859617146
 20
-1010.0000005198
 30
0.0
 11
1561.122859617146
 21
-1010.0000005198
 31
0.0
  0
LINE
  5
436
  8
1
  6
CONTINUOUS
 62
     7
 10
1218.029881190895
 20
-1068.6077686572
 30
0.0
 11
1216.347388695395
 21
-1059.0658795559
 31
0.0
  0
LINE
  5
437
  8
1
  6
CONTINUOUS
 62
     7
 10
980.3228596173432
 20
-994.9999994803001
 30
0.0
 11
980.3228596173432
 21
-1010.0000005198
 31
0.0
  0
LINE
  5
438
  8
1
  6
CONTINUOUS
 62
     7
 10
1165.122859617293
 20
-994.9999994803001
 30
0.0
 11
1165.122859617293
 21
-1010.0000005198
 31
0.0
  0
LINE
  5
439
  8
1
  6
CONTINUOUS
 62
     7
 10
1089.476708326445
 20
-1071.5000000354
 30
0.0
 11
1098.103010908246
 21
-1071.5000000354
 31
0.0
  0
LINE
  5
43A
  8
1
  6
CONTINUOUS
 62
     7
 10
995.4398596173432
 20
-1010.0000005198
 30
0.0
 11
995.4398596173432
 21
-1069.9039222133
 31
0.0
  0
LINE
  5
43B
  8
1
  6
CONTINUOUS
 62
     7
 10
1010.276708326445
 20
-933.4999999647005
 30
0.0
 11
1018.903010908245
 21
-933.4999999647005
 31
0.0
  0
LINE
  5
43C
  8
1
  6
CONTINUOUS
 62
     7
 10
995.9498380437437
 20
-936.3922313429002
 30
0.0
 11
997.6323305392438
 21
-945.9341204442004
 31
0.0
  0
LINE
  5
43D
  8
1
  6
CONTINUOUS
 62
     7
 10
1761.039859617097
 20
-994.9999994803001
 30
0.0
 11
1761.039859617097
 21
-935.0960777868
 31
0.0
  0
LINE
  5
43E
  8
1
  6
CONTINUOUS
 62
     7
 10
1561.739859617146
 20
-1069.9039222133
 30
0.0
 11
1561.739859617146
 21
-1010.0000005198
 31
0.0
  0
LINE
  5
43F
  8
1
  6
CONTINUOUS
 62
     7
 10
1629.656859617144
 20
-994.9999994803001
 30
0.0
 11
1613.922859617143
 21
-994.9999994803001
 31
0.0
  0
LINE
  5
440
  8
1
  6
CONTINUOUS
 62
     7
 10
1191.629881190896
 20
-936.3922313429002
 30
0.0
 11
1189.947388695396
 21
-945.9341204442004
 31
0.0
  0
LINE
  5
441
  8
1
  6
CONTINUOUS
 62
     7
 10
1180.239859617293
 20
-994.9999994803001
 30
0.0
 11
1180.239859617293
 21
-935.0960777868
 31
0.0
  0
LINE
  5
442
  8
1
  6
CONTINUOUS
 62
     7
 10
980.429881190941
 20
-1068.6077686572
 30
0.0
 11
978.7473886954409
 21
-1059.0658795559
 31
0.0
  0
LINE
  5
443
  8
1
  6
CONTINUOUS
 62
     7
 10
1745.922859617097
 20
-994.9999994803001
 30
0.0
 11
1745.922859617097
 21
-1010.0000005198
 31
0.0
  0
LINE
  5
444
  8
1
  6
CONTINUOUS
 62
     7
 10
1418.456859617196
 20
-994.9999994803001
 30
0.0
 11
1418.456859617196
 21
-1010.0000005198
 31
0.0
  0
LINE
  5
445
  8
1
  6
CONTINUOUS
 62
     7
 10
1180.856859617295
 20
-994.9999994803001
 30
0.0
 11
1165.122859617293
 21
-994.9999994803001
 31
0.0
  0
ARC
  5
446
  8
1
  6
CONTINUOUS
 62
     7
 10
1221.476708326393
 20
-936.9999999647002
 30
0.0
 40
3.500000000002501
 50
90.0
 51
170.0
  0
LINE
  5
447
  8
1
  6
CONTINUOUS
 62
     7
 10
1775.876708326196
 20
-1071.5000000354
 30
0.0
 11
1784.503010907996
 21
-1071.5000000354
 31
0.0
  0
ARC
  5
448
  8
1
  6
CONTINUOUS
 62
     7
 10
1026.494349921742
 20
-1059.5
 30
0.0
 40
2.500000000001279
 50
90.0
 51
170.0
  0
LINE
  5
449
  8
1
  6
CONTINUOUS
 62
     7
 10
1761.549838043494
 20
-936.3922313429002
 30
0.0
 11
1763.232330538994
 21
-945.9341204442004
 31
0.0
  0
LINE
  5
44A
  8
1
  6
CONTINUOUS
 62
     7
 10
1772.939859617094
 20
-1069.9039222133
 30
0.0
 11
1772.939859617094
 21
-1010.0000005198
 31
0.0
  0
ARC
  5
44B
  8
1
  6
CONTINUOUS
 62
     7
 10
1765.694349921497
 20
-945.5000000000002
 30
0.0
 40
2.499999999997726
 50
190.0
 51
270.0
  0
LINE
  5
44C
  8
1
  6
CONTINUOUS
 62
     7
 10
1735.256859617097
 20
-994.9999994803001
 30
0.0
 11
1719.522859617097
 21
-994.9999994803001
 31
0.0
  0
ARC
  5
44D
  8
1
  6
CONTINUOUS
 62
     7
 10
1775.876708326196
 20
-936.9999999647002
 30
0.0
 40
3.499999999998948
 50
90.0
 51
170.0
  0
LINE
  5
44E
  8
1
  6
CONTINUOUS
 62
     7
 10
1786.239945254594
 20
-1010.0000005198
 30
0.0
 11
1772.322859617094
 21
-1010.0000005198
 31
0.0
  0
ARC
  5
44F
  8
1
  6
CONTINUOUS
 62
     7
 10
1609.885369312644
 20
-945.5000000000002
 30
0.0
 40
2.500000000001279
 50
270.0
 51
349.9999999999999
  0
ARC
  5
450
  8
1
  6
CONTINUOUS
 62
     7
 10
1398.685369312692
 20
-945.5000000000002
 30
0.0
 40
2.500000000001279
 50
270.0
 51
349.9999999999999
  0
ARC
  5
451
  8
1
  6
CONTINUOUS
 62
     7
 10
1741.885369312596
 20
-1059.5
 30
0.0
 40
2.499999999997726
 50
10.0
 51
90.0
  0
LINE
  5
452
  8
1
  6
CONTINUOUS
 62
     7
 10
1576.856859617146
 20
-994.9999994803001
 30
0.0
 11
1576.856859617146
 21
-1010.0000005198
 31
0.0
  0
LINE
  5
453
  8
1
  6
CONTINUOUS
 62
     7
 10
1591.076708326243
 20
-1071.5000000354
 30
0.0
 11
1599.703010908042
 21
-1071.5000000354
 31
0.0
  0
ARC
  5
454
  8
1
  6
CONTINUOUS
 62
     7
 10
1599.703010908045
 20
-1068.0000000354
 30
0.0
 40
3.499999999998948
 50
270.0
 51
349.9999999999999
  0
LINE
  5
455
  8
1
  6
CONTINUOUS
 62
     7
 10
1617.476708326245
 20
-933.4999999647005
 30
0.0
 11
1626.103010908044
 21
-933.4999999647005
 31
0.0
  0
LINE
  5
456
  8
1
  6
CONTINUOUS
 62
     7
 10
1746.539859617096
 20
-1069.9039222133
 30
0.0
 11
1746.539859617096
 21
-1010.0000005198
 31
0.0
  0
LINE
  5
457
  8
1
  6
CONTINUOUS
 62
     7
 10
1444.749838043597
 20
-1068.6077686572
 30
0.0
 11
1446.432330539097
 21
-1059.0658795559
 31
0.0
  0
ARC
  5
458
  8
1
  6
CONTINUOUS
 62
     7
 10
1741.885369312596
 20
-945.5000000000002
 30
0.0
 40
2.499999999997726
 50
270.0
 51
349.9999999999999
  0
LINE
  5
459
  8
1
  6
CONTINUOUS
 62
     7
 10
1504.285369312649
 20
-1057.0
 30
0.0
 11
1501.694349921598
 21
-1057.0
 31
0.0
  0
LINE
  5
45A
  8
1
  6
CONTINUOUS
 62
     7
 10
1765.694349921497
 20
-1057.0
 30
0.0
 11
1768.285369312597
 21
-1057.0
 31
0.0
  0
LINE
  5
45B
  8
1
  6
CONTINUOUS
 62
     7
 10
1735.256859617097
 20
-1010.0000005198
 30
0.0
 11
1719.522859617097
 21
-1010.0000005198
 31
0.0
  0
LINE
  5
45C
  8
1
  6
CONTINUOUS
 62
     7
 10
1786.239945254594
 20
-994.9999994803001
 30
0.0
 11
1772.322859617094
 21
-994.9999994803001
 31
0.0
  0
LINE
  5
45D
  8
1
  6
CONTINUOUS
 62
     7
 10
1576.239859617141
 20
-1010.0000005198
 30
0.0
 11
1576.239859617141
 21
-1069.9039222133
 31
0.0
  0
LINE
  5
45E
  8
1
  6
CONTINUOUS
 62
     7
 10
1629.549838043546
 20
-1068.6077686572
 30
0.0
 11
1631.232330539047
 21
-1059.0658795559
 31
0.0
  0
ARC
  5
45F
  8
1
  6
CONTINUOUS
 62
     7
 10
1768.285369312595
 20
-1059.5
 30
0.0
 40
2.499999999997726
 50
10.0
 51
90.0
  0
ARC
  5
460
  8
1
  6
CONTINUOUS
 62
     7
 10
1609.885369312644
 20
-1059.5
 30
0.0
 40
2.500000000001279
 50
10.0
 51
90.0
  0
LINE
  5
461
  8
1
  6
CONTINUOUS
 62
     7
 10
1403.339859617196
 20
-935.0960777868005
 30
0.0
 11
1403.339859617196
 21
-994.9999994803005
 31
0.0
  0
ARC
  5
462
  8
1
  6
CONTINUOUS
 62
     7
 10
1573.303010908043
 20
-936.9999999647002
 30
0.0
 40
3.500000000002501
 50
10.0
 51
90.0
  0
LINE
  5
463
  8
1
  6
CONTINUOUS
 62
     7
 10
1746.029881190695
 20
-936.3922313429002
 30
0.0
 11
1744.347388695194
 21
-945.9341204442004
 31
0.0
  0
ENDSEC
  0
EOF
