  0
SECTION
  2
HEADER
  9
$ACADVER
  1
AC1006
  9
$DWGCODEPAGE
  3
ansi_932
  9
$INSBASE
 10
0.0
 20
0.0
 30
0.0
  9
$EXTMIN
 10
0.0
 20
-1420.0
  9
$EXTMAX
 10
2427.045713804099
 20
10.0
  9
$LIMMIN
 10
0.0
 20
0.0
  9
$LIMMAX
 10
12.0
 20
9.0
  9
$ORTHOMODE
 70
     0
  9
$REGENMODE
 70
     1
  9
$FILLMODE
 70
     1
  9
$QTEXTMODE
 70
     0
  9
$MIRRTEXT
 70
     1
  9
$DRAGMODE
 70
     2
  9
$LTSCALE
 40
1.0
  9
$OSMODE
 70
    37
  9
$ATTMODE
 70
     1
  9
$TEXTSIZE
 40
0.2
  9
$TRACEWID
 40
0.05
  9
$TEXTSTYLE
  7
STANDARD
  9
$CLAYER
  8
0
  9
$CELTYPE
  6
BYLAYER
  9
$CECOLOR
 62
   256
  9
$DIMSCALE
 40
1.0
  9
$DIMASZ
 40
3.0
  9
$DIMEXO
 40
0.0625
  9
$DIMDLI
 40
0.38
  9
$DIMRND
 40
0.0
  9
$DIMDLE
 40
0.0
  9
$DIMEXE
 40
1.5
  9
$DIMTP
 40
0.0
  9
$DIMTM
 40
0.0
  9
$DIMTXT
 40
3.0
  9
$DIMCEN
 40
0.09
  9
$DIMTSZ
 40
0.0
  9
$DIMTOL
 70
     0
  9
$DIMLIM
 70
     0
  9
$DIMTIH
 70
     1
  9
$DIMTOH
 70
     1
  9
$DIMSE1
 70
     0
  9
$DIMSE2
 70
     0
  9
$DIMTAD
 70
     1
  9
$DIMZIN
 70
     0
  9
$DIMBLK
  1

  9
$DIMASO
 70
     1
  9
$DIMSHO
 70
     1
  9
$DIMPOST
  1

  9
$DIMAPOST
  1

  9
$DIMALT
 70
     0
  9
$DIMALTD
 70
     2
  9
$DIMALTF
 40
25.4
  9
$DIMLFAC
 40
1.0
  9
$DIMTOFL
 70
     0
  9
$DIMTVP
 40
0.0
  9
$DIMTIX
 70
     0
  9
$DIMSOXD
 70
     0
  9
$DIMSAH
 70
     0
  9
$DIMBLK1
  1

  9
$DIMBLK2
  1

  9
$LUNITS
 70
     2
  9
$LUPREC
 70
     4
  9
$SKETCHINC
 40
0.1
  9
$FILLETRAD
 40
0.5
  9
$AUNITS
 70
     0
  9
$AUPREC
 70
     0
  9
$MENU
  1
.
  9
$ELEVATION
 40
0.0
  9
$THICKNESS
 40
0.0
  9
$LIMCHECK
 70
     0
  9
$CHAMFERA
 40
0.0
  9
$CHAMFERB
 40
0.0
  9
$SKPOLY
 70
     0
  9
$TDCREATE
 40
2460119.721023252
  9
$TDUPDATE
 40
2460119.721023704
  9
$TDINDWG
 40
0.0000000116
  9
$TDUSRTIMER
 40
0.0000000116
  9
$USRTIMER
 70
     1
  9
$ANGBASE
 50
0.0
  9
$ANGDIR
 70
     0
  9
$PDMODE
 70
     0
  9
$PDSIZE
 40
0.0
  9
$PLINEWID
 40
0.0
  9
$COORDS
 70
     1
  9
$SPLFRAME
 70
     0
  9
$SPLINETYPE
 70
     6
  9
$SPLINESEGS
 70
     8
  9
$ATTDIA
 70
     0
  9
$ATTREQ
 70
     1
  9
$HANDLING
 70
     1
  9
$HANDSEED
  5
3AB
  9
$SURFTAB1
 70
     6
  9
$SURFTAB2
 70
     6
  9
$SURFTYPE
 70
     6
  9
$SURFU
 70
     6
  9
$SURFV
 70
     6
  9
$UCSNAME
  2

  9
$UCSORG
 10
0.0
 20
0.0
 30
0.0
  9
$UCSXDIR
 10
1.0
 20
0.0
 30
0.0
  9
$UCSYDIR
 10
0.0
 20
1.0
 30
0.0
  9
$USERI1
 70
     0
  9
$USERI2
 70
     0
  9
$USERI3
 70
     0
  9
$USERI4
 70
     0
  9
$USERI5
 70
     0
  9
$USERR1
 40
0.0
  9
$USERR2
 40
0.0
  9
$USERR3
 40
0.0
  9
$USERR4
 40
0.0
  9
$USERR5
 40
0.0
  9
$WORLDVIEW
 70
     1
  0
ENDSEC
  0
SECTION
  2
TABLES
  0
TABLE
  2
VPORT
 70
     1
  0
VPORT
  2
*ACTIVE
 70
     0
 10
0.0
 20
0.0
 11
1.0
 21
1.0
 12
1213.522856902049
 22
-705.0
 13
0.0
 23
0.0
 14
0.5
 24
0.5
 15
0.5
 25
0.5
 16
0.0
 26
0.0
 36
1.0
 17
0.0
 27
0.0
 37
0.0
 40
1430.0
 41
1.6
 42
50.0
 43
0.0
 44
0.0
 50
0.0
 51
0.0
 71
     0
 72
   100
 73
     1
 74
     3
 75
     0
 76
     0
 77
     0
 78
     0
  0
ENDTAB
  0
TABLE
  2
LTYPE
 70
     2
  0
LTYPE
  2
CONTINUOUS
 70
     0
  3
Solid line
 72
    65
 73
     0
 40
0.0
  0
LTYPE
  2
CENTER
 70
     0
  3

 72
    65
 73
     0
 40
0.0
  0
ENDTAB
  0
TABLE
  2
LAYER
 70
     2
  0
LAYER
  2
0
 70
     0
 62
     7
  6
CONTINUOUS
  0
LAYER
  2
1
 70
     0
 62
     7
  6
CONTINUOUS
  0
ENDTAB
  0
TABLE
  2
STYLE
 70
     2
  0
STYLE
  2
STANDARD
 70
     0
 40
0.0
 41
1.0
 50
0.0
 71
     0
 42
0.2
  3
txt
  4

  0
STYLE
  2
ＭＳ_ゴシック
 70
     0
 40
0.0
 41
1.0
 50
0.0
 71
     0
 42
0.2
  3
ＭＳ ゴシック.shx
  4

  0
ENDTAB
  0
TABLE
  2
VIEW
 70
     0
  0
ENDTAB
  0
TABLE
  2
UCS
 70
     0
  0
ENDTAB
  0
ENDSEC
  0
SECTION
  2
BLOCKS
  0
ENDSEC
  0
SECTION
  2
ENTITIES
  0
TEXT
  5
70
  8
0
  6
CONTINUOUS
 62
     7
 10
820.0608040515193
 20
-1420.524602976116
 30
0.0
 40
5.0
  1
N-KFEP-130CK
  0
TEXT
  5
71
  8
1
  6
CONTINUOUS
 62
     7
 10
779.3351186234157
 20
-1440.159190394265
 30
0.0
 40
10.0
  1
Ｎ－ＫＦＥＰ－１３０ＣＫ
 41
0.771692
 51
15.0
  0
TEXT
  5
72
  8
1
  6
CONTINUOUS
 62
     7
 10
779.3351186234157
 20
-1440.159190394265
 30
0.0
 40
10.0
  1
Ｎ－ＫＦＥＰ－１３０ＣＫ
 41
0.771692
 51
15.0
  0
ARC
  5
73
  8
1
  6
CONTINUOUS
 62
     7
 10
2359.0
 20
-1268.5
 30
0.0
 40
31.00000000000236
 50
0.0
 51
90.0
  0
LINE
  5
74
  8
1
  6
CONTINUOUS
 62
     7
 10
1575.499999999997
 20
-1315.0
 30
0.0
 11
1575.499999999997
 21
-1290.0
 31
0.0
  0
LINE
  5
75
  8
1
  6
CONTINUOUS
 62
     7
 10
1859.457873999996
 20
-1388.022104999999
 30
0.0
 11
1861.404112999996
 21
-1373.238947999999
 31
0.0
  0
ARC
  5
76
  8
1
  6
CONTINUOUS
 62
     7
 10
1335.387003
 20
-1231.5
 30
0.0
 40
1.999999999998892
 50
187.5
 51
270.0
  0
LINE
  5
77
  8
1
  6
CONTINUOUS
 62
     7
 10
736.8263520039036
 20
-1290.1457082277
 30
0.0
 11
738.6736479961011
 21
-1290.4714360013
 31
0.0
  0
LINE
  5
78
  8
1
  6
CONTINUOUS
 62
     7
 10
1608.500000000002
 20
-1315.0
 30
0.0
 11
1628.500000000002
 21
-1315.0
 31
0.0
  0
ARC
  5
79
  8
1
  6
CONTINUOUS
 62
     7
 10
2362.216621999999
 20
-1265.283378
 30
0.0
 40
58.50000000000222
 50
0.5
 51
89.5
  0
ARC
  5
7A
  8
1
  6
CONTINUOUS
 62
     7
 10
736.9999999999997
 20
-1315.8390995573
 30
0.0
 40
0.9999999999976694
 50
99.99998943489999
 51
180.0
  0
LINE
  5
7B
  8
1
  6
CONTINUOUS
 62
     7
 10
2074.868790187966
 20
-1364.265261223199
 30
0.0
 11
2068.897049679266
 21
-1365.865384269899
 31
0.0
  0
LINE
  5
7C
  8
1
  6
CONTINUOUS
 62
     7
 10
1576.245610493803
 20
-1315.0
 30
0.0
 11
1576.245610493803
 21
-1389.814611853
 31
0.0
  0
LINE
  5
7D
  8
1
  6
CONTINUOUS
 62
     7
 10
1609.2456104938
 20
-1289.999999999999
 30
0.0
 11
1609.2456104938
 21
-1215.185388147
 31
0.0
  0
ARC
  5
7E
  8
1
  6
CONTINUOUS
 62
     7
 10
1843.507905999995
 20
-1217.5
 30
0.0
 40
3.999999999997783
 50
90.0
 51
172.5
  0
ARC
  5
7F
  8
1
  6
CONTINUOUS
 62
     7
 10
860.9999999999984
 20
-1338.5000721011
 30
0.0
 40
53.00000000000438
 50
270.0947126975
 51
0.0
  0
LINE
  5
80
  8
1
  6
CONTINUOUS
 62
     7
 10
1925.055009789666
 20
-1235.5330213083
 30
0.0
 11
1925.054964191266
 21
-1206.785606
 31
0.0
  0
ARC
  5
81
  8
1
  6
CONTINUOUS
 62
     7
 10
1632.387003000001
 20
-1373.499999999999
 30
0.0
 40
1.999999999998892
 50
90.0
 51
172.5
  0
ARC
  5
82
  8
1
  6
CONTINUOUS
 62
     7
 10
1579.507905999999
 20
-1387.5
 30
0.0
 40
3.999999999997783
 50
187.5
 51
270.0
  0
LINE
  5
83
  8
1
  6
CONTINUOUS
 62
     7
 10
1315.507906
 20
-1213.5
 30
0.0
 11
1327.492093999999
 21
-1213.5
 31
0.0
  0
ARC
  5
84
  8
1
  6
CONTINUOUS
 62
     7
 10
860.9999999999984
 20
-1266.4999278989
 30
0.0
 40
29.49999999999875
 50
0.0
 51
89.8728628983
  0
LINE
  5
85
  8
1
  6
CONTINUOUS
 62
     7
 10
1859.457873999996
 20
-1216.977895
 30
0.0
 11
1861.404112999996
 21
-1231.761052
 31
0.0
  0
ARC
  5
86
  8
1
  6
CONTINUOUS
 62
     7
 10
1599.387003
 20
-1373.499999999999
 30
0.0
 40
1.999999999998892
 50
90.0
 51
172.5
  0
LINE
  5
87
  8
1
  6
CONTINUOUS
 62
     7
 10
1859.499999999996
 20
-1289.999999999999
 30
0.0
 11
1859.499999999996
 21
-1314.999999999999
 31
0.0
  0
ARC
  5
88
  8
1
  6
CONTINUOUS
 62
     7
 10
1868.612996999995
 20
-1373.499999999999
 30
0.0
 40
1.999999999998892
 50
7.5
 51
90.0
  0
LINE
  5
89
  8
1
  6
CONTINUOUS
 62
     7
 10
2065.695147954169
 20
-1370.0381906918
 30
0.0
 11
2065.695192646568
 21
-1398.214393999999
 31
0.0
  0
LINE
  5
8A
  8
1
  6
CONTINUOUS
 62
     7
 10
1873.245610493796
 20
-1315.0
 30
0.0
 11
1873.245610493796
 21
-1389.814611853
 31
0.0
  0
ARC
  5
8B
  8
1
  6
CONTINUOUS
 62
     7
 10
2361.747818000003
 20
-1265.752185999999
 30
0.0
 40
53.71308400000174
 50
0.004537
 51
90.00512399999998
  0
ARC
  5
8C
  8
1
  6
CONTINUOUS
 62
     7
 10
2291.000000000002
 20
-1336.499999999999
 30
0.0
 40
30.99999999999881
 50
180.0
 51
270.0
  0
LINE
  5
8D
  8
1
  6
CONTINUOUS
 62
     7
 10
2319.781840000002
 20
-1206.501904
 30
0.0
 11
2287.272876000002
 21
-1206.785606
 31
0.0
  0
LINE
  5
8E
  8
1
  6
CONTINUOUS
 62
     7
 10
1609.2456104938
 20
-1315.0
 30
0.0
 11
1609.2456104938
 21
-1389.814611853
 31
0.0
  0
LINE
  5
8F
  8
1
  6
CONTINUOUS
 62
     7
 10
1843.507905999995
 20
-1213.5
 30
0.0
 11
1855.492093999994
 21
-1213.5
 31
0.0
  0
ARC
  5
90
  8
1
  6
CONTINUOUS
 62
     7
 10
2287.783377999998
 20
-1265.283378
 30
0.0
 40
58.50000000000222
 50
90.5
 51
179.5
  0
ARC
  5
91
  8
1
  6
CONTINUOUS
 62
     7
 10
2288.252182000002
 20
-1265.752185999999
 30
0.0
 40
53.71308399999819
 50
89.994876
 51
179.995463
  0
LINE
  5
92
  8
1
  6
CONTINUOUS
 62
     7
 10
1872.542125999995
 20
-1216.977895
 30
0.0
 11
1870.595886999995
 21
-1231.761052
 31
0.0
  0
ARC
  5
93
  8
1
  6
CONTINUOUS
 62
     7
 10
1868.612996999995
 20
-1231.5
 30
0.0
 40
1.999999999998892
 50
270.0
 51
352.5
  0
ARC
  5
94
  8
1
  6
CONTINUOUS
 62
     7
 10
1612.507906000001
 20
-1387.5
 30
0.0
 40
4.000000000001336
 50
187.5
 51
270.0
  0
LINE
  5
95
  8
1
  6
CONTINUOUS
 62
     7
 10
2330.218159999999
 20
-1206.501904
 30
0.0
 11
2362.727124
 21
-1206.785606
 31
0.0
  0
ARC
  5
96
  8
1
  6
CONTINUOUS
 62
     7
 10
1632.387003000001
 20
-1231.5
 30
0.0
 40
1.999999999998892
 50
187.5
 51
270.0
  0
LINE
  5
97
  8
1
  6
CONTINUOUS
 62
     7
 10
2229.001904000002
 20
-1297.281839999999
 30
0.0
 11
2229.000000000001
 21
-1297.718167999999
 31
0.0
  0
LINE
  5
98
  8
1
  6
CONTINUOUS
 62
     7
 10
788.9345407035022
 20
-1237.0000005248
 30
0.0
 11
861.0654592965017
 21
-1237.0000005248
 31
0.0
  0
LINE
  5
99
  8
1
  6
CONTINUOUS
 62
     7
 10
1312.2456104938
 20
-1289.999999999999
 30
0.0
 11
1312.2456104938
 21
-1215.185388147
 31
0.0
  0
LINE
  5
9A
  8
1
  6
CONTINUOUS
 62
     7
 10
893.9999999999997
 20
-1338.5000721011
 30
0.0
 11
893.9999999999997
 21
-1266.4999278989
 31
0.0
  0
LINE
  5
9B
  8
1
  6
CENTER
 62
     1
 10
825.0000000000006
 20
-1210.5
 30
0.0
 11
825.0000000000006
 21
-1394.5
 31
0.0
  0
LINE
  5
9D
  8
1
  6
CONTINUOUS
 62
     7
 10
1572.957204663498
 20
-1232.980913692299
 30
0.0
 11
1572.957204663498
 21
-1372.019086307699
 31
0.0
  0
LINE
  5
9E
  8
1
  6
CONTINUOUS
 62
     7
 10
2288.254451999998
 20
-1392.960904
 30
0.0
 11
2361.745547999998
 21
-1392.960904
 31
0.0
  0
LINE
  5
9F
  8
1
  6
CONTINUOUS
 62
     7
 10
1839.499999999993
 20
-1315.0
 30
0.0
 11
1839.499999999993
 21
-1290.0
 31
0.0
  0
LINE
  5
A0
  8
1
  6
CONTINUOUS
 62
     7
 10
1873.245610493796
 20
-1289.999999999999
 30
0.0
 11
1873.245610493796
 21
-1215.185388147
 31
0.0
  0
LINE
  5
A1
  8
1
  6
CONTINUOUS
 62
     7
 10
2420.998095999999
 20
-1297.281839999999
 30
0.0
 11
2421.0
 21
-1297.718167999999
 31
0.0
  0
LINE
  5
A2
  8
1
  6
CONTINUOUS
 62
     7
 10
2229.284628
 20
-1340.11509
 30
0.0
 11
2229.001904000001
 21
-1307.71816
 31
0.0
  0
LINE
  5
A3
  8
1
  6
CONTINUOUS
 62
     7
 10
1872.499999999998
 20
-1315.0
 30
0.0
 11
1872.499999999998
 21
-1290.0
 31
0.0
  0
ARC
  5
A4
  8
1
  6
CONTINUOUS
 62
     7
 10
788.9999999999992
 20
-1338.5000721011
 30
0.0
 40
29.49999999999875
 50
180.0
 51
269.8728628983
  0
LINE
  5
A5
  8
1
  6
CONTINUOUS
 62
     7
 10
1836.957204663494
 20
-1232.980913692299
 30
0.0
 11
1836.957204663494
 21
-1372.019086307699
 31
0.0
  0
ARC
  5
A6
  8
1
  6
CONTINUOUS
 62
     7
 10
788.9999999999992
 20
-1266.4999278989
 30
0.0
 40
32.9999999999977
 50
90.1202056259
 51
180.0
  0
LINE
  5
A7
  8
1
  6
CONTINUOUS
 62
     7
 10
1872.542125999995
 20
-1388.022104999999
 30
0.0
 11
1870.595886999995
 21
-1373.238947999999
 31
0.0
  0
LINE
  5
A8
  8
1
  6
CONTINUOUS
 62
     7
 10
1830.387002999994
 20
-1371.5
 30
0.0
 11
1835.612996999994
 21
-1371.5
 31
0.0
  0
LINE
  5
A9
  8
1
  6
CONTINUOUS
 62
     7
 10
1863.387002999996
 20
-1233.5
 30
0.0
 11
1868.612996999995
 21
-1233.5
 31
0.0
  0
LINE
  5
AA
  8
1
  6
CONTINUOUS
 62
     7
 10
1830.387002999994
 20
-1233.5
 30
0.0
 11
1835.612996999994
 21
-1233.5
 31
0.0
  0
LINE
  5
AB
  8
1
  6
CONTINUOUS
 62
     7
 10
2415.505498000003
 20
-1338.935287999999
 30
0.0
 11
2415.505498000003
 21
-1266.064711999999
 31
0.0
  0
LINE
  5
AC
  8
1
  6
CONTINUOUS
 62
     7
 10
890.4999999999972
 20
-1338.5000721011
 30
0.0
 11
890.4999999999972
 21
-1266.4999278989
 31
0.0
  0
LINE
  5
AD
  8
1
  6
CONTINUOUS
 62
     7
 10
2075.775192646563
 20
-1398.214393999999
 30
0.0
 11
2075.775139900362
 21
-1364.960726676099
 31
0.0
  0
LINE
  5
AE
  8
1
  6
CONTINUOUS
 62
     7
 10
788.9123884741997
 20
-1213.5000005253
 30
0.0
 11
861.0876115258005
 21
-1213.5000005242
 31
0.0
  0
ARC
  5
AF
  8
1
  6
CONTINUOUS
 62
     7
 10
2361.747818000003
 20
-1339.247813999999
 30
0.0
 40
53.71308400000174
 50
269.994876
 51
359.995463
  0
ARC
  5
B0
  8
1
  6
CONTINUOUS
 62
     7
 10
1830.387002999994
 20
-1373.499999999999
 30
0.0
 40
2.000000000002444
 50
89.99999999979644
 51
172.5000000000005
  0
ARC
  5
B1
  8
1
  6
CONTINUOUS
 62
     7
 10
1843.507905999995
 20
-1387.5
 30
0.0
 40
3.999999999997783
 50
187.5
 51
270.0
  0
LINE
  5
B2
  8
1
  6
CONTINUOUS
 62
     7
 10
2330.218159999999
 20
-1398.498095999999
 30
0.0
 11
2362.727124
 21
-1398.214393999999
 31
0.0
  0
ARC
  5
B3
  8
1
  6
CONTINUOUS
 62
     7
 10
1327.492093999996
 20
-1217.5
 30
0.0
 40
4.000000000001336
 50
7.5
 51
90.0
  0
LINE
  5
B4
  8
1
  6
CONTINUOUS
 62
     7
 10
1331.499999999998
 20
-1289.999999999999
 30
0.0
 11
1331.499999999998
 21
-1314.999999999999
 31
0.0
  0
ARC
  5
B5
  8
1
  6
CONTINUOUS
 62
     7
 10
736.9999999999997
 20
-1289.1609004427
 30
0.0
 40
0.9999999999976694
 50
180.0
 51
260.0000105651
  0
LINE
  5
B6
  8
1
  6
CONTINUOUS
 62
     7
 10
1914.974965097264
 20
-1398.214393999999
 30
0.0
 11
1914.975017843365
 21
-1364.960726676099
 31
0.0
  0
ARC
  5
B7
  8
1
  6
CONTINUOUS
 62
     7
 10
2288.252182000002
 20
-1339.247813999999
 30
0.0
 40
53.71308399999819
 50
180.0
 51
270.005124
  0
ARC
  5
B8
  8
1
  6
CONTINUOUS
 62
     7
 10
1599.387003
 20
-1231.5
 30
0.0
 40
1.999999999998892
 50
187.5
 51
270.0
  0
LINE
  5
B9
  8
1
  6
CONTINUOUS
 62
     7
 10
2420.998095999999
 20
-1307.71816
 30
0.0
 11
2421.0
 21
-1307.281832
 31
0.0
  0
LINE
  5
BA
  8
1
  6
CONTINUOUS
 62
     7
 10
2260.000000000003
 20
-1268.5
 30
0.0
 11
2260.000000000003
 21
-1336.5
 31
0.0
  0
LINE
  5
BB
  8
1
  6
CONTINUOUS
 62
     7
 10
913.1736479961012
 20
-1314.854291772299
 30
0.0
 11
911.3263520039019
 21
-1314.528563998699
 31
0.0
  0
ARC
  5
BC
  8
1
  6
CONTINUOUS
 62
     7
 10
1915.695017843368
 20
-1240.610484181899
 30
0.0
 40
0.7199999999976114
 50
180.0000908811
 51
285.0
  0
ARC
  5
BD
  8
1
  6
CONTINUOUS
 62
     7
 10
1315.507906
 20
-1217.5
 30
0.0
 40
4.000000000001336
 50
90.0
 51
172.5
  0
LINE
  5
BE
  8
1
  6
CONTINUOUS
 62
     7
 10
2420.715372000001
 20
-1340.11509
 30
0.0
 11
2420.998096000001
 21
-1307.71816
 31
0.0
  0
ARC
  5
BF
  8
1
  6
CONTINUOUS
 62
     7
 10
1109.612996999995
 20
-1373.499999999999
 30
0.0
 40
2.000000000002444
 50
7.5
 51
90.0
  0
LINE
  5
C0
  8
1
  6
CONTINUOUS
 62
     7
 10
1925.055009789666
 20
-1370.0381906918
 30
0.0
 11
1925.054965097265
 21
-1398.214393999999
 31
0.0
  0
ARC
  5
C1
  8
1
  6
CONTINUOUS
 62
     7
 10
2320.218168000002
 20
-1256.499999999999
 30
0.0
 40
49.99999999999716
 50
90.0
 51
90.5
  0
ARC
  5
C2
  8
1
  6
CONTINUOUS
 62
     7
 10
2362.216621999999
 20
-1339.716621999999
 30
0.0
 40
58.50000000000222
 50
270.5000000000001
 51
359.5000000000001
  0
ARC
  5
C3
  8
1
  6
CONTINUOUS
 62
     7
 10
788.9999999999992
 20
-1266.4999278989
 30
0.0
 40
53.00000000000082
 50
90.09471269749999
 51
180.0
  0
LINE
  5
C4
  8
1
  6
CONTINUOUS
 62
     7
 10
914.0000000000028
 20
-1338.5000721011
 30
0.0
 11
914.0000000000028
 21
-1315.8390995573
 31
0.0
  0
LINE
  5
C5
  8
1
  6
CONTINUOUS
 62
     7
 10
2074.868790187966
 20
-1241.305950776799
 30
0.0
 11
2068.897049679266
 21
-1239.705827730099
 31
0.0
  0
LINE
  5
C6
  8
1
  6
CONTINUOUS
 62
     7
 10
2329.781832
 20
-1206.5
 30
0.0
 11
2320.218167999999
 21
-1206.5
 31
0.0
  0
LINE
  5
C7
  8
1
  6
CONTINUOUS
 62
     7
 10
914.0000000000028
 20
-1266.4999278989
 30
0.0
 11
914.0000000000028
 21
-1289.1609004427
 31
0.0
  0
LINE
  5
C8
  8
1
  6
CENTER
 62
     1
 10
2325.0
 20
-1202.2627639734
 30
0.0
 11
2325.0
 21
-1402.7372360266
 31
0.0
  0
LINE
  5
C9
  8
1
  6
CONTINUOUS
 62
     7
 10
2229.284628
 20
-1264.88491
 30
0.0
 11
2229.001904000001
 21
-1297.28184
 31
0.0
  0
LINE
  5
CA
  8
1
  6
CONTINUOUS
 62
     7
 10
2288.254451999998
 20
-1212.039096
 30
0.0
 11
2361.745547999998
 21
-1212.039096
 31
0.0
  0
ARC
  5
CB
  8
1
  6
CONTINUOUS
 62
     7
 10
860.9999999999984
 20
-1338.5000721011
 30
0.0
 40
29.49999999999875
 50
270.1271371017
 51
0.0
  0
ARC
  5
CC
  8
1
  6
CONTINUOUS
 62
     7
 10
2359.0
 20
-1336.499999999999
 30
0.0
 40
31.00000000000236
 50
270.0
 51
0.0
  0
LINE
  5
CD
  8
1
  6
CONTINUOUS
 62
     7
 10
788.930766580401
 20
-1233.500000524799
 30
0.0
 11
861.0692334196002
 21
-1233.500000524799
 31
0.0
  0
LINE
  5
CE
  8
1
  6
CONTINUOUS
 62
     7
 10
1628.499999999998
 20
-1289.999999999999
 30
0.0
 11
1628.499999999998
 21
-1314.999999999999
 31
0.0
  0
LINE
  5
CF
  8
1
  6
CONTINUOUS
 62
     7
 10
910.5000000000003
 20
-1313.5437562137
 30
0.0
 11
910.5000000000003
 21
-1291.4562437863
 31
0.0
  0
LINE
  5
D0
  8
1
  6
CONTINUOUS
 62
     7
 10
735.9999999999984
 20
-1266.4999278989
 30
0.0
 11
735.9999999999984
 21
-1289.1609004427
 31
0.0
  0
LINE
  5
D1
  8
1
  6
CONTINUOUS
 62
     7
 10
736.8263520039036
 20
-1314.854291772299
 30
0.0
 11
738.6736479961011
 21
-1314.528563998699
 31
0.0
  0
ARC
  5
D2
  8
1
  6
CONTINUOUS
 62
     7
 10
1137.387003
 20
-1373.499999999999
 30
0.0
 40
1.999999999998892
 50
90.0
 51
172.5
  0
LINE
  5
D3
  8
1
  6
CONTINUOUS
 62
     7
 10
2319.781840000002
 20
-1398.498095999999
 30
0.0
 11
2287.272876000002
 21
-1398.214393999999
 31
0.0
  0
LINE
  5
D4
  8
1
  6
CONTINUOUS
 62
     7
 10
1401.387002999999
 20
-1233.5
 30
0.0
 11
1406.612996999998
 21
-1233.5
 31
0.0
  0
LINE
  5
D5
  8
1
  6
CONTINUOUS
 62
     7
 10
2291.000000000002
 20
-1237.5
 30
0.0
 11
2359.000000000001
 21
-1237.5
 31
0.0
  0
LINE
  5
D6
  8
1
  6
CONTINUOUS
 62
     7
 10
2390.000000000002
 20
-1268.5
 30
0.0
 11
2390.000000000002
 21
-1336.5
 31
0.0
  0
LINE
  5
D7
  8
1
  6
CONTINUOUS
 62
     7
 10
759.5000000000005
 20
-1338.5000721011
 30
0.0
 11
759.5000000000005
 21
-1266.4999278989
 31
0.0
  0
ARC
  5
D8
  8
1
  6
CONTINUOUS
 62
     7
 10
2329.781832
 20
-1348.5
 30
0.0
 40
50.00000000000071
 50
270.0
 51
270.5000000000001
  0
LINE
  5
D9
  8
1
  6
CONTINUOUS
 62
     7
 10
1348.507905999998
 20
-1391.5
 30
0.0
 11
1360.492093999997
 21
-1391.5
 31
0.0
  0
LINE
  5
DA
  8
1
  6
CONTINUOUS
 62
     7
 10
2229.0
 20
-1297.718168
 30
0.0
 11
2229.0
 21
-1307.281832
 31
0.0
  0
ARC
  5
DB
  8
1
  6
CONTINUOUS
 62
     7
 10
2291.000000000002
 20
-1268.5
 30
0.0
 40
30.99999999999881
 50
90.0
 51
180.0
  0
ARC
  5
DC
  8
1
  6
CONTINUOUS
 62
     7
 10
788.9999999999992
 20
-1338.5000721011
 30
0.0
 40
53.00000000000082
 50
180.0
 51
269.9052873025
  0
ARC
  5
DD
  8
1
  6
CONTINUOUS
 62
     7
 10
912.9999999999981
 20
-1315.8390995573
 30
0.0
 40
1.000000000004775
 50
0.0
 51
80.0000105651
  0
LINE
  5
DE
  8
1
  6
CONTINUOUS
 62
     7
 10
2329.781832
 20
-1398.5
 30
0.0
 11
2320.218167999999
 21
-1398.5
 31
0.0
  0
LINE
  5
DF
  8
1
  6
CONTINUOUS
 62
     7
 10
1925.054974106767
 20
-1392.5344061517
 30
0.0
 11
1914.974974000167
 21
-1392.6016061524
 31
0.0
  0
LINE
  5
E0
  8
1
  6
CONTINUOUS
 62
     7
 10
2065.695147954169
 20
-1235.5330213083
 30
0.0
 11
2065.695193552569
 21
-1206.785606
 31
0.0
  0
ARC
  5
E1
  8
1
  6
CONTINUOUS
 62
     7
 10
1381.507905999999
 20
-1387.5
 30
0.0
 40
3.999999999997783
 50
187.5
 51
270.0
  0
ARC
  5
E2
  8
1
  6
CONTINUOUS
 62
     7
 10
2329.781832
 20
-1256.499999999999
 30
0.0
 40
50.00000000000071
 50
89.5
 51
90.0
  0
ARC
  5
E3
  8
1
  6
CONTINUOUS
 62
     7
 10
1401.387002999999
 20
-1373.499999999999
 30
0.0
 40
1.999999999998892
 50
90.0
 51
172.5
  0
LINE
  5
E4
  8
1
  6
CONTINUOUS
 62
     7
 10
1887.375078871865
 20
-1398.214393999999
 30
0.0
 11
2103.375078872961
 21
-1398.214393999999
 31
0.0
  0
LINE
  5
E5
  8
1
  6
CONTINUOUS
 62
     7
 10
2420.715372000001
 20
-1264.88491
 30
0.0
 11
2420.998096000001
 21
-1297.28184
 31
0.0
  0
LINE
  5
E6
  8
1
  6
CONTINUOUS
 62
     7
 10
756.0000000000016
 20
-1338.5000721011
 30
0.0
 11
756.0000000000016
 21
-1266.4999278989
 31
0.0
  0
LINE
  5
E7
  8
1
  6
CONTINUOUS
 62
     7
 10
1330.7543895062
 20
-1289.999999999999
 30
0.0
 11
1330.7543895062
 21
-1215.185388147
 31
0.0
  0
LINE
  5
E8
  8
1
  6
CONTINUOUS
 62
     7
 10
1887.375078871865
 20
-1206.785606
 30
0.0
 11
2103.375078871864
 21
-1206.785606
 31
0.0
  0
ARC
  5
E9
  8
1
  6
CONTINUOUS
 62
     7
 10
2320.218168000002
 20
-1348.5
 30
0.0
 40
49.99999999999716
 50
269.5000000000001
 51
270.0
  0
ARC
  5
EA
  8
1
  6
CONTINUOUS
 62
     7
 10
1129.492093999995
 20
-1387.5
 30
0.0
 40
4.000000000001336
 50
270.0
 51
352.5
  0
ARC
  5
EB
  8
1
  6
CONTINUOUS
 62
     7
 10
738.5000000000033
 20
-1291.4562437863
 30
0.0
 40
0.9999999999976694
 50
0.0
 51
80.0000105651
  0
ARC
  5
EC
  8
1
  6
CONTINUOUS
 62
     7
 10
911.499999999998
 20
-1291.4562437863
 30
0.0
 40
1.000000000001222
 50
99.99998943489999
 51
180.0
  0
LINE
  5
ED
  8
1
  6
CONTINUOUS
 62
     7
 10
1315.507906
 20
-1391.5
 30
0.0
 11
1327.492093999999
 21
-1391.5
 31
0.0
  0
LINE
  5
EE
  8
1
  6
CONTINUOUS
 62
     7
 10
2234.494501999998
 20
-1338.935287999999
 30
0.0
 11
2234.494501999998
 21
-1266.064711999999
 31
0.0
  0
LINE
  5
EF
  8
1
  6
CONTINUOUS
 62
     7
 10
2421.0
 20
-1297.718168
 30
0.0
 11
2421.0
 21
-1307.281832
 31
0.0
  0
ARC
  5
F0
  8
1
  6
CONTINUOUS
 62
     7
 10
788.9999999999992
 20
-1266.4999278989
 30
0.0
 40
29.49999999999875
 50
90.1271371017
 51
180.0
  0
LINE
  5
F1
  8
1
  6
CONTINUOUS
 62
     7
 10
788.930766580401
 20
-1371.4999994752
 30
0.0
 11
861.0692334196002
 21
-1371.4999994752
 31
0.0
  0
LINE
  5
F2
  8
1
  6
CONTINUOUS
 62
     7
 10
2229.001904000002
 20
-1307.71816
 30
0.0
 11
2229.000000000001
 21
-1307.281832
 31
0.0
  0
LINE
  5
F3
  8
1
  6
CONTINUOUS
 62
     7
 10
1364.500000000003
 20
-1289.999999999999
 30
0.0
 11
1364.500000000003
 21
-1314.999999999999
 31
0.0
  0
LINE
  5
F4
  8
1
  6
CONTINUOUS
 62
     7
 10
1113.542125999998
 20
-1388.022104999999
 30
0.0
 11
1111.595886999997
 21
-1373.238947999999
 31
0.0
  0
LINE
  5
F5
  8
1
  6
CONTINUOUS
 62
     7
 10
1334.042795336497
 20
-1232.980913692299
 30
0.0
 11
1334.042795336497
 21
-1372.019086307699
 31
0.0
  0
ARC
  5
F6
  8
1
  6
CONTINUOUS
 62
     7
 10
2287.783377999998
 20
-1339.716621999999
 30
0.0
 40
58.50000000000222
 50
180.5
 51
269.5000000000001
  0
LINE
  5
F7
  8
1
  6
CONTINUOUS
 62
     7
 10
1914.974964191166
 20
-1206.785606
 30
0.0
 11
1914.975017843366
 21
-1240.6104853239
 31
0.0
  0
LINE
  5
F8
  8
1
  6
CONTINUOUS
 62
     7
 10
739.5000000000009
 20
-1313.5437562137
 30
0.0
 11
739.5000000000009
 21
-1291.4562437863
 31
0.0
  0
ARC
  5
F9
  8
1
  6
CONTINUOUS
 62
     7
 10
1360.492094000001
 20
-1217.5
 30
0.0
 40
3.999999999997783
 50
7.5
 51
90.0
  0
LINE
  5
FA
  8
1
  6
CONTINUOUS
 62
     7
 10
1330.7543895062
 20
-1315.0
 30
0.0
 11
1330.7543895062
 21
-1389.814611853
 31
0.0
  0
LINE
  5
FB
  8
1
  6
CONTINUOUS
 62
     7
 10
1434.387003000001
 20
-1371.5
 30
0.0
 11
1439.612997
 21
-1371.5
 31
0.0
  0
LINE
  5
FC
  8
1
  6
CONTINUOUS
 62
     7
 10
1400.042795336499
 20
-1232.980913692299
 30
0.0
 11
1400.042795336499
 21
-1372.019086307699
 31
0.0
  0
LINE
  5
FD
  8
1
  6
CONTINUOUS
 62
     7
 10
1397.457874
 20
-1216.977895
 30
0.0
 11
1399.404112999999
 21
-1231.761052
 31
0.0
  0
LINE
  5
FE
  8
1
  6
CONTINUOUS
 62
     7
 10
1348.507905999998
 20
-1213.5
 30
0.0
 11
1360.492093999997
 21
-1213.5
 31
0.0
  0
LINE
  5
FF
  8
1
  6
CONTINUOUS
 62
     7
 10
1311.499999999998
 20
-1289.999999999999
 30
0.0
 11
1331.499999999999
 21
-1289.999999999999
 31
0.0
  0
LINE
  5
100
  8
1
  6
CONTINUOUS
 62
     7
 10
1377.542126000001
 20
-1216.977895
 30
0.0
 11
1375.595887
 21
-1231.761052
 31
0.0
  0
LINE
  5
101
  8
1
  6
CONTINUOUS
 62
     7
 10
1335.387003
 20
-1371.5
 30
0.0
 11
1340.612996999999
 21
-1371.5
 31
0.0
  0
ARC
  5
102
  8
1
  6
CONTINUOUS
 62
     7
 10
1373.612996999998
 20
-1373.499999999999
 30
0.0
 40
2.000000000002444
 50
7.5
 51
90.0
  0
LINE
  5
103
  8
1
  6
CONTINUOUS
 62
     7
 10
788.9345407035022
 20
-1367.999999475199
 30
0.0
 11
861.0654592965017
 21
-1367.999999475199
 31
0.0
  0
LINE
  5
104
  8
1
  6
CONTINUOUS
 62
     7
 10
913.1736479961012
 20
-1290.1457082277
 30
0.0
 11
911.3263520039019
 21
-1290.4714360013
 31
0.0
  0
LINE
  5
105
  8
1
  6
CONTINUOUS
 62
     7
 10
1401.387002999999
 20
-1371.5
 30
0.0
 11
1406.612996999998
 21
-1371.5
 31
0.0
  0
LINE
  5
106
  8
1
  6
CONTINUOUS
 62
     7
 10
1312.2456104938
 20
-1315.0
 30
0.0
 11
1312.2456104938
 21
-1389.814611853
 31
0.0
  0
ARC
  5
107
  8
1
  6
CONTINUOUS
 62
     7
 10
788.9999999999992
 20
-1338.5000721011
 30
0.0
 40
32.9999999999977
 50
180.0
 51
269.8797943741
  0
ARC
  5
108
  8
1
  6
CONTINUOUS
 62
     7
 10
1915.695017843368
 20
-1364.9607278181
 30
0.0
 40
0.7199999999976114
 50
75.0
 51
179.9999091189
  0
LINE
  5
109
  8
1
  6
CONTINUOUS
 62
     7
 10
1915.881367555868
 20
-1364.265261223199
 30
0.0
 11
1921.853108064467
 21
-1365.865384269899
 31
0.0
  0
LINE
  5
10A
  8
1
  6
CONTINUOUS
 62
     7
 10
1344.499999999999
 20
-1315.0
 30
0.0
 11
1344.499999999999
 21
-1290.0
 31
0.0
  0
LINE
  5
10B
  8
1
  6
CONTINUOUS
 62
     7
 10
1363.754389506201
 20
-1289.999999999999
 30
0.0
 11
1363.754389506201
 21
-1215.185388147
 31
0.0
  0
LINE
  5
10C
  8
1
  6
CONTINUOUS
 62
     7
 10
1117.507905999999
 20
-1391.5
 30
0.0
 11
1129.492093999998
 21
-1391.5
 31
0.0
  0
ARC
  5
10D
  8
1
  6
CONTINUOUS
 62
     7
 10
860.9999999999984
 20
-1266.4999278989
 30
0.0
 40
53.00000000000438
 50
0.0
 51
89.9052873025
  0
ARC
  5
10E
  8
1
  6
CONTINUOUS
 62
     7
 10
912.9999999999981
 20
-1289.1609004427
 30
0.0
 40
1.000000000004775
 50
279.9999894349
 51
0.0
  0
LINE
  5
10F
  8
1
  6
CONTINUOUS
 62
     7
 10
2291.000000000002
 20
-1367.5
 30
0.0
 11
2359.000000000001
 21
-1367.5
 31
0.0
  0
LINE
  5
110
  8
1
  6
CONTINUOUS
 62
     7
 10
1378.245610493795
 20
-1289.999999999999
 30
0.0
 11
1378.245610493795
 21
-1215.185388147
 31
0.0
  0
ARC
  5
111
  8
1
  6
CONTINUOUS
 62
     7
 10
1315.507906
 20
-1387.5
 30
0.0
 40
4.000000000001336
 50
187.5
 51
270.0
  0
LINE
  5
112
  8
1
  6
CONTINUOUS
 62
     7
 10
1462.754389506201
 20
-1289.999999999999
 30
0.0
 11
1462.754389506201
 21
-1215.185388147
 31
0.0
  0
LINE
  5
113
  8
1
  6
CONTINUOUS
 62
     7
 10
1396.754389506199
 20
-1289.999999999999
 30
0.0
 11
1396.754389506199
 21
-1215.185388147
 31
0.0
  0
ARC
  5
114
  8
1
  6
CONTINUOUS
 62
     7
 10
911.499999999998
 20
-1313.5437562137
 30
0.0
 40
1.000000000001222
 50
180.0
 51
260.0000105651
  0
ARC
  5
115
  8
1
  6
CONTINUOUS
 62
     7
 10
1393.492093999998
 20
-1217.5
 30
0.0
 40
3.999999999997783
 50
7.5
 51
90.0
  0
LINE
  5
116
  8
1
  6
CONTINUOUS
 62
     7
 10
1132.754389506199
 20
-1315.0
 30
0.0
 11
1132.754389506199
 21
-1389.814611853
 31
0.0
  0
LINE
  5
117
  8
1
  6
CONTINUOUS
 62
     7
 10
1430.457873999997
 20
-1388.022104999999
 30
0.0
 11
1432.404112999997
 21
-1373.238947999999
 31
0.0
  0
LINE
  5
118
  8
1
  6
CONTINUOUS
 62
     7
 10
1368.387002999998
 20
-1371.5
 30
0.0
 11
1373.612996999998
 21
-1371.5
 31
0.0
  0
LINE
  5
119
  8
1
  6
CONTINUOUS
 62
     7
 10
1397.457874
 20
-1388.022104999999
 30
0.0
 11
1399.404112999999
 21
-1373.238947999999
 31
0.0
  0
LINE
  5
11A
  8
1
  6
CONTINUOUS
 62
     7
 10
1397.5
 20
-1289.999999999999
 30
0.0
 11
1397.5
 21
-1314.999999999999
 31
0.0
  0
ARC
  5
11B
  8
1
  6
CONTINUOUS
 62
     7
 10
1467.387002999998
 20
-1373.499999999999
 30
0.0
 40
1.999999999998892
 50
90.0
 51
172.5
  0
LINE
  5
11C
  8
1
  6
CONTINUOUS
 62
     7
 10
1407.957204663499
 20
-1232.980913692299
 30
0.0
 11
1407.957204663499
 21
-1372.019086307699
 31
0.0
  0
LINE
  5
11D
  8
1
  6
CONTINUOUS
 62
     7
 10
1113.499999999998
 20
-1315.0
 30
0.0
 11
1133.499999999997
 21
-1315.0
 31
0.0
  0
LINE
  5
11E
  8
1
  6
CONTINUOUS
 62
     7
 10
1411.2456104938
 20
-1315.0
 30
0.0
 11
1411.2456104938
 21
-1389.814611853
 31
0.0
  0
LINE
  5
11F
  8
1
  6
CONTINUOUS
 62
     7
 10
1381.507905999999
 20
-1391.5
 30
0.0
 11
1393.492093999998
 21
-1391.5
 31
0.0
  0
LINE
  5
120
  8
1
  6
CONTINUOUS
 62
     7
 10
1311.499999999998
 20
-1315.0
 30
0.0
 11
1311.499999999998
 21
-1290.0
 31
0.0
  0
ARC
  5
121
  8
1
  6
CONTINUOUS
 62
     7
 10
1348.507905999998
 20
-1217.5
 30
0.0
 40
4.000000000001336
 50
90.0
 51
172.5
  0
ARC
  5
122
  8
1
  6
CONTINUOUS
 62
     7
 10
1920.735009789666
 20
-1370.038183839499
 30
0.0
 40
4.319999999999879
 50
0.0
 51
75.0
  0
LINE
  5
123
  8
1
  6
CONTINUOUS
 62
     7
 10
2065.695183637064
 20
-1392.5344061517
 30
0.0
 11
2075.775183743664
 21
-1392.6016061524
 31
0.0
  0
LINE
  5
124
  8
1
  6
CONTINUOUS
 62
     7
 10
1341.957204663497
 20
-1232.980913692299
 30
0.0
 11
1341.957204663497
 21
-1372.019086307699
 31
0.0
  0
LINE
  5
125
  8
1
  6
CONTINUOUS
 62
     7
 10
1368.387002999998
 20
-1233.5
 30
0.0
 11
1373.612996999998
 21
-1233.5
 31
0.0
  0
LINE
  5
126
  8
1
  6
CONTINUOUS
 62
     7
 10
788.9123884741997
 20
-1391.499999474699
 30
0.0
 11
861.0876115258005
 21
-1391.499999475799
 31
0.0
  0
LINE
  5
127
  8
1
  6
CONTINUOUS
 62
     7
 10
1925.054974106767
 20
-1213.0368058484
 30
0.0
 11
1914.974974000167
 21
-1212.9696058477
 31
0.0
  0
LINE
  5
128
  8
1
  6
CENTER
 62
     1
 10
916.9407419999991
 20
-1302.5
 30
0.0
 11
733.0592579999986
 21
-1302.5
 31
0.0
  0
LINE
  5
129
  8
1
  6
CONTINUOUS
 62
     7
 10
2065.695183637064
 20
-1213.0368058484
 30
0.0
 11
2075.775183743664
 21
-1212.9696058477
 31
0.0
  0
ARC
  5
12A
  8
1
  6
CONTINUOUS
 62
     7
 10
1920.735009789666
 20
-1235.5330281606
 30
0.0
 40
4.319999999999879
 50
285.0
 51
0.0000908810999931
  0
ARC
  5
12B
  8
1
  6
CONTINUOUS
 62
     7
 10
2070.015147954169
 20
-1235.5330281606
 30
0.0
 40
4.319999999999879
 50
179.9999091189
 51
255.0
  0
LINE
  5
12C
  8
1
  6
CONTINUOUS
 62
     7
 10
2075.775193552565
 20
-1206.785606
 30
0.0
 11
2075.775139900364
 21
-1240.6104853239
 31
0.0
  0
ARC
  5
12D
  8
1
  6
CONTINUOUS
 62
     7
 10
1340.612997
 20
-1231.5
 30
0.0
 40
1.999999999998892
 50
270.0
 51
352.5
  0
LINE
  5
12E
  8
1
  6
CONTINUOUS
 62
     7
 10
1377.500000000001
 20
-1289.999999999999
 30
0.0
 11
1397.5
 21
-1289.999999999999
 31
0.0
  0
ARC
  5
12F
  8
1
  6
CONTINUOUS
 62
     7
 10
860.9999999999984
 20
-1266.4999278989
 30
0.0
 40
33.00000000000125
 50
0.0
 51
89.8797943741
  0
ARC
  5
130
  8
1
  6
CONTINUOUS
 62
     7
 10
1368.387002999998
 20
-1231.5
 30
0.0
 40
2.000000000002444
 50
187.5
 51
270.0
  0
ARC
  5
131
  8
1
  6
CONTINUOUS
 62
     7
 10
1368.387002999998
 20
-1373.499999999999
 30
0.0
 40
2.000000000002444
 50
90.0
 51
172.5
  0
ARC
  5
132
  8
1
  6
CONTINUOUS
 62
     7
 10
2075.055139900363
 20
-1240.610484181899
 30
0.0
 40
0.7200000000047169
 50
255.0
 51
0.0
  0
LINE
  5
133
  8
1
  6
CONTINUOUS
 62
     7
 10
1915.881367555868
 20
-1241.305950776799
 30
0.0
 11
1921.853108064467
 21
-1239.705827730099
 31
0.0
  0
LINE
  5
134
  8
1
  6
CONTINUOUS
 62
     7
 10
1236.387003
 20
-1233.5
 30
0.0
 11
1241.612996999999
 21
-1233.5
 31
0.0
  0
LINE
  5
135
  8
1
  6
CONTINUOUS
 62
     7
 10
1434.387003000001
 20
-1233.5
 30
0.0
 11
1439.612997
 21
-1233.5
 31
0.0
  0
ARC
  5
136
  8
1
  6
CONTINUOUS
 62
     7
 10
1434.387003000001
 20
-1373.499999999999
 30
0.0
 40
1.999999999998892
 50
90.0
 51
172.5
  0
LINE
  5
137
  8
1
  6
CONTINUOUS
 62
     7
 10
1443.5
 20
-1289.999999999999
 30
0.0
 11
1463.499999999999
 21
-1289.999999999999
 31
0.0
  0
ARC
  5
138
  8
1
  6
CONTINUOUS
 62
     7
 10
1426.492093999996
 20
-1387.5
 30
0.0
 40
4.000000000001336
 50
270.0
 51
352.5
  0
LINE
  5
139
  8
1
  6
CONTINUOUS
 62
     7
 10
1462.754389506201
 20
-1315.0
 30
0.0
 11
1462.754389506201
 21
-1389.814611853
 31
0.0
  0
LINE
  5
13A
  8
1
  6
CONTINUOUS
 62
     7
 10
735.9999999999984
 20
-1338.5000721011
 30
0.0
 11
735.9999999999984
 21
-1315.8390995573
 31
0.0
  0
ARC
  5
13B
  8
1
  6
CONTINUOUS
 62
     7
 10
738.5000000000033
 20
-1313.5437562137
 30
0.0
 40
0.9999999999976694
 50
279.9999894349
 51
0.0
  0
ARC
  5
13C
  8
1
  6
CONTINUOUS
 62
     7
 10
1348.507905999998
 20
-1387.5
 30
0.0
 40
4.000000000001336
 50
187.5
 51
270.0
  0
LINE
  5
13D
  8
1
  6
CONTINUOUS
 62
     7
 10
1377.500000000001
 20
-1315.0
 30
0.0
 11
1397.5
 21
-1315.0
 31
0.0
  0
ARC
  5
13E
  8
1
  6
CONTINUOUS
 62
     7
 10
1459.492094000001
 20
-1217.5
 30
0.0
 40
3.999999999997783
 50
7.5
 51
90.0
  0
ARC
  5
13F
  8
1
  6
CONTINUOUS
 62
     7
 10
1467.387002999998
 20
-1231.5
 30
0.0
 40
1.999999999998892
 50
187.5
 51
270.0
  0
LINE
  5
140
  8
1
  6
CONTINUOUS
 62
     7
 10
1179.5
 20
-1289.999999999999
 30
0.0
 11
1199.5
 21
-1289.999999999999
 31
0.0
  0
ARC
  5
141
  8
1
  6
CONTINUOUS
 62
     7
 10
1434.387003000001
 20
-1231.5
 30
0.0
 40
1.999999999998892
 50
187.5
 51
270.0
  0
ARC
  5
142
  8
1
  6
CONTINUOUS
 62
     7
 10
1360.492094000001
 20
-1387.5
 30
0.0
 40
3.999999999997783
 50
270.0
 51
352.5
  0
LINE
  5
143
  8
1
  6
CONTINUOUS
 62
     7
 10
1447.507906000001
 20
-1391.5
 30
0.0
 11
1459.492094
 21
-1391.5
 31
0.0
  0
ARC
  5
144
  8
1
  6
CONTINUOUS
 62
     7
 10
1340.612997
 20
-1373.499999999999
 30
0.0
 40
1.999999999998892
 50
7.5
 51
90.0
  0
LINE
  5
145
  8
1
  6
CONTINUOUS
 62
     7
 10
1183.507905999998
 20
-1391.5
 30
0.0
 11
1195.492093999998
 21
-1391.5
 31
0.0
  0
ARC
  5
146
  8
1
  6
CONTINUOUS
 62
     7
 10
1414.507906
 20
-1387.5
 30
0.0
 40
4.000000000001336
 50
187.5
 51
270.0
  0
LINE
  5
147
  8
1
  6
CONTINUOUS
 62
     7
 10
1377.542126000001
 20
-1388.022104999999
 30
0.0
 11
1375.595887
 21
-1373.238947999999
 31
0.0
  0
LINE
  5
148
  8
1
  6
CONTINUOUS
 62
     7
 10
1377.500000000001
 20
-1315.0
 30
0.0
 11
1377.500000000001
 21
-1290.0
 31
0.0
  0
LINE
  5
149
  8
1
  6
CONTINUOUS
 62
     7
 10
1344.542125999996
 20
-1216.977895
 30
0.0
 11
1342.595886999997
 21
-1231.761052
 31
0.0
  0
LINE
  5
14A
  8
1
  6
CONTINUOUS
 62
     7
 10
1345.245610493797
 20
-1315.0
 30
0.0
 11
1345.245610493797
 21
-1389.814611853
 31
0.0
  0
ARC
  5
14B
  8
1
  6
CONTINUOUS
 62
     7
 10
1327.492093999996
 20
-1387.5
 30
0.0
 40
4.000000000001336
 50
270.0
 51
352.5
  0
LINE
  5
14C
  8
1
  6
CONTINUOUS
 62
     7
 10
1466.042795336502
 20
-1232.980913692299
 30
0.0
 11
1466.042795336502
 21
-1372.019086307699
 31
0.0
  0
LINE
  5
14D
  8
1
  6
CONTINUOUS
 62
     7
 10
1344.499999999999
 20
-1315.0
 30
0.0
 11
1364.499999999999
 21
-1315.0
 31
0.0
  0
ARC
  5
14E
  8
1
  6
CONTINUOUS
 62
     7
 10
1406.612996999999
 20
-1373.499999999999
 30
0.0
 40
1.999999999998892
 50
7.5
 51
90.0
  0
LINE
  5
14F
  8
1
  6
CONTINUOUS
 62
     7
 10
1209.957204663499
 20
-1232.980913692299
 30
0.0
 11
1209.957204663499
 21
-1372.019086307699
 31
0.0
  0
LINE
  5
150
  8
1
  6
CONTINUOUS
 62
     7
 10
1378.245610493795
 20
-1315.0
 30
0.0
 11
1378.245610493795
 21
-1389.814611853
 31
0.0
  0
ARC
  5
151
  8
1
  6
CONTINUOUS
 62
     7
 10
1439.612997
 20
-1373.499999999999
 30
0.0
 40
1.999999999998892
 50
7.5
 51
90.0
  0
LINE
  5
152
  8
1
  6
CONTINUOUS
 62
     7
 10
1150.507905999997
 20
-1213.5
 30
0.0
 11
1162.492093999997
 21
-1213.5
 31
0.0
  0
ARC
  5
153
  8
1
  6
CONTINUOUS
 62
     7
 10
1203.387002999999
 20
-1373.499999999999
 30
0.0
 40
1.999999999998892
 50
90.0
 51
172.5
  0
LINE
  5
154
  8
1
  6
CONTINUOUS
 62
     7
 10
1345.245610493797
 20
-1289.999999999999
 30
0.0
 11
1345.245610493797
 21
-1215.185388147
 31
0.0
  0
ARC
  5
155
  8
1
  6
CONTINUOUS
 62
     7
 10
1401.387002999999
 20
-1231.5
 30
0.0
 40
1.999999999998892
 50
187.5
 51
270.0
  0
LINE
  5
156
  8
1
  6
CONTINUOUS
 62
     7
 10
1463.499999999999
 20
-1289.999999999999
 30
0.0
 11
1463.499999999999
 21
-1314.999999999999
 31
0.0
  0
LINE
  5
157
  8
1
  6
CONTINUOUS
 62
     7
 10
1374.957204663498
 20
-1232.980913692299
 30
0.0
 11
1374.957204663498
 21
-1372.019086307699
 31
0.0
  0
LINE
  5
158
  8
1
  6
CONTINUOUS
 62
     7
 10
1363.754389506201
 20
-1315.0
 30
0.0
 11
1363.754389506201
 21
-1389.814611853
 31
0.0
  0
LINE
  5
159
  8
1
  6
CONTINUOUS
 62
     7
 10
1410.500000000002
 20
-1289.999999999999
 30
0.0
 11
1430.500000000002
 21
-1289.999999999999
 31
0.0
  0
LINE
  5
15A
  8
1
  6
CONTINUOUS
 62
     7
 10
1133.457873999997
 20
-1388.022104999999
 30
0.0
 11
1135.404112999997
 21
-1373.238947999999
 31
0.0
  0
LINE
  5
15B
  8
1
  6
CONTINUOUS
 62
     7
 10
1367.042795336501
 20
-1232.980913692299
 30
0.0
 11
1367.042795336501
 21
-1372.019086307699
 31
0.0
  0
LINE
  5
15C
  8
1
  6
CONTINUOUS
 62
     7
 10
1433.042795336497
 20
-1232.980913692299
 30
0.0
 11
1433.042795336497
 21
-1372.019086307699
 31
0.0
  0
LINE
  5
15D
  8
1
  6
CONTINUOUS
 62
     7
 10
1430.499999999998
 20
-1289.999999999999
 30
0.0
 11
1430.499999999998
 21
-1314.999999999999
 31
0.0
  0
LINE
  5
15E
  8
1
  6
CONTINUOUS
 62
     7
 10
1444.245610493798
 20
-1315.0
 30
0.0
 11
1444.245610493798
 21
-1389.814611853
 31
0.0
  0
LINE
  5
15F
  8
1
  6
CONTINUOUS
 62
     7
 10
1396.754389506199
 20
-1315.0
 30
0.0
 11
1396.754389506199
 21
-1389.814611853
 31
0.0
  0
LINE
  5
160
  8
1
  6
CONTINUOUS
 62
     7
 10
1232.499999999997
 20
-1289.999999999999
 30
0.0
 11
1232.499999999997
 21
-1314.999999999999
 31
0.0
  0
ARC
  5
161
  8
1
  6
CONTINUOUS
 62
     7
 10
1447.507906000001
 20
-1387.5
 30
0.0
 40
3.999999999997783
 50
187.5
 51
270.0
  0
LINE
  5
162
  8
1
  6
CONTINUOUS
 62
     7
 10
1430.457873999997
 20
-1216.977895
 30
0.0
 11
1432.404112999997
 21
-1231.761052
 31
0.0
  0
LINE
  5
163
  8
1
  6
CONTINUOUS
 62
     7
 10
1311.499999999998
 20
-1315.0
 30
0.0
 11
1331.499999999999
 21
-1315.0
 31
0.0
  0
ARC
  5
164
  8
1
  6
CONTINUOUS
 62
     7
 10
1381.507905999999
 20
-1217.5
 30
0.0
 40
3.999999999997783
 50
90.0
 51
172.5
  0
LINE
  5
165
  8
1
  6
CONTINUOUS
 62
     7
 10
1331.457873999997
 20
-1388.022104999999
 30
0.0
 11
1333.404112999997
 21
-1373.238947999999
 31
0.0
  0
ARC
  5
166
  8
1
  6
CONTINUOUS
 62
     7
 10
1195.492093999998
 20
-1387.5
 30
0.0
 40
3.999999999997783
 50
270.0
 51
352.5
  0
LINE
  5
167
  8
1
  6
CONTINUOUS
 62
     7
 10
1364.457874000002
 20
-1388.022104999999
 30
0.0
 11
1366.404113000002
 21
-1373.238947999999
 31
0.0
  0
LINE
  5
168
  8
1
  6
CONTINUOUS
 62
     7
 10
1311.542125999998
 20
-1388.022104999999
 30
0.0
 11
1309.595886999999
 21
-1373.238947999999
 31
0.0
  0
LINE
  5
169
  8
1
  6
CONTINUOUS
 62
     7
 10
1443.542126
 20
-1388.022104999999
 30
0.0
 11
1441.595886999999
 21
-1373.238947999999
 31
0.0
  0
LINE
  5
16A
  8
1
  6
CONTINUOUS
 62
     7
 10
1344.499999999999
 20
-1289.999999999999
 30
0.0
 11
1364.499999999999
 21
-1289.999999999999
 31
0.0
  0
ARC
  5
16B
  8
1
  6
CONTINUOUS
 62
     7
 10
1150.507905999997
 20
-1217.5
 30
0.0
 40
4.000000000001336
 50
90.0
 51
172.5
  0
ARC
  5
16C
  8
1
  6
CONTINUOUS
 62
     7
 10
1414.507906
 20
-1217.5
 30
0.0
 40
4.000000000001336
 50
90.0
 51
172.5
  0
ARC
  5
16D
  8
1
  6
CONTINUOUS
 62
     7
 10
1447.507906000001
 20
-1217.5
 30
0.0
 40
3.999999999997783
 50
90.0
 51
172.5
  0
LINE
  5
16E
  8
1
  6
CONTINUOUS
 62
     7
 10
1381.507905999999
 20
-1213.5
 30
0.0
 11
1393.492093999998
 21
-1213.5
 31
0.0
  0
ARC
  5
16F
  8
1
  6
CONTINUOUS
 62
     7
 10
860.9999999999984
 20
-1338.5000721011
 30
0.0
 40
33.00000000000125
 50
270.1202056259
 51
0.0
  0
ARC
  5
170
  8
1
  6
CONTINUOUS
 62
     7
 10
1393.492093999998
 20
-1387.5
 30
0.0
 40
3.999999999997783
 50
270.0
 51
352.5
  0
LINE
  5
171
  8
1
  6
CONTINUOUS
 62
     7
 10
1414.507906
 20
-1213.5
 30
0.0
 11
1426.492094
 21
-1213.5
 31
0.0
  0
LINE
  5
172
  8
1
  6
CONTINUOUS
 62
     7
 10
1447.507906000001
 20
-1213.5
 30
0.0
 11
1459.492094
 21
-1213.5
 31
0.0
  0
LINE
  5
173
  8
1
  6
CONTINUOUS
 62
     7
 10
1410.542125999999
 20
-1388.022104999999
 30
0.0
 11
1408.595886999999
 21
-1373.238947999999
 31
0.0
  0
LINE
  5
174
  8
1
  6
CONTINUOUS
 62
     7
 10
1067.457874000002
 20
-1216.977895
 30
0.0
 11
1069.404113000001
 21
-1231.761052
 31
0.0
  0
LINE
  5
175
  8
1
  6
CONTINUOUS
 62
     7
 10
1414.507906
 20
-1391.5
 30
0.0
 11
1426.492094
 21
-1391.5
 31
0.0
  0
ARC
  5
176
  8
1
  6
CONTINUOUS
 62
     7
 10
1426.492093999996
 20
-1217.5
 30
0.0
 40
4.000000000001336
 50
7.5
 51
90.0
  0
LINE
  5
177
  8
1
  6
CONTINUOUS
 62
     7
 10
1179.542126000001
 20
-1216.977895
 30
0.0
 11
1177.595887000001
 21
-1231.761052
 31
0.0
  0
LINE
  5
178
  8
1
  6
CONTINUOUS
 62
     7
 10
1410.542125999999
 20
-1216.977895
 30
0.0
 11
1408.595886999999
 21
-1231.761052
 31
0.0
  0
ARC
  5
179
  8
1
  6
CONTINUOUS
 62
     7
 10
1335.387003
 20
-1373.499999999999
 30
0.0
 40
1.999999999998892
 50
90.0
 51
172.5
  0
ARC
  5
17A
  8
1
  6
CONTINUOUS
 62
     7
 10
1162.492094
 20
-1217.5
 30
0.0
 40
3.999999999997783
 50
7.5
 51
90.0
  0
LINE
  5
17B
  8
1
  6
CONTINUOUS
 62
     7
 10
1212.500000000001
 20
-1315.0
 30
0.0
 11
1212.500000000001
 21
-1290.0
 31
0.0
  0
LINE
  5
17C
  8
1
  6
CONTINUOUS
 62
     7
 10
1443.5
 20
-1315.0
 30
0.0
 11
1443.5
 21
-1290.0
 31
0.0
  0
LINE
  5
17D
  8
1
  6
CONTINUOUS
 62
     7
 10
1147.245610493797
 20
-1289.999999999999
 30
0.0
 11
1147.245610493797
 21
-1215.185388147
 31
0.0
  0
LINE
  5
17E
  8
1
  6
CONTINUOUS
 62
     7
 10
1443.5
 20
-1315.0
 30
0.0
 11
1463.499999999999
 21
-1315.0
 31
0.0
  0
LINE
  5
17F
  8
1
  6
CONTINUOUS
 62
     7
 10
1411.2456104938
 20
-1289.999999999999
 30
0.0
 11
1411.2456104938
 21
-1215.185388147
 31
0.0
  0
LINE
  5
180
  8
1
  6
CONTINUOUS
 62
     7
 10
1146.542125999996
 20
-1388.022104999999
 30
0.0
 11
1144.595886999996
 21
-1373.238947999999
 31
0.0
  0
LINE
  5
181
  8
1
  6
CONTINUOUS
 62
     7
 10
1170.387002999998
 20
-1233.5
 30
0.0
 11
1175.612996999996
 21
-1233.5
 31
0.0
  0
LINE
  5
182
  8
1
  6
CONTINUOUS
 62
     7
 10
1198.754389506198
 20
-1289.999999999999
 30
0.0
 11
1198.754389506198
 21
-1215.185388147
 31
0.0
  0
LINE
  5
183
  8
1
  6
CONTINUOUS
 62
     7
 10
1213.245610493799
 20
-1315.0
 30
0.0
 11
1213.245610493799
 21
-1389.814611853
 31
0.0
  0
LINE
  5
184
  8
1
  6
CONTINUOUS
 62
     7
 10
1150.507905999997
 20
-1391.5
 30
0.0
 11
1162.492093999997
 21
-1391.5
 31
0.0
  0
LINE
  5
185
  8
1
  6
CONTINUOUS
 62
     7
 10
1166.457874000002
 20
-1388.022104999999
 30
0.0
 11
1168.404113000001
 21
-1373.238947999999
 31
0.0
  0
ARC
  5
186
  8
1
  6
CONTINUOUS
 62
     7
 10
1203.387002999999
 20
-1231.5
 30
0.0
 40
1.999999999998892
 50
187.5
 51
270.0
  0
ARC
  5
187
  8
1
  6
CONTINUOUS
 62
     7
 10
1142.612997
 20
-1373.499999999999
 30
0.0
 40
1.999999999998892
 50
7.5
 51
90.0
  0
ARC
  5
188
  8
1
  6
CONTINUOUS
 62
     7
 10
1373.612996999998
 20
-1231.5
 30
0.0
 40
2.000000000002444
 50
270.0
 51
352.5
  0
LINE
  5
189
  8
1
  6
CONTINUOUS
 62
     7
 10
1146.499999999999
 20
-1289.999999999999
 30
0.0
 11
1166.499999999999
 21
-1289.999999999999
 31
0.0
  0
LINE
  5
18A
  8
1
  6
CONTINUOUS
 62
     7
 10
1213.245610493799
 20
-1289.999999999999
 30
0.0
 11
1213.245610493799
 21
-1215.185388147
 31
0.0
  0
ARC
  5
18B
  8
1
  6
CONTINUOUS
 62
     7
 10
1175.612996999997
 20
-1373.499999999999
 30
0.0
 40
2.000000000002444
 50
7.5
 51
90.0
  0
LINE
  5
18C
  8
1
  6
CONTINUOUS
 62
     7
 10
1232.457873999997
 20
-1216.977895
 30
0.0
 11
1234.404112999997
 21
-1231.761052
 31
0.0
  0
ARC
  5
18D
  8
1
  6
CONTINUOUS
 62
     7
 10
1236.387003
 20
-1231.5
 30
0.0
 40
1.999999999998892
 50
187.5
 51
270.0
  0
LINE
  5
18E
  8
1
  6
CONTINUOUS
 62
     7
 10
1463.457873999995
 20
-1388.022104999999
 30
0.0
 11
1465.404112999996
 21
-1373.238947999999
 31
0.0
  0
LINE
  5
18F
  8
1
  6
CONTINUOUS
 62
     7
 10
1183.507905999998
 20
-1213.5
 30
0.0
 11
1195.492093999998
 21
-1213.5
 31
0.0
  0
LINE
  5
190
  8
1
  6
CONTINUOUS
 62
     7
 10
1179.5
 20
-1315.0
 30
0.0
 11
1179.5
 21
-1290.0
 31
0.0
  0
LINE
  5
191
  8
1
  6
CONTINUOUS
 62
     7
 10
1165.754389506201
 20
-1315.0
 30
0.0
 11
1165.754389506201
 21
-1389.814611853
 31
0.0
  0
ARC
  5
192
  8
1
  6
CONTINUOUS
 62
     7
 10
1208.612996999999
 20
-1231.5
 30
0.0
 40
1.999999999998892
 50
270.0
 51
352.5
  0
LINE
  5
193
  8
1
  6
CONTINUOUS
 62
     7
 10
1199.457873999999
 20
-1388.022104999999
 30
0.0
 11
1201.404112999999
 21
-1373.238947999999
 31
0.0
  0
ARC
  5
194
  8
1
  6
CONTINUOUS
 62
     7
 10
1142.612997
 20
-1231.5
 30
0.0
 40
1.999999999998892
 50
270.0
 51
352.5
  0
LINE
  5
195
  8
1
  6
CONTINUOUS
 62
     7
 10
1265.457873999995
 20
-1388.022104999999
 30
0.0
 11
1267.404112999995
 21
-1373.238947999999
 31
0.0
  0
LINE
  5
196
  8
1
  6
CONTINUOUS
 62
     7
 10
1410.500000000002
 20
-1315.0
 30
0.0
 11
1430.500000000002
 21
-1315.0
 31
0.0
  0
LINE
  5
197
  8
1
  6
CONTINUOUS
 62
     7
 10
1179.542126000001
 20
-1388.022104999999
 30
0.0
 11
1177.595887000001
 21
-1373.238947999999
 31
0.0
  0
ARC
  5
198
  8
1
  6
CONTINUOUS
 62
     7
 10
1170.387002999998
 20
-1231.5
 30
0.0
 40
2.000000000002444
 50
187.5
 51
270.0
  0
ARC
  5
199
  8
1
  6
CONTINUOUS
 62
     7
 10
1406.612996999999
 20
-1231.5
 30
0.0
 40
1.999999999998892
 50
270.0
 51
352.5
  0
LINE
  5
19A
  8
1
  6
CONTINUOUS
 62
     7
 10
1198.754389506198
 20
-1315.0
 30
0.0
 11
1198.754389506198
 21
-1389.814611853
 31
0.0
  0
LINE
  5
19B
  8
1
  6
CONTINUOUS
 62
     7
 10
1170.387002999998
 20
-1371.5
 30
0.0
 11
1175.612996999996
 21
-1371.5
 31
0.0
  0
LINE
  5
19C
  8
1
  6
CONTINUOUS
 62
     7
 10
1443.542126
 20
-1216.977895
 30
0.0
 11
1441.595886999999
 21
-1231.761052
 31
0.0
  0
LINE
  5
19D
  8
1
  6
CONTINUOUS
 62
     7
 10
1203.387002999999
 20
-1371.5
 30
0.0
 11
1208.612996999999
 21
-1371.5
 31
0.0
  0
LINE
  5
19E
  8
1
  6
CONTINUOUS
 62
     7
 10
1429.754389506196
 20
-1289.999999999999
 30
0.0
 11
1429.754389506196
 21
-1215.185388147
 31
0.0
  0
ARC
  5
19F
  8
1
  6
CONTINUOUS
 62
     7
 10
1459.492094000001
 20
-1387.5
 30
0.0
 40
3.999999999997783
 50
270.0
 51
352.5
  0
ARC
  5
1A0
  8
1
  6
CONTINUOUS
 62
     7
 10
1183.507905999998
 20
-1217.5
 30
0.0
 40
3.999999999997783
 50
90.0
 51
172.5
  0
LINE
  5
1A1
  8
1
  6
CONTINUOUS
 62
     7
 10
1235.042795336496
 20
-1232.980913692299
 30
0.0
 11
1235.042795336496
 21
-1372.019086307699
 31
0.0
  0
LINE
  5
1A2
  8
1
  6
CONTINUOUS
 62
     7
 10
1344.542125999996
 20
-1388.022104999999
 30
0.0
 11
1342.595886999997
 21
-1373.238947999999
 31
0.0
  0
LINE
  5
1A3
  8
1
  6
CONTINUOUS
 62
     7
 10
1364.457874000002
 20
-1216.977895
 30
0.0
 11
1366.404113000002
 21
-1231.761052
 31
0.0
  0
LINE
  5
1A4
  8
1
  6
CONTINUOUS
 62
     7
 10
1440.957204663501
 20
-1232.980913692299
 30
0.0
 11
1440.957204663501
 21
-1372.019086307699
 31
0.0
  0
ARC
  5
1A5
  8
1
  6
CONTINUOUS
 62
     7
 10
1162.492094
 20
-1387.5
 30
0.0
 40
3.999999999997783
 50
270.0
 51
352.5
  0
LINE
  5
1A6
  8
1
  6
CONTINUOUS
 62
     7
 10
1147.245610493797
 20
-1315.0
 30
0.0
 11
1147.245610493797
 21
-1389.814611853
 31
0.0
  0
LINE
  5
1A7
  8
1
  6
CONTINUOUS
 62
     7
 10
1169.042795336501
 20
-1232.980913692299
 30
0.0
 11
1169.042795336501
 21
-1372.019086307699
 31
0.0
  0
LINE
  5
1A8
  8
1
  6
CONTINUOUS
 62
     7
 10
1249.507906000001
 20
-1213.5
 30
0.0
 11
1261.492094
 21
-1213.5
 31
0.0
  0
ARC
  5
1A9
  8
1
  6
CONTINUOUS
 62
     7
 10
1183.507905999998
 20
-1387.5
 30
0.0
 40
3.999999999997783
 50
187.5
 51
270.0
  0
LINE
  5
1AA
  8
1
  6
CONTINUOUS
 62
     7
 10
1166.500000000002
 20
-1289.999999999999
 30
0.0
 11
1166.500000000002
 21
-1314.999999999999
 31
0.0
  0
LINE
  5
1AB
  8
1
  6
CONTINUOUS
 62
     7
 10
1199.457873999999
 20
-1216.977895
 30
0.0
 11
1201.404112999999
 21
-1231.761052
 31
0.0
  0
LINE
  5
1AC
  8
1
  6
CONTINUOUS
 62
     7
 10
1216.507906
 20
-1391.5
 30
0.0
 11
1228.492093999999
 21
-1391.5
 31
0.0
  0
LINE
  5
1AD
  8
1
  6
CONTINUOUS
 62
     7
 10
1014.500000000001
 20
-1315.0
 30
0.0
 11
1014.500000000001
 21
-1290.0
 31
0.0
  0
LINE
  5
1AE
  8
1
  6
CONTINUOUS
 62
     7
 10
1410.500000000002
 20
-1315.0
 30
0.0
 11
1410.500000000002
 21
-1290.0
 31
0.0
  0
LINE
  5
1AF
  8
1
  6
CONTINUOUS
 62
     7
 10
1429.754389506196
 20
-1315.0
 30
0.0
 11
1429.754389506196
 21
-1389.814611853
 31
0.0
  0
LINE
  5
1B0
  8
1
  6
CONTINUOUS
 62
     7
 10
1179.5
 20
-1315.0
 30
0.0
 11
1199.5
 21
-1315.0
 31
0.0
  0
LINE
  5
1B1
  8
1
  6
CONTINUOUS
 62
     7
 10
1444.245610493798
 20
-1289.999999999999
 30
0.0
 11
1444.245610493798
 21
-1215.185388147
 31
0.0
  0
ARC
  5
1B2
  8
1
  6
CONTINUOUS
 62
     7
 10
1261.492094
 20
-1387.5
 30
0.0
 40
3.999999999997783
 50
270.0
 51
352.5
  0
ARC
  5
1B3
  8
1
  6
CONTINUOUS
 62
     7
 10
1228.492093999996
 20
-1387.5
 30
0.0
 40
4.000000000001336
 50
270.0
 51
352.5
  0
LINE
  5
1B4
  8
1
  6
CONTINUOUS
 62
     7
 10
1463.457873999995
 20
-1216.977895
 30
0.0
 11
1465.404112999996
 21
-1231.761052
 31
0.0
  0
LINE
  5
1B5
  8
1
  6
CONTINUOUS
 62
     7
 10
1199.5
 20
-1289.999999999999
 30
0.0
 11
1199.5
 21
-1314.999999999999
 31
0.0
  0
LINE
  5
1B6
  8
1
  6
CONTINUOUS
 62
     7
 10
1146.542125999996
 20
-1216.977895
 30
0.0
 11
1144.595886999996
 21
-1231.761052
 31
0.0
  0
LINE
  5
1B7
  8
1
  6
CONTINUOUS
 62
     7
 10
1203.387002999999
 20
-1233.5
 30
0.0
 11
1208.612996999999
 21
-1233.5
 31
0.0
  0
LINE
  5
1B8
  8
1
  6
CONTINUOUS
 62
     7
 10
1165.754389506201
 20
-1289.999999999999
 30
0.0
 11
1165.754389506201
 21
-1215.185388147
 31
0.0
  0
LINE
  5
1B9
  8
1
  6
CONTINUOUS
 62
     7
 10
1180.245610493795
 20
-1289.999999999999
 30
0.0
 11
1180.245610493795
 21
-1215.185388147
 31
0.0
  0
LINE
  5
1BA
  8
1
  6
CONTINUOUS
 62
     7
 10
1176.957204663498
 20
-1232.980913692299
 30
0.0
 11
1176.957204663498
 21
-1372.019086307699
 31
0.0
  0
LINE
  5
1BB
  8
1
  6
CONTINUOUS
 62
     7
 10
1146.499999999999
 20
-1315.0
 30
0.0
 11
1146.499999999999
 21
-1290.0
 31
0.0
  0
LINE
  5
1BC
  8
1
  6
CONTINUOUS
 62
     7
 10
1202.042795336499
 20
-1232.980913692299
 30
0.0
 11
1202.042795336499
 21
-1372.019086307699
 31
0.0
  0
ARC
  5
1BD
  8
1
  6
CONTINUOUS
 62
     7
 10
1439.612997
 20
-1231.5
 30
0.0
 40
1.999999999998892
 50
270.0
 51
352.5
  0
LINE
  5
1BE
  8
1
  6
CONTINUOUS
 62
     7
 10
1212.500000000001
 20
-1289.999999999999
 30
0.0
 11
1232.500000000001
 21
-1289.999999999999
 31
0.0
  0
LINE
  5
1BF
  8
1
  6
CONTINUOUS
 62
     7
 10
1047.499999999999
 20
-1289.999999999999
 30
0.0
 11
1067.499999999998
 21
-1289.999999999999
 31
0.0
  0
LINE
  5
1C0
  8
1
  6
CONTINUOUS
 62
     7
 10
1047.499999999999
 20
-1315.0
 30
0.0
 11
1047.499999999999
 21
-1290.0
 31
0.0
  0
ARC
  5
1C1
  8
1
  6
CONTINUOUS
 62
     7
 10
1195.492093999998
 20
-1217.5
 30
0.0
 40
3.999999999997783
 50
7.5
 51
90.0
  0
ARC
  5
1C2
  8
1
  6
CONTINUOUS
 62
     7
 10
1175.612996999997
 20
-1231.5
 30
0.0
 40
2.000000000002444
 50
270.0
 51
352.5
  0
ARC
  5
1C3
  8
1
  6
CONTINUOUS
 62
     7
 10
1018.507905999999
 20
-1387.5
 30
0.0
 40
4.000000000001336
 50
187.5
 51
270.0
  0
LINE
  5
1C4
  8
1
  6
CONTINUOUS
 62
     7
 10
1051.507906000001
 20
-1213.5
 30
0.0
 11
1063.492094
 21
-1213.5
 31
0.0
  0
LINE
  5
1C5
  8
1
  6
CONTINUOUS
 62
     7
 10
1146.499999999999
 20
-1315.0
 30
0.0
 11
1166.499999999999
 21
-1315.0
 31
0.0
  0
ARC
  5
1C6
  8
1
  6
CONTINUOUS
 62
     7
 10
1228.492093999996
 20
-1217.5
 30
0.0
 40
4.000000000001336
 50
7.5
 51
90.0
  0
LINE
  5
1C7
  8
1
  6
CONTINUOUS
 62
     7
 10
1236.387003
 20
-1371.5
 30
0.0
 11
1241.612996999999
 21
-1371.5
 31
0.0
  0
ARC
  5
1C8
  8
1
  6
CONTINUOUS
 62
     7
 10
1150.507905999997
 20
-1387.5
 30
0.0
 40
4.000000000001336
 50
187.5
 51
270.0
  0
LINE
  5
1C9
  8
1
  6
CONTINUOUS
 62
     7
 10
1037.042795336496
 20
-1232.980913692299
 30
0.0
 11
1037.042795336496
 21
-1372.019086307699
 31
0.0
  0
ARC
  5
1CA
  8
1
  6
CONTINUOUS
 62
     7
 10
1249.507906000001
 20
-1217.5
 30
0.0
 40
3.999999999997783
 50
90.0
 51
172.5
  0
ARC
  5
1CB
  8
1
  6
CONTINUOUS
 62
     7
 10
1236.387003
 20
-1373.499999999999
 30
0.0
 40
1.999999999998892
 50
90.0
 51
172.5
  0
LINE
  5
1CC
  8
1
  6
CONTINUOUS
 62
     7
 10
1180.245610493795
 20
-1315.0
 30
0.0
 11
1180.245610493795
 21
-1389.814611853
 31
0.0
  0
LINE
  5
1CD
  8
1
  6
CONTINUOUS
 62
     7
 10
1265.457873999995
 20
-1216.977895
 30
0.0
 11
1267.404112999995
 21
-1231.761052
 31
0.0
  0
LINE
  5
1CE
  8
1
  6
CONTINUOUS
 62
     7
 10
1166.457874000002
 20
-1216.977895
 30
0.0
 11
1168.404113000001
 21
-1231.761052
 31
0.0
  0
ARC
  5
1CF
  8
1
  6
CONTINUOUS
 62
     7
 10
1241.612997
 20
-1373.499999999999
 30
0.0
 40
1.999999999998892
 50
7.5
 51
90.0
  0
ARC
  5
1D0
  8
1
  6
CONTINUOUS
 62
     7
 10
1170.387002999998
 20
-1373.499999999999
 30
0.0
 40
2.000000000002444
 50
90.0
 51
172.5
  0
LINE
  5
1D1
  8
1
  6
CONTINUOUS
 62
     7
 10
1872.499999999998
 20
-1315.0
 30
0.0
 11
1887.375078871245
 21
-1315.0
 31
0.0
  0
LINE
  5
1D2
  8
1
  6
CONTINUOUS
 62
     7
 10
1806.500000000003
 20
-1289.999999999999
 30
0.0
 11
1826.500000000003
 21
-1289.999999999999
 31
0.0
  0
ARC
  5
1D3
  8
1
  6
CONTINUOUS
 62
     7
 10
1810.507905999997
 20
-1387.5
 30
0.0
 40
4.000000000001336
 50
187.5
 51
270.0
  0
LINE
  5
1D4
  8
1
  6
CONTINUOUS
 62
     7
 10
1246.245610493797
 20
-1315.0
 30
0.0
 11
1246.245610493797
 21
-1389.814611853
 31
0.0
  0
LINE
  5
1D5
  8
1
  6
CONTINUOUS
 62
     7
 10
1018.507905999999
 20
-1391.5
 30
0.0
 11
1030.492093999998
 21
-1391.5
 31
0.0
  0
LINE
  5
1D6
  8
1
  6
CONTINUOUS
 62
     7
 10
1051.507906000001
 20
-1391.5
 30
0.0
 11
1063.492094
 21
-1391.5
 31
0.0
  0
LINE
  5
1D7
  8
1
  6
CENTER
 62
     1
 10
1035.773024808294
 20
-1302.5
 30
0.0
 11
2129.084642490265
 21
-1302.5
 31
0.0
  0
ARC
  5
1D8
  8
1
  6
CONTINUOUS
 62
     7
 10
1208.612996999999
 20
-1373.499999999999
 30
0.0
 40
1.999999999998892
 50
7.5
 51
90.0
  0
LINE
  5
1D9
  8
1
  6
CONTINUOUS
 62
     7
 10
1245.542125999999
 20
-1216.977895
 30
0.0
 11
1243.595887
 21
-1231.761052
 31
0.0
  0
ARC
  5
1DA
  8
1
  6
CONTINUOUS
 62
     7
 10
1018.507905999999
 20
-1217.5
 30
0.0
 40
4.000000000001336
 50
90.0
 51
172.5
  0
LINE
  5
1DB
  8
1
  6
CONTINUOUS
 62
     7
 10
1034.457873999997
 20
-1216.977895
 30
0.0
 11
1036.404112999996
 21
-1231.761052
 31
0.0
  0
LINE
  5
1DC
  8
1
  6
CONTINUOUS
 62
     7
 10
1876.507905999993
 20
-1213.5
 30
0.0
 11
1887.375078871827
 21
-1213.5
 31
0.0
  0
LINE
  5
1DD
  8
1
  6
CENTER
 62
     1
 10
2220.0
 20
-1302.5
 30
0.0
 11
2427.045713804099
 21
-1302.5
 31
0.0
  0
LINE
  5
1DE
  8
1
  6
CONTINUOUS
 62
     7
 10
1231.754389506196
 20
-1315.0
 30
0.0
 11
1231.754389506196
 21
-1389.814611853
 31
0.0
  0
LINE
  5
1DF
  8
1
  6
CONTINUOUS
 62
     7
 10
1269.387002999998
 20
-1371.5
 30
0.0
 11
1274.612996999998
 21
-1371.5
 31
0.0
  0
LINE
  5
1E0
  8
1
  6
CONTINUOUS
 62
     7
 10
1067.499999999998
 20
-1289.999999999999
 30
0.0
 11
1067.499999999998
 21
-1314.999999999999
 31
0.0
  0
LINE
  5
1E1
  8
1
  6
CONTINUOUS
 62
     7
 10
1335.387003
 20
-1233.5
 30
0.0
 11
1340.612996999999
 21
-1233.5
 31
0.0
  0
ARC
  5
1E2
  8
1
  6
CONTINUOUS
 62
     7
 10
1104.387002999995
 20
-1373.499999999999
 30
0.0
 40
2.000000000002444
 50
90.0
 51
172.5
  0
LINE
  5
1E3
  8
1
  6
CONTINUOUS
 62
     7
 10
1212.542125999998
 20
-1216.977895
 30
0.0
 11
1210.595886999998
 21
-1231.761052
 31
0.0
  0
LINE
  5
1E4
  8
1
  6
CONTINUOUS
 62
     7
 10
1231.754389506196
 20
-1289.999999999999
 30
0.0
 11
1231.754389506196
 21
-1215.185388147
 31
0.0
  0
LINE
  5
1E5
  8
1
  6
CONTINUOUS
 62
     7
 10
1264.754389506201
 20
-1315.0
 30
0.0
 11
1264.754389506201
 21
-1389.814611853
 31
0.0
  0
ARC
  5
1E6
  8
1
  6
CONTINUOUS
 62
     7
 10
977.6129969999971
 20
-1373.499999999999
 30
0.0
 40
2.000000000002444
 50
7.5
 51
90.0
  0
ARC
  5
1E7
  8
1
  6
CONTINUOUS
 62
     7
 10
1249.507906000001
 20
-1387.5
 30
0.0
 40
3.999999999997783
 50
187.5
 51
270.0
  0
ARC
  5
1E8
  8
1
  6
CONTINUOUS
 62
     7
 10
1269.387002999998
 20
-1231.5
 30
0.0
 40
1.999999999998892
 50
187.5
 51
270.0
  0
ARC
  5
1E9
  8
1
  6
CONTINUOUS
 62
     7
 10
1810.507905999997
 20
-1217.5
 30
0.0
 40
4.000000000001336
 50
90.0
 51
172.5
  0
LINE
  5
1EA
  8
1
  6
CONTINUOUS
 62
     7
 10
1876.507905999993
 20
-1391.5
 30
0.0
 11
1887.375078870807
 21
-1391.5
 31
0.0
  0
LINE
  5
1EB
  8
1
  6
CONTINUOUS
 62
     7
 10
1212.542125999998
 20
-1388.022104999999
 30
0.0
 11
1210.595886999998
 21
-1373.238947999999
 31
0.0
  0
LINE
  5
1EC
  8
1
  6
CONTINUOUS
 62
     7
 10
1245.499999999999
 20
-1315.0
 30
0.0
 11
1245.499999999999
 21
-1290.0
 31
0.0
  0
ARC
  5
1ED
  8
1
  6
CONTINUOUS
 62
     7
 10
1789.492093999999
 20
-1387.5
 30
0.0
 40
3.999999999997783
 50
270.0
 51
352.5
  0
ARC
  5
1EE
  8
1
  6
CONTINUOUS
 62
     7
 10
1789.492093999999
 20
-1217.5
 30
0.0
 40
3.999999999997783
 50
7.5
 51
90.0
  0
LINE
  5
1EF
  8
1
  6
CONTINUOUS
 62
     7
 10
1047.499999999999
 20
-1315.0
 30
0.0
 11
1067.499999999998
 21
-1315.0
 31
0.0
  0
LINE
  5
1F0
  8
1
  6
CONTINUOUS
 62
     7
 10
1044.9572046635
 20
-1232.980913692299
 30
0.0
 11
1044.9572046635
 21
-1372.019086307699
 31
0.0
  0
LINE
  5
1F1
  8
1
  6
CONTINUOUS
 62
     7
 10
1038.387003
 20
-1371.5
 30
0.0
 11
1043.612997
 21
-1371.5
 31
0.0
  0
ARC
  5
1F2
  8
1
  6
CONTINUOUS
 62
     7
 10
1269.387002999998
 20
-1373.499999999999
 30
0.0
 40
1.999999999998892
 50
90.0
 51
172.5
  0
ARC
  5
1F3
  8
1
  6
CONTINUOUS
 62
     7
 10
1030.492093999995
 20
-1217.5
 30
0.0
 40
4.000000000001336
 50
7.5
 51
90.0
  0
LINE
  5
1F4
  8
1
  6
CONTINUOUS
 62
     7
 10
1005.387003000002
 20
-1371.5
 30
0.0
 11
1010.612997000001
 21
-1371.5
 31
0.0
  0
LINE
  5
1F5
  8
1
  6
CONTINUOUS
 62
     7
 10
1047.542125999999
 20
-1216.977895
 30
0.0
 11
1045.595886999999
 21
-1231.761052
 31
0.0
  0
ARC
  5
1F6
  8
1
  6
CONTINUOUS
 62
     7
 10
1216.507906
 20
-1217.5
 30
0.0
 40
4.000000000001336
 50
90.0
 51
172.5
  0
LINE
  5
1F7
  8
1
  6
CONTINUOUS
 62
     7
 10
1048.245610493797
 20
-1289.999999999999
 30
0.0
 11
1048.245610493797
 21
-1215.185388147
 31
0.0
  0
LINE
  5
1F8
  8
1
  6
CONTINUOUS
 62
     7
 10
1070.042795336501
 20
-1232.980913692299
 30
0.0
 11
1070.042795336501
 21
-1372.019086307699
 31
0.0
  0
LINE
  5
1F9
  8
1
  6
CONTINUOUS
 62
     7
 10
1015.245610493799
 20
-1315.0
 30
0.0
 11
1015.245610493799
 21
-1389.814611853
 31
0.0
  0
LINE
  5
1FA
  8
1
  6
CONTINUOUS
 62
     7
 10
1245.499999999999
 20
-1315.0
 30
0.0
 11
1265.5
 21
-1315.0
 31
0.0
  0
ARC
  5
1FB
  8
1
  6
CONTINUOUS
 62
     7
 10
1109.612996999995
 20
-1231.5
 30
0.0
 40
2.000000000002444
 50
270.0
 51
352.5
  0
LINE
  5
1FC
  8
1
  6
CONTINUOUS
 62
     7
 10
1264.754389506201
 20
-1289.999999999999
 30
0.0
 11
1264.754389506201
 21
-1215.185388147
 31
0.0
  0
LINE
  5
1FD
  8
1
  6
CONTINUOUS
 62
     7
 10
1232.457873999997
 20
-1388.022104999999
 30
0.0
 11
1234.404112999997
 21
-1373.238947999999
 31
0.0
  0
LINE
  5
1FE
  8
1
  6
CONTINUOUS
 62
     7
 10
1887.375078871865
 20
-1206.785606
 30
0.0
 11
1887.375078870769
 21
-1398.214393999999
 31
0.0
  0
LINE
  5
1FF
  8
1
  6
CONTINUOUS
 62
     7
 10
1773.499999999998
 20
-1289.999999999999
 30
0.0
 11
1793.499999999997
 21
-1289.999999999999
 31
0.0
  0
LINE
  5
200
  8
1
  6
CONTINUOUS
 62
     7
 10
1015.245610493799
 20
-1289.999999999999
 30
0.0
 11
1015.245610493799
 21
-1215.185388147
 31
0.0
  0
ARC
  5
201
  8
1
  6
CONTINUOUS
 62
     7
 10
1051.507906000001
 20
-1217.5
 30
0.0
 40
3.999999999997783
 50
90.0
 51
172.5
  0
LINE
  5
202
  8
1
  6
CONTINUOUS
 62
     7
 10
1806.500000000003
 20
-1315.0
 30
0.0
 11
1826.500000000003
 21
-1315.0
 31
0.0
  0
LINE
  5
203
  8
1
  6
CONTINUOUS
 62
     7
 10
1773.499999999998
 20
-1315.0
 30
0.0
 11
1793.499999999997
 21
-1315.0
 31
0.0
  0
LINE
  5
204
  8
1
  6
CONTINUOUS
 62
     7
 10
1100.457873999999
 20
-1216.977895
 30
0.0
 11
1102.404112999999
 21
-1231.761052
 31
0.0
  0
LINE
  5
205
  8
1
  6
CONTINUOUS
 62
     7
 10
1872.499999999998
 20
-1289.999999999999
 30
0.0
 11
1887.375078871388
 21
-1289.999999999999
 31
0.0
  0
LINE
  5
206
  8
1
  6
CONTINUOUS
 62
     7
 10
1011.957204663499
 20
-1232.980913692299
 30
0.0
 11
1011.957204663499
 21
-1372.019086307699
 31
0.0
  0
LINE
  5
207
  8
1
  6
CONTINUOUS
 62
     7
 10
1245.542125999999
 20
-1388.022104999999
 30
0.0
 11
1243.595887
 21
-1373.238947999999
 31
0.0
  0
ARC
  5
208
  8
1
  6
CONTINUOUS
 62
     7
 10
1038.387003
 20
-1231.5
 30
0.0
 40
1.999999999998892
 50
187.5
 51
270.0
  0
LINE
  5
209
  8
1
  6
CONTINUOUS
 62
     7
 10
1014.500000000001
 20
-1289.999999999999
 30
0.0
 11
1034.500000000001
 21
-1289.999999999999
 31
0.0
  0
LINE
  5
20A
  8
1
  6
CONTINUOUS
 62
     7
 10
1216.507906
 20
-1213.5
 30
0.0
 11
1228.492093999999
 21
-1213.5
 31
0.0
  0
ARC
  5
20B
  8
1
  6
CONTINUOUS
 62
     7
 10
1071.387002999997
 20
-1231.5
 30
0.0
 40
1.999999999998892
 50
187.5
 51
270.0
  0
ARC
  5
20C
  8
1
  6
CONTINUOUS
 62
     7
 10
1261.492094
 20
-1217.5
 30
0.0
 40
3.999999999997783
 50
7.5
 51
90.0
  0
ARC
  5
20D
  8
1
  6
CONTINUOUS
 62
     7
 10
1043.612997
 20
-1231.5
 30
0.0
 40
1.999999999998892
 50
270.0
 51
352.5
  0
LINE
  5
20E
  8
1
  6
CONTINUOUS
 62
     7
 10
1279.245610493798
 20
-1315.0
 30
0.0
 11
1279.245610493798
 21
-1389.814611853
 31
0.0
  0
ARC
  5
20F
  8
1
  6
CONTINUOUS
 62
     7
 10
1096.492093999998
 20
-1217.5
 30
0.0
 40
4.000000000001336
 50
7.5
 51
90.0
  0
ARC
  5
210
  8
1
  6
CONTINUOUS
 62
     7
 10
1096.492093999998
 20
-1387.5
 30
0.0
 40
4.000000000001336
 50
270.0
 51
352.5
  0
LINE
  5
211
  8
1
  6
CONTINUOUS
 62
     7
 10
1298.457874
 20
-1388.022104999999
 30
0.0
 11
1300.404113
 21
-1373.238947999999
 31
0.0
  0
ARC
  5
212
  8
1
  6
CONTINUOUS
 62
     7
 10
1043.612997
 20
-1373.499999999999
 30
0.0
 40
1.999999999998892
 50
7.5
 51
90.0
  0
LINE
  5
213
  8
1
  6
CONTINUOUS
 62
     7
 10
1246.245610493797
 20
-1289.999999999999
 30
0.0
 11
1246.245610493797
 21
-1215.185388147
 31
0.0
  0
ARC
  5
214
  8
1
  6
CONTINUOUS
 62
     7
 10
1274.612996999998
 20
-1373.499999999999
 30
0.0
 40
1.999999999998892
 50
7.5
 51
90.0
  0
ARC
  5
215
  8
1
  6
CONTINUOUS
 62
     7
 10
1104.387002999995
 20
-1231.5
 30
0.0
 40
2.000000000002444
 50
187.5
 51
270.0
  0
LINE
  5
216
  8
1
  6
CONTINUOUS
 62
     7
 10
1001.457873999999
 20
-1388.022104999999
 30
0.0
 11
1003.404112999999
 21
-1373.238947999999
 31
0.0
  0
LINE
  5
217
  8
1
  6
CONTINUOUS
 62
     7
 10
1014.500000000001
 20
-1315.0
 30
0.0
 11
1034.500000000001
 21
-1315.0
 31
0.0
  0
LINE
  5
218
  8
1
  6
CONTINUOUS
 62
     7
 10
1114.245610493799
 20
-1289.999999999999
 30
0.0
 11
1114.245610493799
 21
-1215.185388147
 31
0.0
  0
ARC
  5
219
  8
1
  6
CONTINUOUS
 62
     7
 10
1216.507906
 20
-1387.5
 30
0.0
 40
4.000000000001336
 50
187.5
 51
270.0
  0
ARC
  5
21A
  8
1
  6
CONTINUOUS
 62
     7
 10
1084.507905999998
 20
-1387.5
 30
0.0
 40
3.999999999997783
 50
187.5
 51
270.0
  0
LINE
  5
21B
  8
1
  6
CONTINUOUS
 62
     7
 10
1081.245610493801
 20
-1315.0
 30
0.0
 11
1081.245610493801
 21
-1389.814611853
 31
0.0
  0
ARC
  5
21C
  8
1
  6
CONTINUOUS
 62
     7
 10
1063.492094
 20
-1387.5
 30
0.0
 40
3.999999999997783
 50
270.0
 51
352.5
  0
LINE
  5
21D
  8
1
  6
CONTINUOUS
 62
     7
 10
1018.507905999999
 20
-1213.5
 30
0.0
 11
1030.492093999998
 21
-1213.5
 31
0.0
  0
LINE
  5
21E
  8
1
  6
CONTINUOUS
 62
     7
 10
1242.9572046635
 20
-1232.980913692299
 30
0.0
 11
1242.9572046635
 21
-1372.019086307699
 31
0.0
  0
ARC
  5
21F
  8
1
  6
CONTINUOUS
 62
     7
 10
1129.492093999995
 20
-1217.5
 30
0.0
 40
4.000000000001336
 50
7.5
 51
90.0
  0
ARC
  5
220
  8
1
  6
CONTINUOUS
 62
     7
 10
1302.387002999996
 20
-1373.499999999999
 30
0.0
 40
2.000000000002444
 50
90.0
 51
172.5
  0
ARC
  5
221
  8
1
  6
CONTINUOUS
 62
     7
 10
997.4920939999976
 20
-1387.5
 30
0.0
 40
3.999999999997783
 50
270.0
 51
352.5
  0
ARC
  5
222
  8
1
  6
CONTINUOUS
 62
     7
 10
1005.387003000002
 20
-1373.499999999999
 30
0.0
 40
1.999999999998892
 50
90.0
 51
172.5
  0
ARC
  5
223
  8
1
  6
CONTINUOUS
 62
     7
 10
1117.507905999999
 20
-1217.5
 30
0.0
 40
4.000000000001336
 50
90.0
 51
172.5
  0
LINE
  5
224
  8
1
  6
CONTINUOUS
 62
     7
 10
1014.542125999998
 20
-1216.977895
 30
0.0
 11
1012.595886999998
 21
-1231.761052
 31
0.0
  0
LINE
  5
225
  8
1
  6
CONTINUOUS
 62
     7
 10
1114.245610493799
 20
-1315.0
 30
0.0
 11
1114.245610493799
 21
-1389.814611853
 31
0.0
  0
LINE
  5
226
  8
1
  6
CONTINUOUS
 62
     7
 10
1265.499999999999
 20
-1289.999999999999
 30
0.0
 11
1265.499999999999
 21
-1314.999999999999
 31
0.0
  0
LINE
  5
227
  8
1
  6
CONTINUOUS
 62
     7
 10
1133.457873999997
 20
-1216.977895
 30
0.0
 11
1135.404112999997
 21
-1231.761052
 31
0.0
  0
ARC
  5
228
  8
1
  6
CONTINUOUS
 62
     7
 10
1010.612996999998
 20
-1373.499999999999
 30
0.0
 40
1.999999999998892
 50
7.5
 51
90.0
  0
LINE
  5
229
  8
1
  6
CONTINUOUS
 62
     7
 10
1001.457873999999
 20
-1216.977895
 30
0.0
 11
1003.404112999999
 21
-1231.761052
 31
0.0
  0
LINE
  5
22A
  8
1
  6
CONTINUOUS
 62
     7
 10
1245.499999999999
 20
-1289.999999999999
 30
0.0
 11
1265.5
 21
-1289.999999999999
 31
0.0
  0
ARC
  5
22B
  8
1
  6
CONTINUOUS
 62
     7
 10
1010.612996999998
 20
-1231.5
 30
0.0
 40
1.999999999998892
 50
270.0
 51
352.5
  0
ARC
  5
22C
  8
1
  6
CONTINUOUS
 62
     7
 10
1063.492094
 20
-1217.5
 30
0.0
 40
3.999999999997783
 50
7.5
 51
90.0
  0
ARC
  5
22D
  8
1
  6
CONTINUOUS
 62
     7
 10
1241.612997
 20
-1231.5
 30
0.0
 40
1.999999999998892
 50
270.0
 51
352.5
  0
ARC
  5
22E
  8
1
  6
CONTINUOUS
 62
     7
 10
1051.507906000001
 20
-1387.5
 30
0.0
 40
3.999999999997783
 50
187.5
 51
270.0
  0
LINE
  5
22F
  8
1
  6
CONTINUOUS
 62
     7
 10
1038.387003
 20
-1233.5
 30
0.0
 11
1043.612997
 21
-1233.5
 31
0.0
  0
LINE
  5
230
  8
1
  6
CONTINUOUS
 62
     7
 10
977.6129969999971
 20
-1371.5
 30
0.0
 11
974.9999999999972
 21
-1371.5
 31
0.0
  0
LINE
  5
231
  8
1
  6
CONTINUOUS
 62
     7
 10
1014.542125999998
 20
-1388.022104999999
 30
0.0
 11
1012.595886999998
 21
-1373.238947999999
 31
0.0
  0
LINE
  5
232
  8
1
  6
CONTINUOUS
 62
     7
 10
1110.957204663499
 20
-1232.980913692299
 30
0.0
 11
1110.957204663499
 21
-1372.019086307699
 31
0.0
  0
LINE
  5
233
  8
1
  6
CONTINUOUS
 62
     7
 10
1077.957204663498
 20
-1232.980913692299
 30
0.0
 11
1077.957204663498
 21
-1372.019086307699
 31
0.0
  0
LINE
  5
234
  8
1
  6
CONTINUOUS
 62
     7
 10
1298.457874
 20
-1216.977895
 30
0.0
 11
1300.404113
 21
-1231.761052
 31
0.0
  0
LINE
  5
235
  8
1
  6
CONTINUOUS
 62
     7
 10
1066.7543895062
 20
-1289.999999999999
 30
0.0
 11
1066.7543895062
 21
-1215.185388147
 31
0.0
  0
ARC
  5
236
  8
1
  6
CONTINUOUS
 62
     7
 10
1084.507905999998
 20
-1217.5
 30
0.0
 40
3.999999999997783
 50
90.0
 51
172.5
  0
LINE
  5
237
  8
1
  6
CONTINUOUS
 62
     7
 10
1113.499999999998
 20
-1289.999999999999
 30
0.0
 11
1133.499999999997
 21
-1289.999999999999
 31
0.0
  0
LINE
  5
238
  8
1
  6
CONTINUOUS
 62
     7
 10
1268.042795336501
 20
-1232.980913692299
 30
0.0
 11
1268.042795336501
 21
-1372.019086307699
 31
0.0
  0
LINE
  5
239
  8
1
  6
CONTINUOUS
 62
     7
 10
1212.500000000001
 20
-1315.0
 30
0.0
 11
1232.500000000001
 21
-1315.0
 31
0.0
  0
LINE
  5
23A
  8
1
  6
CONTINUOUS
 62
     7
 10
1278.542126000001
 20
-1216.977895
 30
0.0
 11
1276.595887
 21
-1231.761052
 31
0.0
  0
LINE
  5
23B
  8
1
  6
CONTINUOUS
 62
     7
 10
1071.387002999997
 20
-1371.5
 30
0.0
 11
1076.612996999997
 21
-1371.5
 31
0.0
  0
LINE
  5
23C
  8
1
  6
CONTINUOUS
 62
     7
 10
1081.245610493801
 20
-1289.999999999999
 30
0.0
 11
1081.245610493801
 21
-1215.185388147
 31
0.0
  0
LINE
  5
23D
  8
1
  6
CONTINUOUS
 62
     7
 10
1249.507906000001
 20
-1391.5
 30
0.0
 11
1261.492094
 21
-1391.5
 31
0.0
  0
LINE
  5
23E
  8
1
  6
CONTINUOUS
 62
     7
 10
1132.754389506199
 20
-1289.999999999999
 30
0.0
 11
1132.754389506199
 21
-1215.185388147
 31
0.0
  0
LINE
  5
23F
  8
1
  6
CONTINUOUS
 62
     7
 10
1001.499999999999
 20
-1289.999999999999
 30
0.0
 11
1001.499999999999
 21
-1314.999999999999
 31
0.0
  0
ARC
  5
240
  8
1
  6
CONTINUOUS
 62
     7
 10
1030.492093999995
 20
-1387.5
 30
0.0
 40
4.000000000001336
 50
270.0
 51
352.5
  0
LINE
  5
241
  8
1
  6
CONTINUOUS
 62
     7
 10
1282.507905999999
 20
-1213.5
 30
0.0
 11
1294.492093999997
 21
-1213.5
 31
0.0
  0
LINE
  5
242
  8
1
  6
CONTINUOUS
 62
     7
 10
1080.5
 20
-1315.0
 30
0.0
 11
1100.5
 21
-1315.0
 31
0.0
  0
LINE
  5
243
  8
1
  6
CONTINUOUS
 62
     7
 10
1100.5
 20
-1289.999999999999
 30
0.0
 11
1100.5
 21
-1314.999999999999
 31
0.0
  0
LINE
  5
244
  8
1
  6
CONTINUOUS
 62
     7
 10
1033.754389506196
 20
-1289.999999999999
 30
0.0
 11
1033.754389506196
 21
-1215.185388147
 31
0.0
  0
LINE
  5
245
  8
1
  6
CONTINUOUS
 62
     7
 10
1071.387002999997
 20
-1233.5
 30
0.0
 11
1076.612996999997
 21
-1233.5
 31
0.0
  0
LINE
  5
246
  8
1
  6
CONTINUOUS
 62
     7
 10
1005.387003000002
 20
-1233.5
 30
0.0
 11
1010.612997000001
 21
-1233.5
 31
0.0
  0
LINE
  5
247
  8
1
  6
CONTINUOUS
 62
     7
 10
974.9999999999972
 20
-1233.5
 30
0.0
 11
974.9999999999972
 21
-1371.5
 31
0.0
  0
LINE
  5
248
  8
1
  6
CONTINUOUS
 62
     7
 10
1034.457873999997
 20
-1388.022104999999
 30
0.0
 11
1036.404112999996
 21
-1373.238947999999
 31
0.0
  0
LINE
  5
249
  8
1
  6
CONTINUOUS
 62
     7
 10
981.4999999999998
 20
-1315.0
 30
0.0
 11
1001.5
 21
-1315.0
 31
0.0
  0
LINE
  5
24A
  8
1
  6
CONTINUOUS
 62
     7
 10
1048.245610493797
 20
-1315.0
 30
0.0
 11
1048.245610493797
 21
-1389.814611853
 31
0.0
  0
LINE
  5
24B
  8
1
  6
CONTINUOUS
 62
     7
 10
1034.499999999997
 20
-1289.999999999999
 30
0.0
 11
1034.499999999997
 21
-1314.999999999999
 31
0.0
  0
LINE
  5
24C
  8
1
  6
CONTINUOUS
 62
     7
 10
1269.387002999998
 20
-1233.5
 30
0.0
 11
1274.612996999998
 21
-1233.5
 31
0.0
  0
LINE
  5
24D
  8
1
  6
CONTINUOUS
 62
     7
 10
1104.387002999995
 20
-1233.5
 30
0.0
 11
1109.612996999995
 21
-1233.5
 31
0.0
  0
ARC
  5
24E
  8
1
  6
CONTINUOUS
 62
     7
 10
1282.507905999999
 20
-1387.5
 30
0.0
 40
3.999999999997783
 50
187.5
 51
270.0
  0
LINE
  5
24F
  8
1
  6
CONTINUOUS
 62
     7
 10
1675.245610493799
 20
-1289.999999999999
 30
0.0
 11
1675.245610493799
 21
-1215.185388147
 31
0.0
  0
ARC
  5
250
  8
1
  6
CONTINUOUS
 62
     7
 10
985.507905999998
 20
-1387.5
 30
0.0
 40
3.999999999997783
 50
187.5
 51
270.0
  0
LINE
  5
251
  8
1
  6
CONTINUOUS
 62
     7
 10
1099.754389506198
 20
-1289.999999999999
 30
0.0
 11
1099.754389506198
 21
-1215.185388147
 31
0.0
  0
LINE
  5
252
  8
1
  6
CONTINUOUS
 62
     7
 10
981.4999999999998
 20
-1289.999999999999
 30
0.0
 11
1001.5
 21
-1289.999999999999
 31
0.0
  0
ARC
  5
253
  8
1
  6
CONTINUOUS
 62
     7
 10
985.507905999998
 20
-1217.5
 30
0.0
 40
3.999999999997783
 50
90.0
 51
172.5
  0
LINE
  5
254
  8
1
  6
CONTINUOUS
 62
     7
 10
1301.042795336499
 20
-1232.980913692299
 30
0.0
 11
1301.042795336499
 21
-1372.019086307699
 31
0.0
  0
LINE
  5
255
  8
1
  6
CONTINUOUS
 62
     7
 10
978.9572046635009
 20
-1232.980913692299
 30
0.0
 11
978.9572046635009
 21
-1372.019086307699
 31
0.0
  0
LINE
  5
256
  8
1
  6
CONTINUOUS
 62
     7
 10
1693.754389506199
 20
-1289.999999999999
 30
0.0
 11
1693.754389506199
 21
-1215.185388147
 31
0.0
  0
LINE
  5
257
  8
1
  6
CONTINUOUS
 62
     7
 10
1104.387002999995
 20
-1371.5
 30
0.0
 11
1109.612996999995
 21
-1371.5
 31
0.0
  0
LINE
  5
258
  8
1
  6
CONTINUOUS
 62
     7
 10
1067.457874000002
 20
-1388.022104999999
 30
0.0
 11
1069.404113000001
 21
-1373.238947999999
 31
0.0
  0
LINE
  5
259
  8
1
  6
CONTINUOUS
 62
     7
 10
1278.5
 20
-1315.0
 30
0.0
 11
1278.5
 21
-1290.0
 31
0.0
  0
LINE
  5
25A
  8
1
  6
CONTINUOUS
 62
     7
 10
982.2456104938013
 20
-1315.0
 30
0.0
 11
982.2456104938013
 21
-1389.814611853
 31
0.0
  0
LINE
  5
25B
  8
1
  6
CONTINUOUS
 62
     7
 10
1066.7543895062
 20
-1315.0
 30
0.0
 11
1066.7543895062
 21
-1389.814611853
 31
0.0
  0
LINE
  5
25C
  8
1
  6
CONTINUOUS
 62
     7
 10
1638.957204663501
 20
-1232.980913692299
 30
0.0
 11
1638.957204663501
 21
-1372.019086307699
 31
0.0
  0
LINE
  5
25D
  8
1
  6
CONTINUOUS
 62
     7
 10
1080.542126
 20
-1388.022104999999
 30
0.0
 11
1078.595887000001
 21
-1373.238947999999
 31
0.0
  0
LINE
  5
25E
  8
1
  6
CONTINUOUS
 62
     7
 10
1047.542125999999
 20
-1388.022104999999
 30
0.0
 11
1045.595886999999
 21
-1373.238947999999
 31
0.0
  0
LINE
  5
25F
  8
1
  6
CONTINUOUS
 62
     7
 10
1004.042795336498
 20
-1232.980913692299
 30
0.0
 11
1004.042795336498
 21
-1372.019086307699
 31
0.0
  0
ARC
  5
260
  8
1
  6
CONTINUOUS
 62
     7
 10
1282.507905999999
 20
-1217.5
 30
0.0
 40
3.999999999997783
 50
90.0
 51
172.5
  0
LINE
  5
261
  8
1
  6
CONTINUOUS
 62
     7
 10
1660.754389506198
 20
-1289.999999999999
 30
0.0
 11
1660.754389506198
 21
-1215.185388147
 31
0.0
  0
LINE
  5
262
  8
1
  6
CONTINUOUS
 62
     7
 10
1133.499999999997
 20
-1289.999999999999
 30
0.0
 11
1133.499999999997
 21
-1314.999999999999
 31
0.0
  0
LINE
  5
263
  8
1
  6
CONTINUOUS
 62
     7
 10
1113.542125999998
 20
-1216.977895
 30
0.0
 11
1111.595886999997
 21
-1231.761052
 31
0.0
  0
LINE
  5
264
  8
1
  6
CONTINUOUS
 62
     7
 10
1033.754389506196
 20
-1315.0
 30
0.0
 11
1033.754389506196
 21
-1389.814611853
 31
0.0
  0
LINE
  5
265
  8
1
  6
CONTINUOUS
 62
     7
 10
1080.5
 20
-1289.999999999999
 30
0.0
 11
1100.5
 21
-1289.999999999999
 31
0.0
  0
ARC
  5
266
  8
1
  6
CONTINUOUS
 62
     7
 10
1117.507905999999
 20
-1387.5
 30
0.0
 40
4.000000000001336
 50
187.5
 51
270.0
  0
LINE
  5
267
  8
1
  6
CONTINUOUS
 62
     7
 10
1136.042795336496
 20
-1232.980913692299
 30
0.0
 11
1136.042795336496
 21
-1372.019086307699
 31
0.0
  0
LINE
  5
268
  8
1
  6
CONTINUOUS
 62
     7
 10
1113.499999999998
 20
-1315.0
 30
0.0
 11
1113.499999999998
 21
-1290.0
 31
0.0
  0
ARC
  5
269
  8
1
  6
CONTINUOUS
 62
     7
 10
1071.387002999997
 20
-1373.499999999999
 30
0.0
 40
1.999999999998892
 50
90.0
 51
172.5
  0
LINE
  5
26A
  8
1
  6
CONTINUOUS
 62
     7
 10
1117.507905999999
 20
-1213.5
 30
0.0
 11
1129.492093999998
 21
-1213.5
 31
0.0
  0
ARC
  5
26B
  8
1
  6
CONTINUOUS
 62
     7
 10
1294.492093999998
 20
-1217.5
 30
0.0
 40
4.000000000001336
 50
7.5
 51
90.0
  0
LINE
  5
26C
  8
1
  6
CONTINUOUS
 62
     7
 10
1080.542126
 20
-1216.977895
 30
0.0
 11
1078.595887000001
 21
-1231.761052
 31
0.0
  0
ARC
  5
26D
  8
1
  6
CONTINUOUS
 62
     7
 10
2070.015147954169
 20
-1370.038183839499
 30
0.0
 40
4.319999999999879
 50
105.0
 51
180.0000908811
  0
LINE
  5
26E
  8
1
  6
CONTINUOUS
 62
     7
 10
985.507905999998
 20
-1213.5
 30
0.0
 11
997.4920939999976
 21
-1213.5
 31
0.0
  0
ARC
  5
26F
  8
1
  6
CONTINUOUS
 62
     7
 10
1711.507905999997
 20
-1387.5
 30
0.0
 40
3.999999999997783
 50
187.5
 51
270.0
  0
LINE
  5
270
  8
1
  6
CONTINUOUS
 62
     7
 10
1698.387002999996
 20
-1371.5
 30
0.0
 11
1703.612996999996
 21
-1371.5
 31
0.0
  0
LINE
  5
271
  8
1
  6
CONTINUOUS
 62
     7
 10
1282.507905999999
 20
-1391.5
 30
0.0
 11
1294.492093999997
 21
-1391.5
 31
0.0
  0
LINE
  5
272
  8
1
  6
CONTINUOUS
 62
     7
 10
1297.754389506199
 20
-1315.0
 30
0.0
 11
1297.754389506199
 21
-1389.814611853
 31
0.0
  0
ARC
  5
273
  8
1
  6
CONTINUOUS
 62
     7
 10
1137.387003
 20
-1231.5
 30
0.0
 40
1.999999999998892
 50
187.5
 51
270.0
  0
ARC
  5
274
  8
1
  6
CONTINUOUS
 62
     7
 10
1690.492093999999
 20
-1217.5
 30
0.0
 40
4.000000000001336
 50
7.5
 51
90.0
  0
LINE
  5
275
  8
1
  6
CONTINUOUS
 62
     7
 10
1645.507906000002
 20
-1213.5
 30
0.0
 11
1657.492094000001
 21
-1213.5
 31
0.0
  0
ARC
  5
276
  8
1
  6
CONTINUOUS
 62
     7
 10
977.6129969999971
 20
-1231.5
 30
0.0
 40
2.000000000002444
 50
270.0
 51
352.5
  0
ARC
  5
277
  8
1
  6
CONTINUOUS
 62
     7
 10
1274.612996999998
 20
-1231.5
 30
0.0
 40
1.999999999998892
 50
270.0
 51
352.5
  0
LINE
  5
278
  8
1
  6
CONTINUOUS
 62
     7
 10
1100.457873999999
 20
-1388.022104999999
 30
0.0
 11
1102.404112999999
 21
-1373.238947999999
 31
0.0
  0
LINE
  5
279
  8
1
  6
CONTINUOUS
 62
     7
 10
1642.245610493798
 20
-1289.999999999999
 30
0.0
 11
1642.245610493798
 21
-1215.185388147
 31
0.0
  0
LINE
  5
27A
  8
1
  6
CONTINUOUS
 62
     7
 10
1674.542125999998
 20
-1388.022104999999
 30
0.0
 11
1672.595886999998
 21
-1373.238947999999
 31
0.0
  0
LINE
  5
27B
  8
1
  6
CONTINUOUS
 62
     7
 10
981.4999999999998
 20
-1315.0
 30
0.0
 11
981.4999999999998
 21
-1290.0
 31
0.0
  0
LINE
  5
27C
  8
1
  6
CONTINUOUS
 62
     7
 10
1084.507905999998
 20
-1391.5
 30
0.0
 11
1096.492093999998
 21
-1391.5
 31
0.0
  0
LINE
  5
27D
  8
1
  6
CONTINUOUS
 62
     7
 10
1084.507905999998
 20
-1213.5
 30
0.0
 11
1096.492093999998
 21
-1213.5
 31
0.0
  0
LINE
  5
27E
  8
1
  6
CONTINUOUS
 62
     7
 10
1000.754389506198
 20
-1315.0
 30
0.0
 11
1000.754389506198
 21
-1389.814611853
 31
0.0
  0
LINE
  5
27F
  8
1
  6
CONTINUOUS
 62
     7
 10
1694.457874
 20
-1216.977895
 30
0.0
 11
1696.404113
 21
-1231.761052
 31
0.0
  0
ARC
  5
280
  8
1
  6
CONTINUOUS
 62
     7
 10
1665.387002999999
 20
-1231.5
 30
0.0
 40
1.999999999998892
 50
187.5
 51
270.0
  0
ARC
  5
281
  8
1
  6
CONTINUOUS
 62
     7
 10
1294.492093999998
 20
-1387.5
 30
0.0
 40
4.000000000001336
 50
270.0
 51
352.5
  0
LINE
  5
282
  8
1
  6
CONTINUOUS
 62
     7
 10
1103.042795336499
 20
-1232.980913692299
 30
0.0
 11
1103.042795336499
 21
-1372.019086307699
 31
0.0
  0
ARC
  5
283
  8
1
  6
CONTINUOUS
 62
     7
 10
1038.387003
 20
-1373.499999999999
 30
0.0
 40
1.999999999998892
 50
90.0
 51
172.5
  0
LINE
  5
284
  8
1
  6
CONTINUOUS
 62
     7
 10
1099.754389506198
 20
-1315.0
 30
0.0
 11
1099.754389506198
 21
-1389.814611853
 31
0.0
  0
ARC
  5
285
  8
1
  6
CONTINUOUS
 62
     7
 10
1005.387003000002
 20
-1231.5
 30
0.0
 40
1.999999999998892
 50
187.5
 51
270.0
  0
LINE
  5
286
  8
1
  6
CONTINUOUS
 62
     7
 10
977.6129969999971
 20
-1233.5
 30
0.0
 11
974.9999999999972
 21
-1233.5
 31
0.0
  0
LINE
  5
287
  8
1
  6
CONTINUOUS
 62
     7
 10
981.542126
 20
-1216.977895
 30
0.0
 11
979.5958870000005
 21
-1231.761052
 31
0.0
  0
LINE
  5
288
  8
1
  6
CONTINUOUS
 62
     7
 10
1080.5
 20
-1315.0
 30
0.0
 11
1080.5
 21
-1290.0
 31
0.0
  0
LINE
  5
289
  8
1
  6
CONTINUOUS
 62
     7
 10
1773.542125999998
 20
-1216.977895
 30
0.0
 11
1771.595886999998
 21
-1231.761052
 31
0.0
  0
LINE
  5
28A
  8
1
  6
CONTINUOUS
 62
     7
 10
1694.500000000001
 20
-1289.999999999999
 30
0.0
 11
1694.500000000001
 21
-1314.999999999999
 31
0.0
  0
LINE
  5
28B
  8
1
  6
CONTINUOUS
 62
     7
 10
1665.387002999999
 20
-1233.5
 30
0.0
 11
1670.612996999998
 21
-1233.5
 31
0.0
  0
LINE
  5
28C
  8
1
  6
CONTINUOUS
 62
     7
 10
1664.042795336502
 20
-1232.980913692299
 30
0.0
 11
1664.042795336502
 21
-1372.019086307699
 31
0.0
  0
ARC
  5
28D
  8
1
  6
CONTINUOUS
 62
     7
 10
1698.387002999996
 20
-1373.499999999999
 30
0.0
 40
2.000000000002444
 50
90.0
 51
172.5
  0
LINE
  5
28E
  8
1
  6
CONTINUOUS
 62
     7
 10
1674.499999999998
 20
-1315.0
 30
0.0
 11
1694.499999999997
 21
-1315.0
 31
0.0
  0
ARC
  5
28F
  8
1
  6
CONTINUOUS
 62
     7
 10
1657.492094000001
 20
-1217.5
 30
0.0
 40
3.999999999997783
 50
7.5
 51
90.0
  0
ARC
  5
290
  8
1
  6
CONTINUOUS
 62
     7
 10
1076.612996999997
 20
-1231.5
 30
0.0
 40
1.999999999998892
 50
270.0
 51
352.5
  0
LINE
  5
291
  8
1
  6
CONTINUOUS
 62
     7
 10
1641.5
 20
-1315.0
 30
0.0
 11
1661.5
 21
-1315.0
 31
0.0
  0
LINE
  5
292
  8
1
  6
CONTINUOUS
 62
     7
 10
1694.457874
 20
-1388.022104999999
 30
0.0
 11
1696.404113
 21
-1373.238947999999
 31
0.0
  0
LINE
  5
293
  8
1
  6
CONTINUOUS
 62
     7
 10
1000.754389506198
 20
-1289.999999999999
 30
0.0
 11
1000.754389506198
 21
-1215.185388147
 31
0.0
  0
LINE
  5
294
  8
1
  6
CONTINUOUS
 62
     7
 10
1711.507905999997
 20
-1213.5
 30
0.0
 11
1723.492093999997
 21
-1213.5
 31
0.0
  0
ARC
  5
295
  8
1
  6
CONTINUOUS
 62
     7
 10
1690.492093999999
 20
-1387.5
 30
0.0
 40
4.000000000001336
 50
270.0
 51
352.5
  0
ARC
  5
296
  8
1
  6
CONTINUOUS
 62
     7
 10
997.4920939999976
 20
-1217.5
 30
0.0
 40
3.999999999997783
 50
7.5
 51
90.0
  0
LINE
  5
297
  8
1
  6
CONTINUOUS
 62
     7
 10
1763.042795336502
 20
-1232.980913692299
 30
0.0
 11
1763.042795336502
 21
-1372.019086307699
 31
0.0
  0
LINE
  5
298
  8
1
  6
CONTINUOUS
 62
     7
 10
1278.542126000001
 20
-1388.022104999999
 30
0.0
 11
1276.595887
 21
-1373.238947999999
 31
0.0
  0
LINE
  5
299
  8
1
  6
CONTINUOUS
 62
     7
 10
1641.5
 20
-1289.999999999999
 30
0.0
 11
1661.5
 21
-1289.999999999999
 31
0.0
  0
LINE
  5
29A
  8
1
  6
CONTINUOUS
 62
     7
 10
1278.5
 20
-1315.0
 30
0.0
 11
1298.5
 21
-1315.0
 31
0.0
  0
ARC
  5
29B
  8
1
  6
CONTINUOUS
 62
     7
 10
1723.492093999997
 20
-1217.5
 30
0.0
 40
4.000000000001336
 50
7.5
 51
90.0
  0
ARC
  5
29C
  8
1
  6
CONTINUOUS
 62
     7
 10
1645.507906000002
 20
-1217.5
 30
0.0
 40
3.999999999997783
 50
90.0
 51
172.5
  0
ARC
  5
29D
  8
1
  6
CONTINUOUS
 62
     7
 10
1703.612996999996
 20
-1231.5
 30
0.0
 40
2.000000000002444
 50
270.0
 51
352.5
  0
LINE
  5
29E
  8
1
  6
CONTINUOUS
 62
     7
 10
1726.754389506201
 20
-1289.999999999999
 30
0.0
 11
1726.754389506201
 21
-1215.185388147
 31
0.0
  0
ARC
  5
29F
  8
1
  6
CONTINUOUS
 62
     7
 10
2075.055139900363
 20
-1364.9607278181
 30
0.0
 40
0.7200000000047169
 50
0.0000908811
 51
105.0
  0
LINE
  5
2A0
  8
1
  6
CONTINUOUS
 62
     7
 10
1674.542125999998
 20
-1216.977895
 30
0.0
 11
1672.595886999998
 21
-1231.761052
 31
0.0
  0
LINE
  5
2A1
  8
1
  6
CONTINUOUS
 62
     7
 10
1707.542125999999
 20
-1216.977895
 30
0.0
 11
1705.595886999999
 21
-1231.761052
 31
0.0
  0
LINE
  5
2A2
  8
1
  6
CONTINUOUS
 62
     7
 10
1707.499999999999
 20
-1315.0
 30
0.0
 11
1707.499999999999
 21
-1290.0
 31
0.0
  0
ARC
  5
2A3
  8
1
  6
CONTINUOUS
 62
     7
 10
1670.612996999999
 20
-1373.499999999999
 30
0.0
 40
1.999999999998892
 50
7.5
 51
90.0
  0
LINE
  5
2A4
  8
1
  6
CONTINUOUS
 62
     7
 10
1708.2456104938
 20
-1289.999999999999
 30
0.0
 11
1708.2456104938
 21
-1215.185388147
 31
0.0
  0
ARC
  5
2A5
  8
1
  6
CONTINUOUS
 62
     7
 10
1723.492093999997
 20
-1387.5
 30
0.0
 40
4.000000000001336
 50
270.0
 51
352.5
  0
LINE
  5
2A6
  8
1
  6
CONTINUOUS
 62
     7
 10
1297.754389506199
 20
-1289.999999999999
 30
0.0
 11
1297.754389506199
 21
-1215.185388147
 31
0.0
  0
LINE
  5
2A7
  8
1
  6
CONTINUOUS
 62
     7
 10
1674.499999999998
 20
-1315.0
 30
0.0
 11
1674.499999999998
 21
-1290.0
 31
0.0
  0
LINE
  5
2A8
  8
1
  6
CONTINUOUS
 62
     7
 10
1279.245610493798
 20
-1289.999999999999
 30
0.0
 11
1279.245610493798
 21
-1215.185388147
 31
0.0
  0
ARC
  5
2A9
  8
1
  6
CONTINUOUS
 62
     7
 10
1302.387002999996
 20
-1231.5
 30
0.0
 40
2.000000000002444
 50
187.5
 51
270.0
  0
LINE
  5
2AA
  8
1
  6
CONTINUOUS
 62
     7
 10
982.2456104938013
 20
-1289.999999999999
 30
0.0
 11
982.2456104938013
 21
-1215.185388147
 31
0.0
  0
ARC
  5
2AB
  8
1
  6
CONTINUOUS
 62
     7
 10
1657.492094000001
 20
-1387.5
 30
0.0
 40
3.999999999997783
 50
270.0
 51
352.5
  0
LINE
  5
2AC
  8
1
  6
CONTINUOUS
 62
     7
 10
1671.957204663499
 20
-1232.980913692299
 30
0.0
 11
1671.957204663499
 21
-1372.019086307699
 31
0.0
  0
LINE
  5
2AD
  8
1
  6
CONTINUOUS
 62
     7
 10
1698.387002999996
 20
-1233.5
 30
0.0
 11
1703.612996999996
 21
-1233.5
 31
0.0
  0
ARC
  5
2AE
  8
1
  6
CONTINUOUS
 62
     7
 10
1678.507905999999
 20
-1387.5
 30
0.0
 40
3.999999999997783
 50
187.5
 51
270.0
  0
LINE
  5
2AF
  8
1
  6
CONTINUOUS
 62
     7
 10
1730.042795336497
 20
-1232.980913692299
 30
0.0
 11
1730.042795336497
 21
-1372.019086307699
 31
0.0
  0
LINE
  5
2B0
  8
1
  6
CONTINUOUS
 62
     7
 10
1697.0427953365
 20
-1232.980913692299
 30
0.0
 11
1697.0427953365
 21
-1372.019086307699
 31
0.0
  0
ARC
  5
2B1
  8
1
  6
CONTINUOUS
 62
     7
 10
1678.507905999999
 20
-1217.5
 30
0.0
 40
3.999999999997783
 50
90.0
 51
172.5
  0
LINE
  5
2B2
  8
1
  6
CONTINUOUS
 62
     7
 10
1661.457873999996
 20
-1216.977895
 30
0.0
 11
1663.404112999995
 21
-1231.761052
 31
0.0
  0
ARC
  5
2B3
  8
1
  6
CONTINUOUS
 62
     7
 10
1731.387003000001
 20
-1373.499999999999
 30
0.0
 40
1.999999999998892
 50
90.0
 51
172.5
  0
LINE
  5
2B4
  8
1
  6
CONTINUOUS
 62
     7
 10
1645.507906000002
 20
-1391.5
 30
0.0
 11
1657.492094000001
 21
-1391.5
 31
0.0
  0
LINE
  5
2B5
  8
1
  6
CONTINUOUS
 62
     7
 10
1641.542126
 20
-1388.022104999999
 30
0.0
 11
1639.595887000001
 21
-1373.238947999999
 31
0.0
  0
ARC
  5
2B6
  8
1
  6
CONTINUOUS
 62
     7
 10
1670.612996999999
 20
-1231.5
 30
0.0
 40
1.999999999998892
 50
270.0
 51
352.5
  0
LINE
  5
2B7
  8
1
  6
CONTINUOUS
 62
     7
 10
1661.457873999996
 20
-1388.022104999999
 30
0.0
 11
1663.404112999995
 21
-1373.238947999999
 31
0.0
  0
ARC
  5
2B8
  8
1
  6
CONTINUOUS
 62
     7
 10
1769.612996999999
 20
-1231.5
 30
0.0
 40
2.000000000002444
 50
270.0
 51
352.5
  0
LINE
  5
2B9
  8
1
  6
CONTINUOUS
 62
     7
 10
1275.957204663498
 20
-1232.980913692299
 30
0.0
 11
1275.957204663498
 21
-1372.019086307699
 31
0.0
  0
ARC
  5
2BA
  8
1
  6
CONTINUOUS
 62
     7
 10
1711.507905999997
 20
-1217.5
 30
0.0
 40
3.999999999997783
 50
90.0
 51
172.5
  0
LINE
  5
2BB
  8
1
  6
CONTINUOUS
 62
     7
 10
1298.5
 20
-1289.999999999999
 30
0.0
 11
1298.5
 21
-1314.999999999999
 31
0.0
  0
LINE
  5
2BC
  8
1
  6
CONTINUOUS
 62
     7
 10
1731.387003000001
 20
-1233.5
 30
0.0
 11
1736.612997
 21
-1233.5
 31
0.0
  0
LINE
  5
2BD
  8
1
  6
CONTINUOUS
 62
     7
 10
1678.507905999999
 20
-1213.5
 30
0.0
 11
1690.492093999998
 21
-1213.5
 31
0.0
  0
ARC
  5
2BE
  8
1
  6
CONTINUOUS
 62
     7
 10
1698.387002999996
 20
-1231.5
 30
0.0
 40
2.000000000002444
 50
187.5
 51
270.0
  0
LINE
  5
2BF
  8
1
  6
CONTINUOUS
 62
     7
 10
1641.542126
 20
-1216.977895
 30
0.0
 11
1639.595887000001
 21
-1231.761052
 31
0.0
  0
LINE
  5
2C0
  8
1
  6
CONTINUOUS
 62
     7
 10
1707.499999999999
 20
-1289.999999999999
 30
0.0
 11
1727.499999999998
 21
-1289.999999999999
 31
0.0
  0
LINE
  5
2C1
  8
1
  6
CONTINUOUS
 62
     7
 10
1759.754389506198
 20
-1315.0
 30
0.0
 11
1759.754389506198
 21
-1389.814611853
 31
0.0
  0
LINE
  5
2C2
  8
1
  6
CONTINUOUS
 62
     7
 10
1278.5
 20
-1289.999999999999
 30
0.0
 11
1298.5
 21
-1289.999999999999
 31
0.0
  0
LINE
  5
2C3
  8
1
  6
CONTINUOUS
 62
     7
 10
981.542126
 20
-1388.022104999999
 30
0.0
 11
979.5958870000005
 21
-1373.238947999999
 31
0.0
  0
LINE
  5
2C4
  8
1
  6
CONTINUOUS
 62
     7
 10
985.507905999998
 20
-1391.5
 30
0.0
 11
997.4920939999976
 21
-1391.5
 31
0.0
  0
LINE
  5
2C5
  8
1
  6
CONTINUOUS
 62
     7
 10
1707.542125999999
 20
-1388.022104999999
 30
0.0
 11
1705.595886999999
 21
-1373.238947999999
 31
0.0
  0
LINE
  5
2C6
  8
1
  6
CONTINUOUS
 62
     7
 10
1708.2456104938
 20
-1315.0
 30
0.0
 11
1708.2456104938
 21
-1389.814611853
 31
0.0
  0
ARC
  5
2C7
  8
1
  6
CONTINUOUS
 62
     7
 10
1076.612996999997
 20
-1373.499999999999
 30
0.0
 40
1.999999999998892
 50
7.5
 51
90.0
  0
ARC
  5
2C8
  8
1
  6
CONTINUOUS
 62
     7
 10
1637.612997000001
 20
-1231.5
 30
0.0
 40
1.999999999998892
 50
270.0
 51
352.5
  0
LINE
  5
2C9
  8
1
  6
CONTINUOUS
 62
     7
 10
1770.957204663499
 20
-1232.980913692299
 30
0.0
 11
1770.957204663499
 21
-1372.019086307699
 31
0.0
  0
ARC
  5
2CA
  8
1
  6
CONTINUOUS
 62
     7
 10
1703.612996999996
 20
-1373.499999999999
 30
0.0
 40
2.000000000002444
 50
7.5
 51
90.0
  0
LINE
  5
2CB
  8
1
  6
CONTINUOUS
 62
     7
 10
1675.245610493799
 20
-1315.0
 30
0.0
 11
1675.245610493799
 21
-1389.814611853
 31
0.0
  0
ARC
  5
2CC
  8
1
  6
CONTINUOUS
 62
     7
 10
1480.507905999999
 20
-1387.5
 30
0.0
 40
3.999999999997783
 50
187.5
 51
270.0
  0
LINE
  5
2CD
  8
1
  6
CONTINUOUS
 62
     7
 10
1744.507905999998
 20
-1391.5
 30
0.0
 11
1756.492093999998
 21
-1391.5
 31
0.0
  0
LINE
  5
2CE
  8
1
  6
CONTINUOUS
 62
     7
 10
1740.5
 20
-1315.0
 30
0.0
 11
1740.5
 21
-1290.0
 31
0.0
  0
LINE
  5
2CF
  8
1
  6
CONTINUOUS
 62
     7
 10
1642.245610493798
 20
-1315.0
 30
0.0
 11
1642.245610493798
 21
-1389.814611853
 31
0.0
  0
LINE
  5
2D0
  8
1
  6
CONTINUOUS
 62
     7
 10
1774.245610493796
 20
-1289.999999999999
 30
0.0
 11
1774.245610493796
 21
-1215.185388147
 31
0.0
  0
ARC
  5
2D1
  8
1
  6
CONTINUOUS
 62
     7
 10
1822.492093999997
 20
-1217.5
 30
0.0
 40
4.000000000001336
 50
7.5
 51
90.0
  0
ARC
  5
2D2
  8
1
  6
CONTINUOUS
 62
     7
 10
1744.507905999998
 20
-1217.5
 30
0.0
 40
4.000000000001336
 50
90.0
 51
172.5
  0
LINE
  5
2D3
  8
1
  6
CONTINUOUS
 62
     7
 10
1711.507905999997
 20
-1391.5
 30
0.0
 11
1723.492093999997
 21
-1391.5
 31
0.0
  0
LINE
  5
2D4
  8
1
  6
CONTINUOUS
 62
     7
 10
1480.507905999999
 20
-1391.5
 30
0.0
 11
1492.492093999999
 21
-1391.5
 31
0.0
  0
ARC
  5
2D5
  8
1
  6
CONTINUOUS
 62
     7
 10
1756.492094000002
 20
-1387.5
 30
0.0
 40
3.999999999997783
 50
270.0
 51
352.5
  0
LINE
  5
2D6
  8
1
  6
CONTINUOUS
 62
     7
 10
1764.387002999999
 20
-1371.5
 30
0.0
 11
1769.612996999999
 21
-1371.5
 31
0.0
  0
LINE
  5
2D7
  8
1
  6
CONTINUOUS
 62
     7
 10
1562.457873999999
 20
-1216.977895
 30
0.0
 11
1564.404112999998
 21
-1231.761052
 31
0.0
  0
LINE
  5
2D8
  8
1
  6
CONTINUOUS
 62
     7
 10
1773.542125999998
 20
-1388.022104999999
 30
0.0
 11
1771.595886999998
 21
-1373.238947999999
 31
0.0
  0
LINE
  5
2D9
  8
1
  6
CONTINUOUS
 62
     7
 10
1528.7543895062
 20
-1315.0
 30
0.0
 11
1528.7543895062
 21
-1389.814611853
 31
0.0
  0
LINE
  5
2DA
  8
1
  6
CONTINUOUS
 62
     7
 10
1727.457873999998
 20
-1388.022104999999
 30
0.0
 11
1729.404112999998
 21
-1373.238947999999
 31
0.0
  0
LINE
  5
2DB
  8
1
  6
CONTINUOUS
 62
     7
 10
1496.457874
 20
-1388.022104999999
 30
0.0
 11
1498.404113
 21
-1373.238947999999
 31
0.0
  0
LINE
  5
2DC
  8
1
  6
CONTINUOUS
 62
     7
 10
1566.387002999998
 20
-1233.5
 30
0.0
 11
1571.612996999997
 21
-1233.5
 31
0.0
  0
ARC
  5
2DD
  8
1
  6
CONTINUOUS
 62
     7
 10
1546.507905999998
 20
-1217.5
 30
0.0
 40
4.000000000001336
 50
90.0
 51
172.5
  0
ARC
  5
2DE
  8
1
  6
CONTINUOUS
 62
     7
 10
1744.507905999998
 20
-1387.5
 30
0.0
 40
4.000000000001336
 50
187.5
 51
270.0
  0
LINE
  5
2DF
  8
1
  6
CONTINUOUS
 62
     7
 10
1661.5
 20
-1289.999999999999
 30
0.0
 11
1661.5
 21
-1314.999999999999
 31
0.0
  0
ARC
  5
2E0
  8
1
  6
CONTINUOUS
 62
     7
 10
1731.387003000001
 20
-1231.5
 30
0.0
 40
1.999999999998892
 50
187.5
 51
270.0
  0
LINE
  5
2E1
  8
1
  6
CONTINUOUS
 62
     7
 10
1737.957204663498
 20
-1232.980913692299
 30
0.0
 11
1737.957204663498
 21
-1372.019086307699
 31
0.0
  0
LINE
  5
2E2
  8
1
  6
CONTINUOUS
 62
     7
 10
1825.754389506197
 20
-1289.999999999999
 30
0.0
 11
1825.754389506197
 21
-1215.185388147
 31
0.0
  0
ARC
  5
2E3
  8
1
  6
CONTINUOUS
 62
     7
 10
1764.387002999999
 20
-1373.499999999999
 30
0.0
 40
2.000000000002444
 50
90.0
 51
172.5
  0
LINE
  5
2E4
  8
1
  6
CONTINUOUS
 62
     7
 10
1777.507906
 20
-1391.5
 30
0.0
 11
1789.492093999998
 21
-1391.5
 31
0.0
  0
ARC
  5
2E5
  8
1
  6
CONTINUOUS
 62
     7
 10
1472.612996999998
 20
-1373.499999999999
 30
0.0
 40
1.999999999998892
 50
7.5
 51
90.0
  0
ARC
  5
2E6
  8
1
  6
CONTINUOUS
 62
     7
 10
1500.387002999996
 20
-1373.499999999999
 30
0.0
 40
2.000000000002444
 50
90.0
 51
172.5
  0
LINE
  5
2E7
  8
1
  6
CONTINUOUS
 62
     7
 10
1740.542125999997
 20
-1216.977895
 30
0.0
 11
1738.595886999998
 21
-1231.761052
 31
0.0
  0
LINE
  5
2E8
  8
1
  6
CONTINUOUS
 62
     7
 10
1727.499999999998
 20
-1289.999999999999
 30
0.0
 11
1727.499999999998
 21
-1314.999999999999
 31
0.0
  0
LINE
  5
2E9
  8
1
  6
CONTINUOUS
 62
     7
 10
1704.9572046635
 20
-1232.980913692299
 30
0.0
 11
1704.9572046635
 21
-1372.019086307699
 31
0.0
  0
LINE
  5
2EA
  8
1
  6
CONTINUOUS
 62
     7
 10
1665.387002999999
 20
-1371.5
 30
0.0
 11
1670.612996999998
 21
-1371.5
 31
0.0
  0
LINE
  5
2EB
  8
1
  6
CONTINUOUS
 62
     7
 10
1660.754389506198
 20
-1315.0
 30
0.0
 11
1660.754389506198
 21
-1389.814611853
 31
0.0
  0
ARC
  5
2EC
  8
1
  6
CONTINUOUS
 62
     7
 10
1777.507906
 20
-1387.5
 30
0.0
 40
3.999999999997783
 50
187.5
 51
270.0
  0
LINE
  5
2ED
  8
1
  6
CONTINUOUS
 62
     7
 10
1741.245610493798
 20
-1315.0
 30
0.0
 11
1741.245610493798
 21
-1389.814611853
 31
0.0
  0
LINE
  5
2EE
  8
1
  6
CONTINUOUS
 62
     7
 10
1740.542125999997
 20
-1388.022104999999
 30
0.0
 11
1738.595886999998
 21
-1373.238947999999
 31
0.0
  0
LINE
  5
2EF
  8
1
  6
CONTINUOUS
 62
     7
 10
1693.754389506199
 20
-1315.0
 30
0.0
 11
1693.754389506199
 21
-1389.814611853
 31
0.0
  0
ARC
  5
2F0
  8
1
  6
CONTINUOUS
 62
     7
 10
1533.387003000001
 20
-1231.5
 30
0.0
 40
1.999999999998892
 50
187.5
 51
270.0
  0
LINE
  5
2F1
  8
1
  6
CONTINUOUS
 62
     7
 10
1760.500000000003
 20
-1289.999999999999
 30
0.0
 11
1760.500000000003
 21
-1314.999999999999
 31
0.0
  0
ARC
  5
2F2
  8
1
  6
CONTINUOUS
 62
     7
 10
1472.612996999998
 20
-1231.5
 30
0.0
 40
1.999999999998892
 50
270.0
 51
352.5
  0
ARC
  5
2F3
  8
1
  6
CONTINUOUS
 62
     7
 10
1637.612997000001
 20
-1373.499999999999
 30
0.0
 40
1.999999999998892
 50
7.5
 51
90.0
  0
ARC
  5
2F4
  8
1
  6
CONTINUOUS
 62
     7
 10
1756.492094000002
 20
-1217.5
 30
0.0
 40
3.999999999997783
 50
7.5
 51
90.0
  0
LINE
  5
2F5
  8
1
  6
CONTINUOUS
 62
     7
 10
1740.5
 20
-1315.0
 30
0.0
 11
1760.500000000001
 21
-1315.0
 31
0.0
  0
ARC
  5
2F6
  8
1
  6
CONTINUOUS
 62
     7
 10
1533.387003000001
 20
-1373.499999999999
 30
0.0
 40
1.999999999998892
 50
90.0
 51
172.5
  0
LINE
  5
2F7
  8
1
  6
CONTINUOUS
 62
     7
 10
1826.499999999999
 20
-1289.999999999999
 30
0.0
 11
1826.499999999999
 21
-1314.999999999999
 31
0.0
  0
LINE
  5
2F8
  8
1
  6
CONTINUOUS
 62
     7
 10
1565.042795336502
 20
-1232.980913692299
 30
0.0
 11
1565.042795336502
 21
-1372.019086307699
 31
0.0
  0
LINE
  5
2F9
  8
1
  6
CONTINUOUS
 62
     7
 10
1744.507905999998
 20
-1213.5
 30
0.0
 11
1756.492093999998
 21
-1213.5
 31
0.0
  0
LINE
  5
2FA
  8
1
  6
CONTINUOUS
 62
     7
 10
1731.387003000001
 20
-1371.5
 30
0.0
 11
1736.612997
 21
-1371.5
 31
0.0
  0
LINE
  5
2FB
  8
1
  6
CONTINUOUS
 62
     7
 10
1678.507905999999
 20
-1391.5
 30
0.0
 11
1690.492093999998
 21
-1391.5
 31
0.0
  0
LINE
  5
2FC
  8
1
  6
CONTINUOUS
 62
     7
 10
1810.507905999997
 20
-1391.5
 30
0.0
 11
1822.492093999997
 21
-1391.5
 31
0.0
  0
ARC
  5
2FD
  8
1
  6
CONTINUOUS
 62
     7
 10
1736.612996999997
 20
-1231.5
 30
0.0
 40
1.999999999998892
 50
270.0
 51
352.5
  0
LINE
  5
2FE
  8
1
  6
CONTINUOUS
 62
     7
 10
1760.457873999999
 20
-1216.977895
 30
0.0
 11
1762.404112999999
 21
-1231.761052
 31
0.0
  0
ARC
  5
2FF
  8
1
  6
CONTINUOUS
 62
     7
 10
1645.507906000002
 20
-1387.5
 30
0.0
 40
3.999999999997783
 50
187.5
 51
270.0
  0
LINE
  5
300
  8
1
  6
CONTINUOUS
 62
     7
 10
1674.499999999998
 20
-1289.999999999999
 30
0.0
 11
1694.499999999997
 21
-1289.999999999999
 31
0.0
  0
LINE
  5
301
  8
1
  6
CONTINUOUS
 62
     7
 10
1496.457874
 20
-1216.977895
 30
0.0
 11
1498.404113
 21
-1231.761052
 31
0.0
  0
LINE
  5
302
  8
1
  6
CONTINUOUS
 62
     7
 10
1810.507905999997
 20
-1213.5
 30
0.0
 11
1822.492093999997
 21
-1213.5
 31
0.0
  0
LINE
  5
303
  8
1
  6
CONTINUOUS
 62
     7
 10
1533.387003000001
 20
-1233.5
 30
0.0
 11
1538.612997
 21
-1233.5
 31
0.0
  0
ARC
  5
304
  8
1
  6
CONTINUOUS
 62
     7
 10
1769.612996999999
 20
-1373.499999999999
 30
0.0
 40
2.000000000002444
 50
7.5
 51
90.0
  0
LINE
  5
305
  8
1
  6
CONTINUOUS
 62
     7
 10
1726.754389506201
 20
-1315.0
 30
0.0
 11
1726.754389506201
 21
-1389.814611853
 31
0.0
  0
ARC
  5
306
  8
1
  6
CONTINUOUS
 62
     7
 10
1736.612996999997
 20
-1373.499999999999
 30
0.0
 40
1.999999999998892
 50
7.5
 51
90.0
  0
ARC
  5
307
  8
1
  6
CONTINUOUS
 62
     7
 10
1764.387002999999
 20
-1231.5
 30
0.0
 40
2.000000000002444
 50
187.5
 51
270.0
  0
LINE
  5
308
  8
1
  6
CONTINUOUS
 62
     7
 10
1759.754389506198
 20
-1289.999999999999
 30
0.0
 11
1759.754389506198
 21
-1215.185388147
 31
0.0
  0
LINE
  5
309
  8
1
  6
CONTINUOUS
 62
     7
 10
1476.542125999998
 20
-1216.977895
 30
0.0
 11
1474.595886999998
 21
-1231.761052
 31
0.0
  0
LINE
  5
30A
  8
1
  6
CONTINUOUS
 62
     7
 10
1542.5
 20
-1315.0
 30
0.0
 11
1542.5
 21
-1290.0
 31
0.0
  0
LINE
  5
30B
  8
1
  6
CONTINUOUS
 62
     7
 10
1825.754389506197
 20
-1315.0
 30
0.0
 11
1825.754389506197
 21
-1389.814611853
 31
0.0
  0
LINE
  5
30C
  8
1
  6
CONTINUOUS
 62
     7
 10
1539.957204663497
 20
-1232.980913692299
 30
0.0
 11
1539.957204663497
 21
-1372.019086307699
 31
0.0
  0
LINE
  5
30D
  8
1
  6
CONTINUOUS
 62
     7
 10
1576.245610493803
 20
-1289.999999999999
 30
0.0
 11
1576.245610493803
 21
-1215.185388147
 31
0.0
  0
LINE
  5
30E
  8
1
  6
CONTINUOUS
 62
     7
 10
1529.499999999998
 20
-1289.999999999999
 30
0.0
 11
1529.499999999998
 21
-1314.999999999999
 31
0.0
  0
LINE
  5
30F
  8
1
  6
CONTINUOUS
 62
     7
 10
1773.499999999998
 20
-1315.0
 30
0.0
 11
1773.499999999998
 21
-1290.0
 31
0.0
  0
LINE
  5
310
  8
1
  6
CONTINUOUS
 62
     7
 10
1476.499999999997
 20
-1289.999999999999
 30
0.0
 11
1496.499999999998
 21
-1289.999999999999
 31
0.0
  0
LINE
  5
311
  8
1
  6
CONTINUOUS
 62
     7
 10
1741.245610493798
 20
-1289.999999999999
 30
0.0
 11
1741.245610493798
 21
-1215.185388147
 31
0.0
  0
LINE
  5
312
  8
1
  6
CONTINUOUS
 62
     7
 10
1760.457873999999
 20
-1388.022104999999
 30
0.0
 11
1762.404112999999
 21
-1373.238947999999
 31
0.0
  0
LINE
  5
313
  8
1
  6
CONTINUOUS
 62
     7
 10
1509.499999999998
 20
-1315.0
 30
0.0
 11
1509.499999999998
 21
-1290.0
 31
0.0
  0
LINE
  5
314
  8
1
  6
CONTINUOUS
 62
     7
 10
1495.754389506199
 20
-1315.0
 30
0.0
 11
1495.754389506199
 21
-1389.814611853
 31
0.0
  0
ARC
  5
315
  8
1
  6
CONTINUOUS
 62
     7
 10
1505.612996999996
 20
-1373.499999999999
 30
0.0
 40
2.000000000002444
 50
7.5
 51
90.0
  0
LINE
  5
316
  8
1
  6
CONTINUOUS
 62
     7
 10
1627.754389506197
 20
-1315.0
 30
0.0
 11
1627.754389506197
 21
-1389.814611853
 31
0.0
  0
LINE
  5
317
  8
1
  6
CONTINUOUS
 62
     7
 10
1529.457873999998
 20
-1388.022104999999
 30
0.0
 11
1531.404112999997
 21
-1373.238947999999
 31
0.0
  0
LINE
  5
318
  8
1
  6
CONTINUOUS
 62
     7
 10
1500.387002999996
 20
-1233.5
 30
0.0
 11
1505.612996999995
 21
-1233.5
 31
0.0
  0
LINE
  5
319
  8
1
  6
CONTINUOUS
 62
     7
 10
1513.507906
 20
-1213.5
 30
0.0
 11
1525.492094
 21
-1213.5
 31
0.0
  0
LINE
  5
31A
  8
1
  6
CONTINUOUS
 62
     7
 10
1740.5
 20
-1289.999999999999
 30
0.0
 11
1760.500000000001
 21
-1289.999999999999
 31
0.0
  0
LINE
  5
31B
  8
1
  6
CONTINUOUS
 62
     7
 10
1826.457873999998
 20
-1216.977895
 30
0.0
 11
1828.404112999998
 21
-1231.761052
 31
0.0
  0
LINE
  5
31C
  8
1
  6
CONTINUOUS
 62
     7
 10
1513.507906
 20
-1391.5
 30
0.0
 11
1525.492094
 21
-1391.5
 31
0.0
  0
LINE
  5
31D
  8
1
  6
CONTINUOUS
 62
     7
 10
1575.499999999997
 20
-1315.0
 30
0.0
 11
1595.499999999998
 21
-1315.0
 31
0.0
  0
LINE
  5
31E
  8
1
  6
CONTINUOUS
 62
     7
 10
1542.542125999996
 20
-1216.977895
 30
0.0
 11
1540.595886999996
 21
-1231.761052
 31
0.0
  0
LINE
  5
31F
  8
1
  6
CONTINUOUS
 62
     7
 10
1546.507905999998
 20
-1391.5
 30
0.0
 11
1558.492093999997
 21
-1391.5
 31
0.0
  0
ARC
  5
320
  8
1
  6
CONTINUOUS
 62
     7
 10
1538.612996999997
 20
-1231.5
 30
0.0
 40
1.999999999998892
 50
270.0
 51
352.5
  0
LINE
  5
321
  8
1
  6
CONTINUOUS
 62
     7
 10
1707.499999999999
 20
-1315.0
 30
0.0
 11
1727.499999999998
 21
-1315.0
 31
0.0
  0
LINE
  5
322
  8
1
  6
CONTINUOUS
 62
     7
 10
1774.245610493796
 20
-1315.0
 30
0.0
 11
1774.245610493796
 21
-1389.814611853
 31
0.0
  0
LINE
  5
323
  8
1
  6
CONTINUOUS
 62
     7
 10
1575.542125999998
 20
-1216.977895
 30
0.0
 11
1573.595886999998
 21
-1231.761052
 31
0.0
  0
LINE
  5
324
  8
1
  6
CONTINUOUS
 62
     7
 10
1509.499999999998
 20
-1315.0
 30
0.0
 11
1529.499999999998
 21
-1315.0
 31
0.0
  0
LINE
  5
325
  8
1
  6
CONTINUOUS
 62
     7
 10
1510.2456104938
 20
-1289.999999999999
 30
0.0
 11
1510.2456104938
 21
-1215.185388147
 31
0.0
  0
LINE
  5
326
  8
1
  6
CONTINUOUS
 62
     7
 10
1641.5
 20
-1315.0
 30
0.0
 11
1641.5
 21
-1290.0
 31
0.0
  0
LINE
  5
327
  8
1
  6
CONTINUOUS
 62
     7
 10
1561.754389506201
 20
-1315.0
 30
0.0
 11
1561.754389506201
 21
-1389.814611853
 31
0.0
  0
LINE
  5
328
  8
1
  6
CONTINUOUS
 62
     7
 10
1533.387003000001
 20
-1371.5
 30
0.0
 11
1538.612997
 21
-1371.5
 31
0.0
  0
ARC
  5
329
  8
1
  6
CONTINUOUS
 62
     7
 10
1513.507906
 20
-1387.5
 30
0.0
 40
4.000000000001336
 50
187.5
 51
270.0
  0
ARC
  5
32A
  8
1
  6
CONTINUOUS
 62
     7
 10
1612.507906000001
 20
-1217.5
 30
0.0
 40
4.000000000001336
 50
90.0
 51
172.5
  0
LINE
  5
32B
  8
1
  6
CONTINUOUS
 62
     7
 10
1496.5
 20
-1289.999999999999
 30
0.0
 11
1496.5
 21
-1314.999999999999
 31
0.0
  0
LINE
  5
32C
  8
1
  6
CONTINUOUS
 62
     7
 10
1476.542125999998
 20
-1388.022104999999
 30
0.0
 11
1474.595886999998
 21
-1373.238947999999
 31
0.0
  0
LINE
  5
32D
  8
1
  6
CONTINUOUS
 62
     7
 10
1532.042795336497
 20
-1232.980913692299
 30
0.0
 11
1532.042795336497
 21
-1372.019086307699
 31
0.0
  0
ARC
  5
32E
  8
1
  6
CONTINUOUS
 62
     7
 10
1525.492093999996
 20
-1217.5
 30
0.0
 40
4.000000000001336
 50
7.5
 51
90.0
  0
LINE
  5
32F
  8
1
  6
CONTINUOUS
 62
     7
 10
1777.507906
 20
-1213.5
 30
0.0
 11
1789.492093999998
 21
-1213.5
 31
0.0
  0
LINE
  5
330
  8
1
  6
CONTINUOUS
 62
     7
 10
1628.457873999998
 20
-1388.022104999999
 30
0.0
 11
1630.404112999998
 21
-1373.238947999999
 31
0.0
  0
LINE
  5
331
  8
1
  6
CONTINUOUS
 62
     7
 10
1528.7543895062
 20
-1289.999999999999
 30
0.0
 11
1528.7543895062
 21
-1215.185388147
 31
0.0
  0
LINE
  5
332
  8
1
  6
CONTINUOUS
 62
     7
 10
1509.542125999999
 20
-1216.977895
 30
0.0
 11
1507.595886999999
 21
-1231.761052
 31
0.0
  0
LINE
  5
333
  8
1
  6
CONTINUOUS
 62
     7
 10
1477.245610493799
 20
-1315.0
 30
0.0
 11
1477.245610493799
 21
-1389.814611853
 31
0.0
  0
LINE
  5
334
  8
1
  6
CONTINUOUS
 62
     7
 10
1764.387002999999
 20
-1233.5
 30
0.0
 11
1769.612996999999
 21
-1233.5
 31
0.0
  0
LINE
  5
335
  8
1
  6
CONTINUOUS
 62
     7
 10
1826.457873999998
 20
-1388.022104999999
 30
0.0
 11
1828.404112999998
 21
-1373.238947999999
 31
0.0
  0
ARC
  5
336
  8
1
  6
CONTINUOUS
 62
     7
 10
1579.507905999999
 20
-1217.5
 30
0.0
 40
3.999999999997783
 50
90.0
 51
172.5
  0
LINE
  5
337
  8
1
  6
CONTINUOUS
 62
     7
 10
1510.2456104938
 20
-1315.0
 30
0.0
 11
1510.2456104938
 21
-1389.814611853
 31
0.0
  0
LINE
  5
338
  8
1
  6
CONTINUOUS
 62
     7
 10
1542.5
 20
-1289.999999999999
 30
0.0
 11
1562.499999999999
 21
-1289.999999999999
 31
0.0
  0
LINE
  5
339
  8
1
  6
CONTINUOUS
 62
     7
 10
1727.457873999998
 20
-1216.977895
 30
0.0
 11
1729.404112999998
 21
-1231.761052
 31
0.0
  0
ARC
  5
33A
  8
1
  6
CONTINUOUS
 62
     7
 10
1822.492093999997
 20
-1387.5
 30
0.0
 40
4.000000000001336
 50
270.0
 51
352.5
  0
ARC
  5
33B
  8
1
  6
CONTINUOUS
 62
     7
 10
1566.387002999998
 20
-1231.5
 30
0.0
 40
2.000000000002444
 50
187.5
 51
270.0
  0
ARC
  5
33C
  8
1
  6
CONTINUOUS
 62
     7
 10
1558.492094000001
 20
-1387.5
 30
0.0
 40
3.999999999997783
 50
270.0
 51
352.5
  0
ARC
  5
33D
  8
1
  6
CONTINUOUS
 62
     7
 10
1665.387002999999
 20
-1373.499999999999
 30
0.0
 40
1.999999999998892
 50
90.0
 51
172.5
  0
LINE
  5
33E
  8
1
  6
CONTINUOUS
 62
     7
 10
1499.042795336499
 20
-1232.980913692299
 30
0.0
 11
1499.042795336499
 21
-1372.019086307699
 31
0.0
  0
LINE
  5
33F
  8
1
  6
CONTINUOUS
 62
     7
 10
1579.507905999999
 20
-1213.5
 30
0.0
 11
1591.492093999999
 21
-1213.5
 31
0.0
  0
ARC
  5
340
  8
1
  6
CONTINUOUS
 62
     7
 10
1777.507906
 20
-1217.5
 30
0.0
 40
3.999999999997783
 50
90.0
 51
172.5
  0
ARC
  5
341
  8
1
  6
CONTINUOUS
 62
     7
 10
1480.507905999999
 20
-1217.5
 30
0.0
 40
3.999999999997783
 50
90.0
 51
172.5
  0
LINE
  5
342
  8
1
  6
CONTINUOUS
 62
     7
 10
1562.500000000003
 20
-1289.999999999999
 30
0.0
 11
1562.500000000003
 21
-1314.999999999999
 31
0.0
  0
ARC
  5
343
  8
1
  6
CONTINUOUS
 62
     7
 10
1500.387002999996
 20
-1231.5
 30
0.0
 40
2.000000000002444
 50
187.5
 51
270.0
  0
LINE
  5
344
  8
1
  6
CONTINUOUS
 62
     7
 10
1476.499999999997
 20
-1315.0
 30
0.0
 11
1476.499999999997
 21
-1290.0
 31
0.0
  0
LINE
  5
345
  8
1
  6
CONTINUOUS
 62
     7
 10
1608.542125999999
 20
-1216.977895
 30
0.0
 11
1606.595886999999
 21
-1231.761052
 31
0.0
  0
LINE
  5
346
  8
1
  6
CONTINUOUS
 62
     7
 10
1594.754389506199
 20
-1315.0
 30
0.0
 11
1594.754389506199
 21
-1389.814611853
 31
0.0
  0
LINE
  5
347
  8
1
  6
CONTINUOUS
 62
     7
 10
1477.245610493799
 20
-1289.999999999999
 30
0.0
 11
1477.245610493799
 21
-1215.185388147
 31
0.0
  0
ARC
  5
348
  8
1
  6
CONTINUOUS
 62
     7
 10
1546.507905999998
 20
-1387.5
 30
0.0
 40
4.000000000001336
 50
187.5
 51
270.0
  0
LINE
  5
349
  8
1
  6
CONTINUOUS
 62
     7
 10
1142.612997
 20
-1233.5
 30
0.0
 11
1137.387003
 21
-1233.5
 31
0.0
  0
LINE
  5
34A
  8
1
  6
CONTINUOUS
 62
     7
 10
1839.499999999993
 20
-1315.0
 30
0.0
 11
1859.499999999993
 21
-1315.0
 31
0.0
  0
ARC
  5
34B
  8
1
  6
CONTINUOUS
 62
     7
 10
1513.507906
 20
-1217.5
 30
0.0
 40
4.000000000001336
 50
90.0
 51
172.5
  0
ARC
  5
34C
  8
1
  6
CONTINUOUS
 62
     7
 10
1591.492093999999
 20
-1387.5
 30
0.0
 40
3.999999999997783
 50
270.0
 51
352.5
  0
ARC
  5
34D
  8
1
  6
CONTINUOUS
 62
     7
 10
1624.492093999997
 20
-1217.5
 30
0.0
 40
4.000000000001336
 50
7.5
 51
90.0
  0
LINE
  5
34E
  8
1
  6
CONTINUOUS
 62
     7
 10
1637.612997000001
 20
-1233.5
 30
0.0
 11
1632.387003000001
 21
-1233.5
 31
0.0
  0
ARC
  5
34F
  8
1
  6
CONTINUOUS
 62
     7
 10
1492.492093999999
 20
-1217.5
 30
0.0
 40
4.000000000001336
 50
7.5
 51
90.0
  0
ARC
  5
350
  8
1
  6
CONTINUOUS
 62
     7
 10
1863.387002999996
 20
-1231.5
 30
0.0
 40
1.999999999998892
 50
187.5
 51
270.0
  0
ARC
  5
351
  8
1
  6
CONTINUOUS
 62
     7
 10
1538.612996999997
 20
-1373.499999999999
 30
0.0
 40
1.999999999998892
 50
7.5
 51
90.0
  0
ARC
  5
352
  8
1
  6
CONTINUOUS
 62
     7
 10
1307.612996999995
 20
-1373.499999999999
 30
0.0
 40
2.000000000002444
 50
7.499999999999495
 51
90.0
  0
LINE
  5
353
  8
1
  6
CONTINUOUS
 62
     7
 10
1627.754389506197
 20
-1289.999999999999
 30
0.0
 11
1627.754389506197
 21
-1215.185388147
 31
0.0
  0
LINE
  5
354
  8
1
  6
CONTINUOUS
 62
     7
 10
1472.612996999998
 20
-1371.5
 30
0.0
 11
1467.387002999998
 21
-1371.5
 31
0.0
  0
LINE
  5
355
  8
1
  6
CONTINUOUS
 62
     7
 10
1612.507906000001
 20
-1213.5
 30
0.0
 11
1624.492093999999
 21
-1213.5
 31
0.0
  0
LINE
  5
356
  8
1
  6
CONTINUOUS
 62
     7
 10
1839.542125999993
 20
-1388.022104999999
 30
0.0
 11
1837.595886999993
 21
-1373.238947999999
 31
0.0
  0
LINE
  5
357
  8
1
  6
CONTINUOUS
 62
     7
 10
1840.245610493791
 20
-1289.999999999999
 30
0.0
 11
1840.245610493791
 21
-1215.185388147
 31
0.0
  0
ARC
  5
358
  8
1
  6
CONTINUOUS
 62
     7
 10
1505.612996999996
 20
-1231.5
 30
0.0
 40
2.000000000002444
 50
270.0
 51
352.5
  0
LINE
  5
359
  8
1
  6
CONTINUOUS
 62
     7
 10
1546.507905999998
 20
-1213.5
 30
0.0
 11
1558.492093999997
 21
-1213.5
 31
0.0
  0
LINE
  5
35A
  8
1
  6
CONTINUOUS
 62
     7
 10
1575.499999999997
 20
-1289.999999999999
 30
0.0
 11
1595.499999999998
 21
-1289.999999999999
 31
0.0
  0
LINE
  5
35B
  8
1
  6
CONTINUOUS
 62
     7
 10
1612.507906000001
 20
-1391.5
 30
0.0
 11
1624.492093999999
 21
-1391.5
 31
0.0
  0
LINE
  5
35C
  8
1
  6
CONTINUOUS
 62
     7
 10
1476.499999999997
 20
-1315.0
 30
0.0
 11
1496.499999999998
 21
-1315.0
 31
0.0
  0
LINE
  5
35D
  8
1
  6
CONTINUOUS
 62
     7
 10
1579.507905999999
 20
-1391.5
 30
0.0
 11
1591.492093999999
 21
-1391.5
 31
0.0
  0
LINE
  5
35E
  8
1
  6
CONTINUOUS
 62
     7
 10
1599.387003
 20
-1233.5
 30
0.0
 11
1604.612996999999
 21
-1233.5
 31
0.0
  0
LINE
  5
35F
  8
1
  6
CONTINUOUS
 62
     7
 10
1480.507905999999
 20
-1213.5
 30
0.0
 11
1492.492093999999
 21
-1213.5
 31
0.0
  0
LINE
  5
360
  8
1
  6
CONTINUOUS
 62
     7
 10
1308.957204663499
 20
-1232.980913692299
 30
0.0
 11
1308.957204663499
 21
-1372.019086307699
 31
0.0
  0
LINE
  5
361
  8
1
  6
CONTINUOUS
 62
     7
 10
1594.754389506199
 20
-1289.999999999999
 30
0.0
 11
1594.754389506199
 21
-1215.185388147
 31
0.0
  0
LINE
  5
362
  8
1
  6
CONTINUOUS
 62
     7
 10
1495.754389506199
 20
-1289.999999999999
 30
0.0
 11
1495.754389506199
 21
-1215.185388147
 31
0.0
  0
ARC
  5
363
  8
1
  6
CONTINUOUS
 62
     7
 10
1558.492094000001
 20
-1217.5
 30
0.0
 40
3.999999999997783
 50
7.5
 51
90.0
  0
ARC
  5
364
  8
1
  6
CONTINUOUS
 62
     7
 10
1835.612996999994
 20
-1231.5
 30
0.0
 40
2.000000000002444
 50
270.0
 51
352.5
  0
ARC
  5
365
  8
1
  6
CONTINUOUS
 62
     7
 10
1492.492093999999
 20
-1387.5
 30
0.0
 40
4.000000000001336
 50
270.0
 51
352.5
  0
LINE
  5
366
  8
1
  6
CONTINUOUS
 62
     7
 10
1542.542125999996
 20
-1388.022104999999
 30
0.0
 11
1540.595886999996
 21
-1373.238947999999
 31
0.0
  0
LINE
  5
367
  8
1
  6
CONTINUOUS
 62
     7
 10
1311.542125999998
 20
-1216.977895
 30
0.0
 11
1309.595886999999
 21
-1231.761052
 31
0.0
  0
LINE
  5
368
  8
1
  6
CONTINUOUS
 62
     7
 10
1608.500000000002
 20
-1315.0
 30
0.0
 11
1608.500000000002
 21
-1290.0
 31
0.0
  0
LINE
  5
369
  8
1
  6
CONTINUOUS
 62
     7
 10
1869.957204663492
 20
-1232.980913692299
 30
0.0
 11
1869.957204663492
 21
-1372.019086307699
 31
0.0
  0
LINE
  5
36A
  8
1
  6
CONTINUOUS
 62
     7
 10
1595.457874
 20
-1216.977895
 30
0.0
 11
1597.404113
 21
-1231.761052
 31
0.0
  0
ARC
  5
36B
  8
1
  6
CONTINUOUS
 62
     7
 10
1566.387002999998
 20
-1373.499999999999
 30
0.0
 40
2.000000000002444
 50
90.0
 51
172.5
  0
ARC
  5
36C
  8
1
  6
CONTINUOUS
 62
     7
 10
1525.492093999996
 20
-1387.5
 30
0.0
 40
4.000000000001336
 50
270.0
 51
352.5
  0
LINE
  5
36D
  8
1
  6
CONTINUOUS
 62
     7
 10
1608.500000000002
 20
-1289.999999999999
 30
0.0
 11
1628.500000000002
 21
-1289.999999999999
 31
0.0
  0
LINE
  5
36E
  8
1
  6
CONTINUOUS
 62
     7
 10
1543.245610493798
 20
-1315.0
 30
0.0
 11
1543.245610493798
 21
-1389.814611853
 31
0.0
  0
ARC
  5
36F
  8
1
  6
CONTINUOUS
 62
     7
 10
1307.612996999995
 20
-1231.5
 30
0.0
 40
2.000000000002444
 50
270.0
 51
352.5000000000005
  0
LINE
  5
370
  8
1
  6
CONTINUOUS
 62
     7
 10
1543.245610493798
 20
-1289.999999999999
 30
0.0
 11
1543.245610493798
 21
-1215.185388147
 31
0.0
  0
LINE
  5
371
  8
1
  6
CONTINUOUS
 62
     7
 10
1506.9572046635
 20
-1232.980913692299
 30
0.0
 11
1506.9572046635
 21
-1372.019086307699
 31
0.0
  0
ARC
  5
372
  8
1
  6
CONTINUOUS
 62
     7
 10
1571.612996999998
 20
-1231.5
 30
0.0
 40
2.000000000002444
 50
270.0
 51
352.5
  0
LINE
  5
373
  8
1
  6
CONTINUOUS
 62
     7
 10
1500.387002999996
 20
-1371.5
 30
0.0
 11
1505.612996999995
 21
-1371.5
 31
0.0
  0
LINE
  5
374
  8
1
  6
CONTINUOUS
 62
     7
 10
1529.457873999998
 20
-1216.977895
 30
0.0
 11
1531.404112999997
 21
-1231.761052
 31
0.0
  0
LINE
  5
375
  8
1
  6
CONTINUOUS
 62
     7
 10
1562.457873999999
 20
-1388.022104999999
 30
0.0
 11
1564.404112999998
 21
-1373.238947999999
 31
0.0
  0
LINE
  5
376
  8
1
  6
CONTINUOUS
 62
     7
 10
1302.387002999996
 20
-1371.5
 30
0.0
 11
1307.612996999995
 21
-1371.5
 31
0.0
  0
LINE
  5
377
  8
1
  6
CONTINUOUS
 62
     7
 10
1566.387002999998
 20
-1371.5
 30
0.0
 11
1571.612996999997
 21
-1371.5
 31
0.0
  0
LINE
  5
378
  8
1
  6
CONTINUOUS
 62
     7
 10
1858.754389506195
 20
-1289.999999999999
 30
0.0
 11
1858.754389506195
 21
-1215.185388147
 31
0.0
  0
LINE
  5
379
  8
1
  6
CONTINUOUS
 62
     7
 10
1143.957204663496
 20
-1232.980913692299
 30
0.0
 11
1143.957204663496
 21
-1372.019086307699
 31
0.0
  0
LINE
  5
37A
  8
1
  6
CONTINUOUS
 62
     7
 10
1608.542125999999
 20
-1388.022104999999
 30
0.0
 11
1606.595886999999
 21
-1373.238947999999
 31
0.0
  0
LINE
  5
37B
  8
1
  6
CONTINUOUS
 62
     7
 10
1605.9572046635
 20
-1232.980913692299
 30
0.0
 11
1605.9572046635
 21
-1372.019086307699
 31
0.0
  0
LINE
  5
37C
  8
1
  6
CONTINUOUS
 62
     7
 10
1595.457874
 20
-1388.022104999999
 30
0.0
 11
1597.404113
 21
-1373.238947999999
 31
0.0
  0
LINE
  5
37D
  8
1
  6
CONTINUOUS
 62
     7
 10
1595.5
 20
-1289.999999999999
 30
0.0
 11
1595.5
 21
-1314.999999999999
 31
0.0
  0
LINE
  5
37E
  8
1
  6
CONTINUOUS
 62
     7
 10
1472.612996999998
 20
-1233.5
 30
0.0
 11
1467.387002999998
 21
-1233.5
 31
0.0
  0
LINE
  5
37F
  8
1
  6
CONTINUOUS
 62
     7
 10
1839.542125999993
 20
-1216.977895
 30
0.0
 11
1837.595886999993
 21
-1231.761052
 31
0.0
  0
ARC
  5
380
  8
1
  6
CONTINUOUS
 62
     7
 10
1571.612996999998
 20
-1373.499999999999
 30
0.0
 40
2.000000000002444
 50
7.5
 51
90.0
  0
LINE
  5
381
  8
1
  6
CONTINUOUS
 62
     7
 10
1142.612997
 20
-1371.5
 30
0.0
 11
1137.387003
 21
-1371.5
 31
0.0
  0
LINE
  5
382
  8
1
  6
CONTINUOUS
 62
     7
 10
1509.542125999999
 20
-1388.022104999999
 30
0.0
 11
1507.595886999999
 21
-1373.238947999999
 31
0.0
  0
LINE
  5
383
  8
1
  6
CONTINUOUS
 62
     7
 10
1302.387002999996
 20
-1233.5
 30
0.0
 11
1307.612996999995
 21
-1233.5
 31
0.0
  0
LINE
  5
384
  8
1
  6
CONTINUOUS
 62
     7
 10
1575.542125999998
 20
-1388.022104999999
 30
0.0
 11
1573.595886999998
 21
-1373.238947999999
 31
0.0
  0
ARC
  5
385
  8
1
  6
CONTINUOUS
 62
     7
 10
1624.492093999997
 20
-1387.5
 30
0.0
 40
4.000000000001336
 50
270.0
 51
352.5
  0
LINE
  5
386
  8
1
  6
CONTINUOUS
 62
     7
 10
1473.957204663498
 20
-1232.980913692299
 30
0.0
 11
1473.957204663498
 21
-1372.019086307699
 31
0.0
  0
LINE
  5
387
  8
1
  6
CONTINUOUS
 62
     7
 10
1561.754389506201
 20
-1289.999999999999
 30
0.0
 11
1561.754389506201
 21
-1215.185388147
 31
0.0
  0
ARC
  5
388
  8
1
  6
CONTINUOUS
 62
     7
 10
1604.612996999999
 20
-1373.499999999999
 30
0.0
 40
1.999999999998892
 50
7.5
 51
90.0
  0
LINE
  5
389
  8
1
  6
CONTINUOUS
 62
     7
 10
1829.042795336498
 20
-1232.980913692299
 30
0.0
 11
1829.042795336498
 21
-1372.019086307699
 31
0.0
  0
ARC
  5
38A
  8
1
  6
CONTINUOUS
 62
     7
 10
1855.492093999994
 20
-1387.5
 30
0.0
 40
3.999999999997783
 50
270.0
 51
352.5
  0
LINE
  5
38B
  8
1
  6
CONTINUOUS
 62
     7
 10
1598.042795336499
 20
-1232.980913692299
 30
0.0
 11
1598.042795336499
 21
-1372.019086307699
 31
0.0
  0
LINE
  5
38C
  8
1
  6
CONTINUOUS
 62
     7
 10
2103.375078871866
 20
-1206.785606
 30
0.0
 11
2103.375078870767
 21
-1398.785606001237
 31
0.0
  0
LINE
  5
38D
  8
1
  6
CONTINUOUS
 62
     7
 10
1862.042795336495
 20
-1232.980913692299
 30
0.0
 11
1862.042795336495
 21
-1372.019086307699
 31
0.0
  0
LINE
  5
38E
  8
1
  6
CONTINUOUS
 62
     7
 10
1628.457873999998
 20
-1216.977895
 30
0.0
 11
1630.404112999998
 21
-1231.761052
 31
0.0
  0
LINE
  5
38F
  8
1
  6
CONTINUOUS
 62
     7
 10
1858.754389506195
 20
-1315.0
 30
0.0
 11
1858.754389506195
 21
-1389.814611853
 31
0.0
  0
LINE
  5
390
  8
1
  6
CONTINUOUS
 62
     7
 10
1807.245610493801
 20
-1197.5
 30
0.0
 11
1807.245610493801
 21
-1412.5
 31
0.0
  0
ARC
  5
391
  8
1
  6
CONTINUOUS
 62
     7
 10
1876.507905999993
 20
-1387.5
 30
0.0
 40
4.000000000001336
 50
187.5
 51
270.0
  0
LINE
  5
392
  8
1
  6
CONTINUOUS
 62
     7
 10
1509.499999999998
 20
-1289.999999999999
 30
0.0
 11
1529.499999999998
 21
-1289.999999999999
 31
0.0
  0
LINE
  5
393
  8
1
  6
CONTINUOUS
 62
     7
 10
1843.507905999995
 20
-1391.5
 30
0.0
 11
1855.492093999994
 21
-1391.5
 31
0.0
  0
ARC
  5
394
  8
1
  6
CONTINUOUS
 62
     7
 10
1855.492093999994
 20
-1217.5
 30
0.0
 40
3.999999999997783
 50
7.5
 51
90.0
  0
ARC
  5
395
  8
1
  6
CONTINUOUS
 62
     7
 10
1835.612996999994
 20
-1373.499999999999
 30
0.0
 40
2.000000000002444
 50
7.5
 51
90.0
  0
ARC
  5
396
  8
1
  6
CONTINUOUS
 62
     7
 10
1876.507905999993
 20
-1217.5
 30
0.0
 40
4.000000000001336
 50
90.0
 51
172.5
  0
LINE
  5
397
  8
1
  6
CONTINUOUS
 62
     7
 10
1599.387003
 20
-1371.5
 30
0.0
 11
1604.612996999999
 21
-1371.5
 31
0.0
  0
ARC
  5
398
  8
1
  6
CONTINUOUS
 62
     7
 10
1591.492093999999
 20
-1217.5
 30
0.0
 40
3.999999999997783
 50
7.5
 51
90.0
  0
LINE
  5
399
  8
1
  6
CONTINUOUS
 62
     7
 10
1632.387003000001
 20
-1371.5
 30
0.0
 11
1637.612997000001
 21
-1371.5
 31
0.0
  0
LINE
  5
39A
  8
1
  6
CONTINUOUS
 62
     7
 10
1631.042795336497
 20
-1232.980913692299
 30
0.0
 11
1631.042795336497
 21
-1372.019086307699
 31
0.0
  0
LINE
  5
39B
  8
1
  6
CONTINUOUS
 62
     7
 10
1331.457873999997
 20
-1216.977895
 30
0.0
 11
1333.404112999997
 21
-1231.761052
 31
0.0
  0
LINE
  5
39C
  8
1
  6
CONTINUOUS
 62
     7
 10
1792.754389506199
 20
-1412.5
 30
0.0
 11
1792.754389506199
 21
-1197.5
 31
0.0
  0
ARC
  5
39D
  8
1
  6
CONTINUOUS
 62
     7
 10
1830.387002999994
 20
-1231.5
 30
0.0
 40
2.000000000002444
 50
187.4999999999995
 51
270.0
  0
ARC
  5
39E
  8
1
  6
CONTINUOUS
 62
     7
 10
1604.612996999999
 20
-1231.5
 30
0.0
 40
1.999999999998892
 50
270.0
 51
352.5
  0
LINE
  5
39F
  8
1
  6
CONTINUOUS
 62
     7
 10
1840.245610493791
 20
-1315.0
 30
0.0
 11
1840.245610493791
 21
-1389.814611853
 31
0.0
  0
ARC
  5
3A0
  8
1
  6
CONTINUOUS
 62
     7
 10
1863.387002999996
 20
-1373.499999999999
 30
0.0
 40
1.999999999998892
 50
90.0
 51
172.5
  0
LINE
  5
3A1
  8
1
  6
CONTINUOUS
 62
     7
 10
1839.499999999993
 20
-1289.999999999999
 30
0.0
 11
1859.499999999993
 21
-1289.999999999999
 31
0.0
  0
LINE
  5
3A2
  8
1
  6
CONTINUOUS
 62
     7
 10
1863.387002999996
 20
-1371.5
 30
0.0
 11
1868.612996999995
 21
-1371.5
 31
0.0
  0
LINE
  5
3A3
  8
1
  6
CONTINUOUS
 62
     7
 10
1542.5
 20
-1315.0
 30
0.0
 11
1562.499999999999
 21
-1315.0
 31
0.0
  0
ENDSEC
  0
EOF
