  0
SECTION
  2
HEADER
  9
$ACADVER
  1
AC1006
  9
$DWGCODEPAGE
  3
ansi_932
  9
$INSBASE
 10
0.0
 20
0.0
 30
0.0
  9
$EXTMIN
 10
0.0
 20
-1805.0
  9
$EXTMAX
 10
2440.500000000004
 20
10.0
  9
$LIMMIN
 10
0.0
 20
0.0
  9
$LIMMAX
 10
12.0
 20
9.0
  9
$ORTHOMODE
 70
     0
  9
$REGENMODE
 70
     1
  9
$FILLMODE
 70
     1
  9
$QTEXTMODE
 70
     0
  9
$MIRRTEXT
 70
     1
  9
$DRAGMODE
 70
     2
  9
$LTSCALE
 40
1.0
  9
$OSMODE
 70
    37
  9
$ATTMODE
 70
     1
  9
$TEXTSIZE
 40
0.2
  9
$TRACEWID
 40
0.05
  9
$TEXTSTYLE
  7
STANDARD
  9
$CLAYER
  8
0
  9
$CELTYPE
  6
BYLAYER
  9
$CECOLOR
 62
   256
  9
$DIMSCALE
 40
1.0
  9
$DIMASZ
 40
3.0
  9
$DIMEXO
 40
0.0625
  9
$DIMDLI
 40
0.38
  9
$DIMRND
 40
0.0
  9
$DIMDLE
 40
0.0
  9
$DIMEXE
 40
1.5
  9
$DIMTP
 40
0.0
  9
$DIMTM
 40
0.0
  9
$DIMTXT
 40
3.0
  9
$DIMCEN
 40
0.09
  9
$DIMTSZ
 40
0.0
  9
$DIMTOL
 70
     0
  9
$DIMLIM
 70
     0
  9
$DIMTIH
 70
     1
  9
$DIMTOH
 70
     1
  9
$DIMSE1
 70
     0
  9
$DIMSE2
 70
     0
  9
$DIMTAD
 70
     1
  9
$DIMZIN
 70
     0
  9
$DIMBLK
  1

  9
$DIMASO
 70
     1
  9
$DIMSHO
 70
     1
  9
$DIMPOST
  1

  9
$DIMAPOST
  1

  9
$DIMALT
 70
     0
  9
$DIMALTD
 70
     2
  9
$DIMALTF
 40
25.4
  9
$DIMLFAC
 40
1.0
  9
$DIMTOFL
 70
     0
  9
$DIMTVP
 40
0.0
  9
$DIMTIX
 70
     0
  9
$DIMSOXD
 70
     0
  9
$DIMSAH
 70
     0
  9
$DIMBLK1
  1

  9
$DIMBLK2
  1

  9
$LUNITS
 70
     2
  9
$LUPREC
 70
     4
  9
$SKETCHINC
 40
0.1
  9
$FILLETRAD
 40
0.5
  9
$AUNITS
 70
     0
  9
$AUPREC
 70
     0
  9
$MENU
  1
.
  9
$ELEVATION
 40
0.0
  9
$THICKNESS
 40
0.0
  9
$LIMCHECK
 70
     0
  9
$CHAMFERA
 40
0.0
  9
$CHAMFERB
 40
0.0
  9
$SKPOLY
 70
     0
  9
$TDCREATE
 40
2460119.72160412
  9
$TDUPDATE
 40
2460119.721604548
  9
$TDINDWG
 40
0.0000000116
  9
$TDUSRTIMER
 40
0.0000000116
  9
$USRTIMER
 70
     1
  9
$ANGBASE
 50
0.0
  9
$ANGDIR
 70
     0
  9
$PDMODE
 70
     0
  9
$PDSIZE
 40
0.0
  9
$PLINEWID
 40
0.0
  9
$COORDS
 70
     1
  9
$SPLFRAME
 70
     0
  9
$SPLINETYPE
 70
     6
  9
$SPLINESEGS
 70
     8
  9
$ATTDIA
 70
     0
  9
$ATTREQ
 70
     1
  9
$HANDLING
 70
     1
  9
$HANDSEED
  5
46E
  9
$SURFTAB1
 70
     6
  9
$SURFTAB2
 70
     6
  9
$SURFTYPE
 70
     6
  9
$SURFU
 70
     6
  9
$SURFV
 70
     6
  9
$UCSNAME
  2

  9
$UCSORG
 10
0.0
 20
0.0
 30
0.0
  9
$UCSXDIR
 10
1.0
 20
0.0
 30
0.0
  9
$UCSYDIR
 10
0.0
 20
1.0
 30
0.0
  9
$USERI1
 70
     0
  9
$USERI2
 70
     0
  9
$USERI3
 70
     0
  9
$USERI4
 70
     0
  9
$USERI5
 70
     0
  9
$USERR1
 40
0.0
  9
$USERR2
 40
0.0
  9
$USERR3
 40
0.0
  9
$USERR4
 40
0.0
  9
$USERR5
 40
0.0
  9
$WORLDVIEW
 70
     1
  0
ENDSEC
  0
SECTION
  2
TABLES
  0
TABLE
  2
VPORT
 70
     1
  0
VPORT
  2
*ACTIVE
 70
     0
 10
0.0
 20
0.0
 11
1.0
 21
1.0
 12
1220.250000000002
 22
-897.5
 13
0.0
 23
0.0
 14
0.5
 24
0.5
 15
0.5
 25
0.5
 16
0.0
 26
0.0
 36
1.0
 17
0.0
 27
0.0
 37
0.0
 40
1815.0
 41
1.6
 42
50.0
 43
0.0
 44
0.0
 50
0.0
 51
0.0
 71
     0
 72
   100
 73
     1
 74
     3
 75
     0
 76
     0
 77
     0
 78
     0
  0
ENDTAB
  0
TABLE
  2
LTYPE
 70
     2
  0
LTYPE
  2
CONTINUOUS
 70
     0
  3
Solid line
 72
    65
 73
     0
 40
0.0
  0
LTYPE
  2
CENTER
 70
     0
  3

 72
    65
 73
     0
 40
0.0
  0
ENDTAB
  0
TABLE
  2
LAYER
 70
     2
  0
LAYER
  2
0
 70
     0
 62
     7
  6
CONTINUOUS
  0
LAYER
  2
1
 70
     0
 62
     7
  6
CONTINUOUS
  0
ENDTAB
  0
TABLE
  2
STYLE
 70
     2
  0
STYLE
  2
STANDARD
 70
     0
 40
0.0
 41
1.0
 50
0.0
 71
     0
 42
0.2
  3
txt
  4

  0
STYLE
  2
ＭＳ_ゴシック
 70
     0
 40
0.0
 41
1.0
 50
0.0
 71
     0
 42
0.2
  3
ＭＳ ゴシック.shx
  4

  0
ENDTAB
  0
TABLE
  2
VIEW
 70
     0
  0
ENDTAB
  0
TABLE
  2
UCS
 70
     0
  0
ENDTAB
  0
ENDSEC
  0
SECTION
  2
BLOCKS
  0
ENDSEC
  0
SECTION
  2
ENTITIES
  0
TEXT
  5
70
  8
0
  6
CONTINUOUS
 62
     7
 10
820.0608040515193
 20
-1805.524602976116
 30
0.0
 40
5.0
  1
N-KFEP-150CK
  0
TEXT
  5
71
  8
1
  6
CONTINUOUS
 62
     7
 10
779.3351186234123
 20
-1816.102293008539
 30
0.0
 40
10.0
  1
Ｎ－ＫＦＥＰ－１５０ＣＫ
 41
0.771692
 51
15.0
  0
ARC
  5
72
  8
1
  6
CONTINUOUS
 62
     7
 10
1665.304501844111
 20
-1778.501867113986
 30
0.0
 40
5.000000000002558
 50
270.0000000000005
 51
349.9999999999981
  0
ARC
  5
73
  8
1
  6
CONTINUOUS
 62
     7
 10
1560.695498155886
 20
-1578.501867113986
 30
0.0
 40
4.999999999999005
 50
90.0
 51
170.0000000000014
  0
LINE
  5
74
  8
1
  6
CONTINUOUS
 62
     7
 10
1637.994076404342
 20
-1598.501867113986
 30
0.0
 11
1632.005923595652
 21
-1598.501867113986
 31
0.0
  0
ARC
  5
75
  8
1
  6
CONTINUOUS
 62
     7
 10
1021.994076404343
 20
-1596.001867113987
 30
0.0
 40
2.500000000001279
 50
270.0000000000007
 51
350.0000000000044
  0
ARC
  5
76
  8
1
  6
CONTINUOUS
 62
     7
 10
1736.695498155881
 20
-1778.501867113986
 30
0.0
 40
5.000000000002558
 50
189.9999999999986
 51
270.0
  0
LINE
  5
77
  8
1
  6
CONTINUOUS
 62
     7
 10
1057.543904213122
 20
-1596.435987558154
 30
0.0
 11
1054.228540609173
 21
-1577.633626225652
 31
0.0
  0
LINE
  5
78
  8
1
  6
CONTINUOUS
 62
     7
 10
974.9999999999972
 20
-1598.501867113986
 30
0.0
 11
974.9999999999972
 21
-1758.501867113986
 31
0.0
  0
ARC
  5
79
  8
1
  6
CONTINUOUS
 62
     7
 10
1593.994076404342
 20
-1596.001867113987
 30
0.0
 40
2.500000000004832
 50
270.0000000000007
 51
350.0000000000044
  0
ARC
  5
7A
  8
1
  6
CONTINUOUS
 62
     7
 10
1588.005923595655
 20
-1596.001867113987
 30
0.0
 40
2.499999999997726
 50
189.9999999999961
 51
270.0
  0
LINE
  5
7B
  8
1
  6
CONTINUOUS
 62
     7
 10
1112.091825482287
 20
-1597.361811526816
 30
0.0
 11
1112.091825482287
 21
-1759.641922701155
 31
0.0
  0
ARC
  5
7C
  8
1
  6
CONTINUOUS
 62
     7
 10
1604.695498155883
 20
-1778.501867113986
 30
0.0
 40
5.000000000002558
 50
189.9999999999986
 51
270.0
  0
LINE
  5
7D
  8
1
  6
CONTINUOUS
 62
     7
 10
1277.908174517711
 20
-1597.361811526816
 30
0.0
 11
1277.908174517711
 21
-1759.641922701155
 31
0.0
  0
LINE
  5
7E
  8
1
  6
CONTINUOUS
 62
     7
 10
1230.252414054848
 20
-1693.083727370872
 30
0.0
 11
1230.252414054848
 21
-1663.9200068571
 31
0.0
  0
ARC
  5
7F
  8
1
  6
CONTINUOUS
 62
     7
 10
1604.695498155883
 20
-1578.501867113986
 30
0.0
 40
5.000000000002558
 50
90.0
 51
170.0000000000014
  0
ARC
  5
80
  8
1
  6
CONTINUOUS
 62
     7
 10
1621.304501844114
 20
-1778.501867113986
 30
0.0
 40
4.999999999999005
 50
270.0000000000005
 51
349.9999999999981
  0
LINE
  5
81
  8
1
  6
CONTINUOUS
 62
     7
 10
1098.25241405485
 20
-1693.083727370872
 30
0.0
 11
1098.25241405485
 21
-1663.9200068571
 31
0.0
  0
LINE
  5
82
  8
1
  6
CONTINUOUS
 62
     7
 10
1098.25241405485
 20
-1663.921416929575
 30
0.0
 11
1071.747585945147
 21
-1663.921416929575
 31
0.0
  0
ARC
  5
83
  8
1
  6
CONTINUOUS
 62
     7
 10
1637.994076404342
 20
-1761.001867113986
 30
0.0
 40
2.500000000001279
 50
9.999999999995469
 51
89.99999999999936
  0
ARC
  5
84
  8
1
  6
CONTINUOUS
 62
     7
 10
1549.994076404341
 20
-1596.001867113987
 30
0.0
 40
2.500000000004832
 50
270.0000000000007
 51
350.0000000000044
  0
ARC
  5
85
  8
1
  6
CONTINUOUS
 62
     7
 10
1692.695498155884
 20
-1778.501867113986
 30
0.0
 40
5.000000000002558
 50
189.9999999999986
 51
270.0
  0
LINE
  5
86
  8
1
  6
CONTINUOUS
 62
     7
 10
1753.304501844112
 20
-1783.501867113986
 30
0.0
 11
1736.695498155885
 21
-1783.501867113986
 31
0.0
  0
ARC
  5
87
  8
1
  6
CONTINUOUS
 62
     7
 10
1720.005923595653
 20
-1596.001867113987
 30
0.0
 40
2.500000000001279
 50
189.9999999999961
 51
270.0
  0
LINE
  5
88
  8
1
  6
CONTINUOUS
 62
     7
 10
1115.747585945147
 20
-1693.083727370872
 30
0.0
 11
1115.747585945147
 21
-1663.9200068571
 31
0.0
  0
LINE
  5
89
  8
1
  6
CONTINUOUS
 62
     7
 10
1142.252414054851
 20
-1693.083727370872
 30
0.0
 11
1142.252414054851
 21
-1663.9200068571
 31
0.0
  0
ARC
  5
8A
  8
1
  6
CONTINUOUS
 62
     7
 10
1016.005923595656
 20
-1596.001867113987
 30
0.0
 40
2.499999999997726
 50
189.9999999999961
 51
270.0
  0
LINE
  5
8B
  8
1
  6
CONTINUOUS
 62
     7
 10
1555.771459390825
 20
-1779.370108002321
 30
0.0
 11
1552.456095786875
 21
-1760.567746669819
 31
0.0
  0
ARC
  5
8C
  8
1
  6
CONTINUOUS
 62
     7
 10
1016.005923595656
 20
-1761.001867113986
 30
0.0
 40
2.499999999997726
 50
90.0
 51
170.0000000000039
  0
LINE
  5
8D
  8
1
  6
CONTINUOUS
 62
     7
 10
1585.543904213121
 20
-1596.435987558154
 30
0.0
 11
1582.228540609171
 21
-1577.633626225652
 31
0.0
  0
ARC
  5
8E
  8
1
  6
CONTINUOUS
 62
     7
 10
1676.005923595652
 20
-1761.001867113986
 30
0.0
 40
2.500000000001279
 50
90.0
 51
170.0000000000039
  0
ARC
  5
8F
  8
1
  6
CONTINUOUS
 62
     7
 10
1725.994076404347
 20
-1596.001867113987
 30
0.0
 40
2.499999999997726
 50
270.0000000000007
 51
350.0000000000044
  0
ARC
  5
90
  8
1
  6
CONTINUOUS
 62
     7
 10
1049.304501844111
 20
-1578.501867113986
 30
0.0
 40
4.999999999999005
 50
10.00000000000195
 51
89.99999999999952
  0
ARC
  5
91
  8
1
  6
CONTINUOUS
 62
     7
 10
1681.994076404346
 20
-1596.001867113987
 30
0.0
 40
2.499999999997726
 50
270.0000000000007
 51
350.0000000000044
  0
ARC
  5
92
  8
1
  6
CONTINUOUS
 62
     7
 10
977.9940764043423
 20
-1596.001867113987
 30
0.0
 40
2.499999999997726
 50
270.0
 51
350.0000000000039
  0
LINE
  5
93
  8
1
  6
CONTINUOUS
 62
     7
 10
1247.747585945144
 20
-1693.083727370872
 30
0.0
 11
1247.747585945144
 21
-1663.9200068571
 31
0.0
  0
LINE
  5
94
  8
1
  6
CONTINUOUS
 62
     7
 10
1687.771459390823
 20
-1779.370108002321
 30
0.0
 11
1684.456095786873
 21
-1760.567746669819
 31
0.0
  0
LINE
  5
95
  8
1
  6
CONTINUOUS
 62
     7
 10
1637.994076404342
 20
-1758.501867113986
 30
0.0
 11
1632.005923595652
 21
-1758.501867113986
 31
0.0
  0
ARC
  5
96
  8
1
  6
CONTINUOUS
 62
     7
 10
1621.304501844114
 20
-1578.501867113986
 30
0.0
 40
4.999999999999005
 50
10.00000000000192
 51
89.99999999999949
  0
ARC
  5
97
  8
1
  6
CONTINUOUS
 62
     7
 10
1720.005923595653
 20
-1761.001867113986
 30
0.0
 40
2.500000000001279
 50
90.0
 51
170.0000000000039
  0
LINE
  5
98
  8
1
  6
CONTINUOUS
 62
     7
 10
1665.304501844111
 20
-1573.501867113986
 30
0.0
 11
1648.695498155884
 21
-1573.501867113986
 31
0.0
  0
ARC
  5
99
  8
1
  6
CONTINUOUS
 62
     7
 10
1005.304501844114
 20
-1778.501867113986
 30
0.0
 40
4.999999999995453
 50
270.0000000000005
 51
349.9999999999981
  0
ARC
  5
9A
  8
1
  6
CONTINUOUS
 62
     7
 10
1588.005923595655
 20
-1761.001867113986
 30
0.0
 40
2.499999999997726
 50
90.0
 51
170.0000000000039
  0
LINE
  5
9B
  8
1
  6
CONTINUOUS
 62
     7
 10
1621.304501844114
 20
-1783.501867113986
 30
0.0
 11
1604.695498155887
 21
-1783.501867113986
 31
0.0
  0
ARC
  5
9C
  8
1
  6
CONTINUOUS
 62
     7
 10
1725.994076404347
 20
-1761.001867113986
 30
0.0
 40
2.499999999997726
 50
9.999999999995469
 51
89.99999999999936
  0
LINE
  5
9D
  8
1
  6
CONTINUOUS
 62
     7
 10
977.9940764043423
 20
-1758.501867113986
 30
0.0
 11
974.9999999999972
 21
-1758.501867113986
 31
0.0
  0
ARC
  5
9E
  8
1
  6
CONTINUOUS
 62
     7
 10
1736.695498155881
 20
-1578.501867113986
 30
0.0
 40
5.000000000002558
 50
90.0
 51
170.0000000000014
  0
ARC
  5
9F
  8
1
  6
CONTINUOUS
 62
     7
 10
1049.304501844111
 20
-1778.501867113986
 30
0.0
 40
4.999999999999005
 50
270.0000000000005
 51
349.9999999999981
  0
LINE
  5
A0
  8
1
  6
CONTINUOUS
 62
     7
 10
1599.771459390825
 20
-1779.370108002321
 30
0.0
 11
1596.456095786876
 21
-1760.567746669819
 31
0.0
  0
LINE
  5
A1
  8
1
  6
CONTINUOUS
 62
     7
 10
1013.543904213122
 20
-1760.567746669819
 30
0.0
 11
1010.228540609172
 21
-1779.370108002321
 31
0.0
  0
ARC
  5
A2
  8
1
  6
CONTINUOUS
 62
     7
 10
977.9940764043423
 20
-1761.001867113986
 30
0.0
 40
2.499999999997726
 50
9.999999999995469
 51
89.99999999999936
  0
LINE
  5
A3
  8
1
  6
CONTINUOUS
 62
     7
 10
1021.994076404343
 20
-1598.501867113986
 30
0.0
 11
1016.005923595653
 21
-1598.501867113986
 31
0.0
  0
LINE
  5
A4
  8
1
  6
CONTINUOUS
 62
     7
 10
1629.543904213125
 20
-1760.567746669819
 30
0.0
 11
1626.228540609175
 21
-1779.370108002321
 31
0.0
  0
LINE
  5
A5
  8
1
  6
CONTINUOUS
 62
     7
 10
1142.252414054851
 20
-1693.082317298398
 30
0.0
 11
1115.747585945148
 21
-1693.082317298398
 31
0.0
  0
LINE
  5
A6
  8
1
  6
CONTINUOUS
 62
     7
 10
1049.304501844111
 20
-1783.501867113986
 30
0.0
 11
1032.695498155884
 21
-1783.501867113986
 31
0.0
  0
LINE
  5
A7
  8
1
  6
CONTINUOUS
 62
     7
 10
1753.304501844112
 20
-1573.501867113986
 30
0.0
 11
1736.695498155885
 21
-1573.501867113986
 31
0.0
  0
LINE
  5
A8
  8
1
  6
CONTINUOUS
 62
     7
 10
1065.994076404343
 20
-1598.501867113986
 30
0.0
 11
1060.005923595653
 21
-1598.501867113986
 31
0.0
  0
LINE
  5
A9
  8
1
  6
CONTINUOUS
 62
     7
 10
1057.543904213122
 20
-1760.567746669819
 30
0.0
 11
1054.228540609173
 21
-1779.370108002321
 31
0.0
  0
LINE
  5
AA
  8
1
  6
CONTINUOUS
 62
     7
 10
977.9940764043423
 20
-1598.501867113986
 30
0.0
 11
974.9999999999972
 21
-1598.501867113986
 31
0.0
  0
LINE
  5
AB
  8
1
  6
CONTINUOUS
 62
     7
 10
1725.994076404347
 20
-1758.501867113986
 30
0.0
 11
1720.005923595657
 21
-1758.501867113986
 31
0.0
  0
LINE
  5
AC
  8
1
  6
CONTINUOUS
 62
     7
 10
1021.994076404343
 20
-1758.501867113986
 30
0.0
 11
1016.005923595653
 21
-1758.501867113986
 31
0.0
  0
LINE
  5
AD
  8
1
  6
CONTINUOUS
 62
     7
 10
1027.771459390826
 20
-1779.370108002321
 30
0.0
 11
1024.456095786877
 21
-1760.567746669819
 31
0.0
  0
LINE
  5
AE
  8
1
  6
CONTINUOUS
 62
     7
 10
1186.252414054848
 20
-1663.921416929575
 30
0.0
 11
1159.747585945145
 21
-1663.921416929575
 31
0.0
  0
LINE
  5
AF
  8
1
  6
CONTINUOUS
 62
     7
 10
1186.252414054848
 20
-1693.082317298398
 30
0.0
 11
1159.747585945145
 21
-1693.082317298398
 31
0.0
  0
ARC
  5
B0
  8
1
  6
CONTINUOUS
 62
     7
 10
1632.005923595655
 20
-1596.001867113987
 30
0.0
 40
2.499999999997726
 50
189.9999999999961
 51
270.0
  0
LINE
  5
B1
  8
1
  6
CONTINUOUS
 62
     7
 10
1673.543904213125
 20
-1596.435987558154
 30
0.0
 11
1670.228540609176
 21
-1577.633626225652
 31
0.0
  0
ARC
  5
B2
  8
1
  6
CONTINUOUS
 62
     7
 10
1269.30450184411
 20
-1578.501867113986
 30
0.0
 40
5.000000000002558
 50
10.00000000000195
 51
89.99999999999952
  0
ARC
  5
B3
  8
1
  6
CONTINUOUS
 62
     7
 10
1021.994076404343
 20
-1761.001867113986
 30
0.0
 40
2.500000000001279
 50
9.999999999995469
 51
89.99999999999936
  0
LINE
  5
B4
  8
1
  6
CONTINUOUS
 62
     7
 10
1068.091825482283
 20
-1597.361811526816
 30
0.0
 11
1068.091825482283
 21
-1759.641922701155
 31
0.0
  0
LINE
  5
B5
  8
1
  6
CONTINUOUS
 62
     7
 10
1098.25241405485
 20
-1693.082317298398
 30
0.0
 11
1071.747585945147
 21
-1693.082317298398
 31
0.0
  0
LINE
  5
B6
  8
1
  6
CONTINUOUS
 62
     7
 10
1643.771459390826
 20
-1577.633626225652
 30
0.0
 11
1640.456095786876
 21
-1596.435987558153
 31
0.0
  0
LINE
  5
B7
  8
1
  6
CONTINUOUS
 62
     7
 10
1057.908174517712
 20
-1597.361811526816
 30
0.0
 11
1057.908174517712
 21
-1759.641922701155
 31
0.0
  0
ARC
  5
B8
  8
1
  6
CONTINUOUS
 62
     7
 10
1076.695498155884
 20
-1578.501867113986
 30
0.0
 40
5.000000000002558
 50
90.0
 51
170.0000000000014
  0
LINE
  5
B9
  8
1
  6
CONTINUOUS
 62
     7
 10
1027.771459390826
 20
-1577.633626225652
 30
0.0
 11
1024.456095786877
 21
-1596.435987558153
 31
0.0
  0
LINE
  5
BA
  8
1
  6
CONTINUOUS
 62
     7
 10
1024.091825482286
 20
-1597.361811526816
 30
0.0
 11
1024.091825482286
 21
-1759.641922701155
 31
0.0
  0
LINE
  5
BB
  8
1
  6
CONTINUOUS
 62
     7
 10
1010.252414054853
 20
-1693.083727370872
 30
0.0
 11
1010.252414054853
 21
-1663.9200068571
 31
0.0
  0
ARC
  5
BC
  8
1
  6
CONTINUOUS
 62
     7
 10
1104.005923595657
 20
-1761.001867113986
 30
0.0
 40
2.499999999997726
 50
90.0
 51
170.0000000000039
  0
LINE
  5
BD
  8
1
  6
CONTINUOUS
 62
     7
 10
1054.25241405485
 20
-1693.082317298398
 30
0.0
 11
1027.747585945147
 21
-1693.082317298398
 31
0.0
  0
LINE
  5
BE
  8
1
  6
CONTINUOUS
 62
     7
 10
1027.747585945149
 20
-1693.083727370872
 30
0.0
 11
1027.747585945149
 21
-1663.9200068571
 31
0.0
  0
LINE
  5
BF
  8
1
  6
CONTINUOUS
 62
     7
 10
1717.543904213122
 20
-1596.435987558154
 30
0.0
 11
1714.228540609172
 21
-1577.633626225652
 31
0.0
  0
LINE
  5
C0
  8
1
  6
CONTINUOUS
 62
     7
 10
1049.304501844111
 20
-1573.501867113986
 30
0.0
 11
1032.695498155884
 21
-1573.501867113986
 31
0.0
  0
LINE
  5
C1
  8
1
  6
CONTINUOUS
 62
     7
 10
1717.543904213122
 20
-1760.567746669819
 30
0.0
 11
1714.228540609172
 21
-1779.370108002321
 31
0.0
  0
ARC
  5
C2
  8
1
  6
CONTINUOUS
 62
     7
 10
1709.304501844111
 20
-1778.501867113986
 30
0.0
 40
5.000000000002558
 50
270.0000000000005
 51
349.9999999999981
  0
ARC
  5
C3
  8
1
  6
CONTINUOUS
 62
     7
 10
1060.005923595656
 20
-1596.001867113987
 30
0.0
 40
2.499999999997726
 50
189.9999999999961
 51
270.0
  0
LINE
  5
C4
  8
1
  6
CONTINUOUS
 62
     7
 10
1277.543904213125
 20
-1596.435987558154
 30
0.0
 11
1274.228540609175
 21
-1577.633626225652
 31
0.0
  0
ARC
  5
C5
  8
1
  6
CONTINUOUS
 62
     7
 10
1104.005923595657
 20
-1596.001867113987
 30
0.0
 40
2.499999999997726
 50
189.9999999999961
 51
270.0
  0
ARC
  5
C6
  8
1
  6
CONTINUOUS
 62
     7
 10
1648.695498155884
 20
-1578.501867113986
 30
0.0
 40
5.000000000002558
 50
90.0
 51
170.0000000000014
  0
LINE
  5
C7
  8
1
  6
CONTINUOUS
 62
     7
 10
1005.304501844114
 20
-1783.501867113986
 30
0.0
 11
988.6954981558872
 21
-1783.501867113986
 31
0.0
  0
LINE
  5
C8
  8
1
  6
CONTINUOUS
 62
     7
 10
1093.304501844112
 20
-1783.501867113986
 30
0.0
 11
1076.695498155885
 21
-1783.501867113986
 31
0.0
  0
LINE
  5
C9
  8
1
  6
CONTINUOUS
 62
     7
 10
1731.747585945146
 20
-1693.083727370872
 30
0.0
 11
1731.747585945146
 21
-1663.9200068571
 31
0.0
  0
ARC
  5
CA
  8
1
  6
CONTINUOUS
 62
     7
 10
1060.005923595656
 20
-1761.001867113986
 30
0.0
 40
2.499999999997726
 50
90.0
 51
170.0000000000039
  0
ARC
  5
CB
  8
1
  6
CONTINUOUS
 62
     7
 10
1093.304501844112
 20
-1778.501867113986
 30
0.0
 40
5.000000000002558
 50
270.0000000000005
 51
349.9999999999981
  0
LINE
  5
CC
  8
1
  6
CONTINUOUS
 62
     7
 10
1054.25241405485
 20
-1693.083727370872
 30
0.0
 11
1054.25241405485
 21
-1663.9200068571
 31
0.0
  0
LINE
  5
CD
  8
1
  6
CONTINUOUS
 62
     7
 10
983.7714593908258
 20
-1779.370108002321
 30
0.0
 11
980.4560957868763
 21
-1760.567746669819
 31
0.0
  0
LINE
  5
CE
  8
1
  6
CONTINUOUS
 62
     7
 10
1101.543904213122
 20
-1596.435987558154
 30
0.0
 11
1098.228540609173
 21
-1577.633626225652
 31
0.0
  0
ARC
  5
CF
  8
1
  6
CONTINUOUS
 62
     7
 10
1681.994076404346
 20
-1761.001867113986
 30
0.0
 40
2.499999999997726
 50
9.999999999995469
 51
89.99999999999936
  0
LINE
  5
D0
  8
1
  6
CONTINUOUS
 62
     7
 10
1071.747585945146
 20
-1693.083727370872
 30
0.0
 11
1071.747585945146
 21
-1663.9200068571
 31
0.0
  0
LINE
  5
D1
  8
1
  6
CONTINUOUS
 62
     7
 10
1054.25241405485
 20
-1663.921416929575
 30
0.0
 11
1027.747585945147
 21
-1663.921416929575
 31
0.0
  0
ARC
  5
D2
  8
1
  6
CONTINUOUS
 62
     7
 10
1252.695498155883
 20
-1578.501867113986
 30
0.0
 40
5.000000000002558
 50
90.0
 51
170.0000000000014
  0
LINE
  5
D3
  8
1
  6
CONTINUOUS
 62
     7
 10
1013.908174517709
 20
-1597.361811526816
 30
0.0
 11
1013.908174517709
 21
-1759.641922701155
 31
0.0
  0
LINE
  5
D4
  8
1
  6
CONTINUOUS
 62
     7
 10
1247.771459390825
 20
-1577.633626225652
 30
0.0
 11
1244.456095786875
 21
-1596.435987558153
 31
0.0
  0
LINE
  5
D5
  8
1
  6
CONTINUOUS
 62
     7
 10
1145.908174517713
 20
-1597.361811526816
 30
0.0
 11
1145.908174517713
 21
-1759.641922701155
 31
0.0
  0
LINE
  5
D6
  8
1
  6
CONTINUOUS
 62
     7
 10
1269.30450184411
 20
-1573.501867113986
 30
0.0
 11
1252.695498155883
 21
-1573.501867113986
 31
0.0
  0
LINE
  5
D7
  8
1
  6
CONTINUOUS
 62
     7
 10
1093.304501844112
 20
-1573.501867113986
 30
0.0
 11
1076.695498155885
 21
-1573.501867113986
 31
0.0
  0
ARC
  5
D8
  8
1
  6
CONTINUOUS
 62
     7
 10
1032.695498155884
 20
-1578.501867113986
 30
0.0
 40
5.000000000002558
 50
90.0
 51
170.0000000000014
  0
LINE
  5
D9
  8
1
  6
CONTINUOUS
 62
     7
 10
1725.994076404347
 20
-1598.501867113986
 30
0.0
 11
1720.005923595657
 21
-1598.501867113986
 31
0.0
  0
LINE
  5
DA
  8
1
  6
CONTINUOUS
 62
     7
 10
1071.771459390823
 20
-1577.633626225652
 30
0.0
 11
1068.456095786874
 21
-1596.435987558153
 31
0.0
  0
LINE
  5
DB
  8
1
  6
CONTINUOUS
 62
     7
 10
1731.771459390823
 20
-1577.633626225652
 30
0.0
 11
1728.456095786874
 21
-1596.435987558153
 31
0.0
  0
ARC
  5
DC
  8
1
  6
CONTINUOUS
 62
     7
 10
988.6954981558836
 20
-1778.501867113986
 30
0.0
 40
5.000000000002558
 50
189.9999999999986
 51
270.0
  0
ARC
  5
DD
  8
1
  6
CONTINUOUS
 62
     7
 10
1032.695498155884
 20
-1778.501867113986
 30
0.0
 40
5.000000000002558
 50
189.9999999999986
 51
270.0
  0
ARC
  5
DE
  8
1
  6
CONTINUOUS
 62
     7
 10
1076.695498155884
 20
-1778.501867113986
 30
0.0
 40
5.000000000002558
 50
189.9999999999986
 51
270.0
  0
ARC
  5
DF
  8
1
  6
CONTINUOUS
 62
     7
 10
1093.304501844112
 20
-1578.501867113986
 30
0.0
 40
5.000000000002558
 50
10.00000000000195
 51
89.99999999999952
  0
LINE
  5
E0
  8
1
  6
CONTINUOUS
 62
     7
 10
1142.252414054851
 20
-1663.921416929575
 30
0.0
 11
1115.747585945148
 21
-1663.921416929575
 31
0.0
  0
LINE
  5
E1
  8
1
  6
CONTINUOUS
 62
     7
 10
1709.304501844111
 20
-1783.501867113986
 30
0.0
 11
1692.695498155884
 21
-1783.501867113986
 31
0.0
  0
LINE
  5
E2
  8
1
  6
CONTINUOUS
 62
     7
 10
1109.99407640434
 20
-1598.501867113986
 30
0.0
 11
1104.00592359565
 21
-1598.501867113986
 31
0.0
  0
LINE
  5
E3
  8
1
  6
CONTINUOUS
 62
     7
 10
1101.908174517713
 20
-1597.361811526816
 30
0.0
 11
1101.908174517713
 21
-1759.641922701155
 31
0.0
  0
LINE
  5
E4
  8
1
  6
CONTINUOUS
 62
     7
 10
1731.771459390823
 20
-1779.370108002321
 30
0.0
 11
1728.456095786874
 21
-1760.567746669819
 31
0.0
  0
LINE
  5
E5
  8
1
  6
CONTINUOUS
 62
     7
 10
1065.994076404343
 20
-1758.501867113986
 30
0.0
 11
1060.005923595653
 21
-1758.501867113986
 31
0.0
  0
LINE
  5
E6
  8
1
  6
CONTINUOUS
 62
     7
 10
1687.771459390823
 20
-1577.633626225652
 30
0.0
 11
1684.456095786873
 21
-1596.435987558153
 31
0.0
  0
LINE
  5
E7
  8
1
  6
CONTINUOUS
 62
     7
 10
1101.543904213122
 20
-1760.567746669819
 30
0.0
 11
1098.228540609173
 21
-1779.370108002321
 31
0.0
  0
ARC
  5
E8
  8
1
  6
CONTINUOUS
 62
     7
 10
1285.994076404346
 20
-1761.001867113986
 30
0.0
 40
2.499999999997726
 50
9.999999999995469
 51
89.99999999999936
  0
LINE
  5
E9
  8
1
  6
CONTINUOUS
 62
     7
 10
1626.252414054849
 20
-1693.082317298398
 30
0.0
 11
1599.747585945146
 21
-1693.082317298398
 31
0.0
  0
LINE
  5
EA
  8
1
  6
CONTINUOUS
 62
     7
 10
1552.091825482283
 20
-1597.364631671766
 30
0.0
 11
1552.091825482283
 21
-1759.644742846105
 31
0.0
  0
LINE
  5
EB
  8
1
  6
CONTINUOUS
 62
     7
 10
1291.771459390822
 20
-1577.633626225652
 30
0.0
 11
1288.456095786873
 21
-1596.435987558153
 31
0.0
  0
LINE
  5
EC
  8
1
  6
CONTINUOUS
 62
     7
 10
2431.257117760812
 20
-1720.259990840753
 30
0.0
 11
2431.257117760812
 21
-1636.74374338722
 31
0.0
  0
LINE
  5
ED
  8
1
  6
CONTINUOUS
 62
     7
 10
1593.994076404342
 20
-1758.501867113986
 30
0.0
 11
1588.005923595652
 21
-1758.501867113986
 31
0.0
  0
LINE
  5
EE
  8
1
  6
CONTINUOUS
 62
     7
 10
1461.994076404344
 20
-1758.501867113986
 30
0.0
 11
1456.005923595654
 21
-1758.501867113986
 31
0.0
  0
LINE
  5
EF
  8
1
  6
CONTINUOUS
 62
     7
 10
1406.252414054854
 20
-1693.082317298398
 30
0.0
 11
1379.747585945151
 21
-1693.082317298398
 31
0.0
  0
LINE
  5
F0
  8
1
  6
CONTINUOUS
 62
     7
 10
2248.000000000002
 20
-1639.001867113986
 30
0.0
 11
2248.000000000002
 21
-1718.001867113987
 31
0.0
  0
ARC
  5
F1
  8
1
  6
CONTINUOUS
 62
     7
 10
1005.304501844114
 20
-1578.501867113986
 30
0.0
 40
4.999999999995453
 50
10.00000000000247
 51
90.00000000000004
  0
ARC
  5
F2
  8
1
  6
CONTINUOUS
 62
     7
 10
1296.695498155887
 20
-1778.501867113986
 30
0.0
 40
4.999999999999005
 50
189.9999999999986
 51
270.0
  0
LINE
  5
F3
  8
1
  6
CONTINUOUS
 62
     7
 10
1285.994076404346
 20
-1598.501867113986
 30
0.0
 11
1280.005923595655
 21
-1598.501867113986
 31
0.0
  0
ARC
  5
F4
  8
1
  6
CONTINUOUS
 62
     7
 10
1373.994076404343
 20
-1596.001867113987
 30
0.0
 40
2.499999999997726
 50
270.0000000000007
 51
350.0000000000044
  0
LINE
  5
F5
  8
1
  6
CONTINUOUS
 62
     7
 10
1640.091825482283
 20
-1597.364631671766
 30
0.0
 11
1640.091825482283
 21
-1759.644742846105
 31
0.0
  0
ARC
  5
F6
  8
1
  6
CONTINUOUS
 62
     7
 10
1340.695498155887
 20
-1578.501867113986
 30
0.0
 40
4.999999999995453
 50
90.0
 51
170.0000000000014
  0
ARC
  5
F7
  8
1
  6
CONTINUOUS
 62
     7
 10
1373.994076404343
 20
-1761.001867113986
 30
0.0
 40
2.499999999997726
 50
9.999999999995469
 51
89.99999999999936
  0
LINE
  5
F8
  8
1
  6
CONTINUOUS
 62
     7
 10
1362.25241405485
 20
-1693.082317298398
 30
0.0
 11
1335.747585945147
 21
-1693.082317298398
 31
0.0
  0
LINE
  5
F9
  8
1
  6
CONTINUOUS
 62
     7
 10
1277.543904213125
 20
-1760.567746669819
 30
0.0
 11
1274.228540609175
 21
-1779.370108002321
 31
0.0
  0
LINE
  5
FA
  8
1
  6
CONTINUOUS
 62
     7
 10
1335.771459390822
 20
-1577.633626225652
 30
0.0
 11
1332.456095786873
 21
-1596.435987558153
 31
0.0
  0
LINE
  5
FB
  8
1
  6
CONTINUOUS
 62
     7
 10
1329.994076404346
 20
-1598.501867113986
 30
0.0
 11
1324.005923595656
 21
-1598.501867113986
 31
0.0
  0
ARC
  5
FC
  8
1
  6
CONTINUOUS
 62
     7
 10
988.6954981558836
 20
-1578.501867113986
 30
0.0
 40
5.000000000002558
 50
90.00000000000001
 51
170.0000000000014
  0
ARC
  5
FD
  8
1
  6
CONTINUOUS
 62
     7
 10
1357.304501844111
 20
-1578.501867113986
 30
0.0
 40
5.000000000002558
 50
10.00000000000195
 51
89.99999999999952
  0
LINE
  5
FE
  8
1
  6
CONTINUOUS
 62
     7
 10
1335.771459390822
 20
-1779.370108002321
 30
0.0
 11
1332.456095786873
 21
-1760.567746669819
 31
0.0
  0
LINE
  5
FF
  8
1
  6
CENTER
 62
     1
 10
824.9999999999972
 20
-1797.5
 30
0.0
 11
824.9999999999972
 21
-1567.5
 31
0.0
  0
LINE
  5
101
  8
1
  6
CONTINUOUS
 62
     7
 10
1450.252414054851
 20
-1693.082317298398
 30
0.0
 11
1423.747585945148
 21
-1693.082317298398
 31
0.0
  0
LINE
  5
102
  8
1
  6
CONTINUOUS
 62
     7
 10
1379.771459390823
 20
-1779.370108002321
 30
0.0
 11
1376.456095786873
 21
-1760.567746669819
 31
0.0
  0
LINE
  5
103
  8
1
  6
CONTINUOUS
 62
     7
 10
1321.543904213121
 20
-1760.567746669819
 30
0.0
 11
1318.228540609172
 21
-1779.370108002321
 31
0.0
  0
LINE
  5
104
  8
1
  6
CONTINUOUS
 62
     7
 10
1593.994076404342
 20
-1598.501867113986
 30
0.0
 11
1588.005923595652
 21
-1598.501867113986
 31
0.0
  0
LINE
  5
105
  8
1
  6
CONTINUOUS
 62
     7
 10
1406.252414054854
 20
-1663.921416929575
 30
0.0
 11
1379.747585945151
 21
-1663.921416929575
 31
0.0
  0
LINE
  5
106
  8
1
  6
CONTINUOUS
 62
     7
 10
2283.241876273239
 20
-1572.244749353173
 30
0.0
 11
2366.758123726766
 21
-1572.244749353173
 31
0.0
  0
LINE
  5
107
  8
1
  6
CONTINUOUS
 62
     7
 10
980.091825482286
 20
-1597.361811526816
 30
0.0
 11
980.091825482286
 21
-1759.641922701155
 31
0.0
  0
LINE
  5
108
  8
1
  6
CONTINUOUS
 62
     7
 10
1714.25241405485
 20
-1693.083727370872
 30
0.0
 11
1714.25241405485
 21
-1663.9200068571
 31
0.0
  0
LINE
  5
109
  8
1
  6
CONTINUOUS
 62
     7
 10
1450.252414054851
 20
-1663.921416929575
 30
0.0
 11
1423.747585945148
 21
-1663.921416929575
 31
0.0
  0
LINE
  5
10A
  8
1
  6
CONTINUOUS
 62
     7
 10
1684.091825482283
 20
-1597.364631671766
 30
0.0
 11
1684.091825482283
 21
-1759.644742846105
 31
0.0
  0
ARC
  5
10B
  8
1
  6
CONTINUOUS
 62
     7
 10
1401.304501844108
 20
-1578.501867113986
 30
0.0
 40
5.000000000002558
 50
10.00000000000192
 51
89.99999999999949
  0
LINE
  5
10C
  8
1
  6
CONTINUOUS
 62
     7
 10
983.7475859451487
 20
-1693.083727370872
 30
0.0
 11
983.7475859451487
 21
-1663.9200068571
 31
0.0
  0
LINE
  5
10D
  8
1
  6
CONTINUOUS
 62
     7
 10
1555.747585945148
 20
-1693.083727370872
 30
0.0
 11
1555.747585945148
 21
-1663.9200068571
 31
0.0
  0
ARC
  5
10E
  8
1
  6
CONTINUOUS
 62
     7
 10
1280.005923595651
 20
-1761.001867113986
 30
0.0
 40
2.500000000001279
 50
90.0
 51
170.0000000000039
  0
LINE
  5
10F
  8
1
  6
CONTINUOUS
 62
     7
 10
1494.252414054851
 20
-1693.082317298398
 30
0.0
 11
1467.747585945148
 21
-1693.082317298398
 31
0.0
  0
ARC
  5
110
  8
1
  6
CONTINUOUS
 62
     7
 10
1285.994076404346
 20
-1596.001867113987
 30
0.0
 40
2.499999999997726
 50
270.0000000000007
 51
350.0000000000044
  0
ARC
  5
111
  8
1
  6
CONTINUOUS
 62
     7
 10
1269.30450184411
 20
-1778.501867113986
 30
0.0
 40
5.000000000002558
 50
270.0000000000005
 51
349.9999999999981
  0
LINE
  5
112
  8
1
  6
CONTINUOUS
 62
     7
 10
1406.252414054854
 20
-1693.083727370872
 30
0.0
 11
1406.252414054854
 21
-1663.9200068571
 31
0.0
  0
LINE
  5
113
  8
1
  6
CONTINUOUS
 62
     7
 10
1461.994076404344
 20
-1598.501867113986
 30
0.0
 11
1456.005923595654
 21
-1598.501867113986
 31
0.0
  0
LINE
  5
114
  8
1
  6
CONTINUOUS
 62
     7
 10
1291.771459390822
 20
-1779.370108002321
 30
0.0
 11
1288.456095786873
 21
-1760.567746669819
 31
0.0
  0
LINE
  5
115
  8
1
  6
CONTINUOUS
 62
     7
 10
1313.304501844111
 20
-1783.501867113986
 30
0.0
 11
1296.695498155883
 21
-1783.501867113986
 31
0.0
  0
LINE
  5
116
  8
1
  6
CONTINUOUS
 62
     7
 10
1329.994076404346
 20
-1758.501867113986
 30
0.0
 11
1324.005923595656
 21
-1758.501867113986
 31
0.0
  0
LINE
  5
117
  8
1
  6
CONTINUOUS
 62
     7
 10
1582.252414054848
 20
-1693.083727370872
 30
0.0
 11
1582.252414054848
 21
-1663.9200068571
 31
0.0
  0
LINE
  5
118
  8
1
  6
CONTINUOUS
 62
     7
 10
1379.771459390823
 20
-1577.633626225652
 30
0.0
 11
1376.456095786873
 21
-1596.435987558153
 31
0.0
  0
LINE
  5
119
  8
1
  6
CONTINUOUS
 62
     7
 10
1511.747585945147
 20
-1693.083727370872
 30
0.0
 11
1511.747585945147
 21
-1663.9200068571
 31
0.0
  0
LINE
  5
11A
  8
1
  6
CONTINUOUS
 62
     7
 10
1449.499999999971
 20
-1781.234446591916
 30
0.0
 11
1449.499999999971
 21
-1693.095007950671
 31
0.0
  0
LINE
  5
11B
  8
1
  6
CONTINUOUS
 62
     7
 10
1596.091825482283
 20
-1597.364631671766
 30
0.0
 11
1596.091825482283
 21
-1759.644742846105
 31
0.0
  0
LINE
  5
11C
  8
1
  6
CONTINUOUS
 62
     7
 10
1714.25241405485
 20
-1663.921416929575
 30
0.0
 11
1687.747585945147
 21
-1663.921416929575
 31
0.0
  0
LINE
  5
11D
  8
1
  6
CONTINUOUS
 62
     7
 10
1538.252414054852
 20
-1693.082317298398
 30
0.0
 11
1511.747585945149
 21
-1693.082317298398
 31
0.0
  0
ARC
  5
11E
  8
1
  6
CONTINUOUS
 62
     7
 10
1280.005923595651
 20
-1596.001867113987
 30
0.0
 40
2.500000000001279
 50
189.9999999999961
 51
270.0
  0
LINE
  5
11F
  8
1
  6
CONTINUOUS
 62
     7
 10
1401.304501844108
 20
-1783.501867113986
 30
0.0
 11
1384.695498155881
 21
-1783.501867113986
 31
0.0
  0
LINE
  5
120
  8
1
  6
CONTINUOUS
 62
     7
 10
1417.994076404344
 20
-1758.501867113986
 30
0.0
 11
1412.005923595653
 21
-1758.501867113986
 31
0.0
  0
LINE
  5
121
  8
1
  6
CONTINUOUS
 62
     7
 10
1687.747585945146
 20
-1693.083727370872
 30
0.0
 11
1687.747585945146
 21
-1663.9200068571
 31
0.0
  0
LINE
  5
122
  8
1
  6
CONTINUOUS
 62
     7
 10
1494.252414054851
 20
-1663.921416929575
 30
0.0
 11
1467.747585945148
 21
-1663.921416929575
 31
0.0
  0
LINE
  5
123
  8
1
  6
CONTINUOUS
 62
     7
 10
1493.499999999971
 20
-1781.234446591916
 30
0.0
 11
1493.499999999971
 21
-1693.095007950671
 31
0.0
  0
ARC
  5
124
  8
1
  6
CONTINUOUS
 62
     7
 10
1329.994076404346
 20
-1596.001867113987
 30
0.0
 40
2.499999999997726
 50
270.0000000000007
 51
350.0000000000044
  0
ARC
  5
125
  8
1
  6
CONTINUOUS
 62
     7
 10
1412.005923595653
 20
-1761.001867113986
 30
0.0
 40
2.500000000001279
 50
90.0
 51
170.0000000000039
  0
LINE
  5
126
  8
1
  6
CONTINUOUS
 62
     7
 10
1670.25241405485
 20
-1693.083727370872
 30
0.0
 11
1670.25241405485
 21
-1663.9200068571
 31
0.0
  0
LINE
  5
127
  8
1
  6
CONTINUOUS
 62
     7
 10
1010.252414054853
 20
-1663.921416929575
 30
0.0
 11
983.74758594515
 21
-1663.921416929575
 31
0.0
  0
LINE
  5
128
  8
1
  6
CONTINUOUS
 62
     7
 10
1010.252414054853
 20
-1693.082317298398
 30
0.0
 11
983.74758594515
 21
-1693.082317298398
 31
0.0
  0
ARC
  5
129
  8
1
  6
CONTINUOUS
 62
     7
 10
1412.005923595653
 20
-1596.001867113987
 30
0.0
 40
2.500000000001279
 50
189.9999999999961
 51
270.0
  0
LINE
  5
12A
  8
1
  6
CONTINUOUS
 62
     7
 10
1445.304501844112
 20
-1573.501867113986
 30
0.0
 11
1428.695498155885
 21
-1573.501867113986
 31
0.0
  0
LINE
  5
12B
  8
1
  6
CONTINUOUS
 62
     7
 10
1357.304501844111
 20
-1573.501867113986
 30
0.0
 11
1340.695498155884
 21
-1573.501867113986
 31
0.0
  0
LINE
  5
12C
  8
1
  6
CONTINUOUS
 62
     7
 10
1321.543904213121
 20
-1596.435987558154
 30
0.0
 11
1318.228540609172
 21
-1577.633626225652
 31
0.0
  0
ARC
  5
12D
  8
1
  6
CONTINUOUS
 62
     7
 10
1505.994076404341
 20
-1761.001867113986
 30
0.0
 40
2.500000000004832
 50
9.999999999995469
 51
89.99999999999936
  0
ARC
  5
12E
  8
1
  6
CONTINUOUS
 62
     7
 10
1417.994076404344
 20
-1596.001867113987
 30
0.0
 40
2.499999999997726
 50
270.0000000000007
 51
350.0000000000044
  0
LINE
  5
12F
  8
1
  6
CONTINUOUS
 62
     7
 10
1489.304501844113
 20
-1783.501867113986
 30
0.0
 11
1472.695498155885
 21
-1783.501867113986
 31
0.0
  0
LINE
  5
130
  8
1
  6
CONTINUOUS
 62
     7
 10
1417.994076404344
 20
-1598.501867113986
 30
0.0
 11
1412.005923595653
 21
-1598.501867113986
 31
0.0
  0
LINE
  5
131
  8
1
  6
CONTINUOUS
 62
     7
 10
1450.252414054851
 20
-1693.083727370872
 30
0.0
 11
1450.252414054851
 21
-1663.9200068571
 31
0.0
  0
LINE
  5
132
  8
1
  6
CONTINUOUS
 62
     7
 10
1541.54390421312
 20
-1596.435987558154
 30
0.0
 11
1538.228540609171
 21
-1577.633626225652
 31
0.0
  0
LINE
  5
133
  8
1
  6
CONTINUOUS
 62
     7
 10
1409.543904213122
 20
-1760.567746669819
 30
0.0
 11
1406.228540609173
 21
-1779.370108002321
 31
0.0
  0
ARC
  5
134
  8
1
  6
CONTINUOUS
 62
     7
 10
1357.304501844111
 20
-1778.501867113986
 30
0.0
 40
5.000000000002558
 50
270.0000000000005
 51
349.9999999999981
  0
LINE
  5
135
  8
1
  6
CONTINUOUS
 62
     7
 10
1365.543904213122
 20
-1596.435987558154
 30
0.0
 11
1362.228540609172
 21
-1577.633626225652
 31
0.0
  0
LINE
  5
136
  8
1
  6
CONTINUOUS
 62
     7
 10
1365.543904213122
 20
-1760.567746669819
 30
0.0
 11
1362.228540609172
 21
-1779.370108002321
 31
0.0
  0
ARC
  5
137
  8
1
  6
CONTINUOUS
 62
     7
 10
1472.695498155885
 20
-1578.501867113986
 30
0.0
 40
5.000000000002558
 50
90.0
 51
170.0000000000014
  0
LINE
  5
138
  8
1
  6
CONTINUOUS
 62
     7
 10
1321.908174517708
 20
-1597.361811526816
 30
0.0
 11
1321.908174517708
 21
-1759.641922701155
 31
0.0
  0
LINE
  5
139
  8
1
  6
CONTINUOUS
 62
     7
 10
1670.25241405485
 20
-1663.921416929575
 30
0.0
 11
1643.747585945147
 21
-1663.921416929575
 31
0.0
  0
ARC
  5
13A
  8
1
  6
CONTINUOUS
 62
     7
 10
1500.00592359565
 20
-1596.001867113987
 30
0.0
 40
2.500000000004832
 50
189.9999999999961
 51
270.0
  0
ARC
  5
13B
  8
1
  6
CONTINUOUS
 62
     7
 10
1549.994076404341
 20
-1761.001867113986
 30
0.0
 40
2.500000000004832
 50
9.999999999995469
 51
89.99999999999936
  0
ARC
  5
13C
  8
1
  6
CONTINUOUS
 62
     7
 10
1296.695498155887
 20
-1578.501867113986
 30
0.0
 40
4.999999999999005
 50
90.0
 51
170.0000000000014
  0
LINE
  5
13D
  8
1
  6
CONTINUOUS
 62
     7
 10
1005.304501844114
 20
-1573.501867113986
 30
0.0
 11
988.6954981558872
 21
-1573.501867113986
 31
0.0
  0
LINE
  5
13E
  8
1
  6
CONTINUOUS
 62
     7
 10
1497.543904213123
 20
-1596.435987558154
 30
0.0
 11
1494.228540609173
 21
-1577.633626225652
 31
0.0
  0
LINE
  5
13F
  8
1
  6
CONTINUOUS
 62
     7
 10
1244.091825482289
 20
-1597.361811526816
 30
0.0
 11
1244.091825482289
 21
-1759.641922701155
 31
0.0
  0
ARC
  5
140
  8
1
  6
CONTINUOUS
 62
     7
 10
1324.005923595652
 20
-1596.001867113987
 30
0.0
 40
2.500000000001279
 50
189.9999999999961
 51
270.0
  0
LINE
  5
141
  8
1
  6
CONTINUOUS
 62
     7
 10
1423.77145939082
 20
-1779.370108002321
 30
0.0
 11
1420.45609578687
 21
-1760.567746669819
 31
0.0
  0
LINE
  5
142
  8
1
  6
CONTINUOUS
 62
     7
 10
1541.54390421312
 20
-1760.567746669819
 30
0.0
 11
1538.228540609171
 21
-1779.370108002321
 31
0.0
  0
ARC
  5
143
  8
1
  6
CONTINUOUS
 62
     7
 10
1241.994076404345
 20
-1761.001867113986
 30
0.0
 40
2.499999999997726
 50
9.999999999995469
 51
89.99999999999936
  0
ARC
  5
144
  8
1
  6
CONTINUOUS
 62
     7
 10
1340.695498155887
 20
-1778.501867113986
 30
0.0
 40
4.999999999995453
 50
189.9999999999986
 51
270.0
  0
ARC
  5
145
  8
1
  6
CONTINUOUS
 62
     7
 10
1241.994076404345
 20
-1596.001867113987
 30
0.0
 40
2.499999999997726
 50
270.0000000000007
 51
350.0000000000044
  0
ARC
  5
146
  8
1
  6
CONTINUOUS
 62
     7
 10
1489.304501844113
 20
-1778.501867113986
 30
0.0
 40
4.999999999999005
 50
270.0000000000005
 51
349.9999999999981
  0
ARC
  5
147
  8
1
  6
CONTINUOUS
 62
     7
 10
1461.994076404344
 20
-1596.001867113987
 30
0.0
 40
2.499999999997726
 50
270.0000000000007
 51
350.0000000000044
  0
LINE
  5
148
  8
1
  6
CONTINUOUS
 62
     7
 10
1362.25241405485
 20
-1663.921416929575
 30
0.0
 11
1335.747585945147
 21
-1663.921416929575
 31
0.0
  0
LINE
  5
149
  8
1
  6
CONTINUOUS
 62
     7
 10
1373.994076404343
 20
-1598.501867113986
 30
0.0
 11
1368.005923595653
 21
-1598.501867113986
 31
0.0
  0
ARC
  5
14A
  8
1
  6
CONTINUOUS
 62
     7
 10
1313.304501844111
 20
-1778.501867113986
 30
0.0
 40
5.000000000002558
 50
270.0000000000005
 51
349.9999999999981
  0
LINE
  5
14B
  8
1
  6
CONTINUOUS
 62
     7
 10
1313.304501844111
 20
-1573.501867113986
 30
0.0
 11
1296.695498155883
 21
-1573.501867113986
 31
0.0
  0
ARC
  5
14C
  8
1
  6
CONTINUOUS
 62
     7
 10
1324.005923595652
 20
-1761.001867113986
 30
0.0
 40
2.500000000001279
 50
90.0
 51
170.0000000000039
  0
ARC
  5
14D
  8
1
  6
CONTINUOUS
 62
     7
 10
1516.695498155886
 20
-1578.501867113986
 30
0.0
 40
4.999999999999005
 50
90.0
 51
170.0000000000014
  0
ARC
  5
14E
  8
1
  6
CONTINUOUS
 62
     7
 10
1489.304501844113
 20
-1578.501867113986
 30
0.0
 40
4.999999999999005
 50
10.00000000000192
 51
89.99999999999949
  0
LINE
  5
14F
  8
1
  6
CONTINUOUS
 62
     7
 10
1269.30450184411
 20
-1783.501867113986
 30
0.0
 11
1252.695498155883
 21
-1783.501867113986
 31
0.0
  0
ARC
  5
150
  8
1
  6
CONTINUOUS
 62
     7
 10
1313.304501844111
 20
-1578.501867113986
 30
0.0
 40
5.000000000002558
 50
10.00000000000195
 51
89.99999999999952
  0
ARC
  5
151
  8
1
  6
CONTINUOUS
 62
     7
 10
1368.005923595653
 20
-1761.001867113986
 30
0.0
 40
2.500000000004832
 50
90.0
 51
170.0000000000039
  0
ARC
  5
152
  8
1
  6
CONTINUOUS
 62
     7
 10
1500.00592359565
 20
-1761.001867113986
 30
0.0
 40
2.500000000004832
 50
90.0
 51
170.0000000000039
  0
LINE
  5
153
  8
1
  6
CONTINUOUS
 62
     7
 10
1013.543904213122
 20
-1596.435987558154
 30
0.0
 11
1010.228540609172
 21
-1577.633626225652
 31
0.0
  0
LINE
  5
154
  8
1
  6
CONTINUOUS
 62
     7
 10
1643.747585945145
 20
-1693.083727370872
 30
0.0
 11
1643.747585945145
 21
-1663.9200068571
 31
0.0
  0
LINE
  5
155
  8
1
  6
CONTINUOUS
 62
     7
 10
1357.304501844111
 20
-1783.501867113986
 30
0.0
 11
1340.695498155884
 21
-1783.501867113986
 31
0.0
  0
LINE
  5
156
  8
1
  6
CONTINUOUS
 62
     7
 10
1533.304501844113
 20
-1783.501867113986
 30
0.0
 11
1516.695498155886
 21
-1783.501867113986
 31
0.0
  0
ARC
  5
157
  8
1
  6
CONTINUOUS
 62
     7
 10
1384.695498155884
 20
-1578.501867113986
 30
0.0
 40
4.999999999999005
 50
90.0
 51
170.0000000000014
  0
LINE
  5
158
  8
1
  6
CONTINUOUS
 62
     7
 10
1467.771459390824
 20
-1577.633626225652
 30
0.0
 11
1464.456095786874
 21
-1596.435987558153
 31
0.0
  0
ARC
  5
159
  8
1
  6
CONTINUOUS
 62
     7
 10
1401.304501844108
 20
-1778.501867113986
 30
0.0
 40
5.000000000002558
 50
270.0000000000005
 51
349.9999999999981
  0
LINE
  5
15A
  8
1
  6
CONTINUOUS
 62
     7
 10
1285.994076404346
 20
-1758.501867113986
 30
0.0
 11
1280.005923595655
 21
-1758.501867113986
 31
0.0
  0
ARC
  5
15B
  8
1
  6
CONTINUOUS
 62
     7
 10
1461.994076404344
 20
-1761.001867113986
 30
0.0
 40
2.499999999997726
 50
9.999999999995469
 51
89.99999999999936
  0
ARC
  5
15C
  8
1
  6
CONTINUOUS
 62
     7
 10
1368.005923595653
 20
-1596.001867113987
 30
0.0
 40
2.500000000004832
 50
189.9999999999961
 51
270.0
  0
ARC
  5
15D
  8
1
  6
CONTINUOUS
 62
     7
 10
1472.695498155885
 20
-1778.501867113986
 30
0.0
 40
5.000000000002558
 50
189.9999999999986
 51
270.0
  0
LINE
  5
15E
  8
1
  6
CONTINUOUS
 62
     7
 10
1505.994076404341
 20
-1758.501867113986
 30
0.0
 11
1500.005923595651
 21
-1758.501867113986
 31
0.0
  0
ARC
  5
15F
  8
1
  6
CONTINUOUS
 62
     7
 10
1428.695498155885
 20
-1778.501867113986
 30
0.0
 40
4.999999999999005
 50
189.9999999999986
 51
270.0
  0
ARC
  5
160
  8
1
  6
CONTINUOUS
 62
     7
 10
1252.695498155883
 20
-1778.501867113986
 30
0.0
 40
5.000000000002558
 50
189.9999999999986
 51
270.0
  0
LINE
  5
161
  8
1
  6
CONTINUOUS
 62
     7
 10
1247.771459390825
 20
-1779.370108002321
 30
0.0
 11
1244.456095786875
 21
-1760.567746669819
 31
0.0
  0
LINE
  5
162
  8
1
  6
CONTINUOUS
 62
     7
 10
1318.252414054849
 20
-1693.082317298398
 30
0.0
 11
1291.747585945146
 21
-1693.082317298398
 31
0.0
  0
LINE
  5
163
  8
1
  6
CONTINUOUS
 62
     7
 10
1453.543904213123
 20
-1760.567746669819
 30
0.0
 11
1450.228540609173
 21
-1779.370108002321
 31
0.0
  0
LINE
  5
164
  8
1
  6
CONTINUOUS
 62
     7
 10
1681.994076404346
 20
-1598.501867113986
 30
0.0
 11
1676.005923595656
 21
-1598.501867113986
 31
0.0
  0
LINE
  5
165
  8
1
  6
CONTINUOUS
 62
     7
 10
1423.74758594515
 20
-1693.083727370872
 30
0.0
 11
1423.74758594515
 21
-1663.9200068571
 31
0.0
  0
ARC
  5
166
  8
1
  6
CONTINUOUS
 62
     7
 10
1533.304501844113
 20
-1578.501867113986
 30
0.0
 40
4.999999999995453
 50
10.00000000000192
 51
89.99999999999949
  0
LINE
  5
167
  8
1
  6
CONTINUOUS
 62
     7
 10
1401.304501844108
 20
-1573.501867113986
 30
0.0
 11
1384.695498155881
 21
-1573.501867113986
 31
0.0
  0
ARC
  5
168
  8
1
  6
CONTINUOUS
 62
     7
 10
1544.005923595654
 20
-1761.001867113986
 30
0.0
 40
2.499999999997726
 50
90.0
 51
170.0000000000039
  0
LINE
  5
169
  8
1
  6
CONTINUOUS
 62
     7
 10
1621.304501844114
 20
-1573.501867113986
 30
0.0
 11
1604.695498155887
 21
-1573.501867113986
 31
0.0
  0
LINE
  5
16A
  8
1
  6
CONTINUOUS
 62
     7
 10
1274.252414054849
 20
-1663.921416929575
 30
0.0
 11
1247.747585945146
 21
-1663.921416929575
 31
0.0
  0
LINE
  5
16B
  8
1
  6
CONTINUOUS
 62
     7
 10
1445.304501844112
 20
-1783.501867113986
 30
0.0
 11
1428.695498155885
 21
-1783.501867113986
 31
0.0
  0
LINE
  5
16C
  8
1
  6
CONTINUOUS
 62
     7
 10
1643.771459390826
 20
-1779.370108002321
 30
0.0
 11
1640.456095786876
 21
-1760.567746669819
 31
0.0
  0
LINE
  5
16D
  8
1
  6
CONTINUOUS
 62
     7
 10
1665.304501844111
 20
-1783.501867113986
 30
0.0
 11
1648.695498155884
 21
-1783.501867113986
 31
0.0
  0
ARC
  5
16E
  8
1
  6
CONTINUOUS
 62
     7
 10
1709.304501844111
 20
-1578.501867113986
 30
0.0
 40
5.000000000002558
 50
10.00000000000195
 51
89.99999999999952
  0
LINE
  5
16F
  8
1
  6
CONTINUOUS
 62
     7
 10
1585.543904213121
 20
-1760.567746669819
 30
0.0
 11
1582.228540609171
 21
-1779.370108002321
 31
0.0
  0
LINE
  5
170
  8
1
  6
CONTINUOUS
 62
     7
 10
1629.543904213125
 20
-1596.435987558154
 30
0.0
 11
1626.228540609175
 21
-1577.633626225652
 31
0.0
  0
LINE
  5
171
  8
1
  6
CONTINUOUS
 62
     7
 10
1230.252414054848
 20
-1693.082317298398
 30
0.0
 11
1203.747585945145
 21
-1693.082317298398
 31
0.0
  0
LINE
  5
172
  8
1
  6
CONTINUOUS
 62
     7
 10
1186.252414054848
 20
-1693.083727370872
 30
0.0
 11
1186.252414054848
 21
-1663.9200068571
 31
0.0
  0
ARC
  5
173
  8
1
  6
CONTINUOUS
 62
     7
 10
1665.304501844111
 20
-1578.501867113986
 30
0.0
 40
5.000000000002558
 50
10.00000000000192
 51
89.99999999999949
  0
ARC
  5
174
  8
1
  6
CONTINUOUS
 62
     7
 10
1445.304501844112
 20
-1778.501867113986
 30
0.0
 40
4.999999999999005
 50
270.0000000000005
 51
349.9999999999981
  0
LINE
  5
175
  8
1
  6
CONTINUOUS
 62
     7
 10
1511.771459390824
 20
-1779.370108002321
 30
0.0
 11
1508.456095786875
 21
-1760.567746669819
 31
0.0
  0
ARC
  5
176
  8
1
  6
CONTINUOUS
 62
     7
 10
1505.994076404341
 20
-1596.001867113987
 30
0.0
 40
2.500000000004832
 50
270.0000000000007
 51
350.0000000000044
  0
LINE
  5
177
  8
1
  6
CONTINUOUS
 62
     7
 10
1159.747585945147
 20
-1693.083727370872
 30
0.0
 11
1159.747585945147
 21
-1663.9200068571
 31
0.0
  0
LINE
  5
178
  8
1
  6
CONTINUOUS
 62
     7
 10
1230.252414054848
 20
-1663.921416929575
 30
0.0
 11
1203.747585945145
 21
-1663.921416929575
 31
0.0
  0
ARC
  5
179
  8
1
  6
CONTINUOUS
 62
     7
 10
1533.304501844113
 20
-1778.501867113986
 30
0.0
 40
4.999999999995453
 50
270.0000000000005
 51
349.9999999999981
  0
LINE
  5
17A
  8
1
  6
CONTINUOUS
 62
     7
 10
983.7714593908258
 20
-1577.633626225652
 30
0.0
 11
980.4560957868763
 21
-1596.435987558153
 31
0.0
  0
ARC
  5
17B
  8
1
  6
CONTINUOUS
 62
     7
 10
1417.994076404344
 20
-1761.001867113986
 30
0.0
 40
2.499999999997726
 50
9.999999999995469
 51
89.99999999999936
  0
ARC
  5
17C
  8
1
  6
CONTINUOUS
 62
     7
 10
1456.005923595653
 20
-1761.001867113986
 30
0.0
 40
2.500000000001279
 50
90.0
 51
170.0000000000039
  0
LINE
  5
17D
  8
1
  6
CONTINUOUS
 62
     7
 10
1549.994076404341
 20
-1758.501867113986
 30
0.0
 11
1544.005923595651
 21
-1758.501867113986
 31
0.0
  0
LINE
  5
17E
  8
1
  6
CONTINUOUS
 62
     7
 10
1453.543904213123
 20
-1596.435987558154
 30
0.0
 11
1450.228540609173
 21
-1577.633626225652
 31
0.0
  0
LINE
  5
17F
  8
1
  6
CONTINUOUS
 62
     7
 10
1577.304501844114
 20
-1783.501867113986
 30
0.0
 11
1560.695498155886
 21
-1783.501867113986
 31
0.0
  0
LINE
  5
180
  8
1
  6
CONTINUOUS
 62
     7
 10
1577.304501844114
 20
-1573.501867113986
 30
0.0
 11
1560.695498155886
 21
-1573.501867113986
 31
0.0
  0
ARC
  5
181
  8
1
  6
CONTINUOUS
 62
     7
 10
1456.005923595653
 20
-1596.001867113987
 30
0.0
 40
2.500000000001279
 50
189.9999999999961
 51
270.0
  0
LINE
  5
182
  8
1
  6
CONTINUOUS
 62
     7
 10
1467.771459390824
 20
-1779.370108002321
 30
0.0
 11
1464.456095786874
 21
-1760.567746669819
 31
0.0
  0
ARC
  5
183
  8
1
  6
CONTINUOUS
 62
     7
 10
1560.695498155886
 20
-1778.501867113986
 30
0.0
 40
4.999999999999005
 50
189.9999999999986
 51
270.0
  0
LINE
  5
184
  8
1
  6
CONTINUOUS
 62
     7
 10
1409.543904213122
 20
-1596.435987558154
 30
0.0
 11
1406.228540609173
 21
-1577.633626225652
 31
0.0
  0
LINE
  5
185
  8
1
  6
CONTINUOUS
 62
     7
 10
1203.747585945144
 20
-1693.083727370872
 30
0.0
 11
1203.747585945144
 21
-1663.9200068571
 31
0.0
  0
LINE
  5
186
  8
1
  6
CONTINUOUS
 62
     7
 10
1288.091825482289
 20
-1597.361811526816
 30
0.0
 11
1288.091825482289
 21
-1759.641922701155
 31
0.0
  0
LINE
  5
187
  8
1
  6
CONTINUOUS
 62
     7
 10
1533.304501844113
 20
-1573.501867113986
 30
0.0
 11
1516.695498155886
 21
-1573.501867113986
 31
0.0
  0
LINE
  5
188
  8
1
  6
CONTINUOUS
 62
     7
 10
1318.252414054849
 20
-1693.083727370872
 30
0.0
 11
1318.252414054849
 21
-1663.9200068571
 31
0.0
  0
ARC
  5
189
  8
1
  6
CONTINUOUS
 62
     7
 10
1428.695498155885
 20
-1578.501867113986
 30
0.0
 40
4.999999999999005
 50
90.0
 51
170.0000000000014
  0
ARC
  5
18A
  8
1
  6
CONTINUOUS
 62
     7
 10
1593.994076404342
 20
-1761.001867113986
 30
0.0
 40
2.500000000004832
 50
9.999999999995469
 51
89.99999999999936
  0
LINE
  5
18B
  8
1
  6
CONTINUOUS
 62
     7
 10
1599.771459390825
 20
-1577.633626225652
 30
0.0
 11
1596.456095786876
 21
-1596.435987558153
 31
0.0
  0
ARC
  5
18C
  8
1
  6
CONTINUOUS
 62
     7
 10
1648.695498155884
 20
-1778.501867113986
 30
0.0
 40
5.000000000002558
 50
189.9999999999986
 51
270.0
  0
ARC
  5
18D
  8
1
  6
CONTINUOUS
 62
     7
 10
1676.005923595652
 20
-1596.001867113987
 30
0.0
 40
2.500000000001279
 50
189.9999999999961
 51
270.0
  0
ARC
  5
18E
  8
1
  6
CONTINUOUS
 62
     7
 10
1516.695498155886
 20
-1778.501867113986
 30
0.0
 40
4.999999999999005
 50
189.9999999999986
 51
270.0
  0
LINE
  5
18F
  8
1
  6
CONTINUOUS
 62
     7
 10
1274.252414054849
 20
-1693.083727370872
 30
0.0
 11
1274.252414054849
 21
-1663.9200068571
 31
0.0
  0
LINE
  5
190
  8
1
  6
CONTINUOUS
 62
     7
 10
1291.747585945145
 20
-1693.083727370872
 30
0.0
 11
1291.747585945145
 21
-1663.9200068571
 31
0.0
  0
ARC
  5
191
  8
1
  6
CONTINUOUS
 62
     7
 10
1692.695498155884
 20
-1578.501867113986
 30
0.0
 40
5.000000000002558
 50
90.0
 51
170.0000000000014
  0
ARC
  5
192
  8
1
  6
CONTINUOUS
 62
     7
 10
1577.304501844114
 20
-1578.501867113986
 30
0.0
 40
4.999999999995453
 50
10.00000000000192
 51
89.99999999999949
  0
LINE
  5
193
  8
1
  6
CONTINUOUS
 62
     7
 10
1673.543904213125
 20
-1760.567746669819
 30
0.0
 11
1670.228540609176
 21
-1779.370108002321
 31
0.0
  0
LINE
  5
194
  8
1
  6
CONTINUOUS
 62
     7
 10
1511.771459390824
 20
-1577.633626225652
 30
0.0
 11
1508.456095786875
 21
-1596.435987558153
 31
0.0
  0
LINE
  5
195
  8
1
  6
CONTINUOUS
 62
     7
 10
1233.908174517711
 20
-1597.361811526816
 30
0.0
 11
1233.908174517711
 21
-1759.641922701155
 31
0.0
  0
LINE
  5
196
  8
1
  6
CONTINUOUS
 62
     7
 10
1318.252414054849
 20
-1663.921416929575
 30
0.0
 11
1291.747585945146
 21
-1663.921416929575
 31
0.0
  0
ARC
  5
197
  8
1
  6
CONTINUOUS
 62
     7
 10
1329.994076404346
 20
-1761.001867113986
 30
0.0
 40
2.499999999997726
 50
9.999999999995469
 51
89.99999999999936
  0
LINE
  5
198
  8
1
  6
CONTINUOUS
 62
     7
 10
1555.771459390825
 20
-1577.633626225652
 30
0.0
 11
1552.456095786875
 21
-1596.435987558153
 31
0.0
  0
LINE
  5
199
  8
1
  6
CONTINUOUS
 62
     7
 10
1200.091825482288
 20
-1597.361811526816
 30
0.0
 11
1200.091825482288
 21
-1759.641922701155
 31
0.0
  0
ARC
  5
19A
  8
1
  6
CONTINUOUS
 62
     7
 10
1632.005923595655
 20
-1761.001867113986
 30
0.0
 40
2.499999999997726
 50
90.0
 51
170.0000000000039
  0
LINE
  5
19B
  8
1
  6
CONTINUOUS
 62
     7
 10
1189.90817451771
 20
-1597.361811526816
 30
0.0
 11
1189.90817451771
 21
-1759.641922701155
 31
0.0
  0
LINE
  5
19C
  8
1
  6
CONTINUOUS
 62
     7
 10
1274.252414054849
 20
-1693.082317298398
 30
0.0
 11
1247.747585945146
 21
-1693.082317298398
 31
0.0
  0
ARC
  5
19D
  8
1
  6
CONTINUOUS
 62
     7
 10
1577.304501844114
 20
-1778.501867113986
 30
0.0
 40
4.999999999995453
 50
270.0000000000005
 51
349.9999999999981
  0
LINE
  5
19E
  8
1
  6
CONTINUOUS
 62
     7
 10
1489.304501844113
 20
-1573.501867113986
 30
0.0
 11
1472.695498155885
 21
-1573.501867113986
 31
0.0
  0
ARC
  5
19F
  8
1
  6
CONTINUOUS
 62
     7
 10
1637.994076404342
 20
-1596.001867113987
 30
0.0
 40
2.500000000001279
 50
270.0000000000007
 51
350.0000000000044
  0
LINE
  5
1A0
  8
1
  6
CONTINUOUS
 62
     7
 10
1373.994076404343
 20
-1758.501867113986
 30
0.0
 11
1368.005923595653
 21
-1758.501867113986
 31
0.0
  0
LINE
  5
1A1
  8
1
  6
CONTINUOUS
 62
     7
 10
1549.994076404341
 20
-1598.501867113986
 30
0.0
 11
1544.005923595651
 21
-1598.501867113986
 31
0.0
  0
LINE
  5
1A2
  8
1
  6
CONTINUOUS
 62
     7
 10
1497.543904213123
 20
-1760.567746669819
 30
0.0
 11
1494.228540609173
 21
-1779.370108002321
 31
0.0
  0
LINE
  5
1A3
  8
1
  6
CONTINUOUS
 62
     7
 10
1423.77145939082
 20
-1577.633626225652
 30
0.0
 11
1420.45609578687
 21
-1596.435987558153
 31
0.0
  0
ARC
  5
1A4
  8
1
  6
CONTINUOUS
 62
     7
 10
1384.695498155884
 20
-1778.501867113986
 30
0.0
 40
4.999999999999005
 50
189.9999999999986
 51
270.0
  0
ARC
  5
1A5
  8
1
  6
CONTINUOUS
 62
     7
 10
1445.304501844112
 20
-1578.501867113986
 30
0.0
 40
4.999999999999005
 50
10.00000000000192
 51
89.99999999999949
  0
LINE
  5
1A6
  8
1
  6
CONTINUOUS
 62
     7
 10
1156.091825482288
 20
-1597.361811526816
 30
0.0
 11
1156.091825482288
 21
-1759.641922701155
 31
0.0
  0
LINE
  5
1A7
  8
1
  6
CONTINUOUS
 62
     7
 10
1709.304501844111
 20
-1573.501867113986
 30
0.0
 11
1692.695498155884
 21
-1573.501867113986
 31
0.0
  0
ARC
  5
1A8
  8
1
  6
CONTINUOUS
 62
     7
 10
1544.005923595654
 20
-1596.001867113987
 30
0.0
 40
2.499999999997726
 50
189.9999999999961
 51
270.0
  0
LINE
  5
1A9
  8
1
  6
CONTINUOUS
 62
     7
 10
1903.258347599748
 20
-1780.007435038818
 30
0.0
 11
1903.332921893304
 21
-1779.864471815939
 31
0.0
  0
LINE
  5
1AA
  8
1
  6
CONTINUOUS
 62
     7
 10
926.760706639088
 20
-1663.482396784906
 30
0.0
 11
926.7425165189967
 21
-1663.492811916758
 31
0.0
  0
LINE
  5
1AB
  8
1
  6
CONTINUOUS
 62
     7
 10
926.6643336976954
 20
-1663.550838822425
 30
0.0
 11
926.6493692475359
 21
-1663.564964863473
 31
0.0
  0
LINE
  5
1AC
  8
1
  6
CONTINUOUS
 62
     7
 10
926.5571750498984
 20
-1663.689240135801
 30
0.0
 11
926.5501133005137
 21
-1663.703238200949
 31
0.0
  0
LINE
  5
1AD
  8
1
  6
CONTINUOUS
 62
     7
 10
926.5501133005123
 20
-1663.703238200949
 30
0.0
 11
926.5434425261947
 21
-1663.717565824321
 31
0.0
  0
LINE
  5
1AE
  8
1
  6
CONTINUOUS
 62
     7
 10
2100.96441163721
 20
-1741.161526558453
 30
0.0
 11
2100.983842170385
 21
-1741.165452603525
 31
0.0
  0
LINE
  5
1AF
  8
1
  6
CONTINUOUS
 62
     7
 10
2101.061519336425
 20
-1741.189540199624
 30
0.0
 11
2101.079742968227
 21
-1741.197287863276
 31
0.0
  0
LINE
  5
1B0
  8
1
  6
CONTINUOUS
 62
     7
 10
926.8469214603718
 20
-1663.445426424728
 30
0.0
 11
926.8303745735873
 21
-1663.451068957629
 31
0.0
  0
LINE
  5
1B1
  8
1
  6
CONTINUOUS
 62
     7
 10
2100.843979957236
 20
-1741.154449770646
 30
0.0
 11
2100.86441794345
 21
-1741.153596825186
 31
0.0
  0
LINE
  5
1B2
  8
1
  6
CONTINUOUS
 62
     7
 10
926.5972787462657
 20
-1663.625079973068
 30
0.0
 11
926.5887063845921
 21
-1663.637097457984
 31
0.0
  0
LINE
  5
1B3
  8
1
  6
CONTINUOUS
 62
     7
 10
2100.823617863148
 20
-1741.156135086369
 30
0.0
 11
2100.843979957237
 21
-1741.154449770646
 31
0.0
  0
LINE
  5
1B4
  8
1
  6
CONTINUOUS
 62
     7
 10
926.6237464392666
 20
-1663.592124873741
 30
0.0
 11
926.6130715829022
 21
-1663.6047366491
 31
0.0
  0
LINE
  5
1B5
  8
1
  6
CONTINUOUS
 62
     7
 10
2100.864417943447
 20
-1741.153596825186
 30
0.0
 11
2100.884875490342
 21
-1741.153577670377
 31
0.0
  0
LINE
  5
1B6
  8
1
  6
CONTINUOUS
 62
     7
 10
926.5887063845937
 20
-1663.637097457984
 30
0.0
 11
926.5804101746613
 21
-1663.64948977302
 31
0.0
  0
LINE
  5
1B7
  8
1
  6
CONTINUOUS
 62
     7
 10
2100.944810019299
 20
-1741.158369098089
 30
0.0
 11
2100.964411637207
 21
-1741.161526558454
 31
0.0
  0
LINE
  5
1B8
  8
1
  6
CONTINUOUS
 62
     7
 10
2100.803921316081
 20
-1741.158570765834
 30
0.0
 11
2100.823617863142
 21
-1741.156135086369
 31
0.0
  0
LINE
  5
1B9
  8
1
  6
CONTINUOUS
 62
     7
 10
2100.905296266478
 20
-1741.154393726605
 30
0.0
 11
2100.925088000958
 21
-1741.155988671213
 31
0.0
  0
LINE
  5
1BA
  8
1
  6
CONTINUOUS
 62
     7
 10
2101.02321501662
 20
-1741.17593137614
 30
0.0
 11
2101.042526390539
 21
-1741.182353982831
 31
0.0
  0
LINE
  5
1BB
  8
1
  6
CONTINUOUS
 62
     7
 10
2101.079742968227
 20
-1741.197287863276
 30
0.0
 11
2101.097634113794
 21
-1741.205745001671
 31
0.0
  0
LINE
  5
1BC
  8
1
  6
CONTINUOUS
 62
     7
 10
926.8303745735849
 20
-1663.451068957629
 30
0.0
 11
926.8134477408852
 21
-1663.457522270606
 31
0.0
  0
LINE
  5
1BD
  8
1
  6
CONTINUOUS
 62
     7
 10
926.813447740885
 20
-1663.457522270606
 30
0.0
 11
926.7962301854446
 21
-1663.464823168474
 31
0.0
  0
LINE
  5
1BE
  8
1
  6
CONTINUOUS
 62
     7
 10
926.8631585897978
 20
-1663.440506929207
 30
0.0
 11
926.8469214603707
 21
-1663.445426424728
 31
0.0
  0
LINE
  5
1BF
  8
1
  6
CONTINUOUS
 62
     7
 10
1903.010667983483
 20
-1780.265465730111
 30
0.0
 11
1903.150110921832
 21
-1780.141103689993
 31
0.0
  0
LINE
  5
1C0
  8
1
  6
CONTINUOUS
 62
     7
 10
926.7962301854467
 20
-1663.464823168474
 30
0.0
 11
926.7785914069351
 21
-1663.473110968298
 31
0.0
  0
LINE
  5
1C1
  8
1
  6
CONTINUOUS
 62
     7
 10
926.7092308092492
 20
-1663.514657445713
 30
0.0
 11
926.6942824851496
 21
-1663.52576961047
 31
0.0
  0
LINE
  5
1C2
  8
1
  6
CONTINUOUS
 62
     7
 10
926.6942824851525
 20
-1663.52576961047
 30
0.0
 11
926.6792565305851
 21
-1663.537849951295
 31
0.0
  0
LINE
  5
1C3
  8
1
  6
CONTINUOUS
 62
     7
 10
926.6346577501437
 20
-1663.58005928652
 30
0.0
 11
926.623746439264
 21
-1663.592124873741
 31
0.0
  0
LINE
  5
1C4
  8
1
  6
CONTINUOUS
 62
     7
 10
2101.20938875056
 20
-1781.999140640497
 30
0.0
 11
2101.100471374411
 21
-1782.023193516839
 31
0.0
  0
LINE
  5
1C5
  8
1
  6
CONTINUOUS
 62
     7
 10
2100.764897096776
 20
-1741.165772588144
 30
0.0
 11
2100.784331073164
 21
-1741.161786907046
 31
0.0
  0
LINE
  5
1C6
  8
1
  6
CONTINUOUS
 62
     7
 10
2100.784331073167
 20
-1741.161786907046
 30
0.0
 11
2100.803921316086
 21
-1741.158570765833
 31
0.0
  0
LINE
  5
1C7
  8
1
  6
CONTINUOUS
 62
     7
 10
926.6130715829006
 20
-1663.6047366491
 30
0.0
 11
926.6060905941144
 21
-1663.613463394191
 31
0.0
  0
LINE
  5
1C8
  8
1
  6
CONTINUOUS
 62
     7
 10
2100.884875490347
 20
-1741.153577670377
 30
0.0
 11
2100.905296266478
 21
-1741.154393726605
 31
0.0
  0
LINE
  5
1C9
  8
1
  6
CONTINUOUS
 62
     7
 10
1903.150110921831
 20
-1780.141103689993
 30
0.0
 11
1903.258347599749
 21
-1780.007435038819
 31
0.0
  0
LINE
  5
1CA
  8
1
  6
CONTINUOUS
 62
     7
 10
926.7785914069342
 20
-1663.473110968298
 30
0.0
 11
926.7607066390905
 21
-1663.482396784907
 31
0.0
  0
LINE
  5
1CB
  8
1
  6
CONTINUOUS
 62
     7
 10
926.7425165190004
 20
-1663.492811916758
 30
0.0
 11
926.7241702141051
 21
-1663.504382243712
 31
0.0
  0
LINE
  5
1CC
  8
1
  6
CONTINUOUS
 62
     7
 10
926.5723487695836
 20
-1663.662352410342
 30
0.0
 11
926.5646162030154
 21
-1663.675569518921
 31
0.0
  0
LINE
  5
1CD
  8
1
  6
CONTINUOUS
 62
     7
 10
1903.332921893305
 20
-1779.86447181594
 30
0.0
 11
1903.370379905292
 21
-1779.717613610189
 31
0.0
  0
LINE
  5
1CE
  8
1
  6
CONTINUOUS
 62
     7
 10
1903.370379905293
 20
-1779.717613610189
 30
0.0
 11
1903.375078871866
 21
-1779.643431712101
 31
0.0
  0
LINE
  5
1CF
  8
1
  6
CONTINUOUS
 62
     7
 10
926.7241702141056
 20
-1663.504382243712
 30
0.0
 11
926.7092308092523
 21
-1663.514657445713
 31
0.0
  0
LINE
  5
1D0
  8
1
  6
CONTINUOUS
 62
     7
 10
2101.375078871867
 20
-1781.874810412784
 30
0.0
 11
2101.30722784998
 21
-1781.959513449888
 31
0.0
  0
LINE
  5
1D1
  8
1
  6
CONTINUOUS
 62
     7
 10
2100.925088000955
 20
-1741.155988671213
 30
0.0
 11
2100.944810019299
 21
-1741.158369098089
 31
0.0
  0
LINE
  5
1D2
  8
1
  6
CONTINUOUS
 62
     7
 10
926.6060905941144
 20
-1663.61346339419
 30
0.0
 11
926.597278746266
 21
-1663.625079973067
 31
0.0
  0
LINE
  5
1D3
  8
1
  6
CONTINUOUS
 62
     7
 10
2100.745669349311
 20
-1741.170516887262
 30
0.0
 11
2100.764897096775
 21
-1741.165772588144
 31
0.0
  0
LINE
  5
1D4
  8
1
  6
CONTINUOUS
 62
     7
 10
2100.983842170382
 20
-1741.165452603526
 30
0.0
 11
2101.003636511091
 21
-1741.170291282167
 31
0.0
  0
LINE
  5
1D5
  8
1
  6
CONTINUOUS
 62
     7
 10
926.5804101746595
 20
-1663.64948977302
 30
0.0
 11
926.5723487695839
 21
-1663.662352410343
 31
0.0
  0
LINE
  5
1D6
  8
1
  6
CONTINUOUS
 62
     7
 10
2101.00363651109
 20
-1741.170291282166
 30
0.0
 11
2101.023215016618
 21
-1741.175931376139
 31
0.0
  0
LINE
  5
1D7
  8
1
  6
CONTINUOUS
 62
     7
 10
2101.042526390539
 20
-1741.182353982831
 30
0.0
 11
2101.061519336425
 21
-1741.189540199623
 31
0.0
  0
LINE
  5
1D8
  8
1
  6
CONTINUOUS
 62
     7
 10
926.9131759111687
 20
-1663.429013053069
 30
0.0
 11
926.8885800730204
 21
-1663.433989396631
 31
0.0
  0
LINE
  5
1D9
  8
1
  6
CONTINUOUS
 62
     7
 10
2101.307227849978
 20
-1781.959513449888
 30
0.0
 11
2101.209388750557
 21
-1781.999140640497
 31
0.0
  0
LINE
  5
1DA
  8
1
  6
CONTINUOUS
 62
     7
 10
926.6493692475364
 20
-1663.564964863473
 30
0.0
 11
926.6419716396038
 21
-1663.572395916652
 31
0.0
  0
LINE
  5
1DB
  8
1
  6
CONTINUOUS
 62
     7
 10
2101.097634113794
 20
-1741.20574500167
 30
0.0
 11
2101.115150619263
 21
-1741.214886563017
 31
0.0
  0
LINE
  5
1DC
  8
1
  6
CONTINUOUS
 62
     7
 10
926.8885800730202
 20
-1663.433989396631
 30
0.0
 11
926.8631585897997
 21
-1663.440506929207
 31
0.0
  0
LINE
  5
1DD
  8
1
  6
CONTINUOUS
 62
     7
 10
926.5646162030179
 20
-1663.675569518922
 30
0.0
 11
926.5571750498984
 21
-1663.689240135801
 31
0.0
  0
LINE
  5
1DE
  8
1
  6
CONTINUOUS
 62
     7
 10
926.6419716396022
 20
-1663.572395916651
 30
0.0
 11
926.6346577501421
 21
-1663.580059286521
 31
0.0
  0
LINE
  5
1DF
  8
1
  6
CONTINUOUS
 62
     7
 10
2101.11515061926
 20
-1741.214886563017
 30
0.0
 11
2101.132250330764
 21
-1741.224687495524
 31
0.0
  0
LINE
  5
1E0
  8
1
  6
CONTINUOUS
 62
     7
 10
926.6792565305813
 20
-1663.537849951295
 30
0.0
 11
926.6643336976947
 21
-1663.550838822425
 31
0.0
  0
LINE
  5
1E1
  8
1
  6
CONTINUOUS
 62
     7
 10
2101.374388283811
 20
-1741.627276105291
 30
0.0
 11
2101.375078871867
 21
-1741.653479800407
 31
0.0
  0
LINE
  5
1E2
  8
1
  6
CONTINUOUS
 62
     7
 10
2101.166023941434
 20
-1741.246849523789
 30
0.0
 11
2101.182175421934
 21
-1741.258903900876
 31
0.0
  0
LINE
  5
1E3
  8
1
  6
CONTINUOUS
 62
     7
 10
2101.318141513736
 20
-1615.581973491579
 30
0.0
 11
2101.307598199988
 21
-1615.601107035286
 31
0.0
  0
LINE
  5
1E4
  8
1
  6
CONTINUOUS
 62
     7
 10
2101.21031889513
 20
-1615.72121561722
 30
0.0
 11
2101.193973854417
 21
-1615.735359595155
 31
0.0
  0
LINE
  5
1E5
  8
1
  6
CONTINUOUS
 62
     7
 10
2101.193973854417
 20
-1615.735359595154
 30
0.0
 11
2101.176439304133
 21
-1615.749227445139
 31
0.0
  0
LINE
  5
1E6
  8
1
  6
CONTINUOUS
 62
     7
 10
2101.063820065604
 20
-1615.813260751711
 30
0.0
 11
2101.044317838565
 21
-1615.820741592269
 31
0.0
  0
LINE
  5
1E7
  8
1
  6
CONTINUOUS
 62
     7
 10
2101.359258702906
 20
-1741.528706481101
 30
0.0
 11
2101.364090756643
 21
-1741.549233090412
 31
0.0
  0
LINE
  5
1E8
  8
1
  6
CONTINUOUS
 62
     7
 10
2101.182175421935
 20
-1741.258903900877
 30
0.0
 11
2101.197785508619
 21
-1741.271563020734
 31
0.0
  0
LINE
  5
1E9
  8
1
  6
CONTINUOUS
 62
     7
 10
2101.149369450065
 20
-1741.235433013872
 30
0.0
 11
2101.166023941436
 21
-1741.246849523789
 31
0.0
  0
LINE
  5
1EA
  8
1
  6
CONTINUOUS
 62
     7
 10
2101.368886564489
 20
-1741.575054733034
 30
0.0
 11
2101.372321627447
 21
-1741.601101743747
 31
0.0
  0
LINE
  5
1EB
  8
1
  6
CONTINUOUS
 62
     7
 10
2101.336646234336
 20
-1615.542488118478
 30
0.0
 11
2101.327830986153
 21
-1615.56241560937
 31
0.0
  0
LINE
  5
1EC
  8
1
  6
CONTINUOUS
 62
     7
 10
2101.34698919123
 20
-1741.488255270931
 30
0.0
 11
2101.353554171122
 21
-1741.508363617674
 31
0.0
  0
LINE
  5
1ED
  8
1
  6
CONTINUOUS
 62
     7
 10
2101.267782362412
 20
-1741.343992317214
 30
0.0
 11
2101.280133336405
 21
-1741.36034456302
 31
0.0
  0
LINE
  5
1EE
  8
1
  6
CONTINUOUS
 62
     7
 10
2101.269674585526
 20
-1615.657324510765
 30
0.0
 11
2101.255331442116
 21
-1615.674920383308
 31
0.0
  0
LINE
  5
1EF
  8
1
  6
CONTINUOUS
 62
     7
 10
2101.120086794565
 20
-1615.786111190521
 30
0.0
 11
2101.101755302248
 21
-1615.795917849126
 31
0.0
  0
LINE
  5
1F0
  8
1
  6
CONTINUOUS
 62
     7
 10
2101.339575793172
 20
-1741.468432211674
 30
0.0
 11
2101.34698919123
 21
-1741.488255270931
 31
0.0
  0
LINE
  5
1F1
  8
1
  6
CONTINUOUS
 62
     7
 10
2101.101755302248
 20
-1615.795917849126
 30
0.0
 11
2101.082982806379
 21
-1615.804976936759
 31
0.0
  0
LINE
  5
1F2
  8
1
  6
CONTINUOUS
 62
     7
 10
2101.364090756646
 20
-1741.549233090412
 30
0.0
 11
2101.368886564493
 21
-1741.575054733033
 31
0.0
  0
LINE
  5
1F3
  8
1
  6
CONTINUOUS
 62
     7
 10
2101.344566875382
 20
-1615.522245748724
 30
0.0
 11
2101.336646234337
 21
-1615.542488118478
 31
0.0
  0
LINE
  5
1F4
  8
1
  6
CONTINUOUS
 62
     7
 10
2101.373212355773
 20
-1615.393384508332
 30
0.0
 11
2101.370884389275
 21
-1615.414870986504
 31
0.0
  0
LINE
  5
1F5
  8
1
  6
CONTINUOUS
 62
     7
 10
2101.082982806381
 20
-1615.80497693676
 30
0.0
 11
2101.063820065605
 21
-1615.813260751712
 31
0.0
  0
LINE
  5
1F6
  8
1
  6
CONTINUOUS
 62
     7
 10
2101.003077986376
 20
-1615.833588817328
 30
0.0
 11
2100.982035105512
 21
-1615.838678489233
 31
0.0
  0
LINE
  5
1F7
  8
1
  6
CONTINUOUS
 62
     7
 10
2101.19778550862
 20
-1741.271563020734
 30
0.0
 11
2101.212906870808
 21
-1741.284873243744
 31
0.0
  0
LINE
  5
1F8
  8
1
  6
CONTINUOUS
 62
     7
 10
2101.291784130061
 20
-1741.37715525342
 30
0.0
 11
2101.302709531986
 21
-1741.394381327765
 31
0.0
  0
LINE
  5
1F9
  8
1
  6
CONTINUOUS
 62
     7
 10
2101.302709531988
 20
-1741.394381327766
 30
0.0
 11
2101.313088363873
 21
-1741.412344498083
 31
0.0
  0
LINE
  5
1FA
  8
1
  6
CONTINUOUS
 62
     7
 10
2101.351773376034
 20
-1615.501120261316
 30
0.0
 11
2101.344566875383
 21
-1615.522245748724
 31
0.0
  0
LINE
  5
1FB
  8
1
  6
CONTINUOUS
 62
     7
 10
2101.375078871867
 20
-1615.350254427566
 30
0.0
 11
2101.374611667442
 21
-1615.371827442545
 31
0.0
  0
LINE
  5
1FC
  8
1
  6
CONTINUOUS
 62
     7
 10
2101.363317995271
 20
-1615.458053791754
 30
0.0
 11
2101.358027898246
 21
-1615.479703037486
 31
0.0
  0
LINE
  5
1FD
  8
1
  6
CONTINUOUS
 62
     7
 10
2101.139441794085
 20
-1615.774647916438
 30
0.0
 11
2101.120086794566
 21
-1615.786111190521
 31
0.0
  0
LINE
  5
1FE
  8
1
  6
CONTINUOUS
 62
     7
 10
2100.960794008901
 20
-1615.842852555133
 30
0.0
 11
2100.94089359008
 21
-1615.845902131238
 31
0.0
  0
LINE
  5
1FF
  8
1
  6
CONTINUOUS
 62
     7
 10
2101.353554171125
 20
-1741.508363617674
 30
0.0
 11
2101.35925870291
 21
-1741.528706481101
 31
0.0
  0
LINE
  5
200
  8
1
  6
CONTINUOUS
 62
     7
 10
2101.327830986153
 20
-1615.56241560937
 30
0.0
 11
2101.318141513736
 21
-1615.581973491579
 31
0.0
  0
LINE
  5
201
  8
1
  6
CONTINUOUS
 62
     7
 10
2101.295841446112
 20
-1615.620359331323
 30
0.0
 11
2101.28318908074
 21
-1615.639117991627
 31
0.0
  0
LINE
  5
202
  8
1
  6
CONTINUOUS
 62
     7
 10
2101.283189080745
 20
-1615.639117991627
 30
0.0
 11
2101.269674585528
 21
-1615.657324510766
 31
0.0
  0
LINE
  5
203
  8
1
  6
CONTINUOUS
 62
     7
 10
2101.241036173934
 20
-1615.690949778587
 30
0.0
 11
2101.226019163286
 21
-1615.706396934128
 31
0.0
  0
LINE
  5
204
  8
1
  6
CONTINUOUS
 62
     7
 10
2100.940893590081
 20
-1615.845902131239
 30
0.0
 11
2100.92085802121
 21
-1615.848151114113
 31
0.0
  0
LINE
  5
205
  8
1
  6
CONTINUOUS
 62
     7
 10
2101.372321627447
 20
-1741.601101743746
 30
0.0
 11
2101.374388283808
 21
-1741.627276105291
 31
0.0
  0
LINE
  5
206
  8
1
  6
CONTINUOUS
 62
     7
 10
2100.920858021211
 20
-1615.848151114114
 30
0.0
 11
2100.90074088456
 21
-1615.849593676355
 31
0.0
  0
LINE
  5
207
  8
1
  6
CONTINUOUS
 62
     7
 10
2101.254756419475
 20
-1741.328141576646
 30
0.0
 11
2101.26778236241
 21
-1741.343992317214
 31
0.0
  0
LINE
  5
208
  8
1
  6
CONTINUOUS
 62
     7
 10
2101.132250330767
 20
-1741.224687495524
 30
0.0
 11
2101.149369450063
 21
-1741.235433013872
 31
0.0
  0
LINE
  5
209
  8
1
  6
CONTINUOUS
 62
     7
 10
2101.212906870809
 20
-1741.284873243744
 30
0.0
 11
2101.227463137888
 21
-1741.298764779722
 31
0.0
  0
LINE
  5
20A
  8
1
  6
CONTINUOUS
 62
     7
 10
2101.227463137884
 20
-1741.298764779722
 30
0.0
 11
2101.241423318044
 21
-1741.313200075184
 31
0.0
  0
LINE
  5
20B
  8
1
  6
CONTINUOUS
 62
     7
 10
2101.30759819999
 20
-1615.601107035285
 30
0.0
 11
2101.295841446116
 21
-1615.620359331323
 31
0.0
  0
LINE
  5
20C
  8
1
  6
CONTINUOUS
 62
     7
 10
2101.370884389275
 20
-1615.414870986505
 30
0.0
 11
2101.367631220355
 21
-1615.436232238641
 31
0.0
  0
LINE
  5
20D
  8
1
  6
CONTINUOUS
 62
     7
 10
2101.255331442117
 20
-1615.674920383309
 30
0.0
 11
2101.241036173937
 21
-1615.690949778588
 31
0.0
  0
LINE
  5
20E
  8
1
  6
CONTINUOUS
 62
     7
 10
2101.226019163287
 20
-1615.706396934128
 30
0.0
 11
2101.21031889513
 21
-1615.721215617221
 31
0.0
  0
LINE
  5
20F
  8
1
  6
CONTINUOUS
 62
     7
 10
2100.982035105512
 20
-1615.838678489232
 30
0.0
 11
2100.960794008901
 21
-1615.842852555132
 31
0.0
  0
LINE
  5
210
  8
1
  6
CONTINUOUS
 62
     7
 10
2100.900740884561
 20
-1615.849593676354
 30
0.0
 11
2100.880595762397
 21
-1615.850223990558
 31
0.0
  0
LINE
  5
211
  8
1
  6
CONTINUOUS
 62
     7
 10
2101.374611667441
 20
-1615.371827442545
 30
0.0
 11
2101.373212355773
 21
-1615.393384508332
 31
0.0
  0
LINE
  5
212
  8
1
  6
CONTINUOUS
 62
     7
 10
2101.241423318046
 20
-1741.313200075185
 30
0.0
 11
2101.254756419477
 21
-1741.328141576645
 31
0.0
  0
LINE
  5
213
  8
1
  6
CONTINUOUS
 62
     7
 10
2101.313088363869
 20
-1741.412344498083
 30
0.0
 11
2101.322704686624
 21
-1741.430705151133
 31
0.0
  0
LINE
  5
214
  8
1
  6
CONTINUOUS
 62
     7
 10
2101.322704686626
 20
-1741.430705151133
 30
0.0
 11
2101.331539997358
 21
-1741.449416613476
 31
0.0
  0
LINE
  5
215
  8
1
  6
CONTINUOUS
 62
     7
 10
2101.331539997356
 20
-1741.449416613476
 30
0.0
 11
2101.339575793172
 21
-1741.468432211674
 31
0.0
  0
LINE
  5
216
  8
1
  6
CONTINUOUS
 62
     7
 10
2101.044317838567
 20
-1615.820741592269
 30
0.0
 11
2101.02385983592
 21
-1615.827603273609
 31
0.0
  0
LINE
  5
217
  8
1
  6
CONTINUOUS
 62
     7
 10
2100.880595762393
 20
-1615.850223990558
 30
0.0
 11
2100.859834310229
 21
-1615.850019972776
 31
0.0
  0
LINE
  5
218
  8
1
  6
CONTINUOUS
 62
     7
 10
2101.023859835918
 20
-1615.82760327361
 30
0.0
 11
2101.003077986376
 21
-1615.833588817328
 31
0.0
  0
LINE
  5
219
  8
1
  6
CONTINUOUS
 62
     7
 10
2101.358027898246
 20
-1615.479703037486
 30
0.0
 11
2101.351773376033
 21
-1615.501120261316
 31
0.0
  0
LINE
  5
21A
  8
1
  6
CONTINUOUS
 62
     7
 10
2101.280133336405
 20
-1741.360344563021
 30
0.0
 11
2101.291784130061
 21
-1741.37715525342
 31
0.0
  0
LINE
  5
21B
  8
1
  6
CONTINUOUS
 62
     7
 10
2101.176439304136
 20
-1615.74922744514
 30
0.0
 11
2101.158243957317
 21
-1615.76233844344
 31
0.0
  0
LINE
  5
21C
  8
1
  6
CONTINUOUS
 62
     7
 10
2100.859834310234
 20
-1615.850019972776
 30
0.0
 11
2100.839082185963
 21
-1615.84895341
 31
0.0
  0
LINE
  5
21D
  8
1
  6
CONTINUOUS
 62
     7
 10
2100.839082185959
 20
-1615.84895341
 30
0.0
 11
2100.818398149552
 21
-1615.847029317889
 31
0.0
  0
LINE
  5
21E
  8
1
  6
CONTINUOUS
 62
     7
 10
2101.158243957314
 20
-1615.762338443439
 30
0.0
 11
2101.139441794083
 21
-1615.774647916438
 31
0.0
  0
LINE
  5
21F
  8
1
  6
CONTINUOUS
 62
     7
 10
2100.818398149552
 20
-1615.847029317889
 30
0.0
 11
2100.797840960977
 21
-1615.844252712099
 31
0.0
  0
LINE
  5
220
  8
1
  6
CONTINUOUS
 62
     7
 10
2101.367631220355
 20
-1615.436232238641
 30
0.0
 11
2101.36331799527
 21
-1615.458053791754
 31
0.0
  0
LINE
  5
221
  8
1
  6
CONTINUOUS
 62
     7
 10
1889.432016229995
 20
-1615.581973491579
 30
0.0
 11
1889.442559543743
 21
-1615.601107035286
 31
0.0
  0
LINE
  5
222
  8
1
  6
CONTINUOUS
 62
     7
 10
1889.466968662986
 20
-1615.639117991627
 30
0.0
 11
1889.480483158203
 21
-1615.657324510766
 31
0.0
  0
LINE
  5
223
  8
1
  6
CONTINUOUS
 62
     7
 10
1889.747079757355
 20
-1615.833588817328
 30
0.0
 11
1889.768122638219
 21
-1615.838678489233
 31
0.0
  0
LINE
  5
224
  8
1
  6
CONTINUOUS
 62
     7
 10
1889.573718439595
 20
-1615.74922744514
 30
0.0
 11
1889.591913786414
 21
-1615.76233844344
 31
0.0
  0
LINE
  5
225
  8
1
  6
CONTINUOUS
 62
     7
 10
1889.398384367698
 20
-1615.501120261316
 30
0.0
 11
1889.405590868348
 21
-1615.522245748724
 31
0.0
  0
LINE
  5
226
  8
1
  6
CONTINUOUS
 62
     7
 10
1889.768122638219
 20
-1615.838678489233
 30
0.0
 11
1889.78936373483
 21
-1615.842852555133
 31
0.0
  0
LINE
  5
227
  8
1
  6
CONTINUOUS
 62
     7
 10
1889.509121569797
 20
-1615.690949778587
 30
0.0
 11
1889.524138580444
 21
-1615.706396934128
 31
0.0
  0
LINE
  5
228
  8
1
  6
CONTINUOUS
 62
     7
 10
2087.386814615616
 20
-1577.242602077291
 30
0.0
 11
2087.422004762142
 21
-1577.126695304915
 31
0.0
  0
LINE
  5
229
  8
1
  6
CONTINUOUS
 62
     7
 10
2100.780313033154
 20
-1615.8411912497
 30
0.0
 11
2100.762910591388
 21
-1615.8375098063
 31
0.0
  0
LINE
  5
22A
  8
1
  6
CONTINUOUS
 62
     7
 10
1903.363343128116
 20
-1577.242602077291
 30
0.0
 11
1903.328152981589
 21
-1577.126695304915
 31
0.0
  0
LINE
  5
22B
  8
1
  6
CONTINUOUS
 62
     7
 10
2087.568168810797
 20
-1576.89715414554
 30
0.0
 11
2087.674884478639
 21
-1576.791308504161
 31
0.0
  0
LINE
  5
22C
  8
1
  6
CONTINUOUS
 62
     7
 10
1889.376945387958
 20
-1615.393384508332
 30
0.0
 11
1889.379273354456
 21
-1615.414870986504
 31
0.0
  0
LINE
  5
22D
  8
1
  6
CONTINUOUS
 62
     7
 10
1889.38683974846
 20
-1615.458053791754
 30
0.0
 11
1889.392129845485
 21
-1615.479703037486
 31
0.0
  0
LINE
  5
22E
  8
1
  6
CONTINUOUS
 62
     7
 10
1903.267426227997
 20
-1577.010177142401
 30
0.0
 11
1903.181988932936
 21
-1576.89715414554
 31
0.0
  0
LINE
  5
22F
  8
1
  6
CONTINUOUS
 62
     7
 10
1889.382526523376
 20
-1615.436232238641
 30
0.0
 11
1889.386839748461
 21
-1615.458053791754
 31
0.0
  0
LINE
  5
230
  8
1
  6
CONTINUOUS
 62
     7
 10
1889.405590868349
 20
-1615.522245748724
 30
0.0
 11
1889.413511509394
 21
-1615.542488118478
 31
0.0
  0
LINE
  5
231
  8
1
  6
CONTINUOUS
 62
     7
 10
1889.413511509395
 20
-1615.542488118478
 30
0.0
 11
1889.422326757578
 21
-1615.56241560937
 31
0.0
  0
LINE
  5
232
  8
1
  6
CONTINUOUS
 62
     7
 10
1889.480483158208
 20
-1615.657324510765
 30
0.0
 11
1889.494826301619
 21
-1615.674920383308
 31
0.0
  0
LINE
  5
233
  8
1
  6
CONTINUOUS
 62
     7
 10
1889.84941685917
 20
-1615.849593676354
 30
0.0
 11
1889.869561981334
 21
-1615.850223990558
 31
0.0
  0
LINE
  5
234
  8
1
  6
CONTINUOUS
 62
     7
 10
1889.890323433497
 20
-1615.850019972776
 30
0.0
 11
1889.911075557768
 21
-1615.84895341
 31
0.0
  0
LINE
  5
235
  8
1
  6
CONTINUOUS
 62
     7
 10
1889.952316782753
 20
-1615.844252712099
 30
0.0
 11
1889.969844710575
 21
-1615.8411912497
 31
0.0
  0
LINE
  5
236
  8
1
  6
CONTINUOUS
 62
     7
 10
1889.630070949166
 20
-1615.786111190521
 30
0.0
 11
1889.648402441483
 21
-1615.795917849126
 31
0.0
  0
LINE
  5
237
  8
1
  6
CONTINUOUS
 62
     7
 10
1889.705839905164
 20
-1615.820741592269
 30
0.0
 11
1889.726297907811
 21
-1615.827603273609
 31
0.0
  0
LINE
  5
238
  8
1
  6
CONTINUOUS
 62
     7
 10
1903.181988932935
 20
-1576.89715414554
 30
0.0
 11
1903.075273265092
 21
-1576.791308504161
 31
0.0
  0
LINE
  5
239
  8
1
  6
CONTINUOUS
 62
     7
 10
1903.375078871867
 20
-1577.360302515871
 30
0.0
 11
1903.363343128118
 21
-1577.242602077291
 31
0.0
  0
LINE
  5
23A
  8
1
  6
CONTINUOUS
 62
     7
 10
2100.797840960978
 20
-1615.844252712099
 30
0.0
 11
2100.780313033156
 21
-1615.8411912497
 31
0.0
  0
LINE
  5
23B
  8
1
  6
CONTINUOUS
 62
     7
 10
1889.37554607629
 20
-1615.371827442545
 30
0.0
 11
1889.376945387957
 21
-1615.393384508332
 31
0.0
  0
LINE
  5
23C
  8
1
  6
CONTINUOUS
 62
     7
 10
1889.442559543741
 20
-1615.601107035285
 30
0.0
 11
1889.454316297615
 21
-1615.620359331322
 31
0.0
  0
LINE
  5
23D
  8
1
  6
CONTINUOUS
 62
     7
 10
1903.075273265094
 20
-1576.791308504161
 30
0.0
 11
1902.945740538369
 21
-1576.690259227847
 31
0.0
  0
LINE
  5
23E
  8
1
  6
CONTINUOUS
 62
     7
 10
1889.392129845485
 20
-1615.479703037486
 30
0.0
 11
1889.398384367699
 21
-1615.501120261316
 31
0.0
  0
LINE
  5
23F
  8
1
  6
CONTINUOUS
 62
     7
 10
1889.539838848601
 20
-1615.72121561722
 30
0.0
 11
1889.556183889314
 21
-1615.735359595154
 31
0.0
  0
LINE
  5
240
  8
1
  6
CONTINUOUS
 62
     7
 10
1889.494826301614
 20
-1615.674920383309
 30
0.0
 11
1889.509121569795
 21
-1615.690949778588
 31
0.0
  0
LINE
  5
241
  8
1
  6
CONTINUOUS
 62
     7
 10
1889.726297907813
 20
-1615.82760327361
 30
0.0
 11
1889.747079757355
 21
-1615.833588817328
 31
0.0
  0
LINE
  5
242
  8
1
  6
CONTINUOUS
 62
     7
 10
1889.82929972252
 20
-1615.848151114114
 30
0.0
 11
1889.849416859171
 21
-1615.849593676355
 31
0.0
  0
LINE
  5
243
  8
1
  6
CONTINUOUS
 62
     7
 10
2087.674884478637
 20
-1576.791308504161
 30
0.0
 11
2087.804417205362
 21
-1576.690259227847
 31
0.0
  0
LINE
  5
244
  8
1
  6
CONTINUOUS
 62
     7
 10
1889.422326757578
 20
-1615.56241560937
 30
0.0
 11
1889.432016229995
 21
-1615.581973491579
 31
0.0
  0
LINE
  5
245
  8
1
  6
CONTINUOUS
 62
     7
 10
1903.328152981589
 20
-1577.126695304914
 30
0.0
 11
1903.267426227998
 21
-1577.0101771424
 31
0.0
  0
LINE
  5
246
  8
1
  6
CONTINUOUS
 62
     7
 10
1889.379273354456
 20
-1615.414870986505
 30
0.0
 11
1889.382526523376
 21
-1615.436232238641
 31
0.0
  0
LINE
  5
247
  8
1
  6
CONTINUOUS
 62
     7
 10
2087.375078871864
 20
-1577.360302515871
 30
0.0
 11
2087.386814615614
 21
-1577.242602077291
 31
0.0
  0
LINE
  5
248
  8
1
  6
CONTINUOUS
 62
     7
 10
1889.556183889314
 20
-1615.735359595154
 30
0.0
 11
1889.573718439598
 21
-1615.749227445139
 31
0.0
  0
LINE
  5
249
  8
1
  6
CONTINUOUS
 62
     7
 10
1889.524138580444
 20
-1615.706396934128
 30
0.0
 11
1889.539838848601
 21
-1615.721215617221
 31
0.0
  0
LINE
  5
24A
  8
1
  6
CONTINUOUS
 62
     7
 10
1889.591913786417
 20
-1615.762338443439
 30
0.0
 11
1889.610715949648
 21
-1615.774647916438
 31
0.0
  0
LINE
  5
24B
  8
1
  6
CONTINUOUS
 62
     7
 10
1889.869561981338
 20
-1615.850223990558
 30
0.0
 11
1889.890323433502
 21
-1615.850019972776
 31
0.0
  0
LINE
  5
24C
  8
1
  6
CONTINUOUS
 62
     7
 10
2087.482731515734
 20
-1577.010177142401
 30
0.0
 11
2087.568168810795
 21
-1576.89715414554
 31
0.0
  0
LINE
  5
24D
  8
1
  6
CONTINUOUS
 62
     7
 10
1889.911075557772
 20
-1615.84895341
 30
0.0
 11
1889.93175959418
 21
-1615.847029317889
 31
0.0
  0
LINE
  5
24E
  8
1
  6
CONTINUOUS
 62
     7
 10
1889.454316297619
 20
-1615.620359331323
 30
0.0
 11
1889.466968662991
 21
-1615.639117991627
 31
0.0
  0
LINE
  5
24F
  8
1
  6
CONTINUOUS
 62
     7
 10
2087.422004762142
 20
-1577.126695304914
 30
0.0
 11
2087.482731515733
 21
-1577.0101771424
 31
0.0
  0
LINE
  5
250
  8
1
  6
CONTINUOUS
 62
     7
 10
1889.66717493735
 20
-1615.80497693676
 30
0.0
 11
1889.686337678126
 21
-1615.813260751712
 31
0.0
  0
LINE
  5
251
  8
1
  6
CONTINUOUS
 62
     7
 10
1889.931759594179
 20
-1615.847029317889
 30
0.0
 11
1889.952316782754
 21
-1615.844252712099
 31
0.0
  0
LINE
  5
252
  8
1
  6
CONTINUOUS
 62
     7
 10
1889.969844710577
 20
-1615.8411912497
 30
0.0
 11
1889.987247152343
 21
-1615.8375098063
 31
0.0
  0
LINE
  5
253
  8
1
  6
CONTINUOUS
 62
     7
 10
1889.375078871864
 20
-1787.141366527575
 30
0.0
 11
1889.44255954374
 21
-1787.222658878379
 31
0.0
  0
LINE
  5
254
  8
1
  6
CONTINUOUS
 62
     7
 10
1889.610715949646
 20
-1615.774647916438
 30
0.0
 11
1889.630070949165
 21
-1615.786111190521
 31
0.0
  0
LINE
  5
255
  8
1
  6
CONTINUOUS
 62
     7
 10
1889.648402441483
 20
-1615.795917849126
 30
0.0
 11
1889.667174937352
 21
-1615.804976936759
 31
0.0
  0
LINE
  5
256
  8
1
  6
CONTINUOUS
 62
     7
 10
1889.78936373483
 20
-1615.842852555133
 30
0.0
 11
1889.809264153651
 21
-1615.845902131238
 31
0.0
  0
LINE
  5
257
  8
1
  6
CONTINUOUS
 62
     7
 10
2100.762910591391
 20
-1615.8375098063
 30
0.0
 11
2100.745669349315
 21
-1615.83321734071
 31
0.0
  0
LINE
  5
258
  8
1
  6
CONTINUOUS
 62
     7
 10
1889.98724715234
 20
-1615.8375098063
 30
0.0
 11
1890.004488394416
 21
-1615.83321734071
 31
0.0
  0
LINE
  5
259
  8
1
  6
CONTINUOUS
 62
     7
 10
1889.686337678127
 20
-1615.813260751711
 30
0.0
 11
1889.705839905165
 21
-1615.820741592269
 31
0.0
  0
LINE
  5
25A
  8
1
  6
CONTINUOUS
 62
     7
 10
1889.80926415365
 20
-1615.845902131239
 30
0.0
 11
1889.829299722521
 21
-1615.848151114113
 31
0.0
  0
LINE
  5
25B
  8
1
  6
CONTINUOUS
 62
     7
 10
1889.375078871864
 20
-1615.350254427566
 30
0.0
 11
1889.375546076289
 21
-1615.371827442545
 31
0.0
  0
LINE
  5
25C
  8
1
  6
CONTINUOUS
 62
     7
 10
1890.00448839442
 20
-1741.170516887262
 30
0.0
 11
1889.985260646956
 21
-1741.165772588144
 31
0.0
  0
LINE
  5
25D
  8
1
  6
CONTINUOUS
 62
     7
 10
1889.707631353192
 20
-1741.182353982831
 30
0.0
 11
1889.688638407306
 21
-1741.189540199623
 31
0.0
  0
LINE
  5
25E
  8
1
  6
CONTINUOUS
 62
     7
 10
723.2758297858921
 20
-1663.504382243712
 30
0.0
 11
723.2907691907453
 21
-1663.514657445713
 31
0.0
  0
LINE
  5
25F
  8
1
  6
CONTINUOUS
 62
     7
 10
723.3580283603919
 20
-1663.572395916651
 30
0.0
 11
723.365342249852
 21
-1663.580059286521
 31
0.0
  0
LINE
  5
260
  8
1
  6
CONTINUOUS
 62
     7
 10
1889.785746106521
 20
-1741.161526558453
 30
0.0
 11
1889.766315573347
 21
-1741.165452603525
 31
0.0
  0
LINE
  5
261
  8
1
  6
CONTINUOUS
 62
     7
 10
723.2907691907484
 20
-1663.514657445713
 30
0.0
 11
723.3057175148482
 21
-1663.52576961047
 31
0.0
  0
LINE
  5
262
  8
1
  6
CONTINUOUS
 62
     7
 10
723.4195898253417
 20
-1663.64948977302
 30
0.0
 11
723.4276512304174
 21
-1663.662352410343
 31
0.0
  0
LINE
  5
263
  8
1
  6
CONTINUOUS
 62
     7
 10
2087.6000468219
 20
-1780.141103689993
 30
0.0
 11
2087.491810143982
 21
-1780.007435038819
 31
0.0
  0
LINE
  5
264
  8
1
  6
CONTINUOUS
 62
     7
 10
2087.417235850427
 20
-1779.86447181594
 30
0.0
 11
2087.379777838439
 21
-1779.71761361019
 31
0.0
  0
LINE
  5
265
  8
1
  6
CONTINUOUS
 62
     7
 10
1889.539838848601
 20
-1787.261217713125
 30
0.0
 11
1889.648402441482
 21
-1787.28508097145
 31
0.0
  0
LINE
  5
266
  8
1
  6
CONTINUOUS
 62
     7
 10
723.4276512304106
 20
-1663.662352410342
 30
0.0
 11
723.4353837969788
 21
-1663.675569518921
 31
0.0
  0
LINE
  5
267
  8
1
  6
CONTINUOUS
 62
     7
 10
723.4428249501028
 20
-1663.689240135801
 30
0.0
 11
723.4498866994875
 21
-1663.703238200949
 31
0.0
  0
LINE
  5
268
  8
1
  6
CONTINUOUS
 62
     7
 10
723.4498866994854
 20
-1663.703238200949
 30
0.0
 11
723.456557473803
 21
-1663.717565824321
 31
0.0
  0
LINE
  5
269
  8
1
  6
CONTINUOUS
 62
     7
 10
2087.491810143983
 20
-1780.007435038818
 30
0.0
 11
2087.417235850427
 21
-1779.864471815939
 31
0.0
  0
LINE
  5
26A
  8
1
  6
CONTINUOUS
 62
     7
 10
1889.844861477253
 20
-1741.154393726605
 30
0.0
 11
1889.825069742773
 21
-1741.155988671213
 31
0.0
  0
LINE
  5
26B
  8
1
  6
CONTINUOUS
 62
     7
 10
1889.825069742776
 20
-1741.155988671213
 30
0.0
 11
1889.805347724433
 21
-1741.158369098089
 31
0.0
  0
LINE
  5
26C
  8
1
  6
CONTINUOUS
 62
     7
 10
1889.726942727111
 20
-1741.17593137614
 30
0.0
 11
1889.707631353192
 21
-1741.182353982831
 31
0.0
  0
LINE
  5
26D
  8
1
  6
CONTINUOUS
 62
     7
 10
1889.670414775504
 20
-1741.197287863276
 30
0.0
 11
1889.652523629936
 21
-1741.205745001671
 31
0.0
  0
LINE
  5
26E
  8
1
  6
CONTINUOUS
 62
     7
 10
723.2392933609062
 20
-1663.482396784906
 30
0.0
 11
723.2574834809974
 21
-1663.492811916758
 31
0.0
  0
LINE
  5
26F
  8
1
  6
CONTINUOUS
 62
     7
 10
1889.442559543741
 20
-1787.222658878379
 30
0.0
 11
1889.5398388486
 21
-1787.261217713125
 31
0.0
  0
LINE
  5
270
  8
1
  6
CONTINUOUS
 62
     7
 10
723.1530785396294
 20
-1663.445426424728
 30
0.0
 11
723.1696254264139
 21
-1663.451068957629
 31
0.0
  0
LINE
  5
271
  8
1
  6
CONTINUOUS
 62
     7
 10
723.1696254264128
 20
-1663.451068957629
 30
0.0
 11
723.1865522591124
 21
-1663.457522270606
 31
0.0
  0
LINE
  5
272
  8
1
  6
CONTINUOUS
 62
     7
 10
723.1865522591128
 20
-1663.457522270606
 30
0.0
 11
723.203769814553
 21
-1663.464823168474
 31
0.0
  0
LINE
  5
273
  8
1
  6
CONTINUOUS
 62
     7
 10
723.3762535607311
 20
-1663.592124873741
 30
0.0
 11
723.3869284170956
 21
-1663.6047366491
 31
0.0
  0
LINE
  5
274
  8
1
  6
CONTINUOUS
 62
     7
 10
723.2574834810008
 20
-1663.492811916758
 30
0.0
 11
723.2758297858961
 21
-1663.504382243712
 31
0.0
  0
LINE
  5
275
  8
1
  6
CONTINUOUS
 62
     7
 10
723.4027212537355
 20
-1663.625079973068
 30
0.0
 11
723.4112936154091
 21
-1663.637097457984
 31
0.0
  0
LINE
  5
276
  8
1
  6
CONTINUOUS
 62
     7
 10
2087.739489760248
 20
-1780.265465730111
 30
0.0
 11
2087.600046821899
 21
-1780.141103689993
 31
0.0
  0
LINE
  5
277
  8
1
  6
CONTINUOUS
 62
     7
 10
723.3356663023022
 20
-1663.550838822425
 30
0.0
 11
723.3506307524617
 21
-1663.564964863473
 31
0.0
  0
LINE
  5
278
  8
1
  6
CONTINUOUS
 62
     7
 10
723.4112936154075
 20
-1663.637097457984
 30
0.0
 11
723.4195898253399
 21
-1663.64948977302
 31
0.0
  0
LINE
  5
279
  8
1
  6
CONTINUOUS
 62
     7
 10
723.0868240888326
 20
-1663.429013053069
 30
0.0
 11
723.1114199269808
 21
-1663.433989396631
 31
0.0
  0
LINE
  5
27A
  8
1
  6
CONTINUOUS
 62
     7
 10
723.3939094058832
 20
-1663.61346339419
 30
0.0
 11
723.4027212537314
 21
-1663.625079973067
 31
0.0
  0
LINE
  5
27B
  8
1
  6
CONTINUOUS
 62
     7
 10
2087.379777838438
 20
-1779.717613610189
 30
0.0
 11
2087.375078871865
 21
-1779.643431712101
 31
0.0
  0
LINE
  5
27C
  8
1
  6
CONTINUOUS
 62
     7
 10
1889.985260646955
 20
-1741.165772588144
 30
0.0
 11
1889.965826670568
 21
-1741.161786907046
 31
0.0
  0
LINE
  5
27D
  8
1
  6
CONTINUOUS
 62
     7
 10
723.4353837969834
 20
-1663.675569518922
 30
0.0
 11
723.4428249501028
 21
-1663.689240135801
 31
0.0
  0
LINE
  5
27E
  8
1
  6
CONTINUOUS
 62
     7
 10
1889.906177786496
 20
-1741.154449770646
 30
0.0
 11
1889.885739800281
 21
-1741.153596825186
 31
0.0
  0
LINE
  5
27F
  8
1
  6
CONTINUOUS
 62
     7
 10
1889.865282253385
 20
-1741.153577670377
 30
0.0
 11
1889.844861477253
 21
-1741.154393726605
 31
0.0
  0
LINE
  5
280
  8
1
  6
CONTINUOUS
 62
     7
 10
723.221408593067
 20
-1663.473110968298
 30
0.0
 11
723.2392933609108
 21
-1663.482396784907
 31
0.0
  0
LINE
  5
281
  8
1
  6
CONTINUOUS
 62
     7
 10
1889.805347724432
 20
-1741.158369098089
 30
0.0
 11
1889.785746106524
 21
-1741.161526558454
 31
0.0
  0
LINE
  5
282
  8
1
  6
CONTINUOUS
 62
     7
 10
1889.94623642765
 20
-1741.158570765834
 30
0.0
 11
1889.926539880589
 21
-1741.156135086369
 31
0.0
  0
LINE
  5
283
  8
1
  6
CONTINUOUS
 62
     7
 10
723.3506307524613
 20
-1663.564964863473
 30
0.0
 11
723.3580283603939
 21
-1663.572395916652
 31
0.0
  0
LINE
  5
284
  8
1
  6
CONTINUOUS
 62
     7
 10
1889.766315573349
 20
-1741.165452603526
 30
0.0
 11
1889.74652123264
 21
-1741.170291282167
 31
0.0
  0
LINE
  5
285
  8
1
  6
CONTINUOUS
 62
     7
 10
723.365342249854
 20
-1663.58005928652
 30
0.0
 11
723.3762535607336
 21
-1663.592124873741
 31
0.0
  0
LINE
  5
286
  8
1
  6
CONTINUOUS
 62
     7
 10
723.1114199269811
 20
-1663.433989396631
 30
0.0
 11
723.1368414102016
 21
-1663.440506929207
 31
0.0
  0
LINE
  5
287
  8
1
  6
CONTINUOUS
 62
     7
 10
1889.746521232641
 20
-1741.170291282166
 30
0.0
 11
1889.726942727113
 21
-1741.175931376139
 31
0.0
  0
LINE
  5
288
  8
1
  6
CONTINUOUS
 62
     7
 10
723.3057175148488
 20
-1663.52576961047
 30
0.0
 11
723.3207434694161
 21
-1663.537849951295
 31
0.0
  0
LINE
  5
289
  8
1
  6
CONTINUOUS
 62
     7
 10
723.3869284171006
 20
-1663.6047366491
 30
0.0
 11
723.3939094058868
 21
-1663.613463394191
 31
0.0
  0
LINE
  5
28A
  8
1
  6
CONTINUOUS
 62
     7
 10
1889.688638407306
 20
-1741.189540199624
 30
0.0
 11
1889.670414775504
 21
-1741.197287863276
 31
0.0
  0
LINE
  5
28B
  8
1
  6
CONTINUOUS
 62
     7
 10
723.1368414102
 20
-1663.440506929207
 30
0.0
 11
723.153078539627
 21
-1663.445426424728
 31
0.0
  0
LINE
  5
28C
  8
1
  6
CONTINUOUS
 62
     7
 10
723.3207434694165
 20
-1663.537849951295
 30
0.0
 11
723.3356663023029
 21
-1663.550838822425
 31
0.0
  0
LINE
  5
28D
  8
1
  6
CONTINUOUS
 62
     7
 10
1889.885739800284
 20
-1741.153596825186
 30
0.0
 11
1889.865282253389
 21
-1741.153577670377
 31
0.0
  0
LINE
  5
28E
  8
1
  6
CONTINUOUS
 62
     7
 10
1889.652523629937
 20
-1741.20574500167
 30
0.0
 11
1889.635007124468
 21
-1741.214886563017
 31
0.0
  0
LINE
  5
28F
  8
1
  6
CONTINUOUS
 62
     7
 10
723.2037698145546
 20
-1663.464823168474
 30
0.0
 11
723.2214085930661
 21
-1663.473110968298
 31
0.0
  0
LINE
  5
290
  8
1
  6
CONTINUOUS
 62
     7
 10
1889.635007124471
 20
-1741.214886563017
 30
0.0
 11
1889.617907412967
 21
-1741.224687495524
 31
0.0
  0
LINE
  5
291
  8
1
  6
CONTINUOUS
 62
     7
 10
1889.617907412965
 20
-1741.224687495524
 30
0.0
 11
1889.600788293668
 21
-1741.235433013872
 31
0.0
  0
LINE
  5
292
  8
1
  6
CONTINUOUS
 62
     7
 10
1889.965826670564
 20
-1741.161786907046
 30
0.0
 11
1889.946236427645
 21
-1741.158570765833
 31
0.0
  0
LINE
  5
293
  8
1
  6
CONTINUOUS
 62
     7
 10
1889.926539880583
 20
-1741.156135086369
 30
0.0
 11
1889.906177786494
 21
-1741.154449770645
 31
0.0
  0
LINE
  5
294
  8
1
  6
CONTINUOUS
 62
     7
 10
1889.447448211743
 20
-1741.394381327766
 30
0.0
 11
1889.437069379858
 21
-1741.412344498083
 31
0.0
  0
LINE
  5
295
  8
1
  6
CONTINUOUS
 62
     7
 10
926.8631585897978
 20
-1693.559490971592
 30
0.0
 11
926.8469214603707
 21
-1693.554571476071
 31
0.0
  0
LINE
  5
296
  8
1
  6
CONTINUOUS
 62
     7
 10
1889.386066987085
 20
-1741.549233090412
 30
0.0
 11
1889.381271179239
 21
-1741.575054733033
 31
0.0
  0
LINE
  5
297
  8
1
  6
CONTINUOUS
 62
     7
 10
2101.375078871867
 20
-1787.141366527575
 30
0.0
 11
2101.30759819999
 21
-1787.222658878379
 31
0.0
  0
LINE
  5
298
  8
1
  6
CONTINUOUS
 62
     7
 10
1889.37576945992
 20
-1741.627276105291
 30
0.0
 11
1889.375078871864
 21
-1741.653479800407
 31
0.0
  0
LINE
  5
299
  8
1
  6
CONTINUOUS
 62
     7
 10
1889.381271179242
 20
-1741.575054733034
 30
0.0
 11
1889.377836116284
 21
-1741.601101743747
 31
0.0
  0
LINE
  5
29A
  8
1
  6
CONTINUOUS
 62
     7
 10
1889.584133802297
 20
-1741.246849523789
 30
0.0
 11
1889.567982321797
 21
-1741.258903900876
 31
0.0
  0
LINE
  5
29B
  8
1
  6
CONTINUOUS
 62
     7
 10
1889.495401324257
 20
-1741.328141576646
 30
0.0
 11
1889.482375381321
 21
-1741.343992317214
 31
0.0
  0
LINE
  5
29C
  8
1
  6
CONTINUOUS
 62
     7
 10
2237.634104012249
 20
-1765.867763101738
 30
0.0
 11
2247.40802790319
 21
-1773.889000348417
 31
0.0
  0
LINE
  5
29D
  8
1
  6
CONTINUOUS
 62
     7
 10
1889.470024407326
 20
-1741.360344563021
 30
0.0
 11
1889.45837361367
 21
-1741.37715525342
 31
0.0
  0
LINE
  5
29E
  8
1
  6
CONTINUOUS
 62
     7
 10
2412.365895987756
 20
-1765.867763101738
 30
0.0
 11
2420.387133234435
 21
-1756.093839210797
 31
0.0
  0
LINE
  5
29F
  8
1
  6
CONTINUOUS
 62
     7
 10
1889.522694605847
 20
-1741.298764779722
 30
0.0
 11
1889.508734425687
 21
-1741.313200075185
 31
0.0
  0
LINE
  5
2A0
  8
1
  6
CONTINUOUS
 62
     7
 10
2101.302709531988
 20
-1569.778420625753
 30
0.0
 11
2101.374388283813
 21
-1569.853827906339
 31
0.0
  0
LINE
  5
2A1
  8
1
  6
CONTINUOUS
 62
     7
 10
2430.017787109024
 20
-1624.160517656266
 30
0.0
 11
2426.347444390719
 21
-1612.060914007831
 31
0.0
  0
LINE
  5
2A2
  8
1
  6
CONTINUOUS
 62
     7
 10
1889.537250872922
 20
-1741.284873243744
 30
0.0
 11
1889.522694605843
 21
-1741.298764779722
 31
0.0
  0
LINE
  5
2A3
  8
1
  6
CONTINUOUS
 62
     7
 10
2391.440953106156
 20
-1577.154422723267
 30
0.0
 11
2379.341349457722
 21
-1573.484080004962
 31
0.0
  0
LINE
  5
2A4
  8
1
  6
CONTINUOUS
 62
     7
 10
1889.600788293666
 20
-1741.235433013872
 30
0.0
 11
1889.584133802295
 21
-1741.246849523789
 31
0.0
  0
LINE
  5
2A5
  8
1
  6
CONTINUOUS
 62
     7
 10
1889.482375381319
 20
-1741.343992317214
 30
0.0
 11
1889.470024407326
 21
-1741.36034456302
 31
0.0
  0
LINE
  5
2A6
  8
1
  6
CONTINUOUS
 62
     7
 10
1889.418617746375
 20
-1741.449416613476
 30
0.0
 11
1889.410581950559
 21
-1741.468432211674
 31
0.0
  0
LINE
  5
2A7
  8
1
  6
CONTINUOUS
 62
     7
 10
2101.19778550862
 20
-1569.739011107926
 30
0.0
 11
2101.302709531987
 21
-1569.778420625752
 31
0.0
  0
LINE
  5
2A8
  8
1
  6
CONTINUOUS
 62
     7
 10
1889.396603572606
 20
-1741.508363617674
 30
0.0
 11
1889.390899040822
 21
-1741.528706481101
 31
0.0
  0
LINE
  5
2A9
  8
1
  6
CONTINUOUS
 62
     7
 10
2218.742882239185
 20
-1720.259990840753
 30
0.0
 11
2219.982212890975
 21
-1732.843216571707
 31
0.0
  0
LINE
  5
2AA
  8
1
  6
CONTINUOUS
 62
     7
 10
2402.591972096809
 20
-1583.114733879556
 30
0.0
 11
2391.440953106152
 21
-1577.154422723267
 31
0.0
  0
LINE
  5
2AB
  8
1
  6
CONTINUOUS
 62
     7
 10
2379.341349457719
 20
-1783.519654223011
 30
0.0
 11
2391.440953106154
 21
-1779.849311504706
 31
0.0
  0
LINE
  5
2AC
  8
1
  6
CONTINUOUS
 62
     7
 10
1889.437069379862
 20
-1741.412344498083
 30
0.0
 11
1889.427453057107
 21
-1741.430705151133
 31
0.0
  0
LINE
  5
2AD
  8
1
  6
CONTINUOUS
 62
     7
 10
2219.982212890974
 20
-1732.843216571707
 30
0.0
 11
2223.652555609278
 21
-1744.942820220141
 31
0.0
  0
LINE
  5
2AE
  8
1
  6
CONTINUOUS
 62
     7
 10
1889.390899040825
 20
-1741.528706481101
 30
0.0
 11
1889.386066987088
 21
-1741.549233090412
 31
0.0
  0
LINE
  5
2AF
  8
1
  6
CONTINUOUS
 62
     7
 10
2430.017787109024
 20
-1732.843216571707
 30
0.0
 11
2431.257117760813
 21
-1720.259990840752
 31
0.0
  0
LINE
  5
2B0
  8
1
  6
CONTINUOUS
 62
     7
 10
1889.508734425685
 20
-1741.313200075185
 30
0.0
 11
1889.495401324255
 21
-1741.328141576645
 31
0.0
  0
LINE
  5
2B1
  8
1
  6
CONTINUOUS
 62
     7
 10
1889.567982321796
 20
-1741.258903900877
 30
0.0
 11
1889.552372235112
 21
-1741.271563020734
 31
0.0
  0
LINE
  5
2B2
  8
1
  6
CONTINUOUS
 62
     7
 10
2366.758123726766
 20
-1784.7589848748
 30
0.0
 11
2379.34134945772
 21
-1783.519654223011
 31
0.0
  0
LINE
  5
2B3
  8
1
  6
CONTINUOUS
 62
     7
 10
2391.440953106156
 20
-1779.849311504706
 30
0.0
 11
2402.591972096813
 21
-1773.889000348418
 31
0.0
  0
LINE
  5
2B4
  8
1
  6
CONTINUOUS
 62
     7
 10
2101.374388283811
 20
-1569.853827906339
 30
0.0
 11
2101.375078871867
 21
-1569.862367700397
 31
0.0
  0
LINE
  5
2B5
  8
1
  6
CONTINUOUS
 62
     7
 10
2101.21031889513
 20
-1787.261217713125
 30
0.0
 11
2101.101755302248
 21
-1787.28508097145
 31
0.0
  0
LINE
  5
2B6
  8
1
  6
CONTINUOUS
 62
     7
 10
1889.45837361367
 20
-1741.37715525342
 30
0.0
 11
1889.447448211745
 21
-1741.394381327765
 31
0.0
  0
LINE
  5
2B7
  8
1
  6
CONTINUOUS
 62
     7
 10
926.8469214603718
 20
-1693.55457147607
 30
0.0
 11
926.8303745735873
 21
-1693.548928943169
 31
0.0
  0
LINE
  5
2B8
  8
1
  6
CONTINUOUS
 62
     7
 10
1889.552372235111
 20
-1741.271563020734
 30
0.0
 11
1889.537250872924
 21
-1741.284873243744
 31
0.0
  0
LINE
  5
2B9
  8
1
  6
CONTINUOUS
 62
     7
 10
2223.652555609286
 20
-1744.942820220141
 30
0.0
 11
2229.612866765574
 21
-1756.093839210797
 31
0.0
  0
LINE
  5
2BA
  8
1
  6
CONTINUOUS
 62
     7
 10
2402.591972096809
 20
-1773.889000348417
 30
0.0
 11
2412.36589598775
 21
-1765.867763101738
 31
0.0
  0
LINE
  5
2BB
  8
1
  6
CONTINUOUS
 62
     7
 10
1889.403168552501
 20
-1741.488255270931
 30
0.0
 11
1889.396603572609
 21
-1741.508363617673
 31
0.0
  0
LINE
  5
2BC
  8
1
  6
CONTINUOUS
 62
     7
 10
2101.30759819999
 20
-1787.222658878379
 30
0.0
 11
2101.210318895131
 21
-1787.261217713125
 31
0.0
  0
LINE
  5
2BD
  8
1
  6
CONTINUOUS
 62
     7
 10
2431.257117760812
 20
-1636.74374338722
 30
0.0
 11
2430.017787109023
 21
-1624.160517656266
 31
0.0
  0
LINE
  5
2BE
  8
1
  6
CONTINUOUS
 62
     7
 10
926.9131759111687
 20
-1693.57098484773
 30
0.0
 11
926.8885800730204
 21
-1693.566008504167
 31
0.0
  0
LINE
  5
2BF
  8
1
  6
CONTINUOUS
 62
     7
 10
926.8303745735849
 20
-1693.54892894317
 30
0.0
 11
926.8134477408852
 21
-1693.542475630192
 31
0.0
  0
LINE
  5
2C0
  8
1
  6
CONTINUOUS
 62
     7
 10
926.813447740885
 20
-1693.542475630192
 30
0.0
 11
926.7962301854446
 21
-1693.535174732325
 31
0.0
  0
LINE
  5
2C1
  8
1
  6
CONTINUOUS
 62
     7
 10
2247.408027903189
 20
-1773.889000348417
 30
0.0
 11
2258.559046893845
 21
-1779.849311504705
 31
0.0
  0
LINE
  5
2C2
  8
1
  6
CONTINUOUS
 62
     7
 10
1889.427453057105
 20
-1741.430705151133
 30
0.0
 11
1889.418617746373
 21
-1741.449416613476
 31
0.0
  0
LINE
  5
2C3
  8
1
  6
CONTINUOUS
 62
     7
 10
1889.377836116284
 20
-1741.601101743746
 30
0.0
 11
1889.375769459923
 21
-1741.627276105291
 31
0.0
  0
LINE
  5
2C4
  8
1
  6
CONTINUOUS
 62
     7
 10
2420.387133234429
 20
-1756.093839210797
 30
0.0
 11
2426.347444390717
 21
-1744.942820220141
 31
0.0
  0
LINE
  5
2C5
  8
1
  6
CONTINUOUS
 62
     7
 10
2379.341349457719
 20
-1573.484080004962
 30
0.0
 11
2366.758123726765
 21
-1572.244749353173
 31
0.0
  0
LINE
  5
2C6
  8
1
  6
CONTINUOUS
 62
     7
 10
926.7962301854467
 20
-1693.535174732325
 30
0.0
 11
926.7785914069351
 21
-1693.526886932501
 31
0.0
  0
LINE
  5
2C7
  8
1
  6
CONTINUOUS
 62
     7
 10
2229.612866765568
 20
-1756.093839210797
 30
0.0
 11
2237.634104012247
 21
-1765.867763101739
 31
0.0
  0
LINE
  5
2C8
  8
1
  6
CONTINUOUS
 62
     7
 10
2258.559046893845
 20
-1779.849311504706
 30
0.0
 11
2270.65865054228
 21
-1783.519654223011
 31
0.0
  0
LINE
  5
2C9
  8
1
  6
CONTINUOUS
 62
     7
 10
2270.658650542278
 20
-1783.519654223011
 30
0.0
 11
2283.241876273232
 21
-1784.7589848748
 31
0.0
  0
LINE
  5
2CA
  8
1
  6
CONTINUOUS
 62
     7
 10
2426.347444390719
 20
-1744.942820220141
 30
0.0
 11
2430.017787109024
 21
-1732.843216571706
 31
0.0
  0
LINE
  5
2CB
  8
1
  6
CONTINUOUS
 62
     7
 10
2426.347444390719
 20
-1612.060914007831
 30
0.0
 11
2420.387133234431
 21
-1600.909895017175
 31
0.0
  0
LINE
  5
2CC
  8
1
  6
CONTINUOUS
 62
     7
 10
2420.387133234429
 20
-1600.909895017175
 30
0.0
 11
2412.36589598775
 21
-1591.135971126234
 31
0.0
  0
LINE
  5
2CD
  8
1
  6
CONTINUOUS
 62
     7
 10
1889.41058195056
 20
-1741.468432211674
 30
0.0
 11
1889.403168552501
 21
-1741.488255270931
 31
0.0
  0
LINE
  5
2CE
  8
1
  6
CONTINUOUS
 62
     7
 10
2412.365895987756
 20
-1591.135971126234
 30
0.0
 11
2402.591972096815
 21
-1583.114733879555
 31
0.0
  0
LINE
  5
2CF
  8
1
  6
CONTINUOUS
 62
     7
 10
926.8885800730202
 20
-1693.566008504167
 30
0.0
 11
926.8631585897997
 21
-1693.559490971592
 31
0.0
  0
LINE
  5
2D0
  8
1
  6
CONTINUOUS
 62
     7
 10
1889.375078871864
 20
-1781.874810412784
 30
0.0
 11
1889.442929893751
 21
-1781.959513449888
 31
0.0
  0
LINE
  5
2D1
  8
1
  6
CONTINUOUS
 62
     7
 10
1903.333344554297
 20
-1785.339756897457
 30
0.0
 11
1903.370424940849
 21
-1785.202966608711
 31
0.0
  0
LINE
  5
2D2
  8
1
  6
CONTINUOUS
 62
     7
 10
926.6419716396022
 20
-1693.427601984147
 30
0.0
 11
926.6346577501421
 21
-1693.419938614277
 31
0.0
  0
LINE
  5
2D3
  8
1
  6
CONTINUOUS
 62
     7
 10
926.6346577501437
 20
-1693.419938614277
 30
0.0
 11
926.623746439264
 21
-1693.407873027057
 31
0.0
  0
LINE
  5
2D4
  8
1
  6
CONTINUOUS
 62
     7
 10
926.5723487695836
 20
-1693.337645490456
 30
0.0
 11
926.5646162030154
 21
-1693.324428381877
 31
0.0
  0
LINE
  5
2D5
  8
1
  6
CONTINUOUS
 62
     7
 10
2087.379732802883
 20
-1785.202966608711
 30
0.0
 11
2087.375078871864
 21
-1785.133809669022
 31
0.0
  0
LINE
  5
2D6
  8
1
  6
CONTINUOUS
 62
     7
 10
926.6643336976954
 20
-1693.449159078373
 30
0.0
 11
926.6493692475359
 21
-1693.435033037325
 31
0.0
  0
LINE
  5
2D7
  8
1
  6
CONTINUOUS
 62
     7
 10
2087.421189835857
 20
-1571.653053003115
 30
0.0
 11
2087.480836739142
 21
-1571.545031846663
 31
0.0
  0
LINE
  5
2D8
  8
1
  6
CONTINUOUS
 62
     7
 10
723.0868240888326
 20
-1693.57098484773
 30
0.0
 11
723.111419926981
 21
-1693.566008504167
 31
0.0
  0
LINE
  5
2D9
  8
1
  6
CONTINUOUS
 62
     7
 10
2087.564710033365
 20
-1571.44035978405
 30
0.0
 11
2087.669397953255
 21
-1571.342449602848
 31
0.0
  0
LINE
  5
2DA
  8
1
  6
CONTINUOUS
 62
     7
 10
723.1114199269811
 20
-1693.566008504167
 30
0.0
 11
723.1368414102016
 21
-1693.559490971592
 31
0.0
  0
LINE
  5
2DB
  8
1
  6
CONTINUOUS
 62
     7
 10
2101.374341061965
 20
-1575.11969853704
 30
0.0
 11
2101.375078871866
 21
-1575.128923815189
 31
0.0
  0
LINE
  5
2DC
  8
1
  6
CONTINUOUS
 62
     7
 10
2087.386613336718
 20
-1571.760608150389
 30
0.0
 11
2087.421189835856
 21
-1571.653053003115
 31
0.0
  0
LINE
  5
2DD
  8
1
  6
CONTINUOUS
 62
     7
 10
1903.259569827479
 20
-1785.472742092213
 30
0.0
 11
1903.333344554293
 21
-1785.339756897456
 31
0.0
  0
LINE
  5
2DE
  8
1
  6
CONTINUOUS
 62
     7
 10
723.1368414102
 20
-1693.559490971592
 30
0.0
 11
723.1530785396269
 21
-1693.554571476071
 31
0.0
  0
LINE
  5
2DF
  8
1
  6
CONTINUOUS
 62
     7
 10
723.1865522591128
 20
-1693.542475630192
 30
0.0
 11
723.203769814553
 21
-1693.535174732325
 31
0.0
  0
LINE
  5
2E0
  8
1
  6
CONTINUOUS
 62
     7
 10
723.1530785396294
 20
-1693.55457147607
 30
0.0
 11
723.169625426414
 21
-1693.548928943169
 31
0.0
  0
LINE
  5
2E1
  8
1
  6
CONTINUOUS
 62
     7
 10
926.6792565305813
 20
-1693.462147949504
 30
0.0
 11
926.6643336976947
 21
-1693.449159078373
 31
0.0
  0
LINE
  5
2E2
  8
1
  6
CONTINUOUS
 62
     7
 10
2087.480836739146
 20
-1571.545031846663
 30
0.0
 11
2087.564710033369
 21
-1571.440359784051
 31
0.0
  0
LINE
  5
2E3
  8
1
  6
CONTINUOUS
 62
     7
 10
2087.583676946088
 20
-1785.583118585995
 30
0.0
 11
2087.490587916253
 21
-1785.472742092213
 31
0.0
  0
LINE
  5
2E4
  8
1
  6
CONTINUOUS
 62
     7
 10
723.2574834810008
 20
-1693.50718598404
 30
0.0
 11
723.2758297858962
 21
-1693.495615657086
 31
0.0
  0
LINE
  5
2E5
  8
1
  6
CONTINUOUS
 62
     7
 10
723.2907691907484
 20
-1693.485340455085
 30
0.0
 11
723.3057175148482
 21
-1693.474228290328
 31
0.0
  0
LINE
  5
2E6
  8
1
  6
CONTINUOUS
 62
     7
 10
1903.328967907874
 20
-1571.653053003115
 30
0.0
 11
1903.269321004589
 21
-1571.545031846663
 31
0.0
  0
LINE
  5
2E7
  8
1
  6
CONTINUOUS
 62
     7
 10
926.6060905941144
 20
-1693.386534506608
 30
0.0
 11
926.5972787462662
 21
-1693.374917927731
 31
0.0
  0
LINE
  5
2E8
  8
1
  6
CONTINUOUS
 62
     7
 10
723.3057175148488
 20
-1693.474228290328
 30
0.0
 11
723.3207434694161
 21
-1693.462147949504
 31
0.0
  0
LINE
  5
2E9
  8
1
  6
CONTINUOUS
 62
     7
 10
926.6942824851525
 20
-1693.474228290328
 30
0.0
 11
926.6792565305851
 21
-1693.462147949504
 31
0.0
  0
LINE
  5
2EA
  8
1
  6
CONTINUOUS
 62
     7
 10
926.7241702141056
 20
-1693.495615657086
 30
0.0
 11
926.7092308092524
 21
-1693.485340455085
 31
0.0
  0
LINE
  5
2EB
  8
1
  6
CONTINUOUS
 62
     7
 10
926.5571750498984
 20
-1693.310757764997
 30
0.0
 11
926.5501133005137
 21
-1693.296759699849
 31
0.0
  0
LINE
  5
2EC
  8
1
  6
CONTINUOUS
 62
     7
 10
1889.442929893753
 20
-1781.959513449888
 30
0.0
 11
1889.540768993174
 21
-1781.999140640497
 31
0.0
  0
LINE
  5
2ED
  8
1
  6
CONTINUOUS
 62
     7
 10
2087.490587916252
 20
-1785.472742092213
 30
0.0
 11
2087.416813189438
 21
-1785.339756897456
 31
0.0
  0
LINE
  5
2EE
  8
1
  6
CONTINUOUS
 62
     7
 10
2101.196234486781
 20
-1575.000873679382
 30
0.0
 11
2101.301193448599
 21
-1575.040869699003
 31
0.0
  0
LINE
  5
2EF
  8
1
  6
CONTINUOUS
 62
     7
 10
926.6493692475364
 20
-1693.435033037325
 30
0.0
 11
926.6419716396038
 21
-1693.427601984147
 31
0.0
  0
LINE
  5
2F0
  8
1
  6
CONTINUOUS
 62
     7
 10
926.5887063845937
 20
-1693.362900442814
 30
0.0
 11
926.5804101746613
 21
-1693.350508127778
 31
0.0
  0
LINE
  5
2F1
  8
1
  6
CONTINUOUS
 62
     7
 10
2101.301193448598
 20
-1575.040869699002
 30
0.0
 11
2101.374341061967
 21
-1575.11969853704
 31
0.0
  0
LINE
  5
2F2
  8
1
  6
CONTINUOUS
 62
     7
 10
1903.363544407013
 20
-1571.760608150389
 30
0.0
 11
1903.328967907875
 21
-1571.653053003115
 31
0.0
  0
LINE
  5
2F3
  8
1
  6
CONTINUOUS
 62
     7
 10
723.1696254264128
 20
-1693.54892894317
 30
0.0
 11
723.1865522591124
 21
-1693.542475630192
 31
0.0
  0
LINE
  5
2F4
  8
1
  6
CONTINUOUS
 62
     7
 10
2087.669397953255
 20
-1571.342449602849
 30
0.0
 11
2087.796380375494
 21
-1571.249081222834
 31
0.0
  0
LINE
  5
2F5
  8
1
  6
CONTINUOUS
 62
     7
 10
723.221408593067
 20
-1693.526886932501
 30
0.0
 11
723.2392933609108
 21
-1693.517601115892
 31
0.0
  0
LINE
  5
2F6
  8
1
  6
CONTINUOUS
 62
     7
 10
2087.375078871864
 20
-1571.869924558951
 30
0.0
 11
2087.386613336719
 21
-1571.760608150389
 31
0.0
  0
LINE
  5
2F7
  8
1
  6
CONTINUOUS
 62
     7
 10
723.2758297858921
 20
-1693.495615657086
 30
0.0
 11
723.2907691907452
 21
-1693.485340455085
 31
0.0
  0
LINE
  5
2F8
  8
1
  6
CONTINUOUS
 62
     7
 10
926.6237464392666
 20
-1693.407873027056
 30
0.0
 11
926.6130715829021
 21
-1693.395261251698
 31
0.0
  0
LINE
  5
2F9
  8
1
  6
CONTINUOUS
 62
     7
 10
1903.269321004585
 20
-1571.545031846663
 30
0.0
 11
1903.185447710362
 21
-1571.440359784051
 31
0.0
  0
LINE
  5
2FA
  8
1
  6
CONTINUOUS
 62
     7
 10
1903.185447710366
 20
-1571.44035978405
 30
0.0
 11
1903.080759790476
 21
-1571.342449602848
 31
0.0
  0
LINE
  5
2FB
  8
1
  6
CONTINUOUS
 62
     7
 10
926.760706639088
 20
-1693.517601115892
 30
0.0
 11
926.7425165189967
 21
-1693.50718598404
 31
0.0
  0
LINE
  5
2FC
  8
1
  6
CONTINUOUS
 62
     7
 10
926.5804101746595
 20
-1693.350508127778
 30
0.0
 11
926.5723487695839
 21
-1693.337645490455
 31
0.0
  0
LINE
  5
2FD
  8
1
  6
CONTINUOUS
 62
     7
 10
1903.166480797643
 20
-1785.583118585995
 30
0.0
 11
1903.259569827478
 21
-1785.472742092213
 31
0.0
  0
LINE
  5
2FE
  8
1
  6
CONTINUOUS
 62
     7
 10
926.5646162030179
 20
-1693.324428381876
 30
0.0
 11
926.5571750498984
 21
-1693.310757764996
 31
0.0
  0
LINE
  5
2FF
  8
1
  6
CONTINUOUS
 62
     7
 10
723.2037698145546
 20
-1693.535174732325
 30
0.0
 11
723.2214085930661
 21
-1693.526886932501
 31
0.0
  0
LINE
  5
300
  8
1
  6
CONTINUOUS
 62
     7
 10
1889.540768993171
 20
-1781.999140640497
 30
0.0
 11
1889.649686369319
 21
-1782.023193516839
 31
0.0
  0
LINE
  5
301
  8
1
  6
CONTINUOUS
 62
     7
 10
1903.080759790476
 20
-1571.342449602849
 30
0.0
 11
1902.953777368238
 21
-1571.249081222834
 31
0.0
  0
LINE
  5
302
  8
1
  6
CONTINUOUS
 62
     7
 10
926.5501133005123
 20
-1693.296759699849
 30
0.0
 11
926.5434425261947
 21
-1693.282432076477
 31
0.0
  0
LINE
  5
303
  8
1
  6
CONTINUOUS
 62
     7
 10
1903.375078871867
 20
-1571.869924558951
 30
0.0
 11
1903.363544407012
 21
-1571.760608150389
 31
0.0
  0
LINE
  5
304
  8
1
  6
CONTINUOUS
 62
     7
 10
1903.370424940849
 20
-1785.202966608711
 30
0.0
 11
1903.375078871867
 21
-1785.133809669022
 31
0.0
  0
LINE
  5
305
  8
1
  6
CONTINUOUS
 62
     7
 10
723.2392933609098
 20
-1693.517601115892
 30
0.0
 11
723.2574834810009
 21
-1693.50718598404
 31
0.0
  0
LINE
  5
306
  8
1
  6
CONTINUOUS
 62
     7
 10
926.6130715829006
 20
-1693.395261251698
 30
0.0
 11
926.6060905941144
 21
-1693.386534506607
 31
0.0
  0
LINE
  5
307
  8
1
  6
CONTINUOUS
 62
     7
 10
926.5972787462657
 20
-1693.37491792773
 30
0.0
 11
926.5887063845921
 21
-1693.362900442815
 31
0.0
  0
LINE
  5
308
  8
1
  6
CONTINUOUS
 62
     7
 10
926.7092308092492
 20
-1693.485340455085
 30
0.0
 11
926.6942824851495
 21
-1693.474228290328
 31
0.0
  0
LINE
  5
309
  8
1
  6
CONTINUOUS
 62
     7
 10
2087.416813189434
 20
-1785.339756897457
 30
0.0
 11
2087.379732802881
 21
-1785.202966608711
 31
0.0
  0
LINE
  5
30A
  8
1
  6
CONTINUOUS
 62
     7
 10
723.3207434694165
 20
-1693.462147949504
 30
0.0
 11
723.3356663023029
 21
-1693.449159078373
 31
0.0
  0
LINE
  5
30B
  8
1
  6
CONTINUOUS
 62
     7
 10
723.3356663023022
 20
-1693.449159078373
 30
0.0
 11
723.3506307524617
 21
-1693.435033037325
 31
0.0
  0
LINE
  5
30C
  8
1
  6
CONTINUOUS
 62
     7
 10
723.3506307524613
 20
-1693.435033037325
 30
0.0
 11
723.3580283603939
 21
-1693.427601984147
 31
0.0
  0
LINE
  5
30D
  8
1
  6
CONTINUOUS
 62
     7
 10
723.3580283603919
 20
-1693.427601984147
 30
0.0
 11
723.365342249852
 21
-1693.419938614277
 31
0.0
  0
LINE
  5
30E
  8
1
  6
CONTINUOUS
 62
     7
 10
926.7785914069342
 20
-1693.526886932501
 30
0.0
 11
926.7607066390905
 21
-1693.517601115892
 31
0.0
  0
LINE
  5
30F
  8
1
  6
CONTINUOUS
 62
     7
 10
926.7425165190004
 20
-1693.50718598404
 30
0.0
 11
926.7241702141051
 21
-1693.495615657086
 31
0.0
  0
LINE
  5
310
  8
1
  6
CONTINUOUS
 62
     7
 10
723.4428249501028
 20
-1693.310757764997
 30
0.0
 11
723.4498866994875
 21
-1693.296759699849
 31
0.0
  0
LINE
  5
311
  8
1
  6
CONTINUOUS
 62
     7
 10
1889.55392325695
 20
-1575.000873679382
 30
0.0
 11
1889.448964295131
 21
-1575.040869699003
 31
0.0
  0
LINE
  5
312
  8
1
  6
CONTINUOUS
 62
     7
 10
1758.252414054851
 20
-1693.082317298398
 30
0.0
 11
1731.747585945148
 21
-1693.082317298398
 31
0.0
  0
LINE
  5
313
  8
1
  6
CONTINUOUS
 62
     7
 10
1189.543904213123
 20
-1760.567746669819
 30
0.0
 11
1186.228540609174
 21
-1779.370108002321
 31
0.0
  0
LINE
  5
314
  8
1
  6
CONTINUOUS
 62
     7
 10
984.4999999999998
 20
-1781.221755939656
 30
0.0
 11
984.4999999999998
 21
-1693.082317298398
 31
0.0
  0
ARC
  5
315
  8
1
  6
CONTINUOUS
 62
     7
 10
1753.304501844112
 20
-1578.501867113986
 30
0.0
 40
5.000000000002558
 50
10.00000000000195
 51
89.99999999999952
  0
ARC
  5
316
  8
1
  6
CONTINUOUS
 62
     7
 10
1780.695498155882
 20
-1778.501867113986
 30
0.0
 40
5.000000000002558
 50
189.9999999999986
 51
270.0
  0
ARC
  5
317
  8
1
  6
CONTINUOUS
 62
     7
 10
1109.99407640434
 20
-1596.001867113987
 30
0.0
 40
2.500000000004832
 50
270.0000000000007
 51
350.0000000000044
  0
LINE
  5
318
  8
1
  6
CONTINUOUS
 62
     7
 10
2223.652555609286
 20
-1612.060914007831
 30
0.0
 11
2219.98221289098
 21
-1624.160517656266
 31
0.0
  0
LINE
  5
319
  8
1
  6
CONTINUOUS
 62
     7
 10
723.4027212537355
 20
-1693.37491792773
 30
0.0
 11
723.4112936154091
 21
-1693.362900442815
 31
0.0
  0
LINE
  5
31A
  8
1
  6
CONTINUOUS
 62
     7
 10
723.4276512304106
 20
-1693.337645490456
 30
0.0
 11
723.4353837969788
 21
-1693.324428381877
 31
0.0
  0
LINE
  5
31B
  8
1
  6
CONTINUOUS
 62
     7
 10
2283.241876273239
 20
-1572.244749353173
 30
0.0
 11
2270.658650542285
 21
-1573.484080004962
 31
0.0
  0
LINE
  5
31C
  8
1
  6
CENTER
 62
     1
 10
967.6249211281337
 20
-1678.501867113986
 30
0.0
 11
2150.000000000005
 21
-1678.501867113986
 31
0.0
  0
LINE
  5
31D
  8
1
  6
CONTINUOUS
 62
     7
 10
1802.252414054851
 20
-1663.921416929575
 30
0.0
 11
1775.747585945148
 21
-1663.921416929575
 31
0.0
  0
ARC
  5
31E
  8
1
  6
CONTINUOUS
 62
     7
 10
1753.304501844112
 20
-1778.501867113986
 30
0.0
 40
5.000000000002558
 50
270.0000000000005
 51
349.9999999999981
  0
LINE
  5
31F
  8
1
  6
CONTINUOUS
 62
     7
 10
1802.252414054847
 20
-1693.082317298398
 30
0.0
 11
1775.747585945144
 21
-1693.082317298398
 31
0.0
  0
ARC
  5
320
  8
1
  6
CONTINUOUS
 62
     7
 10
1137.304501844112
 20
-1578.501867113986
 30
0.0
 40
5.000000000002558
 50
10.00000000000195
 51
89.99999999999952
  0
LINE
  5
321
  8
1
  6
CONTINUOUS
 62
     7
 10
1189.543904213123
 20
-1596.435987558154
 30
0.0
 11
1186.228540609174
 21
-1577.633626225652
 31
0.0
  0
ARC
  5
322
  8
1
  6
CONTINUOUS
 62
     7
 10
1153.994076404344
 20
-1596.001867113987
 30
0.0
 40
2.500000000001279
 50
270.0000000000007
 51
350.0000000000044
  0
LINE
  5
323
  8
1
  6
CONTINUOUS
 62
     7
 10
1241.994076404345
 20
-1758.501867113986
 30
0.0
 11
1236.005923595655
 21
-1758.501867113986
 31
0.0
  0
LINE
  5
324
  8
1
  6
CONTINUOUS
 62
     7
 10
2219.982212890974
 20
-1624.160517656266
 30
0.0
 11
2218.742882239184
 21
-1636.74374338722
 31
0.0
  0
LINE
  5
325
  8
1
  6
CONTINUOUS
 62
     7
 10
1889.552372235111
 20
-1569.739011107926
 30
0.0
 11
1889.447448211744
 21
-1569.778420625752
 31
0.0
  0
LINE
  5
326
  8
1
  6
CONTINUOUS
 62
     7
 10
2229.612866765568
 20
-1600.909895017175
 30
0.0
 11
2223.65255560928
 21
-1612.060914007832
 31
0.0
  0
ARC
  5
327
  8
1
  6
CONTINUOUS
 62
     7
 10
1780.695498155882
 20
-1578.501867113986
 30
0.0
 40
5.000000000002558
 50
90.0
 51
170.0000000000014
  0
LINE
  5
328
  8
1
  6
CONTINUOUS
 62
     7
 10
1889.447448211743
 20
-1569.778420625753
 30
0.0
 11
1889.375769459918
 21
-1569.853827906339
 31
0.0
  0
LINE
  5
329
  8
1
  6
CONTINUOUS
 62
     7
 10
1009.499999999998
 20
-1575.78197828833
 30
0.0
 11
1009.499999999998
 21
-1663.921416929575
 31
0.0
  0
LINE
  5
32A
  8
1
  6
CONTINUOUS
 62
     7
 10
723.4498866994854
 20
-1693.296759699849
 30
0.0
 11
723.456557473803
 21
-1693.282432076477
 31
0.0
  0
LINE
  5
32B
  8
1
  6
CONTINUOUS
 62
     7
 10
984.4999999999998
 20
-1575.781978288317
 30
0.0
 11
984.4999999999998
 21
-1663.921416929575
 31
0.0
  0
ARC
  5
32C
  8
1
  6
CONTINUOUS
 62
     7
 10
1225.304501844113
 20
-1578.501867113986
 30
0.0
 40
4.999999999999005
 50
10.00000000000195
 51
89.99999999999952
  0
LINE
  5
32D
  8
1
  6
CONTINUOUS
 62
     7
 10
723.3869284171006
 20
-1693.395261251698
 30
0.0
 11
723.3939094058868
 21
-1693.386534506607
 31
0.0
  0
LINE
  5
32E
  8
1
  6
CONTINUOUS
 62
     7
 10
1028.499999999997
 20
-1575.783388360792
 30
0.0
 11
1028.499999999997
 21
-1663.92282700205
 31
0.0
  0
LINE
  5
32F
  8
1
  6
CONTINUOUS
 62
     7
 10
1889.375816681766
 20
-1575.11969853704
 30
0.0
 11
1889.375078871865
 21
-1575.128923815189
 31
0.0
  0
LINE
  5
330
  8
1
  6
CONTINUOUS
 62
     7
 10
1153.994076404344
 20
-1598.501867113986
 30
0.0
 11
1148.005923595654
 21
-1598.501867113986
 31
0.0
  0
LINE
  5
331
  8
1
  6
CONTINUOUS
 62
     7
 10
723.4353837969834
 20
-1693.324428381876
 30
0.0
 11
723.4428249501028
 21
-1693.310757764996
 31
0.0
  0
LINE
  5
332
  8
1
  6
CONTINUOUS
 62
     7
 10
1889.37576945992
 20
-1569.853827906339
 30
0.0
 11
1889.375078871864
 21
-1569.862367700397
 31
0.0
  0
LINE
  5
333
  8
1
  6
CONTINUOUS
 62
     7
 10
1889.448964295133
 20
-1575.040869699002
 30
0.0
 11
1889.375816681764
 21
-1575.11969853704
 31
0.0
  0
ARC
  5
334
  8
1
  6
CONTINUOUS
 62
     7
 10
1192.005923595654
 20
-1596.001867113987
 30
0.0
 40
2.499999999997726
 50
189.9999999999961
 51
270.0
  0
LINE
  5
335
  8
1
  6
CONTINUOUS
 62
     7
 10
723.3939094058832
 20
-1693.386534506608
 30
0.0
 11
723.4027212537314
 21
-1693.374917927731
 31
0.0
  0
ARC
  5
336
  8
1
  6
CONTINUOUS
 62
     7
 10
1857.994076404345
 20
-1596.001867113987
 30
0.0
 40
2.499999999997726
 50
270.0000000000007
 51
278.7660929974832
  0
LINE
  5
337
  8
1
  6
CONTINUOUS
 62
     7
 10
1233.543904213124
 20
-1760.567746669819
 30
0.0
 11
1230.228540609174
 21
-1779.370108002321
 31
0.0
  0
LINE
  5
338
  8
1
  6
CONTINUOUS
 62
     7
 10
1053.499999999995
 20
-1781.223166012118
 30
0.0
 11
1053.499999999995
 21
-1693.083727370873
 31
0.0
  0
LINE
  5
339
  8
1
  6
CONTINUOUS
 62
     7
 10
1028.499999999997
 20
-1781.223166012131
 30
0.0
 11
1028.499999999997
 21
-1693.083727370873
 31
0.0
  0
LINE
  5
33A
  8
1
  6
CONTINUOUS
 62
     7
 10
1109.99407640434
 20
-1758.501867113986
 30
0.0
 11
1104.00592359565
 21
-1758.501867113986
 31
0.0
  0
LINE
  5
33B
  8
1
  6
CONTINUOUS
 62
     7
 10
723.4195898253417
 20
-1693.350508127778
 30
0.0
 11
723.4276512304174
 21
-1693.337645490455
 31
0.0
  0
LINE
  5
33C
  8
1
  6
CONTINUOUS
 62
     7
 10
1758.252414054851
 20
-1663.921416929575
 30
0.0
 11
1731.747585945148
 21
-1663.921416929575
 31
0.0
  0
LINE
  5
33D
  8
1
  6
CONTINUOUS
 62
     7
 10
1203.771459390825
 20
-1779.370108002321
 30
0.0
 11
1200.456095786875
 21
-1760.567746669819
 31
0.0
  0
LINE
  5
33E
  8
1
  6
CONTINUOUS
 62
     7
 10
723.4112936154075
 20
-1693.362900442814
 30
0.0
 11
723.4195898253399
 21
-1693.350508127778
 31
0.0
  0
LINE
  5
33F
  8
1
  6
CONTINUOUS
 62
     7
 10
2258.559046893845
 20
-1577.154422723267
 30
0.0
 11
2247.408027903188
 21
-1583.114733879555
 31
0.0
  0
ARC
  5
340
  8
1
  6
CONTINUOUS
 62
     7
 10
1197.994076404345
 20
-1596.001867113987
 30
0.0
 40
2.500000000001279
 50
270.0000000000007
 51
350.0000000000044
  0
LINE
  5
341
  8
1
  6
CONTINUOUS
 62
     7
 10
1009.499999999998
 20
-1781.221755939643
 30
0.0
 11
1009.499999999998
 21
-1693.082317298398
 31
0.0
  0
ARC
  5
342
  8
1
  6
CONTINUOUS
 62
     7
 10
1065.994076404343
 20
-1761.001867113986
 30
0.0
 40
2.500000000001279
 50
9.999999999995469
 51
89.99999999999936
  0
LINE
  5
343
  8
1
  6
CONTINUOUS
 62
     7
 10
2247.408027903189
 20
-1583.114733879555
 30
0.0
 11
2237.634104012247
 21
-1591.135971126234
 31
0.0
  0
ARC
  5
344
  8
1
  6
CONTINUOUS
 62
     7
 10
1236.005923595655
 20
-1761.001867113986
 30
0.0
 40
2.499999999997726
 50
90.0
 51
170.0000000000039
  0
LINE
  5
345
  8
1
  6
CONTINUOUS
 62
     7
 10
1225.304501844113
 20
-1573.501867113986
 30
0.0
 11
1208.695498155886
 21
-1573.501867113986
 31
0.0
  0
ARC
  5
346
  8
1
  6
CONTINUOUS
 62
     7
 10
1153.994076404344
 20
-1761.001867113986
 30
0.0
 40
2.500000000001279
 50
9.999999999995469
 51
89.99999999999936
  0
LINE
  5
347
  8
1
  6
CONTINUOUS
 62
     7
 10
2270.658650542278
 20
-1573.484080004962
 30
0.0
 11
2258.559046893844
 21
-1577.154422723267
 31
0.0
  0
LINE
  5
348
  8
1
  6
CONTINUOUS
 62
     7
 10
2237.634104012249
 20
-1591.135971126234
 30
0.0
 11
2229.61286676557
 21
-1600.909895017175
 31
0.0
  0
LINE
  5
349
  8
1
  6
CONTINUOUS
 62
     7
 10
1072.499999999994
 20
-1781.224576084605
 30
0.0
 11
1072.499999999994
 21
-1693.085137443348
 31
0.0
  0
LINE
  5
34A
  8
1
  6
CONTINUOUS
 62
     7
 10
723.365342249854
 20
-1693.419938614277
 30
0.0
 11
723.3762535607336
 21
-1693.407873027057
 31
0.0
  0
LINE
  5
34B
  8
1
  6
CONTINUOUS
 62
     7
 10
723.3762535607311
 20
-1693.407873027056
 30
0.0
 11
723.3869284170956
 21
-1693.395261251698
 31
0.0
  0
ARC
  5
34C
  8
1
  6
CONTINUOUS
 62
     7
 10
1841.304501844113
 20
-1778.501867113986
 30
0.0
 40
5.000000000002558
 50
270.0000000000005
 51
349.9999999999981
  0
ARC
  5
34D
  8
1
  6
CONTINUOUS
 62
     7
 10
1137.304501844112
 20
-1778.501867113986
 30
0.0
 40
5.000000000002558
 50
270.0000000000005
 51
349.9999999999981
  0
LINE
  5
34E
  8
1
  6
CONTINUOUS
 62
     7
 10
1115.771459390824
 20
-1577.633626225652
 30
0.0
 11
1112.456095786874
 21
-1596.435987558153
 31
0.0
  0
ARC
  5
34F
  8
1
  6
CONTINUOUS
 62
     7
 10
1181.304501844113
 20
-1778.501867113986
 30
0.0
 40
4.999999999999005
 50
270.0000000000005
 51
349.9999999999981
  0
LINE
  5
350
  8
1
  6
CONTINUOUS
 62
     7
 10
1841.304501844113
 20
-1573.501867113986
 30
0.0
 11
1824.695498155886
 21
-1573.501867113986
 31
0.0
  0
LINE
  5
351
  8
1
  6
CONTINUOUS
 62
     7
 10
1141.499999999989
 20
-1781.225986157067
 30
0.0
 11
1141.499999999989
 21
-1693.086547515822
 31
0.0
  0
LINE
  5
352
  8
1
  6
CONTINUOUS
 62
     7
 10
1424.499999999972
 20
-1781.234446591929
 30
0.0
 11
1424.499999999972
 21
-1693.095007950671
 31
0.0
  0
ARC
  5
353
  8
1
  6
CONTINUOUS
 62
     7
 10
1120.695498155885
 20
-1778.501867113986
 30
0.0
 40
4.999999999999005
 50
189.9999999999986
 51
270.0
  0
LINE
  5
354
  8
1
  6
CONTINUOUS
 62
     7
 10
1071.771459390823
 20
-1779.370108002321
 30
0.0
 11
1068.456095786874
 21
-1760.567746669819
 31
0.0
  0
LINE
  5
355
  8
1
  6
CONTINUOUS
 62
     7
 10
1153.994076404344
 20
-1758.501867113986
 30
0.0
 11
1148.005923595654
 21
-1758.501867113986
 31
0.0
  0
ARC
  5
356
  8
1
  6
CONTINUOUS
 62
     7
 10
1120.695498155885
 20
-1578.501867113986
 30
0.0
 40
4.999999999999005
 50
90.0
 51
170.0000000000014
  0
LINE
  5
357
  8
1
  6
CONTINUOUS
 62
     7
 10
1849.543904213124
 20
-1760.567746669819
 30
0.0
 11
1846.228540609174
 21
-1779.370108002321
 31
0.0
  0
ARC
  5
358
  8
1
  6
CONTINUOUS
 62
     7
 10
1065.994076404343
 20
-1596.001867113987
 30
0.0
 40
2.500000000001279
 50
270.0000000000007
 51
350.0000000000044
  0
ARC
  5
359
  8
1
  6
CONTINUOUS
 62
     7
 10
1192.005923595654
 20
-1761.001867113986
 30
0.0
 40
2.499999999997726
 50
90.0
 51
170.0000000000039
  0
LINE
  5
35A
  8
1
  6
CONTINUOUS
 62
     7
 10
1141.499999999989
 20
-1575.786208505754
 30
0.0
 11
1141.499999999989
 21
-1663.925647146999
 31
0.0
  0
LINE
  5
35B
  8
1
  6
CONTINUOUS
 62
     7
 10
1185.499999999986
 20
-1575.787618578229
 30
0.0
 11
1185.499999999986
 21
-1663.927057219474
 31
0.0
  0
LINE
  5
35C
  8
1
  6
CONTINUOUS
 62
     7
 10
1197.994076404345
 20
-1598.501867113986
 30
0.0
 11
1192.005923595654
 21
-1598.501867113986
 31
0.0
  0
LINE
  5
35D
  8
1
  6
CONTINUOUS
 62
     7
 10
1233.543904213124
 20
-1596.435987558154
 30
0.0
 11
1230.228540609174
 21
-1577.633626225652
 31
0.0
  0
ARC
  5
35E
  8
1
  6
CONTINUOUS
 62
     7
 10
1852.005923595654
 20
-1596.001867113987
 30
0.0
 40
2.499999999997726
 50
189.9999999999961
 51
270.0
  0
ARC
  5
35F
  8
1
  6
CONTINUOUS
 62
     7
 10
1824.695498155882
 20
-1778.501867113986
 30
0.0
 40
5.000000000002558
 50
189.9999999999986
 51
270.0
  0
ARC
  5
360
  8
1
  6
CONTINUOUS
 62
     7
 10
1852.005923595654
 20
-1761.001867113986
 30
0.0
 40
2.499999999997726
 50
90.0
 51
170.0000000000039
  0
LINE
  5
361
  8
1
  6
CONTINUOUS
 62
     7
 10
1116.49999999999
 20
-1575.786208505741
 30
0.0
 11
1116.49999999999
 21
-1663.925647146999
 31
0.0
  0
LINE
  5
362
  8
1
  6
CONTINUOUS
 62
     7
 10
1292.499999999978
 20
-1575.79184879564
 30
0.0
 11
1292.499999999978
 21
-1663.931287436898
 31
0.0
  0
LINE
  5
363
  8
1
  6
CONTINUOUS
 62
     7
 10
1072.499999999994
 20
-1575.784798433266
 30
0.0
 11
1072.499999999994
 21
-1663.924237074524
 31
0.0
  0
LINE
  5
364
  8
1
  6
CONTINUOUS
 62
     7
 10
1181.304501844113
 20
-1573.501867113986
 30
0.0
 11
1164.695498155886
 21
-1573.501867113986
 31
0.0
  0
LINE
  5
365
  8
1
  6
CONTINUOUS
 62
     7
 10
1097.499999999992
 20
-1575.78479843328
 30
0.0
 11
1097.499999999992
 21
-1663.924237074524
 31
0.0
  0
ARC
  5
366
  8
1
  6
CONTINUOUS
 62
     7
 10
1148.005923595654
 20
-1761.001867113986
 30
0.0
 40
2.499999999997726
 50
90.0
 51
170.0000000000039
  0
LINE
  5
367
  8
1
  6
CONTINUOUS
 62
     7
 10
1197.994076404345
 20
-1758.501867113986
 30
0.0
 11
1192.005923595654
 21
-1758.501867113986
 31
0.0
  0
LINE
  5
368
  8
1
  6
CONTINUOUS
 62
     7
 10
1137.304501844112
 20
-1573.501867113986
 30
0.0
 11
1120.695498155885
 21
-1573.501867113986
 31
0.0
  0
LINE
  5
369
  8
1
  6
CONTINUOUS
 62
     7
 10
1160.499999999987
 20
-1575.787618578216
 30
0.0
 11
1160.499999999987
 21
-1663.927057219474
 31
0.0
  0
LINE
  5
36A
  8
1
  6
CONTINUOUS
 62
     7
 10
1203.771459390825
 20
-1577.633626225652
 30
0.0
 11
1200.456095786875
 21
-1596.435987558153
 31
0.0
  0
ARC
  5
36B
  8
1
  6
CONTINUOUS
 62
     7
 10
1824.695498155882
 20
-1578.501867113986
 30
0.0
 40
5.000000000002558
 50
90.0
 51
170.0000000000014
  0
ARC
  5
36C
  8
1
  6
CONTINUOUS
 62
     7
 10
1208.695498155882
 20
-1778.501867113986
 30
0.0
 40
5.000000000002558
 50
189.9999999999986
 51
270.0
  0
LINE
  5
36D
  8
1
  6
CONTINUOUS
 62
     7
 10
1145.543904213127
 20
-1760.567746669819
 30
0.0
 11
1142.228540609177
 21
-1779.370108002321
 31
0.0
  0
LINE
  5
36E
  8
1
  6
CONTINUOUS
 62
     7
 10
1225.304501844113
 20
-1783.501867113986
 30
0.0
 11
1208.695498155886
 21
-1783.501867113986
 31
0.0
  0
LINE
  5
36F
  8
1
  6
CONTINUOUS
 62
     7
 10
1181.304501844113
 20
-1783.501867113986
 30
0.0
 11
1164.695498155886
 21
-1783.501867113986
 31
0.0
  0
LINE
  5
370
  8
1
  6
CONTINUOUS
 62
     7
 10
1145.543904213127
 20
-1596.435987558154
 30
0.0
 11
1142.228540609177
 21
-1577.633626225652
 31
0.0
  0
LINE
  5
371
  8
1
  6
CONTINUOUS
 62
     7
 10
1097.499999999992
 20
-1781.224576084592
 30
0.0
 11
1097.499999999992
 21
-1693.085137443348
 31
0.0
  0
LINE
  5
372
  8
1
  6
CONTINUOUS
 62
     7
 10
1241.994076404345
 20
-1598.501867113986
 30
0.0
 11
1236.005923595655
 21
-1598.501867113986
 31
0.0
  0
ARC
  5
373
  8
1
  6
CONTINUOUS
 62
     7
 10
1109.99407640434
 20
-1761.001867113986
 30
0.0
 40
2.500000000004832
 50
9.999999999995469
 51
89.99999999999936
  0
ARC
  5
374
  8
1
  6
CONTINUOUS
 62
     7
 10
1197.994076404345
 20
-1761.001867113986
 30
0.0
 40
2.500000000001279
 50
9.999999999995469
 51
89.99999999999936
  0
LINE
  5
375
  8
1
  6
CONTINUOUS
 62
     7
 10
1409.908174517702
 20
-1597.364631671766
 30
0.0
 11
1409.908174517702
 21
-1759.644742846105
 31
0.0
  0
LINE
  5
376
  8
1
  6
CONTINUOUS
 62
     7
 10
1376.091825482283
 20
-1597.364631671766
 30
0.0
 11
1376.091825482283
 21
-1759.644742846105
 31
0.0
  0
ARC
  5
377
  8
1
  6
CONTINUOUS
 62
     7
 10
1236.005923595655
 20
-1596.001867113987
 30
0.0
 40
2.499999999997726
 50
189.9999999999961
 51
270.0
  0
LINE
  5
378
  8
1
  6
CONTINUOUS
 62
     7
 10
1159.771459390824
 20
-1779.370108002321
 30
0.0
 11
1156.456095786875
 21
-1760.567746669819
 31
0.0
  0
LINE
  5
379
  8
1
  6
CONTINUOUS
 62
     7
 10
1361.499999999974
 20
-1575.793258868128
 30
0.0
 11
1361.499999999974
 21
-1663.932697509373
 31
0.0
  0
LINE
  5
37A
  8
1
  6
CONTINUOUS
 62
     7
 10
1137.304501844112
 20
-1783.501867113986
 30
0.0
 11
1120.695498155885
 21
-1783.501867113986
 31
0.0
  0
ARC
  5
37B
  8
1
  6
CONTINUOUS
 62
     7
 10
1208.695498155882
 20
-1578.501867113986
 30
0.0
 40
5.000000000002558
 50
90.0
 51
170.0000000000014
  0
LINE
  5
37C
  8
1
  6
CONTINUOUS
 62
     7
 10
1248.499999999981
 20
-1575.790438723166
 30
0.0
 11
1248.499999999981
 21
-1663.929877364423
 31
0.0
  0
ARC
  5
37D
  8
1
  6
CONTINUOUS
 62
     7
 10
1164.695498155885
 20
-1778.501867113986
 30
0.0
 40
4.999999999999005
 50
189.9999999999986
 51
270.0
  0
ARC
  5
37E
  8
1
  6
CONTINUOUS
 62
     7
 10
1225.304501844113
 20
-1778.501867113986
 30
0.0
 40
4.999999999999005
 50
270.0000000000005
 51
349.9999999999981
  0
LINE
  5
37F
  8
1
  6
CONTINUOUS
 62
     7
 10
1248.499999999981
 20
-1781.230216374505
 30
0.0
 11
1248.499999999981
 21
-1693.090777733247
 31
0.0
  0
LINE
  5
380
  8
1
  6
CONTINUOUS
 62
     7
 10
1857.994076404345
 20
-1598.501867113986
 30
0.0
 11
1852.005923595654
 21
-1598.501867113986
 31
0.0
  0
LINE
  5
381
  8
1
  6
CONTINUOUS
 62
     7
 10
1405.499999999971
 20
-1781.234446591916
 30
0.0
 11
1405.499999999971
 21
-1693.095007950671
 31
0.0
  0
LINE
  5
382
  8
1
  6
CONTINUOUS
 62
     7
 10
1849.543904213124
 20
-1596.435987558154
 30
0.0
 11
1846.228540609174
 21
-1577.633626225652
 31
0.0
  0
LINE
  5
383
  8
1
  6
CONTINUOUS
 62
     7
 10
1365.908174517705
 20
-1597.363221599291
 30
0.0
 11
1365.908174517705
 21
-1759.64333277363
 31
0.0
  0
LINE
  5
384
  8
1
  6
CONTINUOUS
 62
     7
 10
1380.499999999972
 20
-1781.234446591929
 30
0.0
 11
1380.499999999972
 21
-1693.095007950671
 31
0.0
  0
LINE
  5
385
  8
1
  6
CONTINUOUS
 62
     7
 10
1115.771459390824
 20
-1779.370108002321
 30
0.0
 11
1112.456095786874
 21
-1760.567746669819
 31
0.0
  0
LINE
  5
386
  8
1
  6
CONTINUOUS
 62
     7
 10
1159.771459390824
 20
-1577.633626225652
 30
0.0
 11
1156.456095786875
 21
-1596.435987558153
 31
0.0
  0
ARC
  5
387
  8
1
  6
CONTINUOUS
 62
     7
 10
1181.304501844113
 20
-1578.501867113986
 30
0.0
 40
4.999999999999005
 50
10.00000000000195
 51
89.99999999999952
  0
ARC
  5
388
  8
1
  6
CONTINUOUS
 62
     7
 10
1164.695498155885
 20
-1578.501867113986
 30
0.0
 40
4.999999999999005
 50
90.0
 51
170.0000000000014
  0
LINE
  5
389
  8
1
  6
CONTINUOUS
 62
     7
 10
1053.499999999995
 20
-1575.783388360805
 30
0.0
 11
1053.499999999995
 21
-1663.92282700205
 31
0.0
  0
ARC
  5
38A
  8
1
  6
CONTINUOUS
 62
     7
 10
1148.005923595654
 20
-1596.001867113987
 30
0.0
 40
2.499999999997726
 50
189.9999999999961
 51
270.0
  0
LINE
  5
38B
  8
1
  6
CONTINUOUS
 62
     7
 10
1468.499999999972
 20
-1781.234446591929
 30
0.0
 11
1468.499999999972
 21
-1693.095007950671
 31
0.0
  0
LINE
  5
38C
  8
1
  6
CONTINUOUS
 62
     7
 10
1336.499999999975
 20
-1781.233036519454
 30
0.0
 11
1336.499999999975
 21
-1693.093597878196
 31
0.0
  0
LINE
  5
38D
  8
1
  6
CONTINUOUS
 62
     7
 10
1846.252414054851
 20
-1693.083727370872
 30
0.0
 11
1846.252414054851
 21
-1663.9200068571
 31
0.0
  0
LINE
  5
38E
  8
1
  6
CONTINUOUS
 62
     7
 10
1644.499999999973
 20
-1781.234446591929
 30
0.0
 11
1644.499999999973
 21
-1693.095007950671
 31
0.0
  0
LINE
  5
38F
  8
1
  6
CONTINUOUS
 62
     7
 10
1820.499999999973
 20
-1781.234446591929
 30
0.0
 11
1820.499999999973
 21
-1693.095007950671
 31
0.0
  0
LINE
  5
390
  8
1
  6
CONTINUOUS
 62
     7
 10
1801.499999999972
 20
-1575.794668940603
 30
0.0
 11
1801.499999999972
 21
-1663.934107581848
 31
0.0
  0
LINE
  5
391
  8
1
  6
CONTINUOUS
 62
     7
 10
1493.499999999971
 20
-1575.794668940603
 30
0.0
 11
1493.499999999971
 21
-1663.934107581848
 31
0.0
  0
LINE
  5
392
  8
1
  6
CONTINUOUS
 62
     7
 10
1713.499999999972
 20
-1575.794668940603
 30
0.0
 11
1713.499999999972
 21
-1663.934107581848
 31
0.0
  0
LINE
  5
393
  8
1
  6
CONTINUOUS
 62
     7
 10
1846.252414054851
 20
-1693.082317298398
 30
0.0
 11
1819.747585945149
 21
-1693.082317298398
 31
0.0
  0
LINE
  5
394
  8
1
  6
CONTINUOUS
 62
     7
 10
1841.304501844113
 20
-1783.501867113986
 30
0.0
 11
1824.695498155886
 21
-1783.501867113986
 31
0.0
  0
LINE
  5
395
  8
1
  6
CONTINUOUS
 62
     7
 10
1292.499999999978
 20
-1781.231626446979
 30
0.0
 11
1292.499999999978
 21
-1693.092187805721
 31
0.0
  0
LINE
  5
396
  8
1
  6
CONTINUOUS
 62
     7
 10
1757.499999999972
 20
-1557.5
 30
0.0
 11
1757.499999999972
 21
-1802.5
 31
0.0
  0
LINE
  5
397
  8
1
  6
CONTINUOUS
 62
     7
 10
1644.499999999973
 20
-1575.79466894059
 30
0.0
 11
1644.499999999973
 21
-1663.934107581848
 31
0.0
  0
ARC
  5
398
  8
1
  6
CONTINUOUS
 62
     7
 10
1813.994076404348
 20
-1761.001867113986
 30
0.0
 40
2.499999999997726
 50
9.999999999995469
 51
89.99999999999936
  0
LINE
  5
399
  8
1
  6
CONTINUOUS
 62
     7
 10
1185.499999999986
 20
-1781.227396229542
 30
0.0
 11
1185.499999999986
 21
-1693.087957588297
 31
0.0
  0
LINE
  5
39A
  8
1
  6
CONTINUOUS
 62
     7
 10
1819.771459390824
 20
-1577.633626225652
 30
0.0
 11
1816.456095786875
 21
-1596.435987558153
 31
0.0
  0
LINE
  5
39B
  8
1
  6
CONTINUOUS
 62
     7
 10
1813.994076404348
 20
-1598.501867113986
 30
0.0
 11
1808.005923595654
 21
-1598.501867113986
 31
0.0
  0
LINE
  5
39C
  8
1
  6
CONTINUOUS
 62
     7
 10
1805.543904213123
 20
-1760.567746669819
 30
0.0
 11
1802.228540609173
 21
-1779.370108002321
 31
0.0
  0
LINE
  5
39D
  8
1
  6
CONTINUOUS
 62
     7
 10
1688.499999999973
 20
-1781.234446591929
 30
0.0
 11
1688.499999999973
 21
-1693.095007950671
 31
0.0
  0
LINE
  5
39E
  8
1
  6
CONTINUOUS
 62
     7
 10
1845.499999999971
 20
-1575.794668940603
 30
0.0
 11
1845.499999999971
 21
-1663.934107581848
 31
0.0
  0
LINE
  5
39F
  8
1
  6
CONTINUOUS
 62
     7
 10
1512.499999999973
 20
-1575.79466894059
 30
0.0
 11
1512.499999999973
 21
-1663.934107581848
 31
0.0
  0
LINE
  5
3A0
  8
1
  6
CONTINUOUS
 62
     7
 10
1273.49999999998
 20
-1781.230216374491
 30
0.0
 11
1273.49999999998
 21
-1693.090777733247
 31
0.0
  0
LINE
  5
3A1
  8
1
  6
CONTINUOUS
 62
     7
 10
1625.499999999972
 20
-1575.794668940603
 30
0.0
 11
1625.499999999972
 21
-1663.934107581848
 31
0.0
  0
ARC
  5
3A2
  8
1
  6
CONTINUOUS
 62
     7
 10
1813.994076404348
 20
-1596.001867113987
 30
0.0
 40
2.499999999997726
 50
270.0000000000007
 51
350.0000000000044
  0
LINE
  5
3A3
  8
1
  6
CONTINUOUS
 62
     7
 10
1846.252414054851
 20
-1663.921416929575
 30
0.0
 11
1819.747585945149
 21
-1663.921416929575
 31
0.0
  0
LINE
  5
3A4
  8
1
  6
CONTINUOUS
 62
     7
 10
1204.499999999984
 20
-1781.22880630203
 30
0.0
 11
1204.499999999984
 21
-1693.089367660772
 31
0.0
  0
LINE
  5
3A5
  8
1
  6
CONTINUOUS
 62
     7
 10
1819.771459390824
 20
-1779.370108002321
 30
0.0
 11
1816.456095786875
 21
-1760.567746669819
 31
0.0
  0
LINE
  5
3A6
  8
1
  6
CONTINUOUS
 62
     7
 10
1160.499999999987
 20
-1781.227396229555
 30
0.0
 11
1160.499999999987
 21
-1693.087957588297
 31
0.0
  0
LINE
  5
3A7
  8
1
  6
CONTINUOUS
 62
     7
 10
1336.499999999975
 20
-1575.793258868115
 30
0.0
 11
1336.499999999975
 21
-1663.932697509373
 31
0.0
  0
LINE
  5
3A8
  8
1
  6
CONTINUOUS
 62
     7
 10
1204.499999999984
 20
-1575.789028650691
 30
0.0
 11
1204.499999999984
 21
-1663.928467291949
 31
0.0
  0
LINE
  5
3A9
  8
1
  6
CONTINUOUS
 62
     7
 10
1405.499999999971
 20
-1575.794668940603
 30
0.0
 11
1405.499999999971
 21
-1663.934107581848
 31
0.0
  0
LINE
  5
3AA
  8
1
  6
CONTINUOUS
 62
     7
 10
1424.499999999972
 20
-1575.79466894059
 30
0.0
 11
1424.499999999972
 21
-1663.934107581848
 31
0.0
  0
ARC
  5
3AB
  8
1
  6
CONTINUOUS
 62
     7
 10
1797.304501844113
 20
-1778.501867113986
 30
0.0
 40
5.000000000002558
 50
269.9999999999593
 51
349.9999999999968
  0
LINE
  5
3AC
  8
1
  6
CONTINUOUS
 62
     7
 10
1229.499999999983
 20
-1781.228806302017
 30
0.0
 11
1229.499999999983
 21
-1693.089367660772
 31
0.0
  0
ARC
  5
3AD
  8
1
  6
CONTINUOUS
 62
     7
 10
1808.005923595654
 20
-1596.001867113987
 30
0.0
 40
2.500000000001279
 50
189.9999999999947
 51
270.0
  0
LINE
  5
3AE
  8
1
  6
CONTINUOUS
 62
     7
 10
1669.499999999972
 20
-1575.794668940603
 30
0.0
 11
1669.499999999972
 21
-1663.934107581848
 31
0.0
  0
LINE
  5
3AF
  8
1
  6
CONTINUOUS
 62
     7
 10
1449.499999999971
 20
-1575.794668940603
 30
0.0
 11
1449.499999999971
 21
-1663.934107581848
 31
0.0
  0
LINE
  5
3B0
  8
1
  6
CONTINUOUS
 62
     7
 10
1713.499999999972
 20
-1781.234446591916
 30
0.0
 11
1713.499999999972
 21
-1693.095007950671
 31
0.0
  0
ARC
  5
3B1
  8
1
  6
CONTINUOUS
 62
     7
 10
1797.304501844113
 20
-1578.501867113986
 30
0.0
 40
5.000000000002558
 50
10.00000000000315
 51
90.0
  0
LINE
  5
3B2
  8
1
  6
CONTINUOUS
 62
     7
 10
1805.543904213123
 20
-1596.435987558154
 30
0.0
 11
1802.228540609173
 21
-1577.633626225652
 31
0.0
  0
LINE
  5
3B3
  8
1
  6
CONTINUOUS
 62
     7
 10
1581.499999999972
 20
-1781.234446591916
 30
0.0
 11
1581.499999999972
 21
-1693.095007950671
 31
0.0
  0
LINE
  5
3B4
  8
1
  6
CONTINUOUS
 62
     7
 10
1801.499999999972
 20
-1781.234446591916
 30
0.0
 11
1801.499999999972
 21
-1693.095007950671
 31
0.0
  0
LINE
  5
3B5
  8
1
  6
CONTINUOUS
 62
     7
 10
1468.499999999972
 20
-1575.79466894059
 30
0.0
 11
1468.499999999972
 21
-1663.934107581848
 31
0.0
  0
LINE
  5
3B6
  8
1
  6
CONTINUOUS
 62
     7
 10
1845.499999999971
 20
-1781.234446591916
 30
0.0
 11
1845.499999999971
 21
-1693.095007950671
 31
0.0
  0
LINE
  5
3B7
  8
1
  6
CONTINUOUS
 62
     7
 10
1273.49999999998
 20
-1575.790438723179
 30
0.0
 11
1273.49999999998
 21
-1663.929877364423
 31
0.0
  0
LINE
  5
3B8
  8
1
  6
CONTINUOUS
 62
     7
 10
1688.499999999973
 20
-1575.79466894059
 30
0.0
 11
1688.499999999973
 21
-1663.934107581848
 31
0.0
  0
LINE
  5
3B9
  8
1
  6
CONTINUOUS
 62
     7
 10
1581.499999999972
 20
-1575.794668940603
 30
0.0
 11
1581.499999999972
 21
-1663.934107581848
 31
0.0
  0
LINE
  5
3BA
  8
1
  6
CONTINUOUS
 62
     7
 10
1776.499999999973
 20
-1802.5
 30
0.0
 11
1776.499999999973
 21
-1557.5
 31
0.0
  0
LINE
  5
3BB
  8
1
  6
CONTINUOUS
 62
     7
 10
1556.499999999973
 20
-1575.79466894059
 30
0.0
 11
1556.499999999973
 21
-1663.934107581848
 31
0.0
  0
LINE
  5
3BC
  8
1
  6
CONTINUOUS
 62
     7
 10
1380.499999999972
 20
-1575.79466894059
 30
0.0
 11
1380.499999999972
 21
-1663.934107581848
 31
0.0
  0
LINE
  5
3BD
  8
1
  6
CONTINUOUS
 62
     7
 10
1857.994076404345
 20
-1758.501867113986
 30
0.0
 11
1852.005923595654
 21
-1758.501867113986
 31
0.0
  0
LINE
  5
3BE
  8
1
  6
CONTINUOUS
 62
     7
 10
1317.499999999977
 20
-1575.791848795654
 30
0.0
 11
1317.499999999977
 21
-1663.931287436898
 31
0.0
  0
LINE
  5
3BF
  8
1
  6
CONTINUOUS
 62
     7
 10
1858.375078871865
 20
-1791.001867113986
 30
0.0
 11
1858.375078871865
 21
-1566.001867113986
 31
0.0
  0
LINE
  5
3C0
  8
1
  6
CONTINUOUS
 62
     7
 10
1600.499999999973
 20
-1575.79466894059
 30
0.0
 11
1600.499999999973
 21
-1663.934107581848
 31
0.0
  0
LINE
  5
3C1
  8
1
  6
CONTINUOUS
 62
     7
 10
1797.304501844113
 20
-1783.501867113986
 30
0.0
 11
1780.695498155882
 21
-1783.501867113986
 31
0.0
  0
LINE
  5
3C2
  8
1
  6
CONTINUOUS
 62
     7
 10
1732.499999999973
 20
-1575.79466894059
 30
0.0
 11
1732.499999999973
 21
-1663.934107581848
 31
0.0
  0
LINE
  5
3C3
  8
1
  6
CONTINUOUS
 62
     7
 10
1332.091825482286
 20
-1597.363221599291
 30
0.0
 11
1332.091825482286
 21
-1759.64333277363
 31
0.0
  0
LINE
  5
3C4
  8
1
  6
CONTINUOUS
 62
     7
 10
1317.499999999977
 20
-1781.231626446966
 30
0.0
 11
1317.499999999977
 21
-1693.092187805721
 31
0.0
  0
LINE
  5
3C5
  8
1
  6
CONTINUOUS
 62
     7
 10
1820.499999999973
 20
-1575.79466894059
 30
0.0
 11
1820.499999999973
 21
-1663.934107581848
 31
0.0
  0
LINE
  5
3C6
  8
1
  6
CONTINUOUS
 62
     7
 10
1361.499999999974
 20
-1781.233036519441
 30
0.0
 11
1361.499999999974
 21
-1693.093597878196
 31
0.0
  0
LINE
  5
3C7
  8
1
  6
CONTINUOUS
 62
     7
 10
1229.499999999983
 20
-1575.789028650704
 30
0.0
 11
1229.499999999983
 21
-1663.928467291949
 31
0.0
  0
ARC
  5
3C8
  8
1
  6
CONTINUOUS
 62
     7
 10
1808.005923595654
 20
-1761.001867113986
 30
0.0
 40
2.500000000001279
 50
90.0
 51
170.0000000000044
  0
ARC
  5
3C9
  8
1
  6
CONTINUOUS
 62
     7
 10
1841.304501844113
 20
-1578.501867113986
 30
0.0
 40
5.000000000002558
 50
10.00000000000195
 51
89.99999999999952
  0
LINE
  5
3CA
  8
1
  6
CONTINUOUS
 62
     7
 10
1116.49999999999
 20
-1781.22598615708
 30
0.0
 11
1116.49999999999
 21
-1693.086547515822
 31
0.0
  0
LINE
  5
3CB
  8
1
  6
CONTINUOUS
 62
     7
 10
1819.747585945147
 20
-1693.083727370872
 30
0.0
 11
1819.747585945147
 21
-1663.9200068571
 31
0.0
  0
ARC
  5
3CC
  8
1
  6
CONTINUOUS
 62
     7
 10
825.0000000000006
 20
16.50186921318697
 30
0.0
 40
1799.999999999997
 50
268.6308377567924
 51
271.3691622432074
  0
ARC
  5
3CD
  8
1
  6
CONTINUOUS
 62
     7
 10
2519.999999999997
 20
-1678.501867113986
 30
0.0
 40
1775.000000000003
 50
178.6308377567927
 51
181.3691622432076
  0
ARC
  5
3CE
  8
1
  6
CONTINUOUS
 62
     7
 10
721.0751466615277
 20
-1694.941124466532
 30
0.0
 40
0.9999999999976694
 50
99.99999999999773
 51
180.5236949741056
  0
ARC
  5
3CF
  8
1
  6
CONTINUOUS
 62
     7
 10
2283.861711966198
 20
-1719.64015514779
 30
0.0
 40
71.0000000000015
 50
180.5
 51
269.5000000000001
  0
LINE
  5
3D0
  8
1
  6
CONTINUOUS
 62
     7
 10
1797.304501844113
 20
-1573.501867113986
 30
0.0
 11
1780.695498155882
 21
-1573.501867113986
 31
0.0
  0
ARC
  5
3D1
  8
1
  6
CONTINUOUS
 62
     7
 10
825.0000000000006
 20
-3373.501867113987
 30
0.0
 40
1771.5
 50
88.63083775679242
 51
91.36916224320778
  0
LINE
  5
3D2
  8
1
  6
CONTINUOUS
 62
     7
 10
926.5434425261935
 20
-1693.282432076477
 30
0.0
 11
926.499999999998
 21
-1693.078580971223
 31
0.0
  0
LINE
  5
3D3
  8
1
  6
CONTINUOUS
 62
     7
 10
2325.0
 20
-1566.001867113986
 30
0.0
 11
2366.757872054189
 21
-1566.366282542627
 31
0.0
  0
LINE
  5
3D4
  8
1
  6
CONTINUOUS
 62
     7
 10
1813.994076404348
 20
-1758.501867113986
 30
0.0
 11
1808.005923595654
 21
-1758.501867113986
 31
0.0
  0
ARC
  5
3D5
  8
1
  6
CONTINUOUS
 62
     7
 10
783.4959223940543
 20
-1720.002208392759
 30
0.0
 40
37.9999999999967
 50
181.3691622432086
 51
268.6308377567925
  0
ARC
  5
3D6
  8
1
  6
CONTINUOUS
 62
     7
 10
2366.138288033804
 20
-1637.363579080182
 30
0.0
 40
70.99999999999795
 50
0.4999999999999875
 51
89.49999999999999
  0
LINE
  5
3D7
  8
1
  6
CONTINUOUS
 62
     7
 10
929.0985015161417
 20
-1663.043681187279
 30
0.0
 11
926.9131759111671
 21
-1663.429013053069
 31
0.0
  0
LINE
  5
3D8
  8
1
  6
CONTINUOUS
 62
     7
 10
1512.499999999973
 20
-1781.234446591929
 30
0.0
 11
1512.499999999973
 21
-1693.095007950671
 31
0.0
  0
LINE
  5
3D9
  8
1
  6
CONTINUOUS
 62
     7
 10
1858.375078871865
 20
-1566.001867113986
 30
0.0
 11
2132.375078871865
 21
-1566.001867113986
 31
0.0
  0
ARC
  5
3DA
  8
1
  6
CONTINUOUS
 62
     7
 10
2519.999999999997
 20
-1678.498130786812
 30
0.0
 40
1800.000000000001
 50
180.5236949741084
 51
181.3691622432077
  0
ARC
  5
3DB
  8
1
  6
CONTINUOUS
 62
     7
 10
2283.861711966198
 20
-1637.363579080182
 30
0.0
 40
71.0000000000015
 50
90.5
 51
179.5
  0
LINE
  5
3DC
  8
1
  6
CONTINUOUS
 62
     7
 10
2132.375078871866
 20
-1566.001867113986
 30
0.0
 11
2132.375078871866
 21
-1791.001867113987
 31
0.0
  0
ARC
  5
3DD
  8
1
  6
CONTINUOUS
 62
     7
 10
2366.138288033804
 20
-1719.64015514779
 30
0.0
 40
70.99999999999795
 50
270.5000000000001
 51
359.5000000000001
  0
ARC
  5
3DE
  8
1
  6
CONTINUOUS
 62
     7
 10
866.5040776059469
 20
-1720.002208392759
 30
0.0
 40
62.99999999999883
 50
271.3691622432077
 51
358.6308377567914
  0
LINE
  5
3DF
  8
1
  6
CONTINUOUS
 62
     7
 10
2212.864415428642
 20
-1636.743995059799
 30
0.0
 11
2212.500000000001
 21
-1678.501867113987
 31
0.0
  0
ARC
  5
3E0
  8
1
  6
CONTINUOUS
 62
     7
 10
825.0000000000006
 20
-3373.501867113987
 30
0.0
 40
1800.000000000001
 50
88.63083775679242
 51
91.3691622432076
  0
ARC
  5
3E1
  8
1
  6
CONTINUOUS
 62
     7
 10
866.5040776059469
 20
-1636.997789508039
 30
0.0
 40
34.50000000000131
 50
1.369162243208621
 51
88.63083775679242
  0
LINE
  5
3E2
  8
1
  6
CONTINUOUS
 62
     7
 10
1802.252414054851
 20
-1693.083727370872
 30
0.0
 11
1802.252414054851
 21
-1663.9200068571
 31
0.0
  0
LINE
  5
3E3
  8
1
  6
CONTINUOUS
 62
     7
 10
1669.499999999972
 20
-1781.234446591916
 30
0.0
 11
1669.499999999972
 21
-1693.095007950671
 31
0.0
  0
ARC
  5
3E4
  8
1
  6
CONTINUOUS
 62
     7
 10
866.5040776059469
 20
-1636.997789508039
 30
0.0
 40
38.00000000000026
 50
1.369162243208602
 51
88.63083775679242
  0
ARC
  5
3E5
  8
1
  6
CONTINUOUS
 62
     7
 10
-869.9999999999961
 20
-1678.501867113986
 30
0.0
 40
1774.999999999995
 50
0.0000603030360935
 51
1.369162243207257
  0
ARC
  5
3E6
  8
1
  6
CONTINUOUS
 62
     7
 10
-870.0000000000032
 20
-1678.501867113986
 30
0.0
 40
1800.000000000004
 50
0.5236949741084304
 51
1.36916224320762
  0
LINE
  5
3E7
  8
1
  6
CONTINUOUS
 62
     7
 10
2325.0
 20
-1566.001867113986
 30
0.0
 11
2283.242127945813
 21
-1566.366282542627
 31
0.0
  0
ARC
  5
3E8
  8
1
  6
CONTINUOUS
 62
     7
 10
825.0000000000006
 20
16.50186921318764
 30
0.0
 40
1771.499999999996
 50
268.6308377567924
 51
271.3691622432078
  0
LINE
  5
3E9
  8
1
  6
CONTINUOUS
 62
     7
 10
2364.500000000001
 20
-1755.501867113986
 30
0.0
 11
2285.500000000001
 21
-1755.501867113986
 31
0.0
  0
LINE
  5
3EA
  8
1
  6
CONTINUOUS
 62
   253
 10
1954.999999999997
 20
-1566.005603441161
 30
0.0
 11
1950.999999999997
 21
-1566.005603441161
 31
0.0
  0
ARC
  5
3EB
  8
1
  6
CONTINUOUS
 62
     7
 10
-869.9999999999961
 20
-1678.501867113986
 30
0.0
 40
1771.499999999996
 50
0.0000604221783647
 51
1.369162243207597
  0
LINE
  5
3EC
  8
1
  6
CONTINUOUS
 62
     7
 10
720.9014984838595
 20
-1693.95631671352
 30
0.0
 11
723.0868240888341
 21
-1693.57098484773
 31
0.0
  0
LINE
  5
3ED
  8
1
  6
CONTINUOUS
 62
     7
 10
926.5434425261935
 20
-1663.717565824321
 30
0.0
 11
926.499999999998
 21
-1663.921416929575
 31
0.0
  0
LINE
  5
3EE
  8
1
  6
CONTINUOUS
 62
     7
 10
723.4565574738041
 20
-1693.282432076477
 30
0.0
 11
723.4999999999997
 21
-1693.078580971223
 31
0.0
  0
LINE
  5
3EF
  8
1
  6
CONTINUOUS
 62
     7
 10
2325.0
 20
-1791.001867113986
 30
0.0
 11
2283.242127945813
 21
-1790.637451685346
 31
0.0
  0
ARC
  5
3F0
  8
1
  6
CONTINUOUS
 62
     7
 10
928.9248533384736
 20
-1694.941124466532
 30
0.0
 40
1.000000000001222
 50
359.4763050258943
 51
80.00000000000227
  0
ARC
  5
3F1
  8
1
  6
CONTINUOUS
 62
     7
 10
-869.9999999999961
 20
-1678.498130786812
 30
0.0
 40
1774.999999999995
 50
358.6308377567928
 51
1.369162243207597
  0
LINE
  5
3F2
  8
1
  6
CONTINUOUS
 62
     7
 10
1537.499999999972
 20
-1575.794668940603
 30
0.0
 11
1537.499999999972
 21
-1663.934107581848
 31
0.0
  0
ARC
  5
3F3
  8
1
  6
CONTINUOUS
 62
     7
 10
783.4959223940543
 20
-1636.997789508039
 30
0.0
 40
37.9999999999967
 50
91.3691622432076
 51
178.6308377567914
  0
LINE
  5
3F4
  8
1
  6
CONTINUOUS
 62
     7
 10
1537.499999999972
 20
-1781.234446591916
 30
0.0
 11
1537.499999999972
 21
-1693.095007950671
 31
0.0
  0
LINE
  5
3F5
  8
1
  6
CONTINUOUS
 62
     7
 10
1600.499999999973
 20
-1781.234446591929
 30
0.0
 11
1600.499999999973
 21
-1693.095007950671
 31
0.0
  0
ARC
  5
3F6
  8
1
  6
CONTINUOUS
 62
     7
 10
2285.500000000004
 20
-1718.001867113987
 30
0.0
 40
37.49999999999787
 50
180.0
 51
270.0
  0
ARC
  5
3F7
  8
1
  6
CONTINUOUS
 62
     7
 10
866.5040776059469
 20
-1636.997789508039
 30
0.0
 40
62.99999999999883
 50
1.3691622432086
 51
88.63083775679242
  0
LINE
  5
3F8
  8
1
  6
CONTINUOUS
 62
     7
 10
723.4565574738041
 20
-1663.717565824321
 30
0.0
 11
723.4999999999997
 21
-1663.921416929575
 31
0.0
  0
LINE
  5
3F9
  8
1
  6
CONTINUOUS
 62
     7
 10
2437.135584571363
 20
-1636.743995059799
 30
0.0
 11
2437.500000000004
 21
-1678.501867113987
 31
0.0
  0
ARC
  5
3FA
  8
1
  6
CONTINUOUS
 62
     7
 10
783.4959223940543
 20
-1720.002208392759
 30
0.0
 40
62.99999999999883
 50
181.3691622432086
 51
268.6308377567924
  0
ARC
  5
3FB
  8
1
  6
CONTINUOUS
 62
     7
 10
866.5040776059469
 20
-1720.002208392759
 30
0.0
 40
38.00000000000026
 50
271.3691622432074
 51
358.6308377567914
  0
LINE
  5
3FC
  8
1
  6
CONTINUOUS
 62
     7
 10
929.0985015161417
 20
-1693.95631671352
 30
0.0
 11
926.9131759111671
 21
-1693.57098484773
 31
0.0
  0
LINE
  5
3FD
  8
1
  6
CONTINUOUS
 62
     7
 10
1625.499999999972
 20
-1781.234446591916
 30
0.0
 11
1625.499999999972
 21
-1693.095007950671
 31
0.0
  0
LINE
  5
3FE
  8
1
  6
CONTINUOUS
 62
     7
 10
1556.499999999973
 20
-1781.234446591929
 30
0.0
 11
1556.499999999973
 21
-1693.095007950671
 31
0.0
  0
ARC
  5
3FF
  8
1
  6
CONTINUOUS
 62
     7
 10
-869.9999999999961
 20
-1678.498130786812
 30
0.0
 40
1771.499999999996
 50
358.6308377567925
 51
1.369162243207768
  0
ARC
  5
400
  8
1
  6
CONTINUOUS
 62
     7
 10
825.0000000000006
 20
-3373.501867113987
 30
0.0
 40
1775.000000000002
 50
88.63083775679242
 51
91.3691622432076
  0
LINE
  5
401
  8
1
  6
CONTINUOUS
 62
     7
 10
926.4999999999985
 20
-1663.921416929575
 30
0.0
 11
926.4999999999985
 21
-1693.078580971223
 31
0.0
  0
ARC
  5
402
  8
1
  6
CONTINUOUS
 62
     7
 10
2519.999999999997
 20
-1678.501867113986
 30
0.0
 40
1800.000000000001
 50
178.6308377567924
 51
179.4763050258916
  0
ARC
  5
403
  8
1
  6
CONTINUOUS
 62
     7
 10
866.5040776059469
 20
-1720.002208392759
 30
0.0
 40
34.50000000000131
 50
271.3691622432074
 51
358.6308377567913
  0
LINE
  5
404
  8
1
  6
CONTINUOUS
 62
     7
 10
2325.0
 20
-1791.001867113986
 30
0.0
 11
2366.757872054189
 21
-1790.637451685346
 31
0.0
  0
LINE
  5
405
  8
1
  6
CONTINUOUS
 62
     7
 10
1732.499999999973
 20
-1781.234446591929
 30
0.0
 11
1732.499999999973
 21
-1693.095007950671
 31
0.0
  0
ARC
  5
406
  8
1
  6
CONTINUOUS
 62
     7
 10
2519.999999999997
 20
-1678.501867113986
 30
0.0
 40
1771.500000000003
 50
178.6308377567924
 51
181.3691622432078
  0
ARC
  5
407
  8
1
  6
CONTINUOUS
 62
     7
 10
783.4959223940543
 20
-1720.002208392759
 30
0.0
 40
34.49999999999775
 50
181.3691622432087
 51
268.6308377567925
  0
ARC
  5
408
  8
1
  6
CONTINUOUS
 62
     7
 10
783.4959223940543
 20
-1636.997789508039
 30
0.0
 40
34.49999999999775
 50
91.3691622432075
 51
178.6308377567912
  0
ARC
  5
409
  8
1
  6
CONTINUOUS
 62
     7
 10
928.9248533384736
 20
-1662.058873434267
 30
0.0
 40
1.000000000001222
 50
280.0000000000005
 51
0.5236949741084231
  0
ARC
  5
40A
  8
1
  6
CONTINUOUS
 62
     7
 10
825.0000000000006
 20
16.50186921318764
 30
0.0
 40
1774.999999999995
 50
268.6308377567921
 51
271.3691622432074
  0
LINE
  5
40B
  8
1
  6
CONTINUOUS
 62
     7
 10
2212.864415428642
 20
-1720.259739168174
 30
0.0
 11
2212.500000000001
 21
-1678.501867113986
 31
0.0
  0
LINE
  5
40C
  8
1
  6
CONTINUOUS
 62
     7
 10
1673.908174517702
 20
-1597.364631671766
 30
0.0
 11
1673.908174517702
 21
-1759.644742846105
 31
0.0
  0
LINE
  5
40D
  8
1
  6
CONTINUOUS
 62
     7
 10
1901.151536007172
 20
-1744.157359293092
 30
0.0
 11
1890.004488394416
 21
-1741.170516887262
 31
0.0
  0
LINE
  5
40E
  8
1
  6
CONTINUOUS
 62
     7
 10
1903.375078871867
 20
-1609.948597456013
 30
0.0
 11
1903.375078871867
 21
-1571.869924558951
 31
0.0
  0
LINE
  5
40F
  8
1
  6
CONTINUOUS
 62
     7
 10
2100.745669349311
 20
-1574.970988676749
 30
0.0
 11
2089.598621736554
 21
-1576.132531221159
 31
0.0
  0
ARC
  5
410
  8
1
  6
CONTINUOUS
 62
     7
 10
1889.876027382708
 20
-1571.091584065271
 30
0.0
 40
1.390757440930201
 50
84.7001683982041
 51
103.4571810872228
  0
ARC
  5
411
  8
1
  6
CONTINUOUS
 62
     7
 10
2089.924431593746
 20
-1776.715328344023
 30
0.0
 40
4.168626425560262
 50
238.3896661181011
 51
265.5173273605574
  0
LINE
  5
412
  8
1
  6
CONTINUOUS
 62
     7
 10
720.9014984838595
 20
-1663.043681187279
 30
0.0
 11
723.0868240888342
 21
-1663.429013053069
 31
0.0
  0
ARC
  5
413
  8
1
  6
CONTINUOUS
 62
     7
 10
1889.866180498728
 20
-1576.297216172595
 30
0.0
 40
1.333419830640281
 50
84.04633316401532
 51
103.543158300436
  0
ARC
  5
414
  8
1
  6
CONTINUOUS
 62
     7
 10
2089.786004039541
 20
-1782.437010084078
 30
0.0
 40
3.840344168480669
 50
235.007354717967
 51
267.2032507279922
  0
ARC
  5
415
  8
1
  6
CONTINUOUS
 62
     7
 10
1889.876514293617
 20
-1785.790418009398
 30
0.0
 40
1.511969704463212
 50
261.3226146388945
 51
274.8553612494463
  0
ARC
  5
416
  8
1
  6
CONTINUOUS
 62
     7
 10
1900.872530473968
 20
-1575.094941984647
 30
0.0
 40
4.372897624474348
 50
61.57928004387427
 51
86.34185228089407
  0
LINE
  5
417
  8
1
  6
CONTINUOUS
 62
     7
 10
2087.375078871864
 20
-1609.948597456013
 30
0.0
 11
2087.375078871864
 21
-1571.869924558951
 31
0.0
  0
LINE
  5
418
  8
1
  6
CONTINUOUS
 62
     7
 10
2100.745669349311
 20
-1615.83321734071
 30
0.0
 11
2089.598621736555
 21
-1612.846374934881
 31
0.0
  0
LINE
  5
419
  8
1
  6
CONTINUOUS
 62
     7
 10
1497.908174517702
 20
-1597.364631671766
 30
0.0
 11
1497.908174517702
 21
-1759.644742846105
 31
0.0
  0
LINE
  5
41A
  8
1
  6
CONTINUOUS
 62
   253
 10
1917.875078871865
 20
-1566.198221639278
 30
0.0
 11
1917.875078871865
 21
-1566.001867113986
 31
0.0
  0
ARC
  5
41B
  8
1
  6
CONTINUOUS
 62
     7
 10
2100.874130361024
 20
-1571.091584065271
 30
0.0
 40
1.390757440933754
 50
76.54281891277623
 51
95.29983160179944
  0
ARC
  5
41C
  8
1
  6
CONTINUOUS
 62
     7
 10
2089.877627269764
 20
-1575.094941984647
 30
0.0
 40
4.372897624481453
 50
93.65814771910863
 51
118.4207199561164
  0
ARC
  5
41D
  8
1
  6
CONTINUOUS
 62
     7
 10
2519.999999999997
 20
-1678.498130786812
 30
0.0
 40
1775.000000000003
 50
178.6308377567924
 51
181.3691622432072
  0
ARC
  5
41E
  8
1
  6
CONTINUOUS
 62
     7
 10
2089.929892698183
 20
-1580.363057654664
 30
0.0
 40
4.243476682457725
 50
94.47740406405467
 51
120.058282546331
  0
ARC
  5
41F
  8
1
  6
CONTINUOUS
 62
     7
 10
2100.873643450113
 20
-1785.790418009394
 30
0.0
 40
1.511969704463212
 50
265.1446387505841
 51
278.6773853610903
  0
ARC
  5
420
  8
1
  6
CONTINUOUS
 62
     7
 10
2285.500000000004
 20
-1639.001867113986
 30
0.0
 40
37.49999999999787
 50
90.00000000000001
 51
180.0
  0
ARC
  5
421
  8
1
  6
CONTINUOUS
 62
   253
 10
1937.999999999998
 20
-993.6658269922461
 30
0.0
 40
572.4233947195323
 50
268.9990155056921
 51
271.0009844943079
  0
LINE
  5
422
  8
1
  6
CONTINUOUS
 62
     7
 10
1508.091825482283
 20
-1597.364631671766
 30
0.0
 11
1508.091825482283
 21
-1759.644742846105
 31
0.0
  0
ARC
  5
423
  8
1
  6
CONTINUOUS
 62
     7
 10
783.4959223940543
 20
-1636.997789508039
 30
0.0
 40
62.99999999999883
 50
91.36916224320764
 51
178.6308377567914
  0
ARC
  5
424
  8
1
  6
CONTINUOUS
 62
     7
 10
1900.374975568954
 20
-1747.055216039072
 30
0.0
 40
3.000103303961055
 50
0.0015138382165362
 51
74.9984861617848
  0
LINE
  5
425
  8
1
  6
CONTINUOUS
 62
     7
 10
2101.375078871867
 20
-1787.141366527575
 30
0.0
 11
2101.375078871867
 21
-1741.653479800407
 31
0.0
  0
LINE
  5
426
  8
1
  6
CONTINUOUS
 62
     7
 10
1889.375078871864
 20
-1787.141366527575
 30
0.0
 11
1889.375078871864
 21
-1741.653479800407
 31
0.0
  0
ARC
  5
427
  8
1
  6
CONTINUOUS
 62
     7
 10
1900.825726149985
 20
-1776.715328344024
 30
0.0
 40
4.16862642555671
 50
274.4826726394408
 51
301.6103338819045
  0
LINE
  5
428
  8
1
  6
CONTINUOUS
 62
     7
 10
1890.00448839442
 20
-1787.296962073387
 30
0.0
 11
1901.151536007176
 21
-1786.27278004654
 31
0.0
  0
ARC
  5
429
  8
1
  6
CONTINUOUS
 62
     7
 10
2364.500000000001
 20
-1639.001867113986
 30
0.0
 40
37.50000000000142
 50
0.0000000000000035
 51
90.0
  0
LINE
  5
42A
  8
1
  6
CONTINUOUS
 62
     7
 10
2101.375078871867
 20
-1615.350254427566
 30
0.0
 11
2101.375078871867
 21
-1569.862367700397
 31
0.0
  0
ARC
  5
42B
  8
1
  6
CONTINUOUS
 62
     7
 10
-870.0000000000032
 20
-1678.498130786812
 30
0.0
 40
1800.000000000004
 50
358.6308377567925
 51
359.4763050258916
  0
ARC
  5
42C
  8
1
  6
CONTINUOUS
 62
     7
 10
1900.820265045548
 20
-1580.363057654665
 30
0.0
 40
4.243476682464831
 50
59.94171745367122
 51
85.52259593593541
  0
LINE
  5
42D
  8
1
  6
CONTINUOUS
 62
     7
 10
1629.908174517702
 20
-1597.364631671766
 30
0.0
 11
1629.908174517702
 21
-1759.644742846105
 31
0.0
  0
LINE
  5
42E
  8
1
  6
CONTINUOUS
 62
   253
 10
1920.5
 20
-1566.001867113986
 30
0.0
 11
1920.5
 21
-1566.198221639279
 31
0.0
  0
LINE
  5
42F
  8
1
  6
CONTINUOUS
 62
     7
 10
2437.135584571363
 20
-1720.259739168174
 30
0.0
 11
2437.500000000004
 21
-1678.501867113986
 31
0.0
  0
LINE
  5
430
  8
1
  6
CONTINUOUS
 62
     7
 10
1805.908174517702
 20
-1597.364631671766
 30
0.0
 11
1805.908174517702
 21
-1759.644742846105
 31
0.0
  0
LINE
  5
431
  8
1
  6
CONTINUOUS
 62
     7
 10
1717.908174517702
 20
-1597.364631671766
 30
0.0
 11
1717.908174517702
 21
-1759.644742846105
 31
0.0
  0
ARC
  5
432
  8
1
  6
CONTINUOUS
 62
     7
 10
2100.88438530305
 20
-1780.591046607021
 30
0.0
 40
1.448356986912813
 50
264.5040899109272
 51
278.5802165406733
  0
ARC
  5
433
  8
1
  6
CONTINUOUS
 62
     7
 10
2090.375182174777
 20
-1747.055216039072
 30
0.0
 40
3.000103303961055
 50
105.0015138382149
 51
179.9984861617835
  0
LINE
  5
434
  8
1
  6
CONTINUOUS
 62
     7
 10
723.5000000000027
 20
-1663.921416929575
 30
0.0
 11
723.5000000000027
 21
-1693.078580971223
 31
0.0
  0
LINE
  5
435
  8
1
  6
CONTINUOUS
 62
     7
 10
1453.908174517702
 20
-1597.364631671766
 30
0.0
 11
1453.908174517702
 21
-1759.644742846105
 31
0.0
  0
LINE
  5
436
  8
1
  6
CONTINUOUS
 62
     7
 10
2089.598621736559
 20
-1780.871203006813
 30
0.0
 11
2100.745669349315
 21
-1782.032745551224
 31
0.0
  0
LINE
  5
437
  8
1
  6
CONTINUOUS
 62
     7
 10
2089.598621736559
 20
-1786.272780046541
 30
0.0
 11
2100.745669349315
 21
-1787.296962073387
 31
0.0
  0
ARC
  5
438
  8
1
  6
CONTINUOUS
 62
     7
 10
2364.500000000001
 20
-1718.001867113987
 30
0.0
 40
37.50000000000142
 50
270.0
 51
0.0
  0
LINE
  5
439
  8
1
  6
CONTINUOUS
 62
     7
 10
2089.598621736559
 20
-1744.157359293092
 30
0.0
 11
2100.745669349315
 21
-1741.170516887262
 31
0.0
  0
LINE
  5
43A
  8
1
  6
CONTINUOUS
 62
     7
 10
2100.745669349311
 20
-1569.706772154586
 30
0.0
 11
2089.598621736555
 21
-1570.730954181432
 31
0.0
  0
ARC
  5
43B
  8
1
  6
CONTINUOUS
 62
     7
 10
2090.375113310404
 20
-1609.948571030396
 30
0.0
 40
3.000034438649379
 50
180.0005046863279
 51
254.9994953136732
  0
ARC
  5
43C
  8
1
  6
CONTINUOUS
 62
     7
 10
721.0751466615277
 20
-1662.058873434267
 30
0.0
 40
0.9999999999976694
 50
179.4763050258943
 51
260.0000000000022
  0
LINE
  5
43D
  8
1
  6
CENTER
 62
     1
 10
709.4999999999998
 20
-1678.499998950399
 30
0.0
 11
940.4999999999998
 21
-1678.499998950399
 31
0.0
  0
LINE
  5
43E
  8
1
  6
CONTINUOUS
 62
     7
 10
1890.00448839442
 20
-1615.83321734071
 30
0.0
 11
1901.151536007176
 21
-1612.84637493488
 31
0.0
  0
LINE
  5
43F
  8
1
  6
CONTINUOUS
 62
     7
 10
2364.500000000001
 20
-1601.501867113986
 30
0.0
 11
2285.500000000001
 21
-1601.501867113986
 31
0.0
  0
ARC
  5
440
  8
1
  6
CONTINUOUS
 62
     7
 10
1900.96415370419
 20
-1782.437010084078
 30
0.0
 40
3.840344168480669
 50
272.7967492720081
 51
304.9926452820371
  0
LINE
  5
441
  8
1
  6
CONTINUOUS
 62
     7
 10
1420.091825482283
 20
-1597.364631671766
 30
0.0
 11
1420.091825482283
 21
-1759.644742846105
 31
0.0
  0
LINE
  5
442
  8
1
  6
CONTINUOUS
 62
     7
 10
1903.375078871867
 20
-1785.133809669022
 30
0.0
 11
1903.375078871867
 21
-1747.055136771959
 31
0.0
  0
LINE
  5
443
  8
1
  6
CONTINUOUS
 62
     7
 10
1464.091825482283
 20
-1597.364631671766
 30
0.0
 11
1464.091825482283
 21
-1759.644742846105
 31
0.0
  0
LINE
  5
444
  8
1
  6
CONTINUOUS
 62
     7
 10
1541.908174517702
 20
-1597.364631671766
 30
0.0
 11
1541.908174517702
 21
-1759.644742846105
 31
0.0
  0
ARC
  5
445
  8
1
  6
CONTINUOUS
 62
     7
 10
1900.375044433328
 20
-1609.948571030396
 30
0.0
 40
3.000034438656485
 50
285.0005046863288
 51
359.999495313672
  0
ARC
  5
446
  8
1
  6
CONTINUOUS
 62
     7
 10
2100.883977245004
 20
-1576.29721617259
 30
0.0
 40
1.333419830640281
 50
76.45684169951818
 51
95.9536668360011
  0
LINE
  5
447
  8
1
  6
CONTINUOUS
 62
     7
 10
1585.908174517702
 20
-1597.364631671766
 30
0.0
 11
1585.908174517702
 21
-1759.644742846105
 31
0.0
  0
LINE
  5
448
  8
1
  6
CONTINUOUS
 62
   253
 10
1920.5
 20
-1566.198221639278
 30
0.0
 11
1875.5000005
 21
-1566.198221639278
 31
0.0
  0
LINE
  5
449
  8
1
  6
CONTINUOUS
 62
     7
 10
2087.375078871864
 20
-1785.133809669022
 30
0.0
 11
2087.375078871864
 21
-1747.055136771959
 31
0.0
  0
LINE
  5
44A
  8
1
  6
CONTINUOUS
 62
     7
 10
1901.151536007172
 20
-1576.13253122116
 30
0.0
 11
1890.004488394416
 21
-1574.970988676749
 31
0.0
  0
ARC
  5
44B
  8
1
  6
CONTINUOUS
 62
     7
 10
1889.865772440681
 20
-1780.591046607021
 30
0.0
 40
1.448356986912813
 50
261.4197834593249
 51
275.4959100890704
  0
LINE
  5
44C
  8
1
  6
CONTINUOUS
 62
     7
 10
1889.375078871864
 20
-1615.350254427566
 30
0.0
 11
1889.375078871864
 21
-1569.862367700397
 31
0.0
  0
LINE
  5
44D
  8
1
  6
CONTINUOUS
 62
     7
 10
1599.747585945145
 20
-1693.083727370872
 30
0.0
 11
1599.747585945145
 21
-1663.9200068571
 31
0.0
  0
LINE
  5
44E
  8
1
  6
CONTINUOUS
 62
     7
 10
1362.25241405485
 20
-1693.083727370872
 30
0.0
 11
1362.25241405485
 21
-1663.9200068571
 31
0.0
  0
LINE
  5
44F
  8
1
  6
CONTINUOUS
 62
     7
 10
1890.00448839442
 20
-1782.032745551224
 30
0.0
 11
1901.151536007177
 21
-1780.871203006813
 31
0.0
  0
LINE
  5
450
  8
1
  6
CONTINUOUS
 62
     7
 10
2366.758123726766
 20
-1784.7589848748
 30
0.0
 11
2283.241876273239
 21
-1784.7589848748
 31
0.0
  0
LINE
  5
451
  8
1
  6
CONTINUOUS
 62
     7
 10
2218.742882239185
 20
-1636.74374338722
 30
0.0
 11
2218.742882239185
 21
-1720.259990840753
 31
0.0
  0
LINE
  5
452
  8
1
  6
CONTINUOUS
 62
     7
 10
2402.000000000002
 20
-1718.001867113986
 30
0.0
 11
2402.000000000002
 21
-1639.001867113986
 31
0.0
  0
LINE
  5
453
  8
1
  6
CONTINUOUS
 62
     7
 10
1728.091825482283
 20
-1597.364631671766
 30
0.0
 11
1728.091825482283
 21
-1759.644742846105
 31
0.0
  0
LINE
  5
454
  8
1
  6
CENTER
 62
     1
 10
2325.0
 20
-1794.001867113986
 30
0.0
 11
2325.0
 21
-1563.001867113986
 31
0.0
  0
LINE
  5
455
  8
1
  6
CONTINUOUS
 62
     7
 10
1582.252414054848
 20
-1663.921416929575
 30
0.0
 11
1555.747585945146
 21
-1663.921416929575
 31
0.0
  0
LINE
  5
456
  8
1
  6
CONTINUOUS
 62
     7
 10
1714.25241405485
 20
-1693.082317298398
 30
0.0
 11
1687.747585945147
 21
-1693.082317298398
 31
0.0
  0
LINE
  5
457
  8
1
  6
CONTINUOUS
 62
     7
 10
1494.252414054851
 20
-1693.083727370872
 30
0.0
 11
1494.252414054851
 21
-1663.9200068571
 31
0.0
  0
LINE
  5
458
  8
1
  6
CENTER
 62
     1
 10
2209.500000000003
 20
-1678.499998950399
 30
0.0
 11
2440.500000000004
 21
-1678.499998950399
 31
0.0
  0
LINE
  5
459
  8
1
  6
CONTINUOUS
 62
     7
 10
1681.994076404346
 20
-1758.501867113986
 30
0.0
 11
1676.005923595656
 21
-1758.501867113986
 31
0.0
  0
LINE
  5
45A
  8
1
  6
CONTINUOUS
 62
     7
 10
1582.252414054848
 20
-1693.082317298398
 30
0.0
 11
1555.747585945146
 21
-1693.082317298398
 31
0.0
  0
LINE
  5
45B
  8
1
  6
CONTINUOUS
 62
     7
 10
2132.375078871866
 20
-1790.637451685346
 30
0.0
 11
1858.375078871866
 21
-1790.637451685347
 31
0.0
  0
LINE
  5
45C
  8
1
  6
CONTINUOUS
 62
     7
 10
1901.151536007172
 20
-1570.730954181432
 30
0.0
 11
1890.004488394416
 21
-1569.706772154586
 31
0.0
  0
LINE
  5
45D
  8
1
  6
CONTINUOUS
 62
     7
 10
1670.25241405485
 20
-1693.082317298398
 30
0.0
 11
1643.747585945147
 21
-1693.082317298398
 31
0.0
  0
LINE
  5
45E
  8
1
  6
CONTINUOUS
 62
     7
 10
1379.747585945149
 20
-1693.083727370872
 30
0.0
 11
1379.747585945149
 21
-1663.9200068571
 31
0.0
  0
LINE
  5
45F
  8
1
  6
CONTINUOUS
 62
     7
 10
1335.747585945149
 20
-1693.083727370872
 30
0.0
 11
1335.747585945149
 21
-1663.9200068571
 31
0.0
  0
LINE
  5
460
  8
1
  6
CONTINUOUS
 62
     7
 10
1538.252414054852
 20
-1663.921416929575
 30
0.0
 11
1511.747585945149
 21
-1663.921416929575
 31
0.0
  0
LINE
  5
461
  8
1
  6
CONTINUOUS
 62
     7
 10
1626.252414054849
 20
-1693.083727370872
 30
0.0
 11
1626.252414054849
 21
-1663.9200068571
 31
0.0
  0
LINE
  5
462
  8
1
  6
CONTINUOUS
 62
     7
 10
1538.252414054852
 20
-1693.083727370872
 30
0.0
 11
1538.252414054852
 21
-1663.9200068571
 31
0.0
  0
LINE
  5
463
  8
1
  6
CONTINUOUS
 62
     7
 10
1505.994076404341
 20
-1598.501867113986
 30
0.0
 11
1500.005923595651
 21
-1598.501867113986
 31
0.0
  0
LINE
  5
464
  8
1
  6
CONTINUOUS
 62
     7
 10
1467.747585945147
 20
-1693.083727370872
 30
0.0
 11
1467.747585945147
 21
-1663.9200068571
 31
0.0
  0
LINE
  5
465
  8
1
  6
CONTINUOUS
 62
     7
 10
1626.252414054849
 20
-1663.921416929575
 30
0.0
 11
1599.747585945146
 21
-1663.921416929575
 31
0.0
  0
ARC
  5
466
  8
1
  6
CONTINUOUS
 62
     7
 10
2519.999999999997
 20
-1678.498130786812
 30
0.0
 40
1771.500000000003
 50
178.6308377567923
 51
181.3691622432076
  0
ENDSEC
  0
EOF
