  0
SECTION
  2
HEADER
  9
$ACADVER
  1
AC1006
  9
$DWGCODEPAGE
  3
ansi_932
  9
$INSBASE
 10
0.0
 20
0.0
 30
0.0
  9
$EXTMIN
 10
0.0
 20
-250.0
  9
$EXTMAX
 10
2370.0
 20
10.0
  9
$LIMMIN
 10
0.0
 20
0.0
  9
$LIMMAX
 10
12.0
 20
9.0
  9
$ORTHOMODE
 70
     0
  9
$REGENMODE
 70
     1
  9
$FILLMODE
 70
     1
  9
$QTEXTMODE
 70
     0
  9
$MIRRTEXT
 70
     1
  9
$DRAGMODE
 70
     2
  9
$LTSCALE
 40
1.0
  9
$OSMODE
 70
    37
  9
$ATTMODE
 70
     1
  9
$TEXTSIZE
 40
0.2
  9
$TRACEWID
 40
0.05
  9
$TEXTSTYLE
  7
STANDARD
  9
$CLAYER
  8
0
  9
$CELTYPE
  6
BYLAYER
  9
$CECOLOR
 62
   256
  9
$DIMSCALE
 40
1.0
  9
$DIMASZ
 40
3.0
  9
$DIMEXO
 40
0.0625
  9
$DIMDLI
 40
0.38
  9
$DIMRND
 40
0.0
  9
$DIMDLE
 40
0.0
  9
$DIMEXE
 40
1.5
  9
$DIMTP
 40
0.0
  9
$DIMTM
 40
0.0
  9
$DIMTXT
 40
3.0
  9
$DIMCEN
 40
0.09
  9
$DIMTSZ
 40
0.0
  9
$DIMTOL
 70
     0
  9
$DIMLIM
 70
     0
  9
$DIMTIH
 70
     1
  9
$DIMTOH
 70
     1
  9
$DIMSE1
 70
     0
  9
$DIMSE2
 70
     0
  9
$DIMTAD
 70
     1
  9
$DIMZIN
 70
     0
  9
$DIMBLK
  1

  9
$DIMASO
 70
     1
  9
$DIMSHO
 70
     1
  9
$DIMPOST
  1

  9
$DIMAPOST
  1

  9
$DIMALT
 70
     0
  9
$DIMALTD
 70
     2
  9
$DIMALTF
 40
25.4
  9
$DIMLFAC
 40
1.0
  9
$DIMTOFL
 70
     0
  9
$DIMTVP
 40
0.0
  9
$DIMTIX
 70
     0
  9
$DIMSOXD
 70
     0
  9
$DIMSAH
 70
     0
  9
$DIMBLK1
  1

  9
$DIMBLK2
  1

  9
$LUNITS
 70
     2
  9
$LUPREC
 70
     4
  9
$SKETCHINC
 40
0.1
  9
$FILLETRAD
 40
0.5
  9
$AUNITS
 70
     0
  9
$AUPREC
 70
     0
  9
$MENU
  1
.
  9
$ELEVATION
 40
0.0
  9
$THICKNESS
 40
0.0
  9
$LIMCHECK
 70
     0
  9
$CHAMFERA
 40
0.0
  9
$CHAMFERB
 40
0.0
  9
$SKPOLY
 70
     0
  9
$TDCREATE
 40
2460119.719076898
  9
$TDUPDATE
 40
2460119.719077442
  9
$TDINDWG
 40
0.0000000116
  9
$TDUSRTIMER
 40
0.0000000116
  9
$USRTIMER
 70
     1
  9
$ANGBASE
 50
0.0
  9
$ANGDIR
 70
     0
  9
$PDMODE
 70
     0
  9
$PDSIZE
 40
0.0
  9
$PLINEWID
 40
0.0
  9
$COORDS
 70
     1
  9
$SPLFRAME
 70
     0
  9
$SPLINETYPE
 70
     6
  9
$SPLINESEGS
 70
     8
  9
$ATTDIA
 70
     0
  9
$ATTREQ
 70
     1
  9
$HANDLING
 70
     1
  9
$HANDSEED
  5
77E
  9
$SURFTAB1
 70
     6
  9
$SURFTAB2
 70
     6
  9
$SURFTYPE
 70
     6
  9
$SURFU
 70
     6
  9
$SURFV
 70
     6
  9
$UCSNAME
  2

  9
$UCSORG
 10
0.0
 20
0.0
 30
0.0
  9
$UCSXDIR
 10
1.0
 20
0.0
 30
0.0
  9
$UCSYDIR
 10
0.0
 20
1.0
 30
0.0
  9
$USERI1
 70
     0
  9
$USERI2
 70
     0
  9
$USERI3
 70
     0
  9
$USERI4
 70
     0
  9
$USERI5
 70
     0
  9
$USERR1
 40
0.0
  9
$USERR2
 40
0.0
  9
$USERR3
 40
0.0
  9
$USERR4
 40
0.0
  9
$USERR5
 40
0.0
  9
$WORLDVIEW
 70
     1
  0
ENDSEC
  0
SECTION
  2
TABLES
  0
TABLE
  2
VPORT
 70
     1
  0
VPORT
  2
*ACTIVE
 70
     0
 10
0.0
 20
0.0
 11
1.0
 21
1.0
 12
1185.0
 22
-120.0
 13
0.0
 23
0.0
 14
0.5
 24
0.5
 15
0.5
 25
0.5
 16
0.0
 26
0.0
 36
1.0
 17
0.0
 27
0.0
 37
0.0
 40
260.0
 41
1.6
 42
50.0
 43
0.0
 44
0.0
 50
0.0
 51
0.0
 71
     0
 72
   100
 73
     1
 74
     3
 75
     0
 76
     0
 77
     0
 78
     0
  0
ENDTAB
  0
TABLE
  2
LTYPE
 70
     2
  0
LTYPE
  2
CONTINUOUS
 70
     0
  3
Solid line
 72
    65
 73
     0
 40
0.0
  0
LTYPE
  2
CENTER
 70
     0
  3

 72
    65
 73
     0
 40
0.0
  0
ENDTAB
  0
TABLE
  2
LAYER
 70
     2
  0
LAYER
  2
0
 70
     0
 62
     7
  6
CONTINUOUS
  0
LAYER
  2
1
 70
     0
 62
     7
  6
CONTINUOUS
  0
ENDTAB
  0
TABLE
  2
STYLE
 70
     2
  0
STYLE
  2
STANDARD
 70
     0
 40
0.0
 41
1.0
 50
0.0
 71
     0
 42
0.2
  3
txt
  4

  0
STYLE
  2
ＭＳ_ゴシック
 70
     0
 40
0.0
 41
1.0
 50
0.0
 71
     0
 42
0.2
  3
ＭＳ ゴシック.shx
  4

  0
ENDTAB
  0
TABLE
  2
VIEW
 70
     0
  0
ENDTAB
  0
TABLE
  2
UCS
 70
     0
  0
ENDTAB
  0
ENDSEC
  0
SECTION
  2
BLOCKS
  0
ENDSEC
  0
SECTION
  2
ENTITIES
  0
TEXT
  5
70
  8
1
  6
CONTINUOUS
 62
     7
 10
776.9372539454
 20
-270.3816262658876
 30
0.0
 40
10.0
  1
Ｎ－ＫＦＥＰ－５０ＣＫ
 41
0.771692
  0
TEXT
  5
71
  8
0
  6
CONTINUOUS
 62
     7
 10
815.0608040515193
 20
-250.5246029761161
 30
0.0
 40
5.0
  1
N-KFEP-50CK
  0
LINE
  5
72
  8
1
  6
CONTINUOUS
 62
     7
 10
1270.566534827494
 20
-173.7604722664001
 30
0.0
 11
1271.379008756495
 21
-169.1527036441002
 31
0.0
  0
LINE
  5
73
  8
1
  6
CONTINUOUS
 62
     7
 10
1411.672075000094
 20
-198.5000000000004
 30
0.0
 11
1411.672075000094
 21
-168.4120444692004
 31
0.0
  0
LINE
  5
74
  8
1
  6
CONTINUOUS
 62
     7
 10
1255.899684827497
 20
-231.2395277336003
 30
0.0
 11
1256.712158756496
 21
-235.8472963559003
 31
0.0
  0
LINE
  5
75
  8
1
  6
CONTINUOUS
 62
     7
 10
1211.680032644697
 20
-230.6840333524001
 30
0.0
 11
1211.680032644697
 21
-174.3159666476002
 31
0.0
  0
LINE
  5
76
  8
1
  6
CONTINUOUS
 62
     7
 10
1409.993875737598
 20
-167.4999999994003
 30
0.0
 11
1405.350274262497
 21
-167.4999999994003
 31
0.0
  0
LINE
  5
77
  8
1
  6
CONTINUOUS
 62
     7
 10
1403.672075000095
 20
-198.5000000000004
 30
0.0
 11
1403.672075000095
 21
-168.4120444693003
 31
0.0
  0
LINE
  5
78
  8
1
  6
CONTINUOUS
 62
     7
 10
1222.324937355299
 20
-230.6840333524001
 30
0.0
 11
1222.324937355299
 21
-174.3159666476002
 31
0.0
  0
ARC
  5
79
  8
1
  6
CONTINUOUS
 62
     7
 10
1351.326475737597
 20
-235.5000000007002
 30
0.0
 40
1.999999999998892
 50
270.0
 51
349.9999999999974
  0
LINE
  5
7A
  8
1
  6
CONTINUOUS
 62
     7
 10
1162.688125000094
 20
-198.5000000000004
 30
0.0
 11
1153.983125000095
 21
-198.5000000000004
 31
0.0
  0
ARC
  5
7B
  8
1
  6
CONTINUOUS
 62
     7
 10
1057.989475737596
 20
-235.5000000007002
 30
0.0
 40
1.999999999998892
 50
270.0
 51
349.999999999997
  0
LINE
  5
7C
  8
1
  6
CONTINUOUS
 62
     7
 10
1177.354975000095
 20
-206.5000000000003
 30
0.0
 11
1168.649975000096
 21
-206.5000000000003
 31
0.0
  0
ARC
  5
7D
  8
1
  6
CONTINUOUS
 62
     7
 10
1414.253176802095
 20
-231.5000000001001
 30
0.0
 40
1.50000000000361
 50
90.0
 51
170.0
  0
LINE
  5
7E
  8
1
  6
CONTINUOUS
 62
     7
 10
1257.003575000098
 20
-206.5000000000003
 30
0.0
 11
1257.003575000098
 21
-236.5879555307002
 31
0.0
  0
LINE
  5
7F
  8
1
  6
CONTINUOUS
 62
     7
 10
1154.335625000097
 20
-198.5000000000004
 30
0.0
 11
1154.335625000097
 21
-168.4120444693003
 31
0.0
  0
LINE
  5
80
  8
1
  6
CONTINUOUS
 62
     7
 10
1271.670425000092
 20
-198.5000000000004
 30
0.0
 11
1271.670425000092
 21
-168.4120444693003
 31
0.0
  0
LINE
  5
81
  8
1
  6
CONTINUOUS
 62
     7
 10
1206.688675000094
 20
-206.5000000000003
 30
0.0
 11
1197.983675000094
 21
-206.5000000000003
 31
0.0
  0
LINE
  5
82
  8
1
  6
CONTINUOUS
 62
     7
 10
1192.773215172593
 20
-173.7604722664001
 30
0.0
 11
1191.960741243598
 21
-169.1527036440003
 31
0.0
  0
LINE
  5
83
  8
1
  6
CONTINUOUS
 62
     7
 10
1219.324825737594
 20
-167.4999999994003
 30
0.0
 11
1214.681224262493
 21
-167.4999999994003
 31
0.0
  0
LINE
  5
84
  8
1
  6
CONTINUOUS
 62
     7
 10
1192.0218250001
 20
-198.5000000000004
 30
0.0
 11
1183.316825000101
 21
-198.5000000000004
 31
0.0
  0
LINE
  5
85
  8
1
  6
CONTINUOUS
 62
     7
 10
1191.669325000095
 20
-206.5000000000003
 30
0.0
 11
1191.669325000095
 21
-236.5879555308003
 31
0.0
  0
ARC
  5
86
  8
1
  6
CONTINUOUS
 62
     7
 10
1062.248776802096
 20
-173.4999999999001
 30
0.0
 40
1.500000000000057
 50
190.0000000000011
 51
270.0
  0
LINE
  5
87
  8
1
  6
CONTINUOUS
 62
     7
 10
1343.680962644697
 20
-230.6840333524001
 30
0.0
 11
1343.680962644697
 21
-174.3159666476002
 31
0.0
  0
LINE
  5
88
  8
1
  6
CONTINUOUS
 62
     7
 10
1197.983675000095
 20
-206.5000000000003
 30
0.0
 11
1197.983675000095
 21
-198.5000000000003
 31
0.0
  0
LINE
  5
89
  8
1
  6
CONTINUOUS
 62
     7
 10
1211.899134827497
 20
-173.7604722664001
 30
0.0
 11
1212.711608756497
 21
-169.1527036441002
 31
0.0
  0
LINE
  5
8A
  8
1
  6
CONTINUOUS
 62
     7
 10
1207.440065172594
 20
-231.2395277336003
 30
0.0
 11
1206.627591243594
 21
-235.8472963561002
 31
0.0
  0
LINE
  5
8B
  8
1
  6
CONTINUOUS
 62
     7
 10
1250.689225000094
 20
-206.5000000000003
 30
0.0
 11
1241.984225000095
 21
-206.5000000000003
 31
0.0
  0
ARC
  5
8C
  8
1
  6
CONTINUOUS
 62
     7
 10
1258.681774262495
 20
-169.4999999994004
 30
0.0
 40
1.999999999998892
 50
90.0
 51
170.0
  0
LINE
  5
8D
  8
1
  6
CONTINUOUS
 62
     7
 10
1412.024575000099
 20
-198.5000000000004
 30
0.0
 11
1403.319575000099
 21
-198.5000000000004
 31
0.0
  0
LINE
  5
8E
  8
1
  6
CONTINUOUS
 62
     7
 10
1177.002475000097
 20
-198.5000000000004
 30
0.0
 11
1177.002475000097
 21
-168.4120444692004
 31
0.0
  0
LINE
  5
8F
  8
1
  6
CONTINUOUS
 62
     7
 10
1162.688125000094
 20
-206.5000000000003
 30
0.0
 11
1162.688125000094
 21
-198.5000000000003
 31
0.0
  0
LINE
  5
90
  8
1
  6
CONTINUOUS
 62
     7
 10
1355.585776802097
 20
-230.0000000001002
 30
0.0
 11
1357.090423197997
 21
-230.0000000001002
 31
0.0
  0
ARC
  5
91
  8
1
  6
CONTINUOUS
 62
     7
 10
1248.658525737592
 20
-235.5000000007002
 30
0.0
 40
2.000000000002444
 50
270.0
 51
349.9999999999999
  0
LINE
  5
92
  8
1
  6
CONTINUOUS
 62
     7
 10
1343.900784827493
 20
-231.2395277336003
 30
0.0
 11
1344.713258756493
 21
-235.8472963559003
 31
0.0
  0
LINE
  5
93
  8
1
  6
CONTINUOUS
 62
     7
 10
1355.585776802097
 20
-174.9999999999002
 30
0.0
 11
1357.090423197997
 21
-174.9999999999002
 31
0.0
  0
LINE
  5
94
  8
1
  6
CONTINUOUS
 62
     7
 10
1179.583576802098
 20
-174.9999999999002
 30
0.0
 11
1181.088223197996
 21
-174.9999999999002
 31
0.0
  0
ARC
  5
95
  8
1
  6
CONTINUOUS
 62
     7
 10
1063.753423197997
 20
-173.4999999999001
 30
0.0
 40
1.500000000000057
 50
270.0
 51
349.999999999999
  0
LINE
  5
96
  8
1
  6
CONTINUOUS
 62
     7
 10
1236.991607355296
 20
-230.6840333524001
 30
0.0
 11
1236.991607355296
 21
-174.3159666476002
 31
0.0
  0
LINE
  5
97
  8
1
  6
CONTINUOUS
 62
     7
 10
1123.898034827494
 20
-173.7604722664001
 30
0.0
 11
1124.710508756494
 21
-169.1527036441002
 31
0.0
  0
LINE
  5
98
  8
1
  6
CONTINUOUS
 62
     7
 10
1256.651075000096
 20
-206.5000000000003
 30
0.0
 11
1256.651075000096
 21
-198.5000000000003
 31
0.0
  0
LINE
  5
99
  8
1
  6
CONTINUOUS
 62
     7
 10
1241.984225000095
 20
-206.5000000000003
 30
0.0
 11
1241.984225000095
 21
-198.5000000000003
 31
0.0
  0
LINE
  5
9A
  8
1
  6
CONTINUOUS
 62
     7
 10
1175.324275737597
 20
-167.4999999994003
 30
0.0
 11
1170.680674262497
 21
-167.4999999994003
 31
0.0
  0
ARC
  5
9B
  8
1
  6
CONTINUOUS
 62
     7
 10
1068.012724262494
 20
-235.5000000006003
 30
0.0
 40
1.999999999998892
 50
190.0000000000048
 51
270.0
  0
LINE
  5
9C
  8
1
  6
CONTINUOUS
 62
     7
 10
1206.688675000094
 20
-206.5000000000003
 30
0.0
 11
1206.688675000094
 21
-198.5000000000003
 31
0.0
  0
ARC
  5
9D
  8
1
  6
CONTINUOUS
 62
     7
 10
1057.989475737596
 20
-169.4999999993001
 30
0.0
 40
1.999999999998892
 50
10.00000000000299
 51
90.0
  0
LINE
  5
9E
  8
1
  6
CONTINUOUS
 62
     7
 10
1213.003025000098
 20
-198.5000000000004
 30
0.0
 11
1213.003025000098
 21
-168.4120444693003
 31
0.0
  0
LINE
  5
9F
  8
1
  6
CONTINUOUS
 62
     7
 10
1207.440065172594
 20
-173.7604722664001
 30
0.0
 11
1206.627591243594
 21
-169.1527036440003
 31
0.0
  0
LINE
  5
A0
  8
1
  6
CONTINUOUS
 62
     7
 10
1248.658525737592
 20
-167.4999999994003
 30
0.0
 11
1244.014924262492
 21
-167.4999999994003
 31
0.0
  0
LINE
  5
A1
  8
1
  6
CONTINUOUS
 62
     7
 10
1263.325375737594
 20
-167.4999999994003
 30
0.0
 11
1258.681774262494
 21
-167.4999999994003
 31
0.0
  0
ARC
  5
A2
  8
1
  6
CONTINUOUS
 62
     7
 10
1292.659075737596
 20
-235.5000000007002
 30
0.0
 40
1.999999999998892
 50
270.0
 51
349.9999999999999
  0
ARC
  5
A3
  8
1
  6
CONTINUOUS
 62
     7
 10
1189.991125737595
 20
-235.5000000007002
 30
0.0
 40
2.000000000002444
 50
270.0
 51
349.9999999999996
  0
LINE
  5
A4
  8
1
  6
CONTINUOUS
 62
     7
 10
1189.991125737595
 20
-167.4999999994003
 30
0.0
 11
1185.347524262495
 21
-167.4999999994003
 31
0.0
  0
LINE
  5
A5
  8
1
  6
CONTINUOUS
 62
     7
 10
1221.355525000095
 20
-206.5000000000003
 30
0.0
 11
1212.650525000095
 21
-206.5000000000003
 31
0.0
  0
LINE
  5
A6
  8
1
  6
CONTINUOUS
 62
     7
 10
1250.689225000094
 20
-198.5000000000004
 30
0.0
 11
1241.984225000095
 21
-198.5000000000004
 31
0.0
  0
ARC
  5
A7
  8
1
  6
CONTINUOUS
 62
     7
 10
1053.345874262493
 20
-235.5000000006003
 30
0.0
 40
2.000000000002444
 50
190.0000000000048
 51
270.0
  0
LINE
  5
A8
  8
1
  6
CONTINUOUS
 62
     7
 10
1353.357175000095
 20
-206.5000000000003
 30
0.0
 11
1353.357175000095
 21
-198.5000000000003
 31
0.0
  0
ARC
  5
A9
  8
1
  6
CONTINUOUS
 62
     7
 10
1263.325375737594
 20
-235.5000000007002
 30
0.0
 40
1.999999999998892
 50
270.0
 51
349.9999999999999
  0
LINE
  5
AA
  8
1
  6
CONTINUOUS
 62
     7
 10
1150.249876802096
 20
-230.0000000001002
 30
0.0
 11
1151.754523197996
 21
-230.0000000001002
 31
0.0
  0
LINE
  5
AB
  8
1
  6
CONTINUOUS
 62
     7
 10
1242.336725000093
 20
-198.5000000000004
 30
0.0
 11
1242.336725000093
 21
-168.4120444693003
 31
0.0
  0
ARC
  5
AC
  8
1
  6
CONTINUOUS
 62
     7
 10
1254.422473197994
 20
-173.4999999999001
 30
0.0
 40
1.500000000000057
 50
270.0
 51
349.9999999999999
  0
LINE
  5
AD
  8
1
  6
CONTINUOUS
 62
     7
 10
1160.657425737596
 20
-237.5000000006002
 30
0.0
 11
1156.013824262497
 21
-237.5000000006002
 31
0.0
  0
ARC
  5
AE
  8
1
  6
CONTINUOUS
 62
     7
 10
1063.753423197997
 20
-231.5000000001001
 30
0.0
 40
1.500000000000057
 50
10.00000000000103
 51
90.0
  0
LINE
  5
AF
  8
1
  6
CONTINUOUS
 62
     7
 10
1265.003575000097
 20
-206.5000000000003
 30
0.0
 11
1265.003575000097
 21
-236.5879555308003
 31
0.0
  0
LINE
  5
B0
  8
1
  6
CONTINUOUS
 62
     7
 10
1271.317925000094
 20
-206.5000000000003
 30
0.0
 11
1271.317925000094
 21
-198.5000000000003
 31
0.0
  0
LINE
  5
B1
  8
1
  6
CONTINUOUS
 62
     7
 10
1353.004675000097
 20
-206.5000000000003
 30
0.0
 11
1353.004675000097
 21
-236.5879555308003
 31
0.0
  0
LINE
  5
B2
  8
1
  6
CONTINUOUS
 62
     7
 10
1282.251526802095
 20
-230.0000000001002
 30
0.0
 11
1283.756173197995
 21
-230.0000000001002
 31
0.0
  0
ARC
  5
B3
  8
1
  6
CONTINUOUS
 62
     7
 10
1252.917826802093
 20
-173.4999999999001
 30
0.0
 40
1.500000000000057
 50
190.0
 51
270.0
  0
ARC
  5
B4
  8
1
  6
CONTINUOUS
 62
     7
 10
1269.089323197995
 20
-173.4999999999001
 30
0.0
 40
1.500000000000057
 50
270.0
 51
349.999999999996
  0
LINE
  5
B5
  8
1
  6
CONTINUOUS
 62
     7
 10
1241.232834827492
 20
-173.7604722664001
 30
0.0
 11
1242.045308756495
 21
-169.1527036441002
 31
0.0
  0
LINE
  5
B6
  8
1
  6
CONTINUOUS
 62
     7
 10
1255.680042644694
 20
-230.6840333524001
 30
0.0
 11
1255.680042644694
 21
-174.3159666476002
 31
0.0
  0
LINE
  5
B7
  8
1
  6
CONTINUOUS
 62
     7
 10
1251.440615172594
 20
-173.7604722664001
 30
0.0
 11
1250.628141243592
 21
-169.1527036440003
 31
0.0
  0
ARC
  5
B8
  8
1
  6
CONTINUOUS
 62
     7
 10
1097.346424262497
 20
-235.5000000006003
 30
0.0
 40
1.999999999998892
 50
190.0000000000048
 51
270.0
  0
ARC
  5
B9
  8
1
  6
CONTINUOUS
 62
     7
 10
1258.681774262495
 20
-235.5000000006003
 30
0.0
 40
1.999999999998892
 50
190.0
 51
270.0
  0
LINE
  5
BA
  8
1
  6
CONTINUOUS
 62
     7
 10
1412.775965172596
 20
-173.7604722664001
 30
0.0
 11
1411.963491243596
 21
-169.1527036440003
 31
0.0
  0
ARC
  5
BB
  8
1
  6
CONTINUOUS
 62
     7
 10
1122.420823197995
 20
-231.5000000001001
 30
0.0
 40
1.500000000000057
 50
9.999999999992678
 51
90.0
  0
ARC
  5
BC
  8
1
  6
CONTINUOUS
 62
     7
 10
1131.323725737598
 20
-235.5000000007002
 30
0.0
 40
1.999999999998892
 50
270.0
 51
349.999999999997
  0
ARC
  5
BD
  8
1
  6
CONTINUOUS
 62
     7
 10
1282.251526802095
 20
-231.5000000001001
 30
0.0
 40
1.500000000000057
 50
90.0
 51
170.0
  0
ARC
  5
BE
  8
1
  6
CONTINUOUS
 62
     7
 10
1082.679574262495
 20
-235.5000000006003
 30
0.0
 40
1.999999999998892
 50
190.0000000000048
 51
270.0
  0
LINE
  5
BF
  8
1
  6
CONTINUOUS
 62
     7
 10
1412.024575000099
 20
-206.5000000000003
 30
0.0
 11
1412.024575000099
 21
-198.5000000000003
 31
0.0
  0
ARC
  5
C0
  8
1
  6
CONTINUOUS
 62
     7
 10
1277.992225737595
 20
-169.4999999993001
 30
0.0
 40
1.999999999998892
 50
10.0
 51
90.0
  0
ARC
  5
C1
  8
1
  6
CONTINUOUS
 62
     7
 10
1120.916176802097
 20
-173.4999999999001
 30
0.0
 40
1.500000000000057
 50
190.0000000000011
 51
270.0
  0
ARC
  5
C2
  8
1
  6
CONTINUOUS
 62
     7
 10
1179.583576802098
 20
-231.5000000001001
 30
0.0
 40
1.499999999996504
 50
90.0
 51
169.999999999999
  0
ARC
  5
C3
  8
1
  6
CONTINUOUS
 62
     7
 10
1160.657425737596
 20
-169.4999999993001
 30
0.0
 40
1.999999999998892
 50
10.00000000000483
 51
90.0
  0
LINE
  5
C4
  8
1
  6
CONTINUOUS
 62
     7
 10
1412.024575000099
 20
-206.5000000000003
 30
0.0
 11
1403.319575000099
 21
-206.5000000000003
 31
0.0
  0
ARC
  5
C5
  8
1
  6
CONTINUOUS
 62
     7
 10
1355.585776802193
 20
-231.5000000001001
 30
0.0
 40
1.500000000000057
 50
90.0
 51
170.0000000006588
  0
LINE
  5
C6
  8
1
  6
CONTINUOUS
 62
     7
 10
1266.107465172595
 20
-173.7604722664001
 30
0.0
 11
1265.294991243596
 21
-169.1527036440003
 31
0.0
  0
ARC
  5
C7
  8
1
  6
CONTINUOUS
 62
     7
 10
1288.015474262497
 20
-235.5000000006003
 30
0.0
 40
1.999999999995339
 50
190.0
 51
270.0
  0
LINE
  5
C8
  8
1
  6
CONTINUOUS
 62
     7
 10
1255.899684827497
 20
-173.7604722664001
 30
0.0
 11
1256.712158756496
 21
-169.1527036441002
 31
0.0
  0
LINE
  5
C9
  8
1
  6
CONTINUOUS
 62
     7
 10
1280.774315172596
 20
-231.2395277336003
 30
0.0
 11
1279.961841243596
 21
-235.8472963561002
 31
0.0
  0
ARC
  5
CA
  8
1
  6
CONTINUOUS
 62
     7
 10
1145.990575737595
 20
-235.5000000007002
 30
0.0
 40
2.000000000002444
 50
270.0
 51
349.9999999999952
  0
ARC
  5
CB
  8
1
  6
CONTINUOUS
 62
     7
 10
1166.421373197998
 20
-173.4999999999001
 30
0.0
 40
1.500000000000057
 50
270.0
 51
349.999999999999
  0
ARC
  5
CC
  8
1
  6
CONTINUOUS
 62
     7
 10
1311.585226802094
 20
-231.5000000001001
 30
0.0
 40
1.50000000000361
 50
90.0
 51
170.0
  0
ARC
  5
CD
  8
1
  6
CONTINUOUS
 62
     7
 10
1267.584676802094
 20
-231.5000000001001
 30
0.0
 40
1.500000000000057
 50
90.0
 51
170.0
  0
LINE
  5
CE
  8
1
  6
CONTINUOUS
 62
     7
 10
1252.917826802093
 20
-174.9999999999002
 30
0.0
 11
1254.422473197995
 21
-174.9999999999002
 31
0.0
  0
ARC
  5
CF
  8
1
  6
CONTINUOUS
 62
     7
 10
1112.013274262498
 20
-235.5000000006003
 30
0.0
 40
1.999999999998892
 50
190.0000000000048
 51
270.0
  0
LINE
  5
D0
  8
1
  6
CONTINUOUS
 62
     7
 10
1403.319575000097
 20
-206.5000000000003
 30
0.0
 11
1403.319575000097
 21
-198.5000000000003
 31
0.0
  0
ARC
  5
D1
  8
1
  6
CONTINUOUS
 62
     7
 10
1151.754523197997
 20
-173.4999999999001
 30
0.0
 40
1.499999999996504
 50
270.0
 51
349.999999999999
  0
LINE
  5
D2
  8
1
  6
CONTINUOUS
 62
     7
 10
1294.689775000097
 20
-198.5000000000004
 30
0.0
 11
1285.984775000097
 21
-198.5000000000004
 31
0.0
  0
ARC
  5
D3
  8
1
  6
CONTINUOUS
 62
     7
 10
1112.013274262498
 20
-169.4999999994004
 30
0.0
 40
1.999999999998892
 50
90.0
 51
169.9999999999952
  0
LINE
  5
D4
  8
1
  6
CONTINUOUS
 62
     7
 10
1280.774315172596
 20
-173.7604722664001
 30
0.0
 11
1279.961841243596
 21
-169.1527036440003
 31
0.0
  0
ARC
  5
D5
  8
1
  6
CONTINUOUS
 62
     7
 10
1210.421923197998
 20
-173.4999999999001
 30
0.0
 40
1.499999999996504
 50
270.0
 51
349.999999999999
  0
ARC
  5
D6
  8
1
  6
CONTINUOUS
 62
     7
 10
1137.087673197996
 20
-173.4999999999001
 30
0.0
 40
1.499999999996504
 50
270.0
 51
349.999999999999
  0
ARC
  5
D7
  8
1
  6
CONTINUOUS
 62
     7
 10
1244.014924262494
 20
-235.5000000006003
 30
0.0
 40
1.999999999998892
 50
190.0
 51
270.0
  0
ARC
  5
D8
  8
1
  6
CONTINUOUS
 62
     7
 10
1106.249326802096
 20
-173.4999999999001
 30
0.0
 40
1.500000000000057
 50
190.0000000000011
 51
270.0
  0
ARC
  5
D9
  8
1
  6
CONTINUOUS
 62
     7
 10
1135.583026802098
 20
-231.5000000001001
 30
0.0
 40
1.499999999992951
 50
90.0
 51
169.999999999999
  0
ARC
  5
DA
  8
1
  6
CONTINUOUS
 62
     7
 10
1175.324275737597
 20
-169.4999999993001
 30
0.0
 40
1.999999999998892
 50
10.00000000000483
 51
90.0
  0
ARC
  5
DB
  8
1
  6
CONTINUOUS
 62
     7
 10
1244.014924262494
 20
-169.4999999994004
 30
0.0
 40
1.999999999998892
 50
90.0
 51
170.0
  0
ARC
  5
DC
  8
1
  6
CONTINUOUS
 62
     7
 10
1101.990025737595
 20
-169.4999999993001
 30
0.0
 40
2.000000000002444
 50
10.00000000000483
 51
90.0
  0
ARC
  5
DD
  8
1
  6
CONTINUOUS
 62
     7
 10
1296.918376802093
 20
-231.5000000001001
 30
0.0
 40
1.50000000000361
 50
90.0
 51
170.0
  0
LINE
  5
DE
  8
1
  6
CONTINUOUS
 62
     7
 10
1295.441165172594
 20
-231.2395277336003
 30
0.0
 11
1294.628691243594
 21
-235.8472963561002
 31
0.0
  0
ARC
  5
DF
  8
1
  6
CONTINUOUS
 62
     7
 10
1135.583026802098
 20
-173.4999999999001
 30
0.0
 40
1.499999999992951
 50
190.0000000000011
 51
270.0
  0
LINE
  5
E0
  8
1
  6
CONTINUOUS
 62
     7
 10
1250.336725000096
 20
-198.5000000000004
 30
0.0
 11
1250.336725000096
 21
-168.4120444692004
 31
0.0
  0
LINE
  5
E1
  8
1
  6
CONTINUOUS
 62
     7
 10
1250.689225000094
 20
-206.5000000000003
 30
0.0
 11
1250.689225000094
 21
-198.5000000000003
 31
0.0
  0
ARC
  5
E2
  8
1
  6
CONTINUOUS
 62
     7
 10
1267.584676802094
 20
-173.4999999999001
 30
0.0
 40
1.500000000000057
 50
190.0
 51
270.0
  0
LINE
  5
E3
  8
1
  6
CONTINUOUS
 62
     7
 10
1296.918376802093
 20
-174.9999999999002
 30
0.0
 11
1298.423023197993
 21
-174.9999999999002
 31
0.0
  0
LINE
  5
E4
  8
1
  6
CONTINUOUS
 62
     7
 10
1296.918376802093
 20
-230.0000000001002
 30
0.0
 11
1298.423023197993
 21
-230.0000000001002
 31
0.0
  0
ARC
  5
E5
  8
1
  6
CONTINUOUS
 62
     7
 10
1210.421923197998
 20
-231.5000000001001
 30
0.0
 40
1.499999999996504
 50
10.00000000000103
 51
90.0
  0
ARC
  5
E6
  8
1
  6
CONTINUOUS
 62
     7
 10
1307.325925737597
 20
-235.5000000007002
 30
0.0
 40
1.999999999998892
 50
270.0
 51
349.9999999999999
  0
ARC
  5
E7
  8
1
  6
CONTINUOUS
 62
     7
 10
1194.250426802096
 20
-231.5000000001001
 30
0.0
 40
1.50000000000361
 50
90.0
 51
169.999999999999
  0
ARC
  5
E8
  8
1
  6
CONTINUOUS
 62
     7
 10
1351.326475737597
 20
-169.4999999993001
 30
0.0
 40
1.999999999998892
 50
10.00000000000263
 51
90.0
  0
LINE
  5
E9
  8
1
  6
CONTINUOUS
 62
     7
 10
1280.022925000096
 20
-198.5000000000004
 30
0.0
 11
1271.317925000096
 21
-198.5000000000004
 31
0.0
  0
ARC
  5
EA
  8
1
  6
CONTINUOUS
 62
     7
 10
1175.324275737597
 20
-235.5000000007002
 30
0.0
 40
1.999999999998892
 50
270.0
 51
349.9999999999952
  0
ARC
  5
EB
  8
1
  6
CONTINUOUS
 62
     7
 10
1405.350274262495
 20
-169.4999999994004
 30
0.0
 40
1.999999999998892
 50
90.0
 51
170.0
  0
ARC
  5
EC
  8
1
  6
CONTINUOUS
 62
     7
 10
1087.323175737598
 20
-169.4999999993001
 30
0.0
 40
1.999999999998892
 50
10.00000000000483
 51
90.0
  0
LINE
  5
ED
  8
1
  6
CONTINUOUS
 62
     7
 10
1280.022925000096
 20
-206.5000000000003
 30
0.0
 11
1280.022925000096
 21
-198.5000000000003
 31
0.0
  0
ARC
  5
EE
  8
1
  6
CONTINUOUS
 62
     7
 10
1273.348624262492
 20
-235.5000000006003
 30
0.0
 40
2.000000000005997
 50
190.0
 51
270.0
  0
ARC
  5
EF
  8
1
  6
CONTINUOUS
 62
     7
 10
1106.249326802096
 20
-231.5000000001001
 30
0.0
 40
1.500000000000057
 50
90.0
 51
169.999999999999
  0
ARC
  5
F0
  8
1
  6
CONTINUOUS
 62
     7
 10
1166.421373197998
 20
-231.5000000001001
 30
0.0
 40
1.500000000000057
 50
10.00000000000103
 51
90.0
  0
ARC
  5
F1
  8
1
  6
CONTINUOUS
 62
     7
 10
1170.680674262495
 20
-235.5000000006003
 30
0.0
 40
2.000000000002444
 50
190.0000000000048
 51
270.0
  0
LINE
  5
F2
  8
1
  6
CONTINUOUS
 62
     7
 10
1368.775415172596
 20
-231.2395277336003
 30
0.0
 11
1367.962941243596
 21
-235.8472963561002
 31
0.0
  0
LINE
  5
F3
  8
1
  6
CONTINUOUS
 62
     7
 10
1301.004125000094
 20
-206.5000000000003
 30
0.0
 11
1301.004125000094
 21
-236.5879555307002
 31
0.0
  0
LINE
  5
F4
  8
1
  6
CONTINUOUS
 62
     7
 10
1925.364325000099
 20
-198.5000000000004
 30
0.0
 11
1916.659325000099
 21
-198.5000000000004
 31
0.0
  0
ARC
  5
F5
  8
1
  6
CONTINUOUS
 62
     7
 10
1918.690024262499
 20
-235.5000000006003
 30
0.0
 40
1.999999999998892
 50
190.0
 51
270.0
  0
ARC
  5
F6
  8
1
  6
CONTINUOUS
 62
     7
 10
1298.423023197994
 20
-231.5000000001001
 30
0.0
 40
1.500000000000057
 50
10.0
 51
90.0
  0
ARC
  5
F7
  8
1
  6
CONTINUOUS
 62
     7
 10
1277.992225737595
 20
-235.5000000007002
 30
0.0
 40
1.999999999998892
 50
270.0
 51
349.9999999999999
  0
LINE
  5
F8
  8
1
  6
CONTINUOUS
 62
     7
 10
1307.325925737597
 20
-237.5000000006002
 30
0.0
 11
1302.682324262497
 21
-237.5000000006002
 31
0.0
  0
LINE
  5
F9
  8
1
  6
CENTER
 62
     1
 10
2061.902897226665
 20
-202.5000000000001
 30
0.0
 11
964.1217065760962
 21
-202.5000000000001
 31
0.0
  0
ARC
  5
FB
  8
1
  6
CONTINUOUS
 62
     7
 10
1200.014374262497
 20
-235.5000000006003
 30
0.0
 40
1.999999999998892
 50
190.0000000000048
 51
270.0
  0
ARC
  5
FC
  8
1
  6
CONTINUOUS
 62
     7
 10
1273.348624262492
 20
-169.4999999994004
 30
0.0
 40
2.000000000005997
 50
90.0
 51
170.0
  0
LINE
  5
FD
  8
1
  6
CONTINUOUS
 62
     7
 10
1941.375078871863
 20
-162.4999999999999
 30
0.0
 11
2049.375078871863
 21
-162.4999999999999
 31
0.0
  0
ARC
  5
FE
  8
1
  6
CONTINUOUS
 62
     7
 10
1342.423573197994
 20
-173.4999999999001
 30
0.0
 40
1.50000000000361
 50
270.0
 51
349.999999999996
  0
ARC
  5
FF
  8
1
  6
CONTINUOUS
 62
     7
 10
1390.683424262494
 20
-235.5000000006003
 30
0.0
 40
2.000000000002444
 50
190.0
 51
270.0
  0
LINE
  5
100
  8
1
  6
CONTINUOUS
 62
     7
 10
1299.9002348275
 20
-231.2395277336003
 30
0.0
 11
1300.7127087565
 21
-235.8472963559003
 31
0.0
  0
ARC
  5
101
  8
1
  6
CONTINUOUS
 62
     7
 10
1283.756173197996
 20
-231.5000000001001
 30
0.0
 40
1.500000000000057
 50
10.0
 51
90.0
  0
ARC
  5
102
  8
1
  6
CONTINUOUS
 62
     7
 10
1219.324825737594
 20
-235.5000000007002
 30
0.0
 40
1.999999999998892
 50
270.0
 51
349.9999999999952
  0
ARC
  5
103
  8
1
  6
CONTINUOUS
 62
     7
 10
1386.424123197997
 20
-173.4999999999001
 30
0.0
 40
1.500000000000057
 50
270.0
 51
349.9999999999999
  0
LINE
  5
104
  8
1
  6
CONTINUOUS
 62
     7
 10
1409.993875737598
 20
-237.5000000006002
 30
0.0
 11
1405.350274262497
 21
-237.5000000006002
 31
0.0
  0
LINE
  5
105
  8
1
  6
CONTINUOUS
 62
     7
 10
1279.670425000098
 20
-206.5000000000003
 30
0.0
 11
1279.670425000098
 21
-236.5879555308003
 31
0.0
  0
ARC
  5
106
  8
1
  6
CONTINUOUS
 62
     7
 10
1204.6579757376
 20
-235.5000000007002
 30
0.0
 40
1.999999999995339
 50
270.0
 51
349.999999999997
  0
LINE
  5
107
  8
1
  6
CONTINUOUS
 62
     7
 10
2035.471597762466
 20
-222.6349195854003
 30
0.0
 11
2032.153964146565
 21
-223.5238768336001
 31
0.0
  0
ARC
  5
108
  8
1
  6
CONTINUOUS
 62
     7
 10
1355.585776802193
 20
-173.4999999999001
 30
0.0
 40
1.500000000000057
 50
189.9999999993412
 51
270.0
  0
LINE
  5
109
  8
1
  6
CONTINUOUS
 62
     7
 10
1358.567634827494
 20
-173.7604722664001
 30
0.0
 11
1359.380108756494
 21
-169.1527036441002
 31
0.0
  0
LINE
  5
10A
  8
1
  6
CONTINUOUS
 62
     7
 10
1367.671525000094
 20
-198.5000000000004
 30
0.0
 11
1367.671525000094
 21
-168.4120444692004
 31
0.0
  0
ARC
  5
10B
  8
1
  6
CONTINUOUS
 62
     7
 10
1179.583576802098
 20
-173.4999999999001
 30
0.0
 40
1.499999999996504
 50
190.0000000000011
 51
270.0
  0
ARC
  5
10C
  8
1
  6
CONTINUOUS
 62
     7
 10
1908.666775737596
 20
-235.5000000007002
 30
0.0
 40
2.000000000002444
 50
270.0
 51
349.9999999999999
  0
LINE
  5
10D
  8
1
  6
CONTINUOUS
 62
     7
 10
1398.109115172598
 20
-173.7604722664001
 30
0.0
 11
1397.296641243598
 21
-169.1527036440003
 31
0.0
  0
ARC
  5
10E
  8
1
  6
CONTINUOUS
 62
     7
 10
1918.690024262499
 20
-169.4999999994004
 30
0.0
 40
1.999999999998892
 50
90.0
 51
170.0
  0
ARC
  5
10F
  8
1
  6
CONTINUOUS
 62
     7
 10
1200.014374262497
 20
-169.4999999994004
 30
0.0
 40
1.999999999998892
 50
90.0
 51
169.9999999999952
  0
ARC
  5
110
  8
1
  6
CONTINUOUS
 62
     7
 10
1302.682324262495
 20
-235.5000000006003
 30
0.0
 40
1.999999999998892
 50
190.0
 51
270.0
  0
ARC
  5
111
  8
1
  6
CONTINUOUS
 62
     7
 10
1390.683424262494
 20
-169.4999999994004
 30
0.0
 40
2.000000000002444
 50
90.0
 51
170.0
  0
LINE
  5
112
  8
1
  6
CONTINUOUS
 62
     7
 10
1925.364325000099
 20
-206.5000000000003
 30
0.0
 11
1916.659325000099
 21
-206.5000000000003
 31
0.0
  0
LINE
  5
113
  8
1
  6
CONTINUOUS
 62
     7
 10
2035.975156277163
 20
-242.5000000000001
 30
0.0
 11
2035.975125380563
 21
-223.0212892814
 31
0.0
  0
LINE
  5
114
  8
1
  6
CONTINUOUS
 62
     7
 10
2030.375149678668
 20
-238.3400001011999
 30
0.0
 11
2035.975149737868
 21
-238.3773334348999
 31
0.0
  0
ARC
  5
115
  8
1
  6
CONTINUOUS
 62
     7
 10
1357.090423197995
 20
-173.4999999999001
 30
0.0
 40
1.50000000000361
 50
270.0
 51
349.999999999996
  0
LINE
  5
116
  8
1
  6
CONTINUOUS
 62
     7
 10
1294.337275000099
 20
-198.5000000000004
 30
0.0
 11
1294.337275000099
 21
-168.4120444692004
 31
0.0
  0
ARC
  5
117
  8
1
  6
CONTINUOUS
 62
     7
 10
1269.089323197995
 20
-231.5000000001001
 30
0.0
 40
1.500000000000057
 50
10.00000000000102
 51
90.0
  0
LINE
  5
118
  8
1
  6
CONTINUOUS
 62
     7
 10
1310.108015172595
 20
-231.2395277336003
 30
0.0
 11
1309.295541243595
 21
-235.8472963561002
 31
0.0
  0
LINE
  5
119
  8
1
  6
CONTINUOUS
 62
     7
 10
1286.337275000096
 20
-206.5000000000003
 30
0.0
 11
1286.337275000096
 21
-236.5879555307002
 31
0.0
  0
LINE
  5
11A
  8
1
  6
CONTINUOUS
 62
     7
 10
1367.671525000094
 20
-206.5000000000003
 30
0.0
 11
1367.671525000094
 21
-236.5879555308003
 31
0.0
  0
LINE
  5
11B
  8
1
  6
CENTER
 62
     1
 10
2370.0
 20
-202.5000000000002
 30
0.0
 11
2280.0
 21
-202.5000000000002
 31
0.0
  0
ARC
  5
11C
  8
1
  6
CONTINUOUS
 62
     7
 10
1365.993325737594
 20
-235.5000000007002
 30
0.0
 40
2.000000000002444
 50
270.0
 51
349.9999999999999
  0
LINE
  5
11D
  8
1
  6
CONTINUOUS
 62
     7
 10
1395.327025737596
 20
-167.4999999994003
 30
0.0
 11
1390.683424262496
 21
-167.4999999994003
 31
0.0
  0
ARC
  5
11E
  8
1
  6
CONTINUOUS
 62
     7
 10
1208.917276802093
 20
-173.4999999999001
 30
0.0
 40
1.500000000000057
 50
190.0000000000011
 51
270.0
  0
LINE
  5
11F
  8
1
  6
CONTINUOUS
 62
     7
 10
1910.697475000098
 20
-206.5000000000003
 30
0.0
 11
1901.992475000099
 21
-206.5000000000003
 31
0.0
  0
ARC
  5
120
  8
1
  6
CONTINUOUS
 62
     7
 10
1214.681224262495
 20
-235.5000000006003
 30
0.0
 40
1.999999999998892
 50
190.0000000000048
 51
270.0
  0
ARC
  5
121
  8
1
  6
CONTINUOUS
 62
     7
 10
1346.682874262494
 20
-169.4999999994004
 30
0.0
 40
2.000000000002444
 50
90.0
 51
169.9999999999974
  0
LINE
  5
122
  8
1
  6
CONTINUOUS
 62
     7
 10
1910.697475000098
 20
-198.5000000000004
 30
0.0
 11
1901.992475000099
 21
-198.5000000000004
 31
0.0
  0
ARC
  5
123
  8
1
  6
CONTINUOUS
 62
     7
 10
1908.666775737596
 20
-169.4999999993001
 30
0.0
 40
2.000000000002444
 50
10.0
 51
90.0
  0
LINE
  5
124
  8
1
  6
CONTINUOUS
 62
     7
 10
1277.992225737595
 20
-167.4999999994003
 30
0.0
 11
1273.348624262496
 21
-167.4999999994003
 31
0.0
  0
LINE
  5
125
  8
1
  6
CONTINUOUS
 62
     7
 10
1358.567634827494
 20
-231.2395277336003
 30
0.0
 11
1359.380108756494
 21
-235.8472963559003
 31
0.0
  0
ARC
  5
126
  8
1
  6
CONTINUOUS
 62
     7
 10
1342.423573197994
 20
-231.5000000001001
 30
0.0
 40
1.50000000000361
 50
10.00000000000102
 51
90.0
  0
LINE
  5
127
  8
1
  6
CONTINUOUS
 62
     7
 10
1309.004125000097
 20
-198.5000000000004
 30
0.0
 11
1309.004125000097
 21
-168.4120444692004
 31
0.0
  0
LINE
  5
128
  8
1
  6
CONTINUOUS
 62
     7
 10
1389.005225000094
 20
-198.5000000000004
 30
0.0
 11
1389.005225000094
 21
-168.4120444693003
 31
0.0
  0
LINE
  5
129
  8
1
  6
CONTINUOUS
 62
     7
 10
1311.585226802094
 20
-230.0000000001002
 30
0.0
 11
1313.089873197994
 21
-230.0000000001002
 31
0.0
  0
LINE
  5
12A
  8
1
  6
CONTINUOUS
 62
     7
 10
1280.022925000096
 20
-206.5000000000003
 30
0.0
 11
1271.317925000096
 21
-206.5000000000003
 31
0.0
  0
ARC
  5
12B
  8
1
  6
CONTINUOUS
 62
     7
 10
1204.6579757376
 20
-169.4999999993001
 30
0.0
 40
1.999999999995339
 50
10.00000000000299
 51
90.0
  0
LINE
  5
12C
  8
1
  6
CONTINUOUS
 62
     7
 10
2030.375149678668
 20
-166.6599998989003
 30
0.0
 11
2035.975149737868
 21
-166.6226665651001
 31
0.0
  0
LINE
  5
12D
  8
1
  6
CONTINUOUS
 62
     7
 10
1292.659075737596
 20
-237.5000000006002
 30
0.0
 11
1288.015474262496
 21
-237.5000000006002
 31
0.0
  0
LINE
  5
12E
  8
1
  6
CONTINUOUS
 62
     7
 10
2035.975156277163
 20
-162.4999999999999
 30
0.0
 11
2035.975125380563
 21
-181.9787107185998
 31
0.0
  0
LINE
  5
12F
  8
1
  6
CONTINUOUS
 62
     7
 10
1123.898034827494
 20
-231.2395277336003
 30
0.0
 11
1124.710508756494
 21
-235.8472963559003
 31
0.0
  0
ARC
  5
130
  8
1
  6
CONTINUOUS
 62
     7
 10
2305.249999999999
 20
-182.7500000000002
 30
0.0
 40
16.00000000000179
 50
90.0
 51
180.0
  0
LINE
  5
131
  8
1
  6
CONTINUOUS
 62
     7
 10
1402.568184827497
 20
-231.2395277336003
 30
0.0
 11
1403.380658756497
 21
-235.8472963559003
 31
0.0
  0
LINE
  5
132
  8
1
  6
CONTINUOUS
 62
     7
 10
1370.252626802095
 20
-230.0000000001002
 30
0.0
 11
1371.757273197995
 21
-230.0000000001002
 31
0.0
  0
LINE
  5
133
  8
1
  6
CONTINUOUS
 62
     7
 10
1397.357725000098
 20
-198.5000000000004
 30
0.0
 11
1388.652725000098
 21
-198.5000000000004
 31
0.0
  0
ARC
  5
134
  8
1
  6
CONTINUOUS
 62
     7
 10
2305.249999999999
 20
-222.2500000000003
 30
0.0
 40
16.00000000000179
 50
180.0
 51
270.0
  0
LINE
  5
135
  8
1
  6
CONTINUOUS
 62
     7
 10
1294.337275000099
 20
-206.5000000000003
 30
0.0
 11
1294.337275000099
 21
-236.5879555308003
 31
0.0
  0
ARC
  5
136
  8
1
  6
CONTINUOUS
 62
     7
 10
1405.350274262495
 20
-235.5000000006003
 30
0.0
 40
1.999999999998892
 50
190.0
 51
270.0
  0
LINE
  5
137
  8
1
  6
CONTINUOUS
 62
     7
 10
806.0000000004002
 20
-175.0000000000002
 30
0.0
 11
843.9999999995016
 21
-175.0000000000002
 31
0.0
  0
ARC
  5
138
  8
1
  6
CONTINUOUS
 62
     7
 10
806.0000000004002
 20
-221.4999999865999
 30
0.0
 40
8.500000000001506
 50
180.0
 51
270.0
  0
LINE
  5
139
  8
1
  6
CENTER
 62
     1
 10
2325.0
 20
-160.5
 30
0.0
 11
2325.0
 21
-244.4999999974998
 31
0.0
  0
ARC
  5
13A
  8
1
  6
CONTINUOUS
 62
     7
 10
1399.586326802097
 20
-231.5000000001001
 30
0.0
 40
1.500000000000057
 50
90.0
 51
170.0
  0
ARC
  5
13B
  8
1
  6
CONTINUOUS
 62
     7
 10
2344.6967824843
 20
-182.8032175157001
 30
0.0
 40
19.99999999999957
 50
1.0
 51
89.00000000000001
  0
LINE
  5
13C
  8
1
  6
CONTINUOUS
 62
     7
 10
2344.749999999999
 20
-166.7499999999999
 30
0.0
 11
2305.249999999999
 21
-166.7499999999999
 31
0.0
  0
ARC
  5
13D
  8
1
  6
CONTINUOUS
 62
     7
 10
1361.349724262495
 20
-235.5000000006003
 30
0.0
 40
1.999999999998892
 50
190.0
 51
270.0
  0
LINE
  5
13E
  8
1
  6
CONTINUOUS
 62
     7
 10
2030.375129854867
 20
-225.8421026235001
 30
0.0
 11
2030.375156277167
 21
-242.5000000000002
 31
0.0
  0
LINE
  5
13F
  8
1
  6
CONTINUOUS
 62
     7
 10
1399.586326802097
 20
-174.9999999999002
 30
0.0
 11
1401.090973197997
 21
-174.9999999999002
 31
0.0
  0
ARC
  5
140
  8
1
  6
CONTINUOUS
 62
     7
 10
1219.324825737594
 20
-169.4999999993001
 30
0.0
 40
1.999999999998892
 50
10.00000000000483
 51
90.0
  0
LINE
  5
141
  8
1
  6
CONTINUOUS
 62
     7
 10
791.999999995999
 20
-206.5000000000001
 30
0.0
 11
791.999999995999
 21
-198.5000000000001
 31
0.0
  0
LINE
  5
142
  8
1
  6
CONTINUOUS
 62
     7
 10
1941.375078871863
 20
-242.5000000000001
 30
0.0
 11
1941.375078871863
 21
-162.5
 31
0.0
  0
LINE
  5
143
  8
1
  6
CONTINUOUS
 62
     7
 10
2304.954169387001
 20
-242.1937363875002
 30
0.0
 11
2322.5
 21
-242.5000000000001
 31
0.0
  0
LINE
  5
144
  8
1
  6
CONTINUOUS
 62
     7
 10
1285.233384827499
 20
-231.2395277336003
 30
0.0
 11
1286.045858756499
 21
-235.8472963559003
 31
0.0
  0
ARC
  5
145
  8
1
  6
CONTINUOUS
 62
     7
 10
1399.586326802097
 20
-173.4999999999001
 30
0.0
 40
1.500000000000057
 50
190.0
 51
270.0
  0
ARC
  5
146
  8
1
  6
CONTINUOUS
 62
     7
 10
1395.327025737596
 20
-235.5000000007002
 30
0.0
 40
1.999999999998892
 50
270.0
 51
349.9999999999999
  0
ARC
  5
147
  8
1
  6
CONTINUOUS
 62
     7
 10
1395.327025737596
 20
-169.4999999993001
 30
0.0
 40
1.999999999998892
 50
10.0
 51
90.0
  0
LINE
  5
148
  8
1
  6
CONTINUOUS
 62
     7
 10
2349.999999999999
 20
-221.5
 30
0.0
 11
2349.999999999999
 21
-183.5
 31
0.0
  0
LINE
  5
149
  8
1
  6
CONTINUOUS
 62
     7
 10
790.0000000001994
 20
-198.1473460393001
 30
0.0
 11
790.0000000001994
 21
-183.5000000147
 31
0.0
  0
LINE
  5
14A
  8
1
  6
CONTINUOUS
 62
     7
 10
1387.901334827496
 20
-173.7604722664001
 30
0.0
 11
1388.713808756497
 21
-169.1527036441002
 31
0.0
  0
LINE
  5
14B
  8
1
  6
CONTINUOUS
 62
     7
 10
1960.375008065063
 20
-238.3400001011999
 30
0.0
 11
1954.775008005862
 21
-238.3773334348999
 31
0.0
  0
ARC
  5
14C
  8
1
  6
CONTINUOUS
 62
     7
 10
2032.775129854865
 20
-179.1579011834
 30
0.0
 40
2.400000000001512
 50
179.9999091189
 51
255.0
  0
LINE
  5
14D
  8
1
  6
CONTINUOUS
 62
     7
 10
1365.993325737594
 20
-237.5000000006002
 30
0.0
 11
1361.349724262495
 21
-237.5000000006002
 31
0.0
  0
LINE
  5
14E
  8
1
  6
CONTINUOUS
 62
     7
 10
1960.375027888967
 20
-225.8421026235001
 30
0.0
 11
1960.375001466567
 21
-242.5000000000002
 31
0.0
  0
LINE
  5
14F
  8
1
  6
CONTINUOUS
 62
     7
 10
858.0000000039987
 20
-198.5000000000002
 30
0.0
 11
859.9999999997991
 21
-198.1473460393002
 31
0.0
  0
LINE
  5
150
  8
1
  6
CONTINUOUS
 62
     7
 10
806.0000000004002
 20
-177.0000000000003
 30
0.0
 11
843.9999999995016
 21
-177.0000000000003
 31
0.0
  0
LINE
  5
151
  8
1
  6
CONTINUOUS
 62
     7
 10
1277.992225737595
 20
-237.5000000006002
 30
0.0
 11
1273.348624262496
 21
-237.5000000006002
 31
0.0
  0
LINE
  5
152
  8
1
  6
CONTINUOUS
 62
     7
 10
2344.000000000002
 20
-177.5000000000002
 30
0.0
 11
2306.000000000003
 21
-177.5000000000002
 31
0.0
  0
ARC
  5
153
  8
1
  6
CONTINUOUS
 62
     7
 10
1214.681224262495
 20
-169.4999999994004
 30
0.0
 40
1.999999999998892
 50
90.0
 51
169.9999999999952
  0
ARC
  5
154
  8
1
  6
CONTINUOUS
 62
     7
 10
1955.175032363264
 20
-223.0212899159
 30
0.0
 40
0.3999999999990678
 50
75.0
 51
179.9999091189
  0
LINE
  5
155
  8
1
  6
CONTINUOUS
 62
     7
 10
1954.775001466564
 20
-242.5000000000001
 30
0.0
 11
1954.775032363264
 21
-223.0212892814
 31
0.0
  0
LINE
  5
156
  8
1
  6
CONTINUOUS
 62
     7
 10
1395.327025737596
 20
-237.5000000006002
 30
0.0
 11
1390.683424262496
 21
-237.5000000006002
 31
0.0
  0
ARC
  5
157
  8
1
  6
CONTINUOUS
 62
     7
 10
1401.090973197998
 20
-231.5000000001001
 30
0.0
 40
1.500000000000057
 50
10.0
 51
90.0
  0
LINE
  5
158
  8
1
  6
CONTINUOUS
 62
     7
 10
1397.357725000098
 20
-206.5000000000003
 30
0.0
 11
1388.652725000098
 21
-206.5000000000003
 31
0.0
  0
LINE
  5
159
  8
1
  6
CONTINUOUS
 62
     7
 10
1954.775001466564
 20
-162.4999999999999
 30
0.0
 11
1954.775032363264
 21
-181.9787107185998
 31
0.0
  0
ARC
  5
15A
  8
1
  6
CONTINUOUS
 62
     7
 10
1370.252626802095
 20
-231.5000000001001
 30
0.0
 40
1.500000000000057
 50
90.0
 51
170.0
  0
LINE
  5
15B
  8
1
  6
CONTINUOUS
 62
     7
 10
799.5000000002021
 20
-221.4999999865999
 30
0.0
 11
799.5000000002021
 21
-183.5000000133998
 31
0.0
  0
ARC
  5
15C
  8
1
  6
CONTINUOUS
 62
     7
 10
1409.993875737598
 20
-235.5000000007002
 30
0.0
 40
1.999999999998892
 50
270.0
 51
349.9999999999999
  0
ARC
  5
15D
  8
1
  6
CONTINUOUS
 62
     7
 10
806.0000000004002
 20
-183.5000000134
 30
0.0
 40
15.99999999999824
 50
89.99999999959999
 51
180.0000000049
  0
ARC
  5
15E
  8
1
  6
CONTINUOUS
 62
     7
 10
1365.993325737594
 20
-169.4999999993001
 30
0.0
 40
2.000000000002444
 50
10.0
 51
90.0
  0
ARC
  5
15F
  8
1
  6
CONTINUOUS
 62
     7
 10
1160.657425737596
 20
-235.5000000007002
 30
0.0
 40
1.999999999998892
 50
270.0
 51
349.9999999999952
  0
LINE
  5
160
  8
1
  6
CENTER
 62
     1
 10
863.9148561512982
 20
-202.4999999999999
 30
0.0
 11
789.6438168397979
 21
-202.4999999999999
 31
0.0
  0
LINE
  5
161
  8
1
  6
CONTINUOUS
 62
     7
 10
1411.672075000094
 20
-206.5000000000003
 30
0.0
 11
1411.672075000094
 21
-236.5879555308003
 31
0.0
  0
ARC
  5
162
  8
1
  6
CONTINUOUS
 62
     7
 10
2035.575125380563
 20
-223.0212899159
 30
0.0
 40
0.4000000000026205
 50
0.0000908811
 51
105.0
  0
LINE
  5
163
  8
1
  6
CONTINUOUS
 62
     7
 10
1955.278559981266
 20
-182.3650804146998
 30
0.0
 11
1958.596193597165
 21
-181.4761231665
 31
0.0
  0
ARC
  5
164
  8
1
  6
CONTINUOUS
 62
     7
 10
2344.000000000002
 20
-221.5
 30
0.0
 40
5.999999999996675
 50
270.0
 51
0.0
  0
ARC
  5
165
  8
1
  6
CONTINUOUS
 62
     7
 10
2035.575125380563
 20
-181.9787100841
 30
0.0
 40
0.4000000000026205
 50
255.0
 51
0.0
  0
ARC
  5
166
  8
1
  6
CONTINUOUS
 62
     7
 10
1346.682874262494
 20
-235.5000000006003
 30
0.0
 40
2.000000000002444
 50
190.0000000000026
 51
270.0
  0
ARC
  5
167
  8
1
  6
CONTINUOUS
 62
     7
 10
2032.775129854865
 20
-225.8420988166
 30
0.0
 40
2.400000000001512
 50
105.0
 51
180.0000908811
  0
LINE
  5
168
  8
1
  6
CONTINUOUS
 62
     7
 10
2285.306263612602
 20
-182.4541693869999
 30
0.0
 11
2285.000000000002
 21
-199.9999999999999
 31
0.0
  0
LINE
  5
169
  8
1
  6
CONTINUOUS
 62
     7
 10
2305.249999999999
 20
-238.2499999999999
 30
0.0
 11
2344.749999999999
 21
-238.2499999999999
 31
0.0
  0
LINE
  5
16A
  8
1
  6
CONTINUOUS
 62
     7
 10
2030.375129854867
 20
-179.1578973766001
 30
0.0
 11
2030.375156277167
 21
-162.5
 31
0.0
  0
LINE
  5
16B
  8
1
  6
CONTINUOUS
 62
     7
 10
1310.108015172595
 20
-173.7604722664001
 30
0.0
 11
1309.295541243595
 21
-169.1527036440003
 31
0.0
  0
LINE
  5
16C
  8
1
  6
CONTINUOUS
 62
     7
 10
2285.306263612602
 20
-222.5458306131
 30
0.0
 11
2285.000000000002
 21
-204.9999999999999
 31
0.0
  0
LINE
  5
16D
  8
1
  6
CONTINUOUS
 62
     7
 10
2306.000000000002
 20
-227.5000000000003
 30
0.0
 11
2344.000000000002
 21
-227.5000000000003
 31
0.0
  0
LINE
  5
16E
  8
1
  6
CONTINUOUS
 62
     7
 10
806.0000000005991
 20
-167.5000000000003
 30
0.0
 11
843.9999999993977
 21
-167.5000000000003
 31
0.0
  0
ARC
  5
16F
  8
1
  6
CONTINUOUS
 62
     7
 10
2305.303217515698
 20
-222.1967824842999
 30
0.0
 40
20.00000000000313
 50
181.0
 51
269.0
  0
ARC
  5
170
  8
1
  6
CONTINUOUS
 62
     7
 10
1288.015474262497
 20
-169.4999999994004
 30
0.0
 40
1.999999999995339
 50
90.0
 51
170.0
  0
ARC
  5
171
  8
1
  6
CONTINUOUS
 62
     7
 10
2305.303217515698
 20
-182.8032175157001
 30
0.0
 40
20.00000000000313
 50
91.0
 51
179.0
  0
LINE
  5
172
  8
1
  6
CONTINUOUS
 62
     7
 10
2304.954169387001
 20
-162.8062636125998
 30
0.0
 11
2322.5
 21
-162.5
 31
0.0
  0
LINE
  5
173
  8
1
  6
CONTINUOUS
 62
     7
 10
1292.659075737596
 20
-167.4999999994003
 30
0.0
 11
1288.015474262496
 21
-167.4999999994003
 31
0.0
  0
LINE
  5
174
  8
1
  6
CONTINUOUS
 62
     7
 10
806.0000000004002
 20
-230.0000000000001
 30
0.0
 11
843.9999999995016
 21
-230.0000000000001
 31
0.0
  0
LINE
  5
175
  8
1
  6
CONTINUOUS
 62
     7
 10
1387.901334827496
 20
-231.2395277336003
 30
0.0
 11
1388.713808756497
 21
-235.8472963559003
 31
0.0
  0
ARC
  5
176
  8
1
  6
CONTINUOUS
 62
     7
 10
843.9999999995016
 20
-221.4999999865999
 30
0.0
 40
8.499999999997954
 50
270.0
 51
0.0
  0
ARC
  5
177
  8
1
  6
CONTINUOUS
 62
     7
 10
2344.000000000002
 20
-183.5
 30
0.0
 40
5.999999999996675
 50
0.0
 51
90.0
  0
ARC
  5
178
  8
1
  6
CONTINUOUS
 62
     7
 10
1957.975027888966
 20
-179.1579011834
 30
0.0
 40
2.400000000001512
 50
285.0
 51
0.0000908810999931
  0
LINE
  5
179
  8
1
  6
CONTINUOUS
 62
     7
 10
1412.775965172596
 20
-231.2395277336003
 30
0.0
 11
1411.963491243596
 21
-235.8472963561002
 31
0.0
  0
LINE
  5
17A
  8
1
  6
CONTINUOUS
 62
     7
 10
1397.357725000098
 20
-206.5000000000003
 30
0.0
 11
1397.357725000098
 21
-198.5000000000003
 31
0.0
  0
ARC
  5
17B
  8
1
  6
CONTINUOUS
 62
     7
 10
843.9999999995016
 20
-183.5000000134
 30
0.0
 40
6.499999999999062
 50
0.0
 51
90.0
  0
ARC
  5
17C
  8
1
  6
CONTINUOUS
 62
     7
 10
1955.175032363264
 20
-181.9787100841
 30
0.0
 40
0.3999999999990678
 50
180.0000908811
 51
285.0
  0
LINE
  5
17D
  8
1
  6
CONTINUOUS
 62
     7
 10
2360.749999999997
 20
-182.7500000000002
 30
0.0
 11
2360.749999999997
 21
-222.2500000000003
 31
0.0
  0
LINE
  5
17E
  8
1
  6
CONTINUOUS
 62
     7
 10
797.5000000001961
 20
-221.4999999865999
 30
0.0
 11
797.5000000001961
 21
-183.5000000133998
 31
0.0
  0
ARC
  5
17F
  8
1
  6
CONTINUOUS
 62
     7
 10
843.9999999995016
 20
-183.5000000134
 30
0.0
 40
15.99999999999824
 50
0.0
 51
90.00000000039998
  0
LINE
  5
180
  8
1
  6
CONTINUOUS
 62
     7
 10
859.9999999997982
 20
-206.8526539606999
 30
0.0
 11
859.9999999997982
 21
-221.4999999852998
 31
0.0
  0
ARC
  5
181
  8
1
  6
CONTINUOUS
 62
     7
 10
806.0000000004002
 20
-183.5000000134
 30
0.0
 40
8.500000000001506
 50
90.0
 51
180.0
  0
LINE
  5
182
  8
1
  6
CONTINUOUS
 62
     7
 10
1388.652725000095
 20
-206.5000000000003
 30
0.0
 11
1388.652725000095
 21
-198.5000000000003
 31
0.0
  0
LINE
  5
183
  8
1
  6
CONTINUOUS
 62
     7
 10
2035.471597762466
 20
-182.3650804146998
 30
0.0
 11
2032.153964146565
 21
-181.4761231665
 31
0.0
  0
LINE
  5
184
  8
1
  6
CONTINUOUS
 62
     7
 10
2327.499999999998
 20
-242.5000000000001
 30
0.0
 11
2322.500000001398
 21
-242.5000000000001
 31
0.0
  0
ARC
  5
185
  8
1
  6
CONTINUOUS
 62
     7
 10
843.9999999995016
 20
-221.4999999865999
 30
0.0
 40
15.99999999999824
 50
269.9999999996
 51
0.0000000049000164
  0
ARC
  5
186
  8
1
  6
CONTINUOUS
 62
     7
 10
1313.089873197995
 20
-173.4999999999001
 30
0.0
 40
1.500000000000057
 50
270.0
 51
349.9999999999999
  0
LINE
  5
187
  8
1
  6
CONTINUOUS
 62
     7
 10
1329.985325000098
 20
-206.5000000000003
 30
0.0
 11
1329.985325000098
 21
-198.5000000000003
 31
0.0
  0
LINE
  5
188
  8
1
  6
CONTINUOUS
 62
     7
 10
1309.356625000095
 20
-206.5000000000003
 30
0.0
 11
1309.356625000095
 21
-198.5000000000003
 31
0.0
  0
LINE
  5
189
  8
1
  6
CENTER
 62
     1
 10
825.0000000000006
 20
-239.1583478581999
 30
0.0
 11
825.0000000000006
 21
-165.3171187776001
 31
0.0
  0
LINE
  5
18A
  8
1
  6
CONTINUOUS
 62
     7
 10
2285.000000000001
 20
-200.0000000000001
 30
0.0
 11
2285.000000000001
 21
-204.9999999999999
 31
0.0
  0
ARC
  5
18B
  8
1
  6
CONTINUOUS
 62
     7
 10
1332.016024262497
 20
-235.5000000006003
 30
0.0
 40
1.999999999998892
 50
190.0
 51
270.0
  0
LINE
  5
18C
  8
1
  6
CONTINUOUS
 62
     7
 10
1330.337825000096
 20
-206.5000000000003
 30
0.0
 11
1330.337825000096
 21
-236.5879555307002
 31
0.0
  0
LINE
  5
18D
  8
1
  6
CONTINUOUS
 62
     7
 10
806.0000000004002
 20
-228.0000000000003
 30
0.0
 11
843.9999999995016
 21
-228.0000000000003
 31
0.0
  0
LINE
  5
18E
  8
1
  6
CONTINUOUS
 62
     7
 10
1960.375008065063
 20
-166.6599998989003
 30
0.0
 11
1954.775008005862
 21
-166.6226665651001
 31
0.0
  0
LINE
  5
18F
  8
1
  6
CONTINUOUS
 62
     7
 10
858.0000000039987
 20
-206.5000000000001
 30
0.0
 11
859.9999999997991
 21
-206.8526539607
 31
0.0
  0
ARC
  5
190
  8
1
  6
CONTINUOUS
 62
     7
 10
806.0000000004002
 20
-183.5000000134
 30
0.0
 40
6.499999999999062
 50
90.0
 51
180.0
  0
LINE
  5
191
  8
1
  6
CONTINUOUS
 62
     7
 10
2345.0458306131
 20
-242.1937363875002
 30
0.0
 11
2327.5
 21
-242.5000000000001
 31
0.0
  0
ARC
  5
192
  8
1
  6
CONTINUOUS
 62
     7
 10
2344.6967824843
 20
-222.1967824842999
 30
0.0
 40
19.99999999999957
 50
271.0
 51
358.9999999999999
  0
LINE
  5
193
  8
1
  6
CONTINUOUS
 62
     7
 10
1370.252626802095
 20
-174.9999999999002
 30
0.0
 11
1371.757273197995
 21
-174.9999999999002
 31
0.0
  0
ARC
  5
194
  8
1
  6
CONTINUOUS
 62
     7
 10
1386.424123197997
 20
-231.5000000001001
 30
0.0
 40
1.500000000000057
 50
10.0
 51
90.0
  0
ARC
  5
195
  8
1
  6
CONTINUOUS
 62
     7
 10
2306.000000000002
 20
-221.5
 30
0.0
 40
6.000000000000227
 50
180.0
 51
270.0
  0
LINE
  5
196
  8
1
  6
CONTINUOUS
 62
     7
 10
1359.671525000095
 20
-206.5000000000003
 30
0.0
 11
1359.671525000095
 21
-236.5879555307002
 31
0.0
  0
ARC
  5
197
  8
1
  6
CONTINUOUS
 62
     7
 10
806.0000000004002
 20
-221.4999999865999
 30
0.0
 40
15.99999999999824
 50
180.0
 51
270.0000000004
  0
ARC
  5
198
  8
1
  6
CONTINUOUS
 62
     7
 10
1317.349174262496
 20
-235.5000000006003
 30
0.0
 40
1.999999999998892
 50
190.0
 51
270.0
  0
LINE
  5
199
  8
1
  6
CONTINUOUS
 62
     7
 10
1368.775415172596
 20
-173.7604722664001
 30
0.0
 11
1367.962941243596
 21
-169.1527036440003
 31
0.0
  0
LINE
  5
19A
  8
1
  6
CONTINUOUS
 62
     7
 10
1338.690325000097
 20
-206.5000000000003
 30
0.0
 11
1338.690325000097
 21
-198.5000000000003
 31
0.0
  0
LINE
  5
19B
  8
1
  6
CONTINUOUS
 62
     7
 10
859.9999999997982
 20
-198.1473460393001
 30
0.0
 11
859.9999999997982
 21
-183.5000000147
 31
0.0
  0
LINE
  5
19C
  8
1
  6
CONTINUOUS
 62
     7
 10
1311.585226802094
 20
-174.9999999999002
 30
0.0
 11
1313.089873197994
 21
-174.9999999999002
 31
0.0
  0
LINE
  5
19D
  8
1
  6
CONTINUOUS
 62
     7
 10
1359.671525000095
 20
-198.5000000000004
 30
0.0
 11
1359.671525000095
 21
-168.4120444693003
 31
0.0
  0
LINE
  5
19E
  8
1
  6
CONTINUOUS
 62
     7
 10
852.499999999798
 20
-221.4999999865999
 30
0.0
 11
852.499999999798
 21
-183.5000000133998
 31
0.0
  0
LINE
  5
19F
  8
1
  6
CONTINUOUS
 62
     7
 10
1397.005225000096
 20
-198.5000000000004
 30
0.0
 11
1397.005225000096
 21
-168.4120444692004
 31
0.0
  0
LINE
  5
1A0
  8
1
  6
CONTINUOUS
 62
     7
 10
791.999999995999
 20
-198.5000000000002
 30
0.0
 11
790.0000000001994
 21
-198.1473460393002
 31
0.0
  0
LINE
  5
1A1
  8
1
  6
CONTINUOUS
 62
     7
 10
1955.278559981266
 20
-222.6349195854003
 30
0.0
 11
1958.596193597165
 21
-223.5238768336001
 31
0.0
  0
ARC
  5
1A2
  8
1
  6
CONTINUOUS
 62
     7
 10
1957.975027888966
 20
-225.8420988166
 30
0.0
 40
2.400000000001512
 50
0.0
 51
75.0
  0
LINE
  5
1A3
  8
1
  6
CONTINUOUS
 62
     7
 10
2289.25
 20
-182.7500000000002
 30
0.0
 11
2289.25
 21
-222.2500000000003
 31
0.0
  0
LINE
  5
1A4
  8
1
  6
CONTINUOUS
 62
     7
 10
850.4999999997991
 20
-221.4999999865999
 30
0.0
 11
850.4999999997991
 21
-183.5000000133998
 31
0.0
  0
ARC
  5
1A5
  8
1
  6
CONTINUOUS
 62
     7
 10
2344.749999999999
 20
-182.7500000000002
 30
0.0
 40
15.99999999999824
 50
0.0
 51
90.0
  0
LINE
  5
1A6
  8
1
  6
CONTINUOUS
 62
     7
 10
1403.672075000095
 20
-206.5000000000003
 30
0.0
 11
1403.672075000095
 21
-236.5879555307002
 31
0.0
  0
ARC
  5
1A7
  8
1
  6
CONTINUOUS
 62
     7
 10
1340.918926802096
 20
-231.5000000001001
 30
0.0
 40
1.500000000000057
 50
90.0
 51
170.0
  0
LINE
  5
1A8
  8
1
  6
CONTINUOUS
 62
     7
 10
2300.000000000002
 20
-221.5
 30
0.0
 11
2300.000000000002
 21
-183.5
 31
0.0
  0
ARC
  5
1A9
  8
1
  6
CONTINUOUS
 62
     7
 10
2306.000000000002
 20
-183.5
 30
0.0
 40
6.000000000000227
 50
90.0
 51
180.0
  0
LINE
  5
1AA
  8
1
  6
CONTINUOUS
 62
     7
 10
791.999999995999
 20
-206.5000000000001
 30
0.0
 11
790.0000000001994
 21
-206.8526539607
 31
0.0
  0
LINE
  5
1AB
  8
1
  6
CONTINUOUS
 62
     7
 10
1251.440615172594
 20
-231.2395277336003
 30
0.0
 11
1250.628141243592
 21
-235.8472963561002
 31
0.0
  0
ARC
  5
1AC
  8
1
  6
CONTINUOUS
 62
     7
 10
1326.252076802095
 20
-231.5000000001001
 30
0.0
 40
1.500000000000057
 50
90.0
 51
170.0
  0
LINE
  5
1AD
  8
1
  6
CONTINUOUS
 62
     7
 10
1338.690325000097
 20
-198.5000000000004
 30
0.0
 11
1329.985325000096
 21
-198.5000000000004
 31
0.0
  0
ARC
  5
1AE
  8
1
  6
CONTINUOUS
 62
     7
 10
1225.088773197992
 20
-231.5000000001001
 30
0.0
 40
1.50000000000361
 50
10.0
 51
90.0
  0
LINE
  5
1AF
  8
1
  6
CONTINUOUS
 62
     7
 10
1323.670975000098
 20
-206.5000000000003
 30
0.0
 11
1323.670975000098
 21
-236.5879555308003
 31
0.0
  0
ARC
  5
1B0
  8
1
  6
CONTINUOUS
 62
     7
 10
1296.918376802093
 20
-173.4999999999001
 30
0.0
 40
1.50000000000361
 50
190.0
 51
270.0
  0
LINE
  5
1B1
  8
1
  6
CONTINUOUS
 62
     7
 10
1338.337825000099
 20
-206.5000000000003
 30
0.0
 11
1338.337825000099
 21
-236.5879555308003
 31
0.0
  0
LINE
  5
1B2
  8
1
  6
CONTINUOUS
 62
     7
 10
1323.670975000098
 20
-198.5000000000004
 30
0.0
 11
1323.670975000098
 21
-168.4120444692004
 31
0.0
  0
LINE
  5
1B3
  8
1
  6
CONTINUOUS
 62
     7
 10
1336.659625737595
 20
-237.5000000006002
 30
0.0
 11
1332.016024262495
 21
-237.5000000006002
 31
0.0
  0
LINE
  5
1B4
  8
1
  6
CONTINUOUS
 62
     7
 10
1309.004125000097
 20
-206.5000000000003
 30
0.0
 11
1309.004125000097
 21
-236.5879555308003
 31
0.0
  0
LINE
  5
1B5
  8
1
  6
CONTINUOUS
 62
     7
 10
858.0000000039987
 20
-206.5000000000001
 30
0.0
 11
858.0000000039987
 21
-198.5000000000001
 31
0.0
  0
LINE
  5
1B6
  8
1
  6
CONTINUOUS
 62
     7
 10
806.0000000005991
 20
-237.5000000000003
 30
0.0
 11
843.9999999993977
 21
-237.5000000000003
 31
0.0
  0
ARC
  5
1B7
  8
1
  6
CONTINUOUS
 62
     7
 10
1313.089873197995
 20
-231.5000000001001
 30
0.0
 40
1.500000000000057
 50
10.0
 51
90.0
  0
LINE
  5
1B8
  8
1
  6
CONTINUOUS
 62
     7
 10
1338.690325000097
 20
-206.5000000000003
 30
0.0
 11
1329.985325000096
 21
-206.5000000000003
 31
0.0
  0
LINE
  5
1B9
  8
1
  6
CONTINUOUS
 62
     7
 10
1324.023475000096
 20
-198.5000000000004
 30
0.0
 11
1315.318475000096
 21
-198.5000000000004
 31
0.0
  0
LINE
  5
1BA
  8
1
  6
CONTINUOUS
 62
     7
 10
1236.022375000093
 20
-206.5000000000003
 30
0.0
 11
1236.022375000093
 21
-198.5000000000003
 31
0.0
  0
LINE
  5
1BB
  8
1
  6
CONTINUOUS
 62
     7
 10
1301.004125000094
 20
-198.5000000000004
 30
0.0
 11
1301.004125000094
 21
-168.4120444693003
 31
0.0
  0
ARC
  5
1BC
  8
1
  6
CONTINUOUS
 62
     7
 10
1321.992775737594
 20
-235.5000000007002
 30
0.0
 40
2.000000000002444
 50
270.0
 51
349.9999999999999
  0
LINE
  5
1BD
  8
1
  6
CONTINUOUS
 62
     7
 10
1329.233934827499
 20
-173.7604722664001
 30
0.0
 11
1330.046408756497
 21
-169.1527036441002
 31
0.0
  0
ARC
  5
1BE
  8
1
  6
CONTINUOUS
 62
     7
 10
1292.659075737596
 20
-169.4999999993001
 30
0.0
 40
1.999999999998892
 50
10.0
 51
90.0
  0
LINE
  5
1BF
  8
1
  6
CONTINUOUS
 62
     7
 10
1321.992775737594
 20
-167.4999999994003
 30
0.0
 11
1317.349174262493
 21
-167.4999999994003
 31
0.0
  0
LINE
  5
1C0
  8
1
  6
CONTINUOUS
 62
     7
 10
1309.356625000095
 20
-206.5000000000003
 30
0.0
 11
1300.651625000095
 21
-206.5000000000003
 31
0.0
  0
ARC
  5
1C1
  8
1
  6
CONTINUOUS
 62
     7
 10
1229.348074262499
 20
-235.5000000006003
 30
0.0
 40
1.999999999998892
 50
190.0
 51
270.0
  0
LINE
  5
1C2
  8
1
  6
CONTINUOUS
 62
     7
 10
1295.441165172594
 20
-173.7604722664001
 30
0.0
 11
1294.628691243594
 21
-169.1527036440003
 31
0.0
  0
LINE
  5
1C3
  8
1
  6
CONTINUOUS
 62
     7
 10
2322.499999999999
 20
-162.4999999999999
 30
0.0
 11
2327.5
 21
-162.4999999999999
 31
0.0
  0
ARC
  5
1C4
  8
1
  6
CONTINUOUS
 62
     7
 10
843.9999999995016
 20
-183.5000000134
 30
0.0
 40
8.499999999997954
 50
0.0
 51
90.0
  0
LINE
  5
1C5
  8
1
  6
CONTINUOUS
 62
     7
 10
1326.252076802095
 20
-230.0000000001002
 30
0.0
 11
1327.756723197994
 21
-230.0000000001002
 31
0.0
  0
LINE
  5
1C6
  8
1
  6
CONTINUOUS
 62
     7
 10
1339.441715172597
 20
-173.7604722664001
 30
0.0
 11
1338.629241243597
 21
-169.1527036440003
 31
0.0
  0
LINE
  5
1C7
  8
1
  6
CONTINUOUS
 62
     7
 10
1314.567084827494
 20
-173.7604722664001
 30
0.0
 11
1315.379558756494
 21
-169.1527036441002
 31
0.0
  0
LINE
  5
1C8
  8
1
  6
CONTINUOUS
 62
     7
 10
1315.670975000095
 20
-206.5000000000003
 30
0.0
 11
1315.670975000095
 21
-236.5879555307002
 31
0.0
  0
LINE
  5
1C9
  8
1
  6
CONTINUOUS
 62
     7
 10
1238.250976802095
 20
-230.0000000001002
 30
0.0
 11
1239.755623197997
 21
-230.0000000001002
 31
0.0
  0
LINE
  5
1CA
  8
1
  6
CONTINUOUS
 62
     7
 10
1241.232834827492
 20
-231.2395277336003
 30
0.0
 11
1242.045308756494
 21
-235.8472963559003
 31
0.0
  0
LINE
  5
1CB
  8
1
  6
CONTINUOUS
 62
     7
 10
1223.584126802098
 20
-230.0000000001002
 30
0.0
 11
1225.088773197998
 21
-230.0000000001002
 31
0.0
  0
ARC
  5
1CC
  8
1
  6
CONTINUOUS
 62
     7
 10
1263.325375737594
 20
-169.4999999993001
 30
0.0
 40
1.999999999998892
 50
10.0
 51
90.0
  0
ARC
  5
1CD
  8
1
  6
CONTINUOUS
 62
     7
 10
1307.325925737597
 20
-169.4999999993001
 30
0.0
 40
1.999999999998892
 50
10.0
 51
90.0
  0
LINE
  5
1CE
  8
1
  6
CONTINUOUS
 62
     7
 10
1324.774865172596
 20
-231.2395277336003
 30
0.0
 11
1323.962391243597
 21
-235.8472963561002
 31
0.0
  0
LINE
  5
1CF
  8
1
  6
CONTINUOUS
 62
     7
 10
1282.251526802095
 20
-174.9999999999002
 30
0.0
 11
1283.756173197995
 21
-174.9999999999002
 31
0.0
  0
LINE
  5
1D0
  8
1
  6
CONTINUOUS
 62
     7
 10
1321.992775737594
 20
-237.5000000006002
 30
0.0
 11
1317.349174262493
 21
-237.5000000006002
 31
0.0
  0
LINE
  5
1D1
  8
1
  6
CONTINUOUS
 62
     7
 10
1330.337825000096
 20
-198.5000000000004
 30
0.0
 11
1330.337825000096
 21
-168.4120444693003
 31
0.0
  0
LINE
  5
1D2
  8
1
  6
CONTINUOUS
 62
     7
 10
1326.252076802095
 20
-174.9999999999002
 30
0.0
 11
1327.756723197994
 21
-174.9999999999002
 31
0.0
  0
LINE
  5
1D3
  8
1
  6
CONTINUOUS
 62
     7
 10
2364.693736387499
 20
-222.5458306131
 30
0.0
 11
2364.999999999999
 21
-204.9999999999999
 31
0.0
  0
ARC
  5
1D4
  8
1
  6
CONTINUOUS
 62
     7
 10
806.0000000004002
 20
-221.4999999865999
 30
0.0
 40
6.499999999999062
 50
180.0
 51
270.0
  0
LINE
  5
1D5
  8
1
  6
CONTINUOUS
 62
     7
 10
1960.375027888967
 20
-179.1578973766001
 30
0.0
 11
1960.375001466567
 21
-162.5
 31
0.0
  0
LINE
  5
1D6
  8
1
  6
CONTINUOUS
 62
     7
 10
790.0000000001994
 20
-206.8526539606999
 30
0.0
 11
790.0000000001994
 21
-221.4999999852998
 31
0.0
  0
ARC
  5
1D7
  8
1
  6
CONTINUOUS
 62
     7
 10
1283.756173197996
 20
-173.4999999999001
 30
0.0
 40
1.500000000000057
 50
270.0
 51
349.9999999999999
  0
ARC
  5
1D8
  8
1
  6
CONTINUOUS
 62
     7
 10
1229.348074262499
 20
-169.4999999994004
 30
0.0
 40
1.999999999998892
 50
90.0
 51
170.0
  0
ARC
  5
1D9
  8
1
  6
CONTINUOUS
 62
     7
 10
1326.252076802095
 20
-173.4999999999001
 30
0.0
 40
1.500000000000057
 50
190.0
 51
270.0
  0
ARC
  5
1DA
  8
1
  6
CONTINUOUS
 62
     7
 10
1302.682324262495
 20
-169.4999999994004
 30
0.0
 40
1.999999999998892
 50
90.0
 51
170.0
  0
LINE
  5
1DB
  8
1
  6
CONTINUOUS
 62
     7
 10
1286.337275000096
 20
-198.5000000000004
 30
0.0
 11
1286.337275000096
 21
-168.4120444693003
 31
0.0
  0
LINE
  5
1DC
  8
1
  6
CONTINUOUS
 62
     7
 10
1338.337825000099
 20
-198.5000000000004
 30
0.0
 11
1338.337825000099
 21
-168.4120444692004
 31
0.0
  0
LINE
  5
1DD
  8
1
  6
CONTINUOUS
 62
     7
 10
1300.651625000096
 20
-206.5000000000003
 30
0.0
 11
1300.651625000096
 21
-198.5000000000003
 31
0.0
  0
LINE
  5
1DE
  8
1
  6
CONTINUOUS
 62
     7
 10
1315.318475000097
 20
-206.5000000000003
 30
0.0
 11
1315.318475000097
 21
-198.5000000000003
 31
0.0
  0
ARC
  5
1DF
  8
1
  6
CONTINUOUS
 62
     7
 10
1239.755623197997
 20
-173.4999999999001
 30
0.0
 40
1.500000000000057
 50
270.0
 51
349.9999999999999
  0
LINE
  5
1E0
  8
1
  6
CONTINUOUS
 62
     7
 10
1339.441715172597
 20
-231.2395277336003
 30
0.0
 11
1338.629241243597
 21
-235.8472963561002
 31
0.0
  0
ARC
  5
1E1
  8
1
  6
CONTINUOUS
 62
     7
 10
843.9999999995016
 20
-221.4999999865999
 30
0.0
 40
6.499999999999062
 50
270.0
 51
0.0
  0
ARC
  5
1E2
  8
1
  6
CONTINUOUS
 62
     7
 10
1327.756723197996
 20
-231.5000000001001
 30
0.0
 40
1.500000000000057
 50
10.0
 51
90.0
  0
ARC
  5
1E3
  8
1
  6
CONTINUOUS
 62
     7
 10
1311.585226802094
 20
-173.4999999999001
 30
0.0
 40
1.50000000000361
 50
190.0
 51
270.0
  0
LINE
  5
1E4
  8
1
  6
CONTINUOUS
 62
     7
 10
1252.917826802093
 20
-230.0000000001002
 30
0.0
 11
1254.422473197995
 21
-230.0000000001002
 31
0.0
  0
LINE
  5
1E5
  8
1
  6
CONTINUOUS
 62
     7
 10
2365.0
 20
-200.0000000000001
 30
0.0
 11
2365.0
 21
-204.9999999999999
 31
0.0
  0
LINE
  5
1E6
  8
1
  6
CONTINUOUS
 62
     7
 10
2345.0458306131
 20
-162.8062636125998
 30
0.0
 11
2327.5
 21
-162.5
 31
0.0
  0
ARC
  5
1E7
  8
1
  6
CONTINUOUS
 62
     7
 10
2344.749999999999
 20
-222.2500000000003
 30
0.0
 40
15.99999999999824
 50
270.0
 51
0.0
  0
LINE
  5
1E8
  8
1
  6
CONTINUOUS
 62
     7
 10
1307.325925737597
 20
-167.4999999994003
 30
0.0
 11
1302.682324262497
 21
-167.4999999994003
 31
0.0
  0
LINE
  5
1E9
  8
1
  6
CONTINUOUS
 62
     7
 10
2364.693736387499
 20
-182.4541693869999
 30
0.0
 11
2364.999999999999
 21
-199.9999999999999
 31
0.0
  0
LINE
  5
1EA
  8
1
  6
CONTINUOUS
 62
     7
 10
1285.233384827499
 20
-173.7604722664001
 30
0.0
 11
1286.045858756499
 21
-169.1527036441002
 31
0.0
  0
LINE
  5
1EB
  8
1
  6
CONTINUOUS
 62
     7
 10
1285.014282644699
 20
-230.6840333524001
 30
0.0
 11
1285.014282644699
 21
-174.3159666476002
 31
0.0
  0
LINE
  5
1EC
  8
1
  6
CONTINUOUS
 62
     7
 10
1265.356075000095
 20
-198.5000000000004
 30
0.0
 11
1256.651075000095
 21
-198.5000000000004
 31
0.0
  0
ARC
  5
1ED
  8
1
  6
CONTINUOUS
 62
     7
 10
1239.755623197997
 20
-231.5000000001001
 30
0.0
 40
1.500000000000057
 50
10.0
 51
90.0
  0
LINE
  5
1EE
  8
1
  6
CONTINUOUS
 62
     7
 10
1266.324947355297
 20
-230.6840333524001
 30
0.0
 11
1266.324947355297
 21
-174.3159666476002
 31
0.0
  0
ARC
  5
1EF
  8
1
  6
CONTINUOUS
 62
     7
 10
1332.016024262497
 20
-169.4999999994004
 30
0.0
 40
1.999999999998892
 50
90.0
 51
170.0
  0
LINE
  5
1F0
  8
1
  6
CONTINUOUS
 62
     7
 10
1227.669875000099
 20
-206.5000000000003
 30
0.0
 11
1227.669875000099
 21
-236.5879555307002
 31
0.0
  0
ARC
  5
1F1
  8
1
  6
CONTINUOUS
 62
     7
 10
1298.423023197994
 20
-173.4999999999001
 30
0.0
 40
1.500000000000057
 50
270.0
 51
349.9999999999999
  0
LINE
  5
1F2
  8
1
  6
CONTINUOUS
 62
     7
 10
1236.022375000093
 20
-198.5000000000004
 30
0.0
 11
1227.317375000093
 21
-198.5000000000004
 31
0.0
  0
ARC
  5
1F3
  8
1
  6
CONTINUOUS
 62
     7
 10
1414.253176802095
 20
-173.4999999999001
 30
0.0
 40
1.50000000000361
 50
190.0
 51
270.0
  0
ARC
  5
1F4
  8
1
  6
CONTINUOUS
 62
     7
 10
1233.991675737595
 20
-169.4999999993001
 30
0.0
 40
1.999999999998892
 50
10.0
 51
90.0
  0
LINE
  5
1F5
  8
1
  6
CONTINUOUS
 62
     7
 10
1235.669875000095
 20
-198.5000000000004
 30
0.0
 11
1235.669875000095
 21
-168.4120444692004
 31
0.0
  0
LINE
  5
1F6
  8
1
  6
CONTINUOUS
 62
     7
 10
1339.659197355295
 20
-230.6840333524001
 30
0.0
 11
1339.659197355295
 21
-174.3159666476002
 31
0.0
  0
ARC
  5
1F7
  8
1
  6
CONTINUOUS
 62
     7
 10
1238.250976802095
 20
-173.4999999999001
 30
0.0
 40
1.500000000000057
 50
190.0
 51
270.0
  0
LINE
  5
1F8
  8
1
  6
CONTINUOUS
 62
     7
 10
1265.003575000097
 20
-198.5000000000004
 30
0.0
 11
1265.003575000097
 21
-168.4120444692004
 31
0.0
  0
LINE
  5
1F9
  8
1
  6
CONTINUOUS
 62
     7
 10
1329.014292644696
 20
-230.6840333524001
 30
0.0
 11
1329.014292644696
 21
-174.3159666476002
 31
0.0
  0
LINE
  5
1FA
  8
1
  6
CONTINUOUS
 62
     7
 10
1314.567084827494
 20
-231.2395277336003
 30
0.0
 11
1315.379558756494
 21
-235.8472963559003
 31
0.0
  0
ARC
  5
1FB
  8
1
  6
CONTINUOUS
 62
     7
 10
1225.088773197992
 20
-173.4999999999001
 30
0.0
 40
1.50000000000361
 50
270.0
 51
349.9999999999999
  0
ARC
  5
1FC
  8
1
  6
CONTINUOUS
 62
     7
 10
1409.993875737598
 20
-169.4999999993001
 30
0.0
 40
1.999999999998892
 50
10.0
 51
90.0
  0
ARC
  5
1FD
  8
1
  6
CONTINUOUS
 62
     7
 10
1238.250976802095
 20
-231.5000000001001
 30
0.0
 40
1.500000000000057
 50
90.0
 51
170.0
  0
LINE
  5
1FE
  8
1
  6
CONTINUOUS
 62
     7
 10
1238.250976802095
 20
-174.9999999999002
 30
0.0
 11
1239.755623197997
 21
-174.9999999999002
 31
0.0
  0
LINE
  5
1FF
  8
1
  6
CONTINUOUS
 62
     7
 10
1257.003575000098
 20
-198.5000000000004
 30
0.0
 11
1257.003575000098
 21
-168.4120444693003
 31
0.0
  0
ARC
  5
200
  8
1
  6
CONTINUOUS
 62
     7
 10
1327.756723197996
 20
-173.4999999999001
 30
0.0
 40
1.500000000000057
 50
270.0
 51
349.9999999999999
  0
ARC
  5
201
  8
1
  6
CONTINUOUS
 62
     7
 10
1340.918926802096
 20
-173.4999999999001
 30
0.0
 40
1.500000000000057
 50
190.0
 51
270.0
  0
LINE
  5
202
  8
1
  6
CONTINUOUS
 62
     7
 10
1324.023475000096
 20
-206.5000000000003
 30
0.0
 11
1324.023475000096
 21
-198.5000000000003
 31
0.0
  0
LINE
  5
203
  8
1
  6
CONTINUOUS
 62
     7
 10
1265.356075000095
 20
-206.5000000000003
 30
0.0
 11
1256.651075000095
 21
-206.5000000000003
 31
0.0
  0
LINE
  5
204
  8
1
  6
CONTINUOUS
 62
     7
 10
1125.001925000095
 20
-198.5000000000004
 30
0.0
 11
1125.001925000095
 21
-168.4120444693003
 31
0.0
  0
LINE
  5
205
  8
1
  6
CONTINUOUS
 62
     7
 10
1314.347622644692
 20
-230.6840333524001
 30
0.0
 11
1314.347622644692
 21
-174.3159666476002
 31
0.0
  0
ARC
  5
206
  8
1
  6
CONTINUOUS
 62
     7
 10
1336.659625737595
 20
-169.4999999993001
 30
0.0
 40
1.999999999998892
 50
10.0
 51
90.0
  0
LINE
  5
207
  8
1
  6
CONTINUOUS
 62
     7
 10
1294.689775000097
 20
-206.5000000000003
 30
0.0
 11
1294.689775000097
 21
-198.5000000000003
 31
0.0
  0
LINE
  5
208
  8
1
  6
CONTINUOUS
 62
     7
 10
1315.670975000095
 20
-198.5000000000004
 30
0.0
 11
1315.670975000095
 21
-168.4120444693003
 31
0.0
  0
LINE
  5
209
  8
1
  6
CONTINUOUS
 62
     7
 10
1227.669875000099
 20
-198.5000000000004
 30
0.0
 11
1227.669875000099
 21
-168.4120444693003
 31
0.0
  0
LINE
  5
20A
  8
1
  6
CONTINUOUS
 62
     7
 10
1310.325857355298
 20
-230.6840333524001
 30
0.0
 11
1310.325857355298
 21
-174.3159666476002
 31
0.0
  0
LINE
  5
20B
  8
1
  6
CONTINUOUS
 62
     7
 10
1016.019625000094
 20
-206.5000000000003
 30
0.0
 11
1016.019625000094
 21
-198.5000000000003
 31
0.0
  0
LINE
  5
20C
  8
1
  6
CONTINUOUS
 62
     7
 10
1324.774865172596
 20
-173.7604722664001
 30
0.0
 11
1323.962391243597
 21
-169.1527036440003
 31
0.0
  0
LINE
  5
20D
  8
1
  6
CONTINUOUS
 62
     7
 10
1236.022375000093
 20
-206.5000000000003
 30
0.0
 11
1227.317375000093
 21
-206.5000000000003
 31
0.0
  0
ARC
  5
20E
  8
1
  6
CONTINUOUS
 62
     7
 10
1233.991675737595
 20
-235.5000000007002
 30
0.0
 40
1.999999999998892
 50
270.0
 51
349.9999999999999
  0
LINE
  5
20F
  8
1
  6
CONTINUOUS
 62
     7
 10
1279.670425000098
 20
-198.5000000000004
 30
0.0
 11
1279.670425000098
 21
-168.4120444692004
 31
0.0
  0
ARC
  5
210
  8
1
  6
CONTINUOUS
 62
     7
 10
1317.349174262496
 20
-169.4999999994004
 30
0.0
 40
1.999999999998892
 50
90.0
 51
170.0
  0
LINE
  5
211
  8
1
  6
CONTINUOUS
 62
     7
 10
1233.991675737595
 20
-167.4999999994003
 30
0.0
 11
1229.348074262498
 21
-167.4999999994003
 31
0.0
  0
LINE
  5
212
  8
1
  6
CONTINUOUS
 62
     7
 10
1226.565984827498
 20
-231.2395277336003
 30
0.0
 11
1227.378458756498
 21
-235.8472963559003
 31
0.0
  0
LINE
  5
213
  8
1
  6
CONTINUOUS
 62
     7
 10
1236.773765172596
 20
-173.7604722664001
 30
0.0
 11
1235.961291243595
 21
-169.1527036440003
 31
0.0
  0
ARC
  5
214
  8
1
  6
CONTINUOUS
 62
     7
 10
1282.251526802095
 20
-173.4999999999001
 30
0.0
 40
1.500000000000057
 50
190.0
 51
270.0
  0
LINE
  5
215
  8
1
  6
CONTINUOUS
 62
     7
 10
1336.659625737595
 20
-167.4999999994003
 30
0.0
 11
1332.016024262495
 21
-167.4999999994003
 31
0.0
  0
LINE
  5
216
  8
1
  6
CONTINUOUS
 62
     7
 10
1265.356075000095
 20
-206.5000000000003
 30
0.0
 11
1265.356075000095
 21
-198.5000000000003
 31
0.0
  0
LINE
  5
217
  8
1
  6
CONTINUOUS
 62
     7
 10
1251.658277355293
 20
-230.6840333524001
 30
0.0
 11
1251.658277355293
 21
-174.3159666476002
 31
0.0
  0
LINE
  5
218
  8
1
  6
CONTINUOUS
 62
     7
 10
1226.346702644694
 20
-230.6840333524001
 30
0.0
 11
1226.346702644694
 21
-174.3159666476002
 31
0.0
  0
LINE
  5
219
  8
1
  6
CONTINUOUS
 62
     7
 10
1280.992517355297
 20
-230.6840333524001
 30
0.0
 11
1280.992517355297
 21
-174.3159666476002
 31
0.0
  0
ARC
  5
21A
  8
1
  6
CONTINUOUS
 62
     7
 10
1401.090973197998
 20
-173.4999999999001
 30
0.0
 40
1.500000000000057
 50
270.0
 51
349.9999999999999
  0
LINE
  5
21B
  8
1
  6
CONTINUOUS
 62
     7
 10
1241.013372644697
 20
-230.6840333524001
 30
0.0
 11
1241.013372644697
 21
-174.3159666476002
 31
0.0
  0
LINE
  5
21C
  8
1
  6
CONTINUOUS
 62
     7
 10
1299.9002348275
 20
-173.7604722664001
 30
0.0
 11
1300.7127087565
 21
-169.1527036441002
 31
0.0
  0
LINE
  5
21D
  8
1
  6
CONTINUOUS
 62
     7
 10
1263.325375737594
 20
-237.5000000006002
 30
0.0
 11
1258.681774262494
 21
-237.5000000006002
 31
0.0
  0
LINE
  5
21E
  8
1
  6
CONTINUOUS
 62
     7
 10
1242.336725000093
 20
-206.5000000000003
 30
0.0
 11
1242.336725000093
 21
-236.5879555307002
 31
0.0
  0
LINE
  5
21F
  8
1
  6
CONTINUOUS
 62
     7
 10
1250.336725000096
 20
-206.5000000000003
 30
0.0
 11
1250.336725000096
 21
-236.5879555308003
 31
0.0
  0
LINE
  5
220
  8
1
  6
CONTINUOUS
 62
     7
 10
1222.106915172595
 20
-173.7604722664001
 30
0.0
 11
1221.294441243595
 21
-169.1527036440003
 31
0.0
  0
LINE
  5
221
  8
1
  6
CONTINUOUS
 62
     7
 10
1223.584126802098
 20
-174.9999999999002
 30
0.0
 11
1225.088773197998
 21
-174.9999999999002
 31
0.0
  0
ARC
  5
222
  8
1
  6
CONTINUOUS
 62
     7
 10
1254.422473197994
 20
-231.5000000001001
 30
0.0
 40
1.500000000000057
 50
10.0
 51
90.0
  0
LINE
  5
223
  8
1
  6
CONTINUOUS
 62
     7
 10
1227.317375000094
 20
-206.5000000000003
 30
0.0
 11
1227.317375000094
 21
-198.5000000000003
 31
0.0
  0
LINE
  5
224
  8
1
  6
CONTINUOUS
 62
     7
 10
1402.568184827497
 20
-173.7604722664001
 30
0.0
 11
1403.380658756497
 21
-169.1527036441002
 31
0.0
  0
LINE
  5
225
  8
1
  6
CONTINUOUS
 62
     7
 10
1309.356625000095
 20
-198.5000000000004
 30
0.0
 11
1300.651625000095
 21
-198.5000000000004
 31
0.0
  0
LINE
  5
226
  8
1
  6
CONTINUOUS
 62
     7
 10
1294.689775000097
 20
-206.5000000000003
 30
0.0
 11
1285.984775000097
 21
-206.5000000000003
 31
0.0
  0
LINE
  5
227
  8
1
  6
CONTINUOUS
 62
     7
 10
1324.023475000096
 20
-206.5000000000003
 30
0.0
 11
1315.318475000096
 21
-206.5000000000003
 31
0.0
  0
LINE
  5
228
  8
1
  6
CONTINUOUS
 62
     7
 10
1235.669875000095
 20
-206.5000000000003
 30
0.0
 11
1235.669875000095
 21
-236.5879555308003
 31
0.0
  0
ARC
  5
229
  8
1
  6
CONTINUOUS
 62
     7
 10
1248.658525737592
 20
-169.4999999993001
 30
0.0
 40
2.000000000002444
 50
10.0
 51
90.0
  0
LINE
  5
22A
  8
1
  6
CONTINUOUS
 62
     7
 10
1222.106915172595
 20
-231.2395277336003
 30
0.0
 11
1221.294441243595
 21
-235.8472963561002
 31
0.0
  0
ARC
  5
22B
  8
1
  6
CONTINUOUS
 62
     7
 10
1018.248226802096
 20
-173.4999999999001
 30
0.0
 40
1.500000000000057
 50
190.0
 51
270.0
  0
ARC
  5
22C
  8
1
  6
CONTINUOUS
 62
     7
 10
1032.915076802094
 20
-231.5000000001001
 30
0.0
 40
1.500000000000057
 50
90.0
 51
170.0
  0
LINE
  5
22D
  8
1
  6
CONTINUOUS
 62
     7
 10
1035.896934827494
 20
-231.2395277336003
 30
0.0
 11
1036.709408756493
 21
-235.8472963559003
 31
0.0
  0
LINE
  5
22E
  8
1
  6
CONTINUOUS
 62
     7
 10
999.3220757375946
 20
-167.4999999994003
 30
0.0
 11
994.6784742624949
 21
-167.4999999994003
 31
0.0
  0
LINE
  5
22F
  8
1
  6
CONTINUOUS
 62
     7
 10
993.0002750000954
 20
-198.5000000000004
 30
0.0
 11
993.0002750000954
 21
-168.4120444693003
 31
0.0
  0
LINE
  5
230
  8
1
  6
CONTINUOUS
 62
     7
 10
1006.343952644694
 20
-230.6840333524001
 30
0.0
 11
1006.343952644694
 21
-174.3159666476002
 31
0.0
  0
LINE
  5
231
  8
1
  6
CONTINUOUS
 62
     7
 10
1299.680952644695
 20
-230.6840333524001
 30
0.0
 11
1299.680952644695
 21
-174.3159666476002
 31
0.0
  0
LINE
  5
232
  8
1
  6
CONTINUOUS
 62
     7
 10
1018.248226802096
 20
-230.0000000001002
 30
0.0
 11
1019.752873197997
 21
-230.0000000001002
 31
0.0
  0
ARC
  5
233
  8
1
  6
CONTINUOUS
 62
     7
 10
1223.584126802098
 20
-231.5000000001001
 30
0.0
 40
1.499999999996504
 50
90.0
 51
170.0
  0
LINE
  5
234
  8
1
  6
CONTINUOUS
 62
     7
 10
1035.677292644695
 20
-230.6840333524001
 30
0.0
 11
1035.677292644695
 21
-174.3159666476002
 31
0.0
  0
LINE
  5
235
  8
1
  6
CONTINUOUS
 62
     7
 10
1050.563784827495
 20
-173.7604722664001
 30
0.0
 11
1051.376258756495
 21
-169.1527036441002
 31
0.0
  0
LINE
  5
236
  8
1
  6
CONTINUOUS
 62
     7
 10
1003.581376802095
 20
-174.9999999999002
 30
0.0
 11
1005.086023197995
 21
-174.9999999999002
 31
0.0
  0
LINE
  5
237
  8
1
  6
CONTINUOUS
 62
     7
 10
1031.655527355294
 20
-230.6840333524001
 30
0.0
 11
1031.655527355294
 21
-174.3159666476002
 31
0.0
  0
ARC
  5
238
  8
1
  6
CONTINUOUS
 62
     7
 10
1032.915076802094
 20
-173.4999999999001
 30
0.0
 40
1.500000000000057
 50
190.0
 51
270.0
  0
ARC
  5
239
  8
1
  6
CONTINUOUS
 62
     7
 10
1321.992775737594
 20
-169.4999999993001
 30
0.0
 40
2.000000000002444
 50
10.0
 51
90.0
  0
LINE
  5
23A
  8
1
  6
CONTINUOUS
 62
     7
 10
1324.992527355295
 20
-230.6840333524001
 30
0.0
 11
1324.992527355295
 21
-174.3159666476002
 31
0.0
  0
LINE
  5
23B
  8
1
  6
CONTINUOUS
 62
     7
 10
1021.230084827493
 20
-231.2395277336003
 30
0.0
 11
1022.042558756492
 21
-235.8472963559003
 31
0.0
  0
ARC
  5
23C
  8
1
  6
CONTINUOUS
 62
     7
 10
1018.248226802096
 20
-231.5000000001001
 30
0.0
 40
1.500000000000057
 50
90.0
 51
170.0
  0
LINE
  5
23D
  8
1
  6
CONTINUOUS
 62
     7
 10
1233.991675737595
 20
-237.5000000006002
 30
0.0
 11
1229.348074262498
 21
-237.5000000006002
 31
0.0
  0
LINE
  5
23E
  8
1
  6
CONTINUOUS
 62
     7
 10
1045.000825000094
 20
-206.5000000000003
 30
0.0
 11
1045.000825000094
 21
-236.5879555308003
 31
0.0
  0
LINE
  5
23F
  8
1
  6
CONTINUOUS
 62
     7
 10
1248.658525737592
 20
-237.5000000006002
 30
0.0
 11
1244.014924262492
 21
-237.5000000006002
 31
0.0
  0
ARC
  5
240
  8
1
  6
CONTINUOUS
 62
     7
 10
1038.679024262496
 20
-169.4999999994004
 30
0.0
 40
1.999999999998892
 50
90.0
 51
170.0
  0
LINE
  5
241
  8
1
  6
CONTINUOUS
 62
     7
 10
1046.104715172596
 20
-231.2395277336003
 30
0.0
 11
1045.292241243597
 21
-235.8472963561002
 31
0.0
  0
ARC
  5
242
  8
1
  6
CONTINUOUS
 62
     7
 10
1013.988925737596
 20
-235.5000000007002
 30
0.0
 40
1.999999999998892
 50
270.0
 51
349.9999999999999
  0
LINE
  5
243
  8
1
  6
CONTINUOUS
 62
     7
 10
1295.659187355294
 20
-230.6840333524001
 30
0.0
 11
1295.659187355294
 21
-174.3159666476002
 31
0.0
  0
ARC
  5
244
  8
1
  6
CONTINUOUS
 62
     7
 10
1038.679024262496
 20
-235.5000000006003
 30
0.0
 40
1.999999999998892
 50
190.0
 51
270.0
  0
ARC
  5
245
  8
1
  6
CONTINUOUS
 62
     7
 10
990.4191731979951
 20
-173.4999999999001
 30
0.0
 40
1.500000000000057
 50
270.0
 51
349.9999999999999
  0
ARC
  5
246
  8
1
  6
CONTINUOUS
 62
     7
 10
1047.581926802095
 20
-173.4999999999001
 30
0.0
 40
1.500000000000057
 50
190.0
 51
270.0
  0
ARC
  5
247
  8
1
  6
CONTINUOUS
 62
     7
 10
1005.086023197993
 20
-231.5000000001001
 30
0.0
 40
1.50000000000361
 50
10.0
 51
90.0
  0
ARC
  5
248
  8
1
  6
CONTINUOUS
 62
     7
 10
1043.322625737595
 20
-169.4999999993001
 30
0.0
 40
1.999999999998892
 50
10.0
 51
90.0
  0
LINE
  5
249
  8
1
  6
CONTINUOUS
 62
     7
 10
1043.322625737595
 20
-167.4999999994003
 30
0.0
 11
1038.679024262494
 21
-167.4999999994003
 31
0.0
  0
ARC
  5
24A
  8
1
  6
CONTINUOUS
 62
     7
 10
1019.752873197994
 20
-231.5000000001001
 30
0.0
 40
1.50000000000361
 50
10.0
 51
90.0
  0
LINE
  5
24B
  8
1
  6
CONTINUOUS
 62
     7
 10
1013.988925737596
 20
-237.5000000006002
 30
0.0
 11
1009.345324262496
 21
-237.5000000006002
 31
0.0
  0
LINE
  5
24C
  8
1
  6
CONTINUOUS
 62
     7
 10
1006.563234827492
 20
-231.2395277336003
 30
0.0
 11
1007.375708756492
 21
-235.8472963559003
 31
0.0
  0
LINE
  5
24D
  8
1
  6
CONTINUOUS
 62
     7
 10
1266.107465172595
 20
-231.2395277336003
 30
0.0
 11
1265.294991243596
 21
-235.8472963561002
 31
0.0
  0
LINE
  5
24E
  8
1
  6
CONTINUOUS
 62
     7
 10
1045.353325000096
 20
-206.5000000000003
 30
0.0
 11
1045.353325000096
 21
-198.5000000000003
 31
0.0
  0
ARC
  5
24F
  8
1
  6
CONTINUOUS
 62
     7
 10
1009.345324262493
 20
-235.5000000006003
 30
0.0
 40
2.000000000002444
 50
190.0
 51
270.0
  0
ARC
  5
250
  8
1
  6
CONTINUOUS
 62
     7
 10
1336.659625737595
 20
-235.5000000007002
 30
0.0
 40
1.999999999998892
 50
270.0
 51
349.9999999999999
  0
LINE
  5
251
  8
1
  6
CONTINUOUS
 62
     7
 10
977.0106126446934
 20
-230.6840333524001
 30
0.0
 11
977.0106126446934
 21
-174.3159666476002
 31
0.0
  0
ARC
  5
252
  8
1
  6
CONTINUOUS
 62
     7
 10
1019.752873197994
 20
-173.4999999999001
 30
0.0
 40
1.50000000000361
 50
270.0
 51
349.9999999999999
  0
ARC
  5
253
  8
1
  6
CONTINUOUS
 62
     7
 10
1028.655775737593
 20
-169.4999999993001
 30
0.0
 40
2.000000000002444
 50
10.0
 51
90.0
  0
ARC
  5
254
  8
1
  6
CONTINUOUS
 62
     7
 10
1024.012174262494
 20
-235.5000000006003
 30
0.0
 40
1.999999999998892
 50
190.0
 51
270.0
  0
LINE
  5
255
  8
1
  6
CONTINUOUS
 62
     7
 10
1226.565984827498
 20
-173.7604722664001
 30
0.0
 11
1227.378458756498
 21
-169.1527036441002
 31
0.0
  0
LINE
  5
256
  8
1
  6
CONTINUOUS
 62
     7
 10
1046.104715172596
 20
-173.7604722664001
 30
0.0
 11
1045.292241243597
 21
-169.1527036440003
 31
0.0
  0
ARC
  5
257
  8
1
  6
CONTINUOUS
 62
     7
 10
994.6784742624958
 20
-235.5000000006003
 30
0.0
 40
1.999999999998892
 50
190.0
 51
270.0
  0
LINE
  5
258
  8
1
  6
CONTINUOUS
 62
     7
 10
1001.352775000096
 20
-206.5000000000003
 30
0.0
 11
1001.352775000096
 21
-198.5000000000003
 31
0.0
  0
LINE
  5
259
  8
1
  6
CONTINUOUS
 62
     7
 10
1035.896934827494
 20
-173.7604722664001
 30
0.0
 11
1036.709408756493
 21
-169.1527036441002
 31
0.0
  0
ARC
  5
25A
  8
1
  6
CONTINUOUS
 62
     7
 10
1009.345324262493
 20
-169.4999999994004
 30
0.0
 40
2.000000000002444
 50
90.0
 51
170.0
  0
ARC
  5
25B
  8
1
  6
CONTINUOUS
 62
     7
 10
1252.917826802093
 20
-231.5000000001001
 30
0.0
 40
1.500000000000057
 50
90.0
 51
170.0
  0
LINE
  5
25C
  8
1
  6
CONTINUOUS
 62
     7
 10
1051.315175000095
 20
-206.5000000000003
 30
0.0
 11
1051.315175000095
 21
-198.5000000000003
 31
0.0
  0
LINE
  5
25D
  8
1
  6
CONTINUOUS
 62
     7
 10
1016.771015172597
 20
-173.7604722664001
 30
0.0
 11
1015.958541243597
 21
-169.1527036440003
 31
0.0
  0
ARC
  5
25E
  8
1
  6
CONTINUOUS
 62
     7
 10
1013.988925737596
 20
-169.4999999993001
 30
0.0
 40
1.999999999998892
 50
10.0
 51
90.0
  0
LINE
  5
25F
  8
1
  6
CONTINUOUS
 62
     7
 10
1002.104165172596
 20
-173.7604722664001
 30
0.0
 11
1001.291691243596
 21
-169.1527036440003
 31
0.0
  0
LINE
  5
260
  8
1
  6
CONTINUOUS
 62
     7
 10
1329.233934827499
 20
-231.2395277336003
 30
0.0
 11
1330.046408756497
 21
-235.8472963559003
 31
0.0
  0
LINE
  5
261
  8
1
  6
CONTINUOUS
 62
     7
 10
1236.773765172596
 20
-231.2395277336003
 30
0.0
 11
1235.961291243595
 21
-235.8472963561002
 31
0.0
  0
LINE
  5
262
  8
1
  6
CONTINUOUS
 62
     7
 10
1022.333975000094
 20
-206.5000000000003
 30
0.0
 11
1022.333975000094
 21
-236.5879555307002
 31
0.0
  0
ARC
  5
263
  8
1
  6
CONTINUOUS
 62
     7
 10
1043.322625737595
 20
-235.5000000007002
 30
0.0
 40
1.999999999998892
 50
270.0
 51
349.9999999999999
  0
ARC
  5
264
  8
1
  6
CONTINUOUS
 62
     7
 10
1223.584126802098
 20
-173.4999999999001
 30
0.0
 40
1.499999999996504
 50
190.0
 51
270.0
  0
LINE
  5
265
  8
1
  6
CONTINUOUS
 62
     7
 10
1001.352775000096
 20
-198.5000000000004
 30
0.0
 11
992.6477750000963
 21
-198.5000000000004
 31
0.0
  0
LINE
  5
266
  8
1
  6
CONTINUOUS
 62
     7
 10
1030.686475000095
 20
-206.5000000000003
 30
0.0
 11
1021.981475000096
 21
-206.5000000000003
 31
0.0
  0
LINE
  5
267
  8
1
  6
CONTINUOUS
 62
     7
 10
1057.989475737596
 20
-167.4999999994003
 30
0.0
 11
1053.345874262495
 21
-167.4999999994003
 31
0.0
  0
LINE
  5
268
  8
1
  6
CONTINUOUS
 62
     7
 10
1075.438415172595
 20
-173.7604722664001
 30
0.0
 11
1074.625941243595
 21
-169.1527036440003
 31
0.0
  0
LINE
  5
269
  8
1
  6
CONTINUOUS
 62
     7
 10
1109.231184827496
 20
-173.7604722664001
 30
0.0
 11
1110.043658756496
 21
-169.1527036441002
 31
0.0
  0
LINE
  5
26A
  8
1
  6
CONTINUOUS
 62
     7
 10
1047.581926802095
 20
-230.0000000001002
 30
0.0
 11
1049.086573197995
 21
-230.0000000001002
 31
0.0
  0
LINE
  5
26B
  8
1
  6
CONTINUOUS
 62
     7
 10
1074.687025000098
 20
-206.5000000000003
 30
0.0
 11
1065.982025000098
 21
-206.5000000000003
 31
0.0
  0
LINE
  5
26C
  8
1
  6
CONTINUOUS
 62
     7
 10
1037.000825000095
 20
-206.5000000000003
 30
0.0
 11
1037.000825000095
 21
-236.5879555307002
 31
0.0
  0
LINE
  5
26D
  8
1
  6
CONTINUOUS
 62
     7
 10
1045.353325000096
 20
-206.5000000000003
 30
0.0
 11
1036.648325000096
 21
-206.5000000000003
 31
0.0
  0
LINE
  5
26E
  8
1
  6
CONTINUOUS
 62
     7
 10
1045.000825000094
 20
-198.5000000000004
 30
0.0
 11
1045.000825000094
 21
-168.4120444692004
 31
0.0
  0
ARC
  5
26F
  8
1
  6
CONTINUOUS
 62
     7
 10
994.6784742624958
 20
-169.4999999994004
 30
0.0
 40
1.999999999998892
 50
90.0
 51
170.0
  0
LINE
  5
270
  8
1
  6
CONTINUOUS
 62
     7
 10
1072.656325737597
 20
-167.4999999994003
 30
0.0
 11
1068.012724262497
 21
-167.4999999994003
 31
0.0
  0
LINE
  5
271
  8
1
  6
CONTINUOUS
 62
     7
 10
1030.686475000095
 20
-206.5000000000003
 30
0.0
 11
1030.686475000095
 21
-198.5000000000003
 31
0.0
  0
LINE
  5
272
  8
1
  6
CONTINUOUS
 62
     7
 10
1094.564334827495
 20
-231.2395277336003
 30
0.0
 11
1095.376808756495
 21
-235.8472963559003
 31
0.0
  0
LINE
  5
273
  8
1
  6
CONTINUOUS
 62
     7
 10
1104.020725000097
 20
-198.5000000000004
 30
0.0
 11
1095.315725000097
 21
-198.5000000000004
 31
0.0
  0
LINE
  5
274
  8
1
  6
CONTINUOUS
 62
     7
 10
1116.656875737596
 20
-237.5000000006002
 30
0.0
 11
1112.013274262496
 21
-237.5000000006002
 31
0.0
  0
LINE
  5
275
  8
1
  6
CONTINUOUS
 62
     7
 10
1119.438965172598
 20
-173.7604722664001
 30
0.0
 11
1118.626491243598
 21
-169.1527036440003
 31
0.0
  0
LINE
  5
276
  8
1
  6
CONTINUOUS
 62
     7
 10
1065.230634827496
 20
-231.2395277336003
 30
0.0
 11
1066.043108756495
 21
-235.8472963559003
 31
0.0
  0
LINE
  5
277
  8
1
  6
CONTINUOUS
 62
     7
 10
1060.020175000097
 20
-198.5000000000004
 30
0.0
 11
1051.315175000098
 21
-198.5000000000004
 31
0.0
  0
LINE
  5
278
  8
1
  6
CONTINUOUS
 62
     7
 10
1125.001925000095
 20
-206.5000000000003
 30
0.0
 11
1125.001925000095
 21
-236.5879555307002
 31
0.0
  0
LINE
  5
279
  8
1
  6
CONTINUOUS
 62
     7
 10
1036.648325000097
 20
-206.5000000000003
 30
0.0
 11
1036.648325000097
 21
-198.5000000000003
 31
0.0
  0
LINE
  5
27A
  8
1
  6
CONTINUOUS
 62
     7
 10
1016.771015172597
 20
-231.2395277336003
 30
0.0
 11
1015.958541243597
 21
-235.8472963561002
 31
0.0
  0
LINE
  5
27B
  8
1
  6
CONTINUOUS
 62
     7
 10
1015.667125000092
 20
-198.5000000000004
 30
0.0
 11
1015.667125000092
 21
-168.4120444692004
 31
0.0
  0
LINE
  5
27C
  8
1
  6
CONTINUOUS
 62
     7
 10
1109.982575000099
 20
-206.5000000000003
 30
0.0
 11
1109.982575000099
 21
-198.5000000000003
 31
0.0
  0
LINE
  5
27D
  8
1
  6
CONTINUOUS
 62
     7
 10
1015.667125000092
 20
-206.5000000000003
 30
0.0
 11
1015.667125000092
 21
-236.5879555308003
 31
0.0
  0
LINE
  5
27E
  8
1
  6
CONTINUOUS
 62
     7
 10
1047.581926802095
 20
-174.9999999999002
 30
0.0
 11
1049.086573197995
 21
-174.9999999999002
 31
0.0
  0
LINE
  5
27F
  8
1
  6
CONTINUOUS
 62
     7
 10
1031.437865172595
 20
-173.7604722664001
 30
0.0
 11
1030.625391243595
 21
-169.1527036440003
 31
0.0
  0
LINE
  5
280
  8
1
  6
CONTINUOUS
 62
     7
 10
1065.982025000096
 20
-206.5000000000003
 30
0.0
 11
1065.982025000096
 21
-198.5000000000003
 31
0.0
  0
LINE
  5
281
  8
1
  6
CONTINUOUS
 62
     7
 10
1110.335075000097
 20
-198.5000000000004
 30
0.0
 11
1110.335075000097
 21
-168.4120444693003
 31
0.0
  0
LINE
  5
282
  8
1
  6
CONTINUOUS
 62
     7
 10
1101.990025737595
 20
-167.4999999994003
 30
0.0
 11
1097.346424262495
 21
-167.4999999994003
 31
0.0
  0
LINE
  5
283
  8
1
  6
CONTINUOUS
 62
     7
 10
1118.687575000098
 20
-206.5000000000003
 30
0.0
 11
1118.687575000098
 21
-198.5000000000003
 31
0.0
  0
LINE
  5
284
  8
1
  6
CONTINUOUS
 62
     7
 10
1050.563784827495
 20
-231.2395277336003
 30
0.0
 11
1051.376258756495
 21
-235.8472963559003
 31
0.0
  0
LINE
  5
285
  8
1
  6
CONTINUOUS
 62
     7
 10
1031.437865172595
 20
-231.2395277336003
 30
0.0
 11
1030.625391243595
 21
-235.8472963561002
 31
0.0
  0
LINE
  5
286
  8
1
  6
CONTINUOUS
 62
     7
 10
1109.231184827496
 20
-231.2395277336003
 30
0.0
 11
1110.043658756496
 21
-235.8472963559003
 31
0.0
  0
LINE
  5
287
  8
1
  6
CONTINUOUS
 62
     7
 10
1007.667125000093
 20
-206.5000000000003
 30
0.0
 11
1007.667125000093
 21
-236.5879555307002
 31
0.0
  0
LINE
  5
288
  8
1
  6
CONTINUOUS
 62
     7
 10
1021.981475000096
 20
-206.5000000000003
 30
0.0
 11
1021.981475000096
 21
-198.5000000000003
 31
0.0
  0
LINE
  5
289
  8
1
  6
CONTINUOUS
 62
     7
 10
1074.334525000093
 20
-198.5000000000004
 30
0.0
 11
1074.334525000093
 21
-168.4120444692004
 31
0.0
  0
LINE
  5
28A
  8
1
  6
CONTINUOUS
 62
     7
 10
992.6477750000971
 20
-206.5000000000003
 30
0.0
 11
992.6477750000971
 21
-198.5000000000003
 31
0.0
  0
LINE
  5
28B
  8
1
  6
CONTINUOUS
 62
     7
 10
1051.667675000093
 20
-198.5000000000004
 30
0.0
 11
1051.667675000093
 21
-168.4120444693003
 31
0.0
  0
LINE
  5
28C
  8
1
  6
CONTINUOUS
 62
     7
 10
1013.988925737596
 20
-167.4999999994003
 30
0.0
 11
1009.345324262496
 21
-167.4999999994003
 31
0.0
  0
LINE
  5
28D
  8
1
  6
CONTINUOUS
 62
     7
 10
1120.916176802097
 20
-230.0000000001002
 30
0.0
 11
1122.420823197998
 21
-230.0000000001002
 31
0.0
  0
LINE
  5
28E
  8
1
  6
CONTINUOUS
 62
     7
 10
1120.916176802097
 20
-174.9999999999002
 30
0.0
 11
1122.420823197998
 21
-174.9999999999002
 31
0.0
  0
LINE
  5
28F
  8
1
  6
CONTINUOUS
 62
     7
 10
1182.345792644699
 20
-230.6840333524001
 30
0.0
 11
1182.345792644699
 21
-174.3159666476002
 31
0.0
  0
LINE
  5
290
  8
1
  6
CONTINUOUS
 62
     7
 10
1118.687575000098
 20
-206.5000000000003
 30
0.0
 11
1109.982575000098
 21
-206.5000000000003
 31
0.0
  0
LINE
  5
291
  8
1
  6
CONTINUOUS
 62
     7
 10
1110.335075000097
 20
-206.5000000000003
 30
0.0
 11
1110.335075000097
 21
-236.5879555307002
 31
0.0
  0
LINE
  5
292
  8
1
  6
CONTINUOUS
 62
     7
 10
1051.667675000093
 20
-206.5000000000003
 30
0.0
 11
1051.667675000093
 21
-236.5879555307002
 31
0.0
  0
ARC
  5
293
  8
1
  6
CONTINUOUS
 62
     7
 10
1047.581926802095
 20
-231.5000000001001
 30
0.0
 40
1.500000000000057
 50
90.0
 51
170.0
  0
LINE
  5
294
  8
1
  6
CONTINUOUS
 62
     7
 10
1060.020175000097
 20
-206.5000000000003
 30
0.0
 11
1060.020175000097
 21
-198.5000000000003
 31
0.0
  0
LINE
  5
295
  8
1
  6
CONTINUOUS
 62
     7
 10
1002.322187355293
 20
-230.6840333524001
 30
0.0
 11
1002.322187355293
 21
-174.3159666476002
 31
0.0
  0
LINE
  5
296
  8
1
  6
CONTINUOUS
 62
     7
 10
987.655517355296
 20
-230.6840333524001
 30
0.0
 11
987.655517355296
 21
-174.3159666476002
 31
0.0
  0
LINE
  5
297
  8
1
  6
CONTINUOUS
 62
     7
 10
1043.322625737595
 20
-237.5000000006002
 30
0.0
 11
1038.679024262494
 21
-237.5000000006002
 31
0.0
  0
LINE
  5
298
  8
1
  6
CONTINUOUS
 62
     7
 10
1065.230634827496
 20
-173.7604722664001
 30
0.0
 11
1066.043108756495
 21
-169.1527036441002
 31
0.0
  0
LINE
  5
299
  8
1
  6
CONTINUOUS
 62
     7
 10
1021.010622644695
 20
-230.6840333524001
 30
0.0
 11
1021.010622644695
 21
-174.3159666476002
 31
0.0
  0
ARC
  5
29A
  8
1
  6
CONTINUOUS
 62
     7
 10
1005.086023197993
 20
-173.4999999999001
 30
0.0
 40
1.50000000000361
 50
270.0
 51
349.9999999999999
  0
LINE
  5
29B
  8
1
  6
CONTINUOUS
 62
     7
 10
1119.438965172598
 20
-231.2395277336003
 30
0.0
 11
1118.626491243598
 21
-235.8472963561002
 31
0.0
  0
LINE
  5
29C
  8
1
  6
CONTINUOUS
 62
     7
 10
1074.687025000098
 20
-198.5000000000004
 30
0.0
 11
1065.982025000098
 21
-198.5000000000004
 31
0.0
  0
LINE
  5
29D
  8
1
  6
CONTINUOUS
 62
     7
 10
1045.353325000096
 20
-198.5000000000004
 30
0.0
 11
1036.648325000096
 21
-198.5000000000004
 31
0.0
  0
LINE
  5
29E
  8
1
  6
CONTINUOUS
 62
     7
 10
1046.322197355294
 20
-230.6840333524001
 30
0.0
 11
1046.322197355294
 21
-174.3159666476002
 31
0.0
  0
LINE
  5
29F
  8
1
  6
CONTINUOUS
 62
     7
 10
1016.019625000094
 20
-206.5000000000003
 30
0.0
 11
1007.314625000094
 21
-206.5000000000003
 31
0.0
  0
ARC
  5
2A0
  8
1
  6
CONTINUOUS
 62
     7
 10
1034.419723197995
 20
-173.4999999999001
 30
0.0
 40
1.500000000000057
 50
270.0
 51
349.9999999999999
  0
ARC
  5
2A1
  8
1
  6
CONTINUOUS
 62
     7
 10
1003.581376802095
 20
-173.4999999999001
 30
0.0
 40
1.500000000000057
 50
190.0
 51
270.0
  0
LINE
  5
2A2
  8
1
  6
CONTINUOUS
 62
     7
 10
1037.000825000095
 20
-198.5000000000004
 30
0.0
 11
1037.000825000095
 21
-168.4120444693003
 31
0.0
  0
LINE
  5
2A3
  8
1
  6
CONTINUOUS
 62
     7
 10
1065.011532644693
 20
-230.6840333524001
 30
0.0
 11
1065.011532644693
 21
-174.3159666476002
 31
0.0
  0
LINE
  5
2A4
  8
1
  6
CONTINUOUS
 62
     7
 10
1066.334525000094
 20
-198.5000000000004
 30
0.0
 11
1066.334525000094
 21
-168.4120444693003
 31
0.0
  0
LINE
  5
2A5
  8
1
  6
CONTINUOUS
 62
     7
 10
1198.336175000097
 20
-198.5000000000004
 30
0.0
 11
1198.336175000097
 21
-168.4120444693003
 31
0.0
  0
LINE
  5
2A6
  8
1
  6
CONTINUOUS
 62
     7
 10
1050.343962644696
 20
-230.6840333524001
 30
0.0
 11
1050.343962644696
 21
-174.3159666476002
 31
0.0
  0
LINE
  5
2A7
  8
1
  6
CONTINUOUS
 62
     7
 10
1095.315725000098
 20
-206.5000000000003
 30
0.0
 11
1095.315725000098
 21
-198.5000000000003
 31
0.0
  0
LINE
  5
2A8
  8
1
  6
CONTINUOUS
 62
     7
 10
1060.020175000097
 20
-206.5000000000003
 30
0.0
 11
1051.315175000098
 21
-206.5000000000003
 31
0.0
  0
LINE
  5
2A9
  8
1
  6
CONTINUOUS
 62
     7
 10
1104.772115172597
 20
-173.7604722664001
 30
0.0
 11
1103.959641243597
 21
-169.1527036440003
 31
0.0
  0
LINE
  5
2AA
  8
1
  6
CONTINUOUS
 62
     7
 10
1104.020725000097
 20
-206.5000000000003
 30
0.0
 11
1095.315725000097
 21
-206.5000000000003
 31
0.0
  0
LINE
  5
2AB
  8
1
  6
CONTINUOUS
 62
     7
 10
1106.249326802096
 20
-174.9999999999002
 30
0.0
 11
1107.753973197996
 21
-174.9999999999002
 31
0.0
  0
LINE
  5
2AC
  8
1
  6
CONTINUOUS
 62
     7
 10
1075.438415172595
 20
-231.2395277336003
 30
0.0
 11
1074.625941243595
 21
-235.8472963561002
 31
0.0
  0
LINE
  5
2AD
  8
1
  6
CONTINUOUS
 62
     7
 10
1118.335075000093
 20
-206.5000000000003
 30
0.0
 11
1118.335075000093
 21
-236.5879555308003
 31
0.0
  0
LINE
  5
2AE
  8
1
  6
CONTINUOUS
 62
     7
 10
1134.105815172599
 20
-173.7604722664001
 30
0.0
 11
1133.293341243598
 21
-169.1527036440003
 31
0.0
  0
LINE
  5
2AF
  8
1
  6
CONTINUOUS
 62
     7
 10
1145.990575737595
 20
-167.4999999994003
 30
0.0
 11
1141.346974262495
 21
-167.4999999994003
 31
0.0
  0
LINE
  5
2B0
  8
1
  6
CONTINUOUS
 62
     7
 10
974.9999999999973
 20
-230.0000000001002
 30
0.0
 11
974.9999999999973
 21
-175.0000000011003
 31
0.0
  0
LINE
  5
2B1
  8
1
  6
CONTINUOUS
 62
     7
 10
1074.334525000093
 20
-206.5000000000003
 30
0.0
 11
1074.334525000093
 21
-236.5879555308003
 31
0.0
  0
LINE
  5
2B2
  8
1
  6
CONTINUOUS
 62
     7
 10
991.6772826446975
 20
-230.6840333524001
 30
0.0
 11
991.6772826446975
 21
-174.3159666476002
 31
0.0
  0
LINE
  5
2B3
  8
1
  6
CONTINUOUS
 62
     7
 10
1145.990575737595
 20
-237.5000000006002
 30
0.0
 11
1141.346974262495
 21
-237.5000000006002
 31
0.0
  0
LINE
  5
2B4
  8
1
  6
CONTINUOUS
 62
     7
 10
1133.001925000094
 20
-198.5000000000004
 30
0.0
 11
1133.001925000094
 21
-168.4120444692004
 31
0.0
  0
LINE
  5
2B5
  8
1
  6
CONTINUOUS
 62
     7
 10
1091.582476802095
 20
-174.9999999999002
 30
0.0
 11
1093.087123197995
 21
-174.9999999999002
 31
0.0
  0
LINE
  5
2B6
  8
1
  6
CONTINUOUS
 62
     7
 10
1134.105815172599
 20
-231.2395277336003
 30
0.0
 11
1133.293341243598
 21
-235.8472963561002
 31
0.0
  0
LINE
  5
2B7
  8
1
  6
CONTINUOUS
 62
     7
 10
1016.988857355297
 20
-230.6840333524001
 30
0.0
 11
1016.988857355297
 21
-174.3159666476002
 31
0.0
  0
LINE
  5
2B8
  8
1
  6
CONTINUOUS
 62
     7
 10
1147.668775000095
 20
-206.5000000000003
 30
0.0
 11
1147.668775000095
 21
-236.5879555308003
 31
0.0
  0
LINE
  5
2B9
  8
1
  6
CONTINUOUS
 62
     7
 10
1175.324275737597
 20
-237.5000000006002
 30
0.0
 11
1170.680674262497
 21
-237.5000000006002
 31
0.0
  0
LINE
  5
2BA
  8
1
  6
CONTINUOUS
 62
     7
 10
1060.989767355291
 20
-230.6840333524001
 30
0.0
 11
1060.989767355291
 21
-174.3159666476002
 31
0.0
  0
LINE
  5
2BB
  8
1
  6
CONTINUOUS
 62
     7
 10
1138.564884827495
 20
-231.2395277336003
 30
0.0
 11
1139.377358756496
 21
-235.8472963559003
 31
0.0
  0
LINE
  5
2BC
  8
1
  6
CONTINUOUS
 62
     7
 10
1089.353875000096
 20
-206.5000000000003
 30
0.0
 11
1080.648875000096
 21
-206.5000000000003
 31
0.0
  0
LINE
  5
2BD
  8
1
  6
CONTINUOUS
 62
     7
 10
1066.334525000094
 20
-206.5000000000003
 30
0.0
 11
1066.334525000094
 21
-236.5879555307002
 31
0.0
  0
LINE
  5
2BE
  8
1
  6
CONTINUOUS
 62
     7
 10
1133.354425000096
 20
-206.5000000000003
 30
0.0
 11
1133.354425000096
 21
-198.5000000000003
 31
0.0
  0
LINE
  5
2BF
  8
1
  6
CONTINUOUS
 62
     7
 10
1103.668225000095
 20
-198.5000000000004
 30
0.0
 11
1103.668225000095
 21
-168.4120444692004
 31
0.0
  0
LINE
  5
2C0
  8
1
  6
CONTINUOUS
 62
     7
 10
1131.323725737598
 20
-237.5000000006002
 30
0.0
 11
1126.680124262496
 21
-237.5000000006002
 31
0.0
  0
LINE
  5
2C1
  8
1
  6
CONTINUOUS
 62
     7
 10
1134.324017355293
 20
-230.6840333524001
 30
0.0
 11
1134.324017355293
 21
-174.3159666476002
 31
0.0
  0
LINE
  5
2C2
  8
1
  6
CONTINUOUS
 62
     7
 10
1072.656325737597
 20
-237.5000000006002
 30
0.0
 11
1068.012724262497
 21
-237.5000000006002
 31
0.0
  0
LINE
  5
2C3
  8
1
  6
CONTINUOUS
 62
     7
 10
1079.897484827494
 20
-173.7604722664001
 30
0.0
 11
1080.709958756494
 21
-169.1527036441002
 31
0.0
  0
LINE
  5
2C4
  8
1
  6
CONTINUOUS
 62
     7
 10
1089.353875000096
 20
-198.5000000000004
 30
0.0
 11
1080.648875000096
 21
-198.5000000000004
 31
0.0
  0
LINE
  5
2C5
  8
1
  6
CONTINUOUS
 62
     7
 10
1118.687575000098
 20
-198.5000000000004
 30
0.0
 11
1109.982575000098
 21
-198.5000000000004
 31
0.0
  0
LINE
  5
2C6
  8
1
  6
CONTINUOUS
 62
     7
 10
1197.012462644693
 20
-230.6840333524001
 30
0.0
 11
1197.012462644693
 21
-174.3159666476002
 31
0.0
  0
LINE
  5
2C7
  8
1
  6
CONTINUOUS
 62
     7
 10
1182.565434827498
 20
-173.7604722664001
 30
0.0
 11
1183.377908756497
 21
-169.1527036441002
 31
0.0
  0
LINE
  5
2C8
  8
1
  6
CONTINUOUS
 62
     7
 10
1116.656875737596
 20
-167.4999999994003
 30
0.0
 11
1112.013274262496
 21
-167.4999999994003
 31
0.0
  0
LINE
  5
2C9
  8
1
  6
CONTINUOUS
 62
     7
 10
1118.335075000093
 20
-198.5000000000004
 30
0.0
 11
1118.335075000093
 21
-168.4120444692004
 31
0.0
  0
LINE
  5
2CA
  8
1
  6
CONTINUOUS
 62
     7
 10
1030.686475000095
 20
-198.5000000000004
 30
0.0
 11
1021.981475000096
 21
-198.5000000000004
 31
0.0
  0
LINE
  5
2CB
  8
1
  6
CONTINUOUS
 62
     7
 10
1197.232284827496
 20
-231.2395277336003
 30
0.0
 11
1198.044758756494
 21
-235.8472963559003
 31
0.0
  0
LINE
  5
2CC
  8
1
  6
CONTINUOUS
 62
     7
 10
1106.249326802096
 20
-230.0000000001002
 30
0.0
 11
1107.753973197996
 21
-230.0000000001002
 31
0.0
  0
LINE
  5
2CD
  8
1
  6
CONTINUOUS
 62
     7
 10
1147.668775000095
 20
-198.5000000000004
 30
0.0
 11
1147.668775000095
 21
-168.4120444692004
 31
0.0
  0
LINE
  5
2CE
  8
1
  6
CONTINUOUS
 62
     7
 10
1197.232284827496
 20
-173.7604722664001
 30
0.0
 11
1198.044758756494
 21
-169.1527036441002
 31
0.0
  0
LINE
  5
2CF
  8
1
  6
CONTINUOUS
 62
     7
 10
1139.668775000096
 20
-198.5000000000004
 30
0.0
 11
1139.668775000096
 21
-168.4120444693003
 31
0.0
  0
LINE
  5
2D0
  8
1
  6
CONTINUOUS
 62
     7
 10
1074.687025000098
 20
-206.5000000000003
 30
0.0
 11
1074.687025000098
 21
-198.5000000000003
 31
0.0
  0
ARC
  5
2D1
  8
1
  6
CONTINUOUS
 62
     7
 10
1034.419723197995
 20
-231.5000000001001
 30
0.0
 40
1.500000000000057
 50
10.0
 51
90.0
  0
LINE
  5
2D2
  8
1
  6
CONTINUOUS
 62
     7
 10
1080.648875000097
 20
-206.5000000000003
 30
0.0
 11
1080.648875000097
 21
-198.5000000000003
 31
0.0
  0
LINE
  5
2D3
  8
1
  6
CONTINUOUS
 62
     7
 10
1104.020725000097
 20
-206.5000000000003
 30
0.0
 11
1104.020725000097
 21
-198.5000000000003
 31
0.0
  0
LINE
  5
2D4
  8
1
  6
CONTINUOUS
 62
     7
 10
1131.323725737598
 20
-167.4999999994003
 30
0.0
 11
1126.680124262496
 21
-167.4999999994003
 31
0.0
  0
LINE
  5
2D5
  8
1
  6
CONTINUOUS
 62
     7
 10
1139.668775000096
 20
-206.5000000000003
 30
0.0
 11
1139.668775000096
 21
-236.5879555307002
 31
0.0
  0
LINE
  5
2D6
  8
1
  6
CONTINUOUS
 62
     7
 10
1094.564334827495
 20
-173.7604722664001
 30
0.0
 11
1095.376808756496
 21
-169.1527036441002
 31
0.0
  0
LINE
  5
2D7
  8
1
  6
CONTINUOUS
 62
     7
 10
1133.001925000094
 20
-206.5000000000003
 30
0.0
 11
1133.001925000094
 21
-236.5879555308003
 31
0.0
  0
LINE
  5
2D8
  8
1
  6
CONTINUOUS
 62
     7
 10
1198.336175000097
 20
-206.5000000000003
 30
0.0
 11
1198.336175000097
 21
-236.5879555307002
 31
0.0
  0
LINE
  5
2D9
  8
1
  6
CONTINUOUS
 62
     7
 10
1091.582476802095
 20
-230.0000000001002
 30
0.0
 11
1093.087123197995
 21
-230.0000000001002
 31
0.0
  0
LINE
  5
2DA
  8
1
  6
CONTINUOUS
 62
     7
 10
1163.657357355294
 20
-230.6840333524001
 30
0.0
 11
1163.657357355294
 21
-174.3159666476002
 31
0.0
  0
LINE
  5
2DB
  8
1
  6
CONTINUOUS
 62
     7
 10
1191.669325000095
 20
-198.5000000000004
 30
0.0
 11
1191.669325000095
 21
-168.4120444692004
 31
0.0
  0
LINE
  5
2DC
  8
1
  6
CONTINUOUS
 62
     7
 10
1135.583026802098
 20
-174.9999999999002
 30
0.0
 11
1137.087673197998
 21
-174.9999999999002
 31
0.0
  0
LINE
  5
2DD
  8
1
  6
CONTINUOUS
 62
     7
 10
1103.668225000095
 20
-206.5000000000003
 30
0.0
 11
1103.668225000095
 21
-236.5879555308003
 31
0.0
  0
LINE
  5
2DE
  8
1
  6
CONTINUOUS
 62
     7
 10
1497.994975737597
 20
-237.5000000006002
 30
0.0
 11
1493.351374262497
 21
-237.5000000006002
 31
0.0
  0
LINE
  5
2DF
  8
1
  6
CONTINUOUS
 62
     7
 10
1167.898584827497
 20
-231.2395277336003
 30
0.0
 11
1168.711058756497
 21
-235.8472963559003
 31
0.0
  0
LINE
  5
2E0
  8
1
  6
CONTINUOUS
 62
     7
 10
1857.020712644697
 20
-230.6840333524001
 30
0.0
 11
1857.020712644697
 21
-174.3159666476002
 31
0.0
  0
LINE
  5
2E1
  8
1
  6
CONTINUOUS
 62
     7
 10
1076.915626802094
 20
-230.0000000001002
 30
0.0
 11
1078.420273197995
 21
-230.0000000001002
 31
0.0
  0
LINE
  5
2E2
  8
1
  6
CONTINUOUS
 62
     7
 10
1822.696375000099
 20
-206.5000000000003
 30
0.0
 11
1822.696375000099
 21
-198.5000000000003
 31
0.0
  0
LINE
  5
2E3
  8
1
  6
CONTINUOUS
 62
     7
 10
1822.696375000099
 20
-198.5000000000004
 30
0.0
 11
1813.991375000099
 21
-198.5000000000004
 31
0.0
  0
LINE
  5
2E4
  8
1
  6
CONTINUOUS
 62
     7
 10
1183.669325000096
 20
-206.5000000000003
 30
0.0
 11
1183.669325000096
 21
-236.5879555307002
 31
0.0
  0
LINE
  5
2E5
  8
1
  6
CONTINUOUS
 62
     7
 10
1839.591826802099
 20
-230.0000000001002
 30
0.0
 11
1841.096473197998
 21
-230.0000000001002
 31
0.0
  0
ARC
  5
2E6
  8
1
  6
CONTINUOUS
 62
     7
 10
1801.355224262497
 20
-169.4999999994004
 30
0.0
 40
1.999999999998892
 50
90.0
 51
170.0
  0
LINE
  5
2E7
  8
1
  6
CONTINUOUS
 62
     7
 10
1177.354975000095
 20
-198.5000000000004
 30
0.0
 11
1168.649975000096
 21
-198.5000000000004
 31
0.0
  0
LINE
  5
2E8
  8
1
  6
CONTINUOUS
 62
     7
 10
1138.564884827495
 20
-173.7604722664001
 30
0.0
 11
1139.377358756496
 21
-169.1527036441002
 31
0.0
  0
LINE
  5
2E9
  8
1
  6
CONTINUOUS
 62
     7
 10
1148.772665172593
 20
-231.2395277336003
 30
0.0
 11
1147.960191243593
 21
-235.8472963561002
 31
0.0
  0
LINE
  5
2EA
  8
1
  6
CONTINUOUS
 62
     7
 10
1823.447765172598
 20
-173.7604722664001
 30
0.0
 11
1822.635291243598
 21
-169.1527036440003
 31
0.0
  0
LINE
  5
2EB
  8
1
  6
CONTINUOUS
 62
     7
 10
1153.231734827496
 20
-231.2395277336003
 30
0.0
 11
1154.044208756497
 21
-235.8472963559003
 31
0.0
  0
LINE
  5
2EC
  8
1
  6
CONTINUOUS
 62
     7
 10
1095.668225000096
 20
-206.5000000000003
 30
0.0
 11
1095.668225000096
 21
-236.5879555307002
 31
0.0
  0
LINE
  5
2ED
  8
1
  6
CONTINUOUS
 62
     7
 10
1133.354425000096
 20
-206.5000000000003
 30
0.0
 11
1124.649425000096
 21
-206.5000000000003
 31
0.0
  0
LINE
  5
2EE
  8
1
  6
CONTINUOUS
 62
     7
 10
1104.772115172597
 20
-231.2395277336003
 30
0.0
 11
1103.959641243597
 21
-235.8472963561002
 31
0.0
  0
LINE
  5
2EF
  8
1
  6
CONTINUOUS
 62
     7
 10
1138.345782644695
 20
-230.6840333524001
 30
0.0
 11
1138.345782644695
 21
-174.3159666476002
 31
0.0
  0
LINE
  5
2F0
  8
1
  6
CONTINUOUS
 62
     7
 10
1148.021275000093
 20
-206.5000000000003
 30
0.0
 11
1139.316275000093
 21
-206.5000000000003
 31
0.0
  0
ARC
  5
2F1
  8
1
  6
CONTINUOUS
 62
     7
 10
1855.763323197997
 20
-173.4999999999001
 30
0.0
 40
1.500000000000057
 50
270.0
 51
349.9999999999999
  0
LINE
  5
2F2
  8
1
  6
CONTINUOUS
 62
     7
 10
1089.001375000094
 20
-198.5000000000004
 30
0.0
 11
1089.001375000094
 21
-168.4120444692004
 31
0.0
  0
LINE
  5
2F3
  8
1
  6
CONTINUOUS
 62
     7
 10
1824.924976802098
 20
-174.9999999999002
 30
0.0
 11
1826.429623197998
 21
-174.9999999999002
 31
0.0
  0
LINE
  5
2F4
  8
1
  6
CONTINUOUS
 62
     7
 10
1163.439515172598
 20
-173.7604722664001
 30
0.0
 11
1162.627041243597
 21
-169.1527036440003
 31
0.0
  0
LINE
  5
2F5
  8
1
  6
CONTINUOUS
 62
     7
 10
1183.316825000098
 20
-206.5000000000003
 30
0.0
 11
1183.316825000098
 21
-198.5000000000003
 31
0.0
  0
LINE
  5
2F6
  8
1
  6
CONTINUOUS
 62
     7
 10
1194.250426802096
 20
-174.9999999999002
 30
0.0
 11
1195.755073197996
 21
-174.9999999999002
 31
0.0
  0
LINE
  5
2F7
  8
1
  6
CONTINUOUS
 62
     7
 10
1133.354425000096
 20
-198.5000000000004
 30
0.0
 11
1124.649425000096
 21
-198.5000000000004
 31
0.0
  0
LINE
  5
2F8
  8
1
  6
CONTINUOUS
 62
     7
 10
1177.002475000097
 20
-206.5000000000003
 30
0.0
 11
1177.002475000097
 21
-236.5879555308003
 31
0.0
  0
LINE
  5
2F9
  8
1
  6
CONTINUOUS
 62
     7
 10
1813.239984827497
 20
-231.2395277336003
 30
0.0
 11
1814.052458756496
 21
-235.8472963559003
 31
0.0
  0
LINE
  5
2FA
  8
1
  6
CONTINUOUS
 62
     7
 10
1154.335625000097
 20
-206.5000000000003
 30
0.0
 11
1154.335625000097
 21
-236.5879555307002
 31
0.0
  0
LINE
  5
2FB
  8
1
  6
CONTINUOUS
 62
     7
 10
1153.983125000099
 20
-206.5000000000003
 30
0.0
 11
1153.983125000099
 21
-198.5000000000003
 31
0.0
  0
LINE
  5
2FC
  8
1
  6
CONTINUOUS
 62
     7
 10
1150.249876802096
 20
-174.9999999999002
 30
0.0
 11
1151.754523197996
 21
-174.9999999999002
 31
0.0
  0
LINE
  5
2FD
  8
1
  6
CONTINUOUS
 62
     7
 10
1838.332277355299
 20
-230.6840333524001
 30
0.0
 11
1838.332277355299
 21
-174.3159666476002
 31
0.0
  0
LINE
  5
2FE
  8
1
  6
CONTINUOUS
 62
     7
 10
1153.012452644691
 20
-230.6840333524001
 30
0.0
 11
1153.012452644691
 21
-174.3159666476002
 31
0.0
  0
LINE
  5
2FF
  8
1
  6
CONTINUOUS
 62
     7
 10
1559.661947355298
 20
-230.6840333524001
 30
0.0
 11
1559.661947355298
 21
-174.3159666476002
 31
0.0
  0
ARC
  5
300
  8
1
  6
CONTINUOUS
 62
     7
 10
1824.924976802098
 20
-231.5000000001001
 30
0.0
 40
1.500000000000057
 50
90.0
 51
170.0
  0
LINE
  5
301
  8
1
  6
CONTINUOUS
 62
     7
 10
1192.0218250001
 20
-206.5000000000003
 30
0.0
 11
1183.316825000101
 21
-206.5000000000003
 31
0.0
  0
LINE
  5
302
  8
1
  6
CONTINUOUS
 62
     7
 10
1167.898584827497
 20
-173.7604722664001
 30
0.0
 11
1168.711058756498
 21
-169.1527036441002
 31
0.0
  0
LINE
  5
303
  8
1
  6
CONTINUOUS
 62
     7
 10
1162.335625000096
 20
-198.5000000000004
 30
0.0
 11
1162.335625000096
 21
-168.4120444692004
 31
0.0
  0
LINE
  5
304
  8
1
  6
CONTINUOUS
 62
     7
 10
1090.105265172596
 20
-173.7604722664001
 30
0.0
 11
1089.292791243595
 21
-169.1527036440003
 31
0.0
  0
LINE
  5
305
  8
1
  6
CONTINUOUS
 62
     7
 10
1087.323175737598
 20
-167.4999999994003
 30
0.0
 11
1082.679574262498
 21
-167.4999999994003
 31
0.0
  0
LINE
  5
306
  8
1
  6
CONTINUOUS
 62
     7
 10
1101.990025737595
 20
-237.5000000006002
 30
0.0
 11
1097.346424262495
 21
-237.5000000006002
 31
0.0
  0
LINE
  5
307
  8
1
  6
CONTINUOUS
 62
     7
 10
1148.021275000093
 20
-198.5000000000004
 30
0.0
 11
1139.316275000093
 21
-198.5000000000004
 31
0.0
  0
LINE
  5
308
  8
1
  6
CONTINUOUS
 62
     7
 10
1087.323175737598
 20
-237.5000000006002
 30
0.0
 11
1082.679574262498
 21
-237.5000000006002
 31
0.0
  0
LINE
  5
309
  8
1
  6
CONTINUOUS
 62
     7
 10
1095.668225000096
 20
-198.5000000000004
 30
0.0
 11
1095.668225000096
 21
-168.4120444693003
 31
0.0
  0
LINE
  5
30A
  8
1
  6
CONTINUOUS
 62
     7
 10
1164.916726802097
 20
-174.9999999999002
 30
0.0
 11
1166.421373197997
 21
-174.9999999999002
 31
0.0
  0
LINE
  5
30B
  8
1
  6
CONTINUOUS
 62
     7
 10
1148.772665172593
 20
-173.7604722664001
 30
0.0
 11
1147.960191243593
 21
-169.1527036440003
 31
0.0
  0
LINE
  5
30C
  8
1
  6
CONTINUOUS
 62
     7
 10
1178.324027355294
 20
-230.6840333524001
 30
0.0
 11
1178.324027355294
 21
-174.3159666476002
 31
0.0
  0
LINE
  5
30D
  8
1
  6
CONTINUOUS
 62
     7
 10
1827.687372644696
 20
-230.6840333524001
 30
0.0
 11
1827.687372644696
 21
-174.3159666476002
 31
0.0
  0
LINE
  5
30E
  8
1
  6
CONTINUOUS
 62
     7
 10
1089.001375000094
 20
-206.5000000000003
 30
0.0
 11
1089.001375000094
 21
-236.5879555308003
 31
0.0
  0
LINE
  5
30F
  8
1
  6
CONTINUOUS
 62
     7
 10
1076.915626802094
 20
-174.9999999999002
 30
0.0
 11
1078.420273197995
 21
-174.9999999999002
 31
0.0
  0
ARC
  5
310
  8
1
  6
CONTINUOUS
 62
     7
 10
1816.022074262498
 20
-169.4999999994004
 30
0.0
 40
1.999999999998892
 50
90.0
 51
170.0
  0
LINE
  5
311
  8
1
  6
CONTINUOUS
 62
     7
 10
1820.665675737597
 20
-167.4999999994003
 30
0.0
 11
1816.022074262497
 21
-167.4999999994003
 31
0.0
  0
LINE
  5
312
  8
1
  6
CONTINUOUS
 62
     7
 10
1837.010725000098
 20
-206.5000000000003
 30
0.0
 11
1837.010725000098
 21
-236.5879555308003
 31
0.0
  0
LINE
  5
313
  8
1
  6
CONTINUOUS
 62
     7
 10
1135.583026802098
 20
-230.0000000001002
 30
0.0
 11
1137.087673197998
 21
-230.0000000001002
 31
0.0
  0
LINE
  5
314
  8
1
  6
CONTINUOUS
 62
     7
 10
1079.897484827494
 20
-231.2395277336003
 30
0.0
 11
1080.709958756494
 21
-235.8472963559003
 31
0.0
  0
LINE
  5
315
  8
1
  6
CONTINUOUS
 62
     7
 10
1081.001375000095
 20
-206.5000000000003
 30
0.0
 11
1081.001375000095
 21
-236.5879555307002
 31
0.0
  0
LINE
  5
316
  8
1
  6
CONTINUOUS
 62
     7
 10
1139.316275000098
 20
-206.5000000000003
 30
0.0
 11
1139.316275000098
 21
-198.5000000000003
 31
0.0
  0
LINE
  5
317
  8
1
  6
CONTINUOUS
 62
     7
 10
1148.021275000093
 20
-206.5000000000003
 30
0.0
 11
1148.021275000093
 21
-198.5000000000003
 31
0.0
  0
LINE
  5
318
  8
1
  6
CONTINUOUS
 62
     7
 10
1081.001375000095
 20
-198.5000000000004
 30
0.0
 11
1081.001375000095
 21
-168.4120444693003
 31
0.0
  0
LINE
  5
319
  8
1
  6
CONTINUOUS
 62
     7
 10
1090.105265172596
 20
-231.2395277336003
 30
0.0
 11
1089.292791243595
 21
-235.8472963561002
 31
0.0
  0
LINE
  5
31A
  8
1
  6
CONTINUOUS
 62
     7
 10
1089.353875000096
 20
-206.5000000000003
 30
0.0
 11
1089.353875000096
 21
-198.5000000000003
 31
0.0
  0
LINE
  5
31B
  8
1
  6
CONTINUOUS
 62
     7
 10
1160.657425737596
 20
-167.4999999994003
 30
0.0
 11
1156.013824262497
 21
-167.4999999994003
 31
0.0
  0
LINE
  5
31C
  8
1
  6
CONTINUOUS
 62
     7
 10
1007.667125000093
 20
-198.5000000000004
 30
0.0
 11
1007.667125000093
 21
-168.4120444693003
 31
0.0
  0
LINE
  5
31D
  8
1
  6
CONTINUOUS
 62
     7
 10
1373.015202644698
 20
-230.6840333524001
 30
0.0
 11
1373.015202644698
 21
-174.3159666476002
 31
0.0
  0
LINE
  5
31E
  8
1
  6
CONTINUOUS
 62
     7
 10
1374.338375000096
 20
-198.5000000000004
 30
0.0
 11
1374.338375000096
 21
-168.4120444693003
 31
0.0
  0
LINE
  5
31F
  8
1
  6
CONTINUOUS
 62
     7
 10
1398.326777355297
 20
-230.6840333524001
 30
0.0
 11
1398.326777355297
 21
-174.3159666476002
 31
0.0
  0
LINE
  5
320
  8
1
  6
CONTINUOUS
 62
     7
 10
1383.442265172597
 20
-173.7604722664001
 30
0.0
 11
1382.629791243596
 21
-169.1527036440003
 31
0.0
  0
LINE
  5
321
  8
1
  6
CONTINUOUS
 62
     7
 10
1162.335625000096
 20
-206.5000000000003
 30
0.0
 11
1162.335625000096
 21
-236.5879555308003
 31
0.0
  0
LINE
  5
322
  8
1
  6
CONTINUOUS
 62
     7
 10
1382.338375000095
 20
-206.5000000000003
 30
0.0
 11
1382.338375000095
 21
-236.5879555308003
 31
0.0
  0
LINE
  5
323
  8
1
  6
CONTINUOUS
 62
     7
 10
1182.565434827498
 20
-231.2395277336003
 30
0.0
 11
1183.377908756497
 21
-235.8472963559003
 31
0.0
  0
LINE
  5
324
  8
1
  6
CONTINUOUS
 62
     7
 10
1380.660175737595
 20
-237.5000000006002
 30
0.0
 11
1376.016574262496
 21
-237.5000000006002
 31
0.0
  0
LINE
  5
325
  8
1
  6
CONTINUOUS
 62
     7
 10
1530.328607355301
 20
-230.6840333524001
 30
0.0
 11
1530.328607355301
 21
-174.3159666476002
 31
0.0
  0
LINE
  5
326
  8
1
  6
CONTINUOUS
 62
     7
 10
1183.669325000096
 20
-198.5000000000004
 30
0.0
 11
1183.669325000096
 21
-168.4120444693003
 31
0.0
  0
LINE
  5
327
  8
1
  6
CONTINUOUS
 62
     7
 10
1398.109115172598
 20
-231.2395277336003
 30
0.0
 11
1397.296641243598
 21
-235.8472963561002
 31
0.0
  0
LINE
  5
328
  8
1
  6
CONTINUOUS
 62
     7
 10
1178.106365172592
 20
-173.7604722664001
 30
0.0
 11
1177.293891243592
 21
-169.1527036440003
 31
0.0
  0
LINE
  5
329
  8
1
  6
CONTINUOUS
 62
     7
 10
1864.6662257376
 20
-167.4999999994003
 30
0.0
 11
1860.0226242625
 21
-167.4999999994003
 31
0.0
  0
LINE
  5
32A
  8
1
  6
CONTINUOUS
 62
     7
 10
1814.343875000098
 20
-198.5000000000004
 30
0.0
 11
1814.343875000098
 21
-168.4120444693003
 31
0.0
  0
ARC
  5
32B
  8
1
  6
CONTINUOUS
 62
     7
 10
1361.349724262495
 20
-169.4999999994004
 30
0.0
 40
1.999999999998892
 50
90.0
 51
170.0
  0
LINE
  5
32C
  8
1
  6
CONTINUOUS
 62
     7
 10
988.9145268020941
 20
-174.9999999999002
 30
0.0
 11
990.4191731979942
 21
-174.9999999999002
 31
0.0
  0
LINE
  5
32D
  8
1
  6
CONTINUOUS
 62
     7
 10
1373.985875000098
 20
-206.5000000000003
 30
0.0
 11
1373.985875000098
 21
-198.5000000000003
 31
0.0
  0
LINE
  5
32E
  8
1
  6
CONTINUOUS
 62
     7
 10
1382.690875000097
 20
-206.5000000000003
 30
0.0
 11
1382.690875000097
 21
-198.5000000000003
 31
0.0
  0
LINE
  5
32F
  8
1
  6
CONTINUOUS
 62
     7
 10
1382.690875000097
 20
-198.5000000000004
 30
0.0
 11
1373.985875000097
 21
-198.5000000000004
 31
0.0
  0
LINE
  5
330
  8
1
  6
CONTINUOUS
 62
     7
 10
1389.005225000094
 20
-206.5000000000003
 30
0.0
 11
1389.005225000094
 21
-236.5879555307002
 31
0.0
  0
LINE
  5
331
  8
1
  6
CONTINUOUS
 62
     7
 10
1119.656447355296
 20
-230.6840333524001
 30
0.0
 11
1119.656447355296
 21
-174.3159666476002
 31
0.0
  0
ARC
  5
332
  8
1
  6
CONTINUOUS
 62
     7
 10
1820.665675737597
 20
-235.5000000007002
 30
0.0
 40
1.999999999998892
 50
270.0
 51
349.9999999999999
  0
LINE
  5
333
  8
1
  6
CONTINUOUS
 62
     7
 10
1192.990697355295
 20
-230.6840333524001
 30
0.0
 11
1192.990697355295
 21
-174.3159666476002
 31
0.0
  0
LINE
  5
334
  8
1
  6
CONTINUOUS
 62
     7
 10
1192.0218250001
 20
-206.5000000000003
 30
0.0
 11
1192.0218250001
 21
-198.5000000000003
 31
0.0
  0
LINE
  5
335
  8
1
  6
CONTINUOUS
 62
     7
 10
1813.991375000099
 20
-206.5000000000003
 30
0.0
 11
1813.991375000099
 21
-198.5000000000003
 31
0.0
  0
ARC
  5
336
  8
1
  6
CONTINUOUS
 62
     7
 10
1864.6662257376
 20
-169.4999999993001
 30
0.0
 40
1.999999999998892
 50
10.0
 51
90.0
  0
LINE
  5
337
  8
1
  6
CONTINUOUS
 62
     7
 10
1829.010725000095
 20
-206.5000000000003
 30
0.0
 11
1829.010725000095
 21
-236.5879555307002
 31
0.0
  0
LINE
  5
338
  8
1
  6
CONTINUOUS
 62
     7
 10
1001.000275000091
 20
-206.5000000000003
 30
0.0
 11
1001.000275000091
 21
-236.5879555308003
 31
0.0
  0
ARC
  5
339
  8
1
  6
CONTINUOUS
 62
     7
 10
988.9145268020941
 20
-173.4999999999001
 30
0.0
 40
1.500000000000057
 50
190.0
 51
270.0
  0
LINE
  5
33A
  8
1
  6
CONTINUOUS
 62
     7
 10
1075.656437355295
 20
-230.6840333524001
 30
0.0
 11
1075.656437355295
 21
-174.3159666476002
 31
0.0
  0
LINE
  5
33B
  8
1
  6
CONTINUOUS
 62
     7
 10
1382.338375000095
 20
-198.5000000000004
 30
0.0
 11
1382.338375000095
 21
-168.4120444692004
 31
0.0
  0
LINE
  5
33C
  8
1
  6
CONTINUOUS
 62
     7
 10
1189.991125737595
 20
-237.5000000006002
 30
0.0
 11
1185.347524262495
 21
-237.5000000006002
 31
0.0
  0
LINE
  5
33D
  8
1
  6
CONTINUOUS
 62
     7
 10
1164.916726802097
 20
-230.0000000001002
 30
0.0
 11
1166.421373197997
 21
-230.0000000001002
 31
0.0
  0
LINE
  5
33E
  8
1
  6
CONTINUOUS
 62
     7
 10
1383.442265172597
 20
-231.2395277336003
 30
0.0
 11
1382.629791243596
 21
-235.8472963561002
 31
0.0
  0
LINE
  5
33F
  8
1
  6
CONTINUOUS
 62
     7
 10
1194.250426802096
 20
-230.0000000001002
 30
0.0
 11
1195.755073197996
 21
-230.0000000001002
 31
0.0
  0
LINE
  5
340
  8
1
  6
CONTINUOUS
 62
     7
 10
1384.919476802096
 20
-174.9999999999002
 30
0.0
 11
1386.424123197996
 21
-174.9999999999002
 31
0.0
  0
LINE
  5
341
  8
1
  6
CONTINUOUS
 62
     7
 10
1402.348542644698
 20
-230.6840333524001
 30
0.0
 11
1402.348542644698
 21
-174.3159666476002
 31
0.0
  0
LINE
  5
342
  8
1
  6
CONTINUOUS
 62
     7
 10
1109.011542644694
 20
-230.6840333524001
 30
0.0
 11
1109.011542644694
 21
-174.3159666476002
 31
0.0
  0
LINE
  5
343
  8
1
  6
CONTINUOUS
 62
     7
 10
1838.1146151726
 20
-231.2395277336003
 30
0.0
 11
1837.3021412436
 21
-235.8472963561002
 31
0.0
  0
ARC
  5
344
  8
1
  6
CONTINUOUS
 62
     7
 10
1811.762773197997
 20
-231.5000000001001
 30
0.0
 40
1.500000000000057
 50
10.0
 51
90.0
  0
LINE
  5
345
  8
1
  6
CONTINUOUS
 62
     7
 10
977.980925000096
 20
-206.5000000000003
 30
0.0
 11
977.980925000096
 21
-198.5000000000003
 31
0.0
  0
LINE
  5
346
  8
1
  6
CONTINUOUS
 62
     7
 10
1212.650525000096
 20
-206.5000000000003
 30
0.0
 11
1212.650525000096
 21
-198.5000000000003
 31
0.0
  0
LINE
  5
347
  8
1
  6
CONTINUOUS
 62
     7
 10
1857.240534827497
 20
-173.7604722664001
 30
0.0
 11
1858.053008756496
 21
-169.1527036441002
 31
0.0
  0
LINE
  5
348
  8
1
  6
CONTINUOUS
 62
     7
 10
1162.688125000094
 20
-206.5000000000003
 30
0.0
 11
1153.983125000095
 21
-206.5000000000003
 31
0.0
  0
LINE
  5
349
  8
1
  6
CONTINUOUS
 62
     7
 10
1178.106365172592
 20
-231.2395277336003
 30
0.0
 11
1177.293891243592
 21
-235.8472963561002
 31
0.0
  0
LINE
  5
34A
  8
1
  6
CONTINUOUS
 62
     7
 10
1374.338375000096
 20
-206.5000000000003
 30
0.0
 11
1374.338375000096
 21
-236.5879555307002
 31
0.0
  0
LINE
  5
34B
  8
1
  6
CONTINUOUS
 62
     7
 10
988.9145268020941
 20
-230.0000000001002
 30
0.0
 11
990.4191731979942
 21
-230.0000000001002
 31
0.0
  0
LINE
  5
34C
  8
1
  6
CONTINUOUS
 62
     7
 10
1368.024025000096
 20
-206.5000000000003
 30
0.0
 11
1359.319025000096
 21
-206.5000000000003
 31
0.0
  0
LINE
  5
34D
  8
1
  6
CONTINUOUS
 62
     7
 10
1148.990687355297
 20
-230.6840333524001
 30
0.0
 11
1148.990687355297
 21
-174.3159666476002
 31
0.0
  0
LINE
  5
34E
  8
1
  6
CONTINUOUS
 62
     7
 10
1001.352775000096
 20
-206.5000000000003
 30
0.0
 11
992.6477750000963
 21
-206.5000000000003
 31
0.0
  0
LINE
  5
34F
  8
1
  6
CONTINUOUS
 62
     7
 10
1824.924976802098
 20
-230.0000000001002
 30
0.0
 11
1826.429623197998
 21
-230.0000000001002
 31
0.0
  0
LINE
  5
350
  8
1
  6
CONTINUOUS
 62
     7
 10
1090.323107355299
 20
-230.6840333524001
 30
0.0
 11
1090.323107355299
 21
-174.3159666476002
 31
0.0
  0
LINE
  5
351
  8
1
  6
CONTINUOUS
 62
     7
 10
1028.655775737593
 20
-237.5000000006002
 30
0.0
 11
1024.012174262493
 21
-237.5000000006002
 31
0.0
  0
LINE
  5
352
  8
1
  6
CONTINUOUS
 62
     7
 10
977.2295348274931
 20
-231.2395277336003
 30
0.0
 11
978.042008756493
 21
-235.8472963559003
 31
0.0
  0
LINE
  5
353
  8
1
  6
CONTINUOUS
 62
     7
 10
1192.773215172593
 20
-231.2395277336003
 30
0.0
 11
1191.960741243598
 21
-235.8472963561002
 31
0.0
  0
LINE
  5
354
  8
1
  6
CONTINUOUS
 62
     7
 10
1060.771565172597
 20
-173.7604722664001
 30
0.0
 11
1059.959091243596
 21
-169.1527036440003
 31
0.0
  0
LINE
  5
355
  8
1
  6
CONTINUOUS
 62
     7
 10
1383.6601073553
 20
-230.6840333524001
 30
0.0
 11
1383.6601073553
 21
-174.3159666476002
 31
0.0
  0
LINE
  5
356
  8
1
  6
CONTINUOUS
 62
     7
 10
1822.696375000099
 20
-206.5000000000003
 30
0.0
 11
1813.991375000099
 21
-206.5000000000003
 31
0.0
  0
ARC
  5
357
  8
1
  6
CONTINUOUS
 62
     7
 10
1380.660175737595
 20
-235.5000000007002
 30
0.0
 40
1.999999999998892
 50
270.0
 51
349.9999999999999
  0
LINE
  5
358
  8
1
  6
CONTINUOUS
 62
     7
 10
1163.439515172598
 20
-231.2395277336003
 30
0.0
 11
1162.627041243597
 21
-235.8472963561002
 31
0.0
  0
LINE
  5
359
  8
1
  6
CONTINUOUS
 62
     7
 10
1822.343875000097
 20
-206.5000000000003
 30
0.0
 11
1822.343875000097
 21
-236.5879555308003
 31
0.0
  0
LINE
  5
35A
  8
1
  6
CONTINUOUS
 62
     7
 10
1207.658267355295
 20
-230.6840333524001
 30
0.0
 11
1207.658267355295
 21
-174.3159666476002
 31
0.0
  0
LINE
  5
35B
  8
1
  6
CONTINUOUS
 62
     7
 10
1358.347632644694
 20
-230.6840333524001
 30
0.0
 11
1358.347632644694
 21
-174.3159666476002
 31
0.0
  0
LINE
  5
35C
  8
1
  6
CONTINUOUS
 62
     7
 10
1104.989777355296
 20
-230.6840333524001
 30
0.0
 11
1104.989777355296
 21
-174.3159666476002
 31
0.0
  0
LINE
  5
35D
  8
1
  6
CONTINUOUS
 62
     7
 10
1123.678212644698
 20
-230.6840333524001
 30
0.0
 11
1123.678212644698
 21
-174.3159666476002
 31
0.0
  0
LINE
  5
35E
  8
1
  6
CONTINUOUS
 62
     7
 10
1003.581376802095
 20
-230.0000000001002
 30
0.0
 11
1005.086023197995
 21
-230.0000000001002
 31
0.0
  0
LINE
  5
35F
  8
1
  6
CONTINUOUS
 62
     7
 10
1062.248776802096
 20
-174.9999999999002
 30
0.0
 11
1063.753423197996
 21
-174.9999999999002
 31
0.0
  0
ARC
  5
360
  8
1
  6
CONTINUOUS
 62
     7
 10
984.6552257375935
 20
-235.5000000007002
 30
0.0
 40
2.000000000002444
 50
270.0
 51
349.9999999999999
  0
LINE
  5
361
  8
1
  6
CONTINUOUS
 62
     7
 10
1032.915076802094
 20
-230.0000000001002
 30
0.0
 11
1034.419723197994
 21
-230.0000000001002
 31
0.0
  0
LINE
  5
362
  8
1
  6
CONTINUOUS
 62
     7
 10
1354.325867355296
 20
-230.6840333524001
 30
0.0
 11
1354.325867355296
 21
-174.3159666476002
 31
0.0
  0
ARC
  5
363
  8
1
  6
CONTINUOUS
 62
     7
 10
1371.757273197996
 20
-231.5000000001001
 30
0.0
 40
1.500000000000057
 50
10.0
 51
90.0
  0
LINE
  5
364
  8
1
  6
CONTINUOUS
 62
     7
 10
1057.989475737596
 20
-237.5000000006002
 30
0.0
 11
1053.345874262495
 21
-237.5000000006002
 31
0.0
  0
LINE
  5
365
  8
1
  6
CONTINUOUS
 62
     7
 10
991.8963848274943
 20
-173.7604722664001
 30
0.0
 11
992.7088587564941
 21
-169.1527036441002
 31
0.0
  0
LINE
  5
366
  8
1
  6
CONTINUOUS
 62
     7
 10
1384.919476802096
 20
-230.0000000001002
 30
0.0
 11
1386.424123197996
 21
-230.0000000001002
 31
0.0
  0
LINE
  5
367
  8
1
  6
CONTINUOUS
 62
     7
 10
1368.024025000096
 20
-206.5000000000003
 30
0.0
 11
1368.024025000096
 21
-198.5000000000003
 31
0.0
  0
LINE
  5
368
  8
1
  6
CONTINUOUS
 62
     7
 10
1412.993447355294
 20
-230.6840333524001
 30
0.0
 11
1412.993447355294
 21
-174.3159666476002
 31
0.0
  0
ARC
  5
369
  8
1
  6
CONTINUOUS
 62
     7
 10
1380.660175737595
 20
-169.4999999993001
 30
0.0
 40
1.999999999998892
 50
10.0
 51
90.0
  0
LINE
  5
36A
  8
1
  6
CONTINUOUS
 62
     7
 10
974.9999999999973
 20
-174.9999999999002
 30
0.0
 11
975.7523231979975
 21
-174.9999999999002
 31
0.0
  0
ARC
  5
36B
  8
1
  6
CONTINUOUS
 62
     7
 10
988.9145268020941
 20
-231.5000000001001
 30
0.0
 40
1.500000000000057
 50
90.0
 51
170.0
  0
LINE
  5
36C
  8
1
  6
CONTINUOUS
 62
     7
 10
1380.660175737595
 20
-167.4999999994003
 30
0.0
 11
1376.016574262496
 21
-167.4999999994003
 31
0.0
  0
LINE
  5
36D
  8
1
  6
CONTINUOUS
 62
     7
 10
1397.005225000096
 20
-206.5000000000003
 30
0.0
 11
1397.005225000096
 21
-236.5879555308003
 31
0.0
  0
LINE
  5
36E
  8
1
  6
CONTINUOUS
 62
     7
 10
1018.248226802096
 20
-174.9999999999002
 30
0.0
 11
1019.752873197997
 21
-174.9999999999002
 31
0.0
  0
ARC
  5
36F
  8
1
  6
CONTINUOUS
 62
     7
 10
999.3220757375946
 20
-235.5000000007002
 30
0.0
 40
1.999999999999003
 50
270.0
 51
349.9999999999999
  0
ARC
  5
370
  8
1
  6
CONTINUOUS
 62
     7
 10
1028.655775737593
 20
-235.5000000007002
 30
0.0
 40
2.000000000002444
 50
270.0
 51
349.9999999999999
  0
LINE
  5
371
  8
1
  6
CONTINUOUS
 62
     7
 10
1016.019625000094
 20
-198.5000000000004
 30
0.0
 11
1007.314625000094
 21
-198.5000000000004
 31
0.0
  0
LINE
  5
372
  8
1
  6
CONTINUOUS
 62
     7
 10
986.3334250000969
 20
-198.5000000000004
 30
0.0
 11
986.3334250000969
 21
-168.4120444692004
 31
0.0
  0
LINE
  5
373
  8
1
  6
CONTINUOUS
 62
     7
 10
1267.584676802094
 20
-174.9999999999002
 30
0.0
 11
1269.089323197995
 21
-174.9999999999002
 31
0.0
  0
LINE
  5
374
  8
1
  6
CONTINUOUS
 62
     7
 10
986.685925000095
 20
-198.5000000000004
 30
0.0
 11
977.9809250000951
 21
-198.5000000000004
 31
0.0
  0
LINE
  5
375
  8
1
  6
CONTINUOUS
 62
     7
 10
1059.667675000099
 20
-198.5000000000004
 30
0.0
 11
1059.667675000099
 21
-168.4120444692004
 31
0.0
  0
LINE
  5
376
  8
1
  6
CONTINUOUS
 62
     7
 10
1006.563234827492
 20
-173.7604722664001
 30
0.0
 11
1007.375708756492
 21
-169.1527036441002
 31
0.0
  0
LINE
  5
377
  8
1
  6
CONTINUOUS
 62
     7
 10
1387.681872644695
 20
-230.6840333524001
 30
0.0
 11
1387.681872644695
 21
-174.3159666476002
 31
0.0
  0
LINE
  5
378
  8
1
  6
CONTINUOUS
 62
     7
 10
1345.004675000094
 20
-198.5000000000004
 30
0.0
 11
1345.004675000094
 21
-168.4120444693003
 31
0.0
  0
LINE
  5
379
  8
1
  6
CONTINUOUS
 62
     7
 10
1079.678202644697
 20
-230.6840333524001
 30
0.0
 11
1079.678202644697
 21
-174.3159666476002
 31
0.0
  0
ARC
  5
37A
  8
1
  6
CONTINUOUS
 62
     7
 10
1371.757273197996
 20
-173.4999999999001
 30
0.0
 40
1.500000000000057
 50
270.0
 51
349.9999999999999
  0
LINE
  5
37B
  8
1
  6
CONTINUOUS
 62
     7
 10
1368.993437355296
 20
-230.6840333524001
 30
0.0
 11
1368.993437355296
 21
-174.3159666476002
 31
0.0
  0
LINE
  5
37C
  8
1
  6
CONTINUOUS
 62
     7
 10
978.3334249999947
 20
-206.5000000000003
 30
0.0
 11
978.3334250000942
 21
-236.5879555307002
 31
0.0
  0
LINE
  5
37D
  8
1
  6
CONTINUOUS
 62
     7
 10
1373.234484827495
 20
-231.2395277336003
 30
0.0
 11
1374.046958756495
 21
-235.8472963559003
 31
0.0
  0
LINE
  5
37E
  8
1
  6
CONTINUOUS
 62
     7
 10
1399.586326802097
 20
-230.0000000001002
 30
0.0
 11
1401.090973197997
 21
-230.0000000001002
 31
0.0
  0
LINE
  5
37F
  8
1
  6
CONTINUOUS
 62
     7
 10
1021.230084827493
 20
-173.7604722664001
 30
0.0
 11
1022.042558756494
 21
-169.1527036441002
 31
0.0
  0
ARC
  5
380
  8
1
  6
CONTINUOUS
 62
     7
 10
1003.581376802095
 20
-231.5000000001001
 30
0.0
 40
1.500000000000057
 50
90.0
 51
170.0
  0
LINE
  5
381
  8
1
  6
CONTINUOUS
 62
     7
 10
986.3334250000969
 20
-206.5000000000003
 30
0.0
 11
986.3334250000969
 21
-236.5879555308003
 31
0.0
  0
LINE
  5
382
  8
1
  6
CONTINUOUS
 62
     7
 10
1062.248776802096
 20
-230.0000000001002
 30
0.0
 11
1063.753423197996
 21
-230.0000000001002
 31
0.0
  0
LINE
  5
383
  8
1
  6
CONTINUOUS
 62
     7
 10
1030.333975000093
 20
-206.5000000000003
 30
0.0
 11
1030.333975000093
 21
-236.5879555308003
 31
0.0
  0
LINE
  5
384
  8
1
  6
CONTINUOUS
 62
     7
 10
1028.655775737593
 20
-167.4999999994003
 30
0.0
 11
1024.012174262493
 21
-167.4999999994003
 31
0.0
  0
LINE
  5
385
  8
1
  6
CONTINUOUS
 62
     7
 10
987.4373151725949
 20
-231.2395277336003
 30
0.0
 11
986.6248412435941
 21
-235.8472963561002
 31
0.0
  0
LINE
  5
386
  8
1
  6
CONTINUOUS
 62
     7
 10
1002.104165172596
 20
-231.2395277336003
 30
0.0
 11
1001.291691243596
 21
-235.8472963561002
 31
0.0
  0
LINE
  5
387
  8
1
  6
CONTINUOUS
 62
     7
 10
978.3334250000942
 20
-198.5000000000004
 30
0.0
 11
978.3334250000942
 21
-168.4120444693003
 31
0.0
  0
LINE
  5
388
  8
1
  6
CONTINUOUS
 62
     7
 10
1206.336175000096
 20
-206.5000000000003
 30
0.0
 11
1206.336175000096
 21
-236.5879555308003
 31
0.0
  0
LINE
  5
389
  8
1
  6
CONTINUOUS
 62
     7
 10
1007.314625000095
 20
-206.5000000000003
 30
0.0
 11
1007.314625000095
 21
-198.5000000000003
 31
0.0
  0
ARC
  5
38A
  8
1
  6
CONTINUOUS
 62
     7
 10
1384.919476802096
 20
-173.4999999999001
 30
0.0
 40
1.500000000000057
 50
190.0
 51
270.0
  0
LINE
  5
38B
  8
1
  6
CONTINUOUS
 62
     7
 10
1124.649425000097
 20
-206.5000000000003
 30
0.0
 11
1124.649425000097
 21
-198.5000000000003
 31
0.0
  0
ARC
  5
38C
  8
1
  6
CONTINUOUS
 62
     7
 10
999.3220757375946
 20
-169.4999999993001
 30
0.0
 40
1.999999999999003
 50
10.0
 51
90.0
  0
ARC
  5
38D
  8
1
  6
CONTINUOUS
 62
     7
 10
1049.086573197996
 20
-231.5000000001001
 30
0.0
 40
1.500000000000057
 50
9.999999999992678
 51
90.0
  0
ARC
  5
38E
  8
1
  6
CONTINUOUS
 62
     7
 10
980.0116242624946
 20
-235.5000000006003
 30
0.0
 40
1.999999999998892
 50
190.0
 51
270.0
  0
ARC
  5
38F
  8
1
  6
CONTINUOUS
 62
     7
 10
1072.656325737597
 20
-235.5000000007002
 30
0.0
 40
1.999999999998892
 50
270.0
 51
349.9999999999952
  0
LINE
  5
390
  8
1
  6
CONTINUOUS
 62
     7
 10
991.8963848274943
 20
-231.2395277336003
 30
0.0
 11
992.7088587564941
 21
-235.8472963559003
 31
0.0
  0
ARC
  5
391
  8
1
  6
CONTINUOUS
 62
     7
 10
1376.016574262497
 20
-169.4999999994004
 30
0.0
 40
1.999999999998892
 50
90.0
 51
170.0
  0
ARC
  5
392
  8
1
  6
CONTINUOUS
 62
     7
 10
1384.919476802096
 20
-231.5000000001001
 30
0.0
 40
1.500000000000057
 50
90.0
 51
170.0
  0
LINE
  5
393
  8
1
  6
CONTINUOUS
 62
     7
 10
1382.690875000097
 20
-206.5000000000003
 30
0.0
 11
1373.985875000097
 21
-206.5000000000003
 31
0.0
  0
LINE
  5
394
  8
1
  6
CONTINUOUS
 62
     7
 10
1001.000275000091
 20
-198.5000000000004
 30
0.0
 11
1001.000275000091
 21
-168.4120444692004
 31
0.0
  0
LINE
  5
395
  8
1
  6
CONTINUOUS
 62
     7
 10
1032.915076802094
 20
-174.9999999999002
 30
0.0
 11
1034.419723197994
 21
-174.9999999999002
 31
0.0
  0
LINE
  5
396
  8
1
  6
CONTINUOUS
 62
     7
 10
1213.003025000098
 20
-206.5000000000003
 30
0.0
 11
1213.003025000098
 21
-236.5879555307002
 31
0.0
  0
LINE
  5
397
  8
1
  6
CONTINUOUS
 62
     7
 10
1368.024025000096
 20
-198.5000000000004
 30
0.0
 11
1359.319025000096
 21
-198.5000000000004
 31
0.0
  0
LINE
  5
398
  8
1
  6
CONTINUOUS
 62
     7
 10
977.2295348274931
 20
-173.7604722664001
 30
0.0
 11
978.0420087564939
 21
-169.1527036441002
 31
0.0
  0
LINE
  5
399
  8
1
  6
CONTINUOUS
 62
     7
 10
1270.346712644695
 20
-230.6840333524001
 30
0.0
 11
1270.346712644695
 21
-174.3159666476002
 31
0.0
  0
LINE
  5
39A
  8
1
  6
CONTINUOUS
 62
     7
 10
1353.357175000095
 20
-206.5000000000003
 30
0.0
 11
1344.652175000095
 21
-206.5000000000003
 31
0.0
  0
LINE
  5
39B
  8
1
  6
CONTINUOUS
 62
     7
 10
1204.6579757376
 20
-237.5000000006002
 30
0.0
 11
1200.014374262499
 21
-237.5000000006002
 31
0.0
  0
LINE
  5
39C
  8
1
  6
CONTINUOUS
 62
     7
 10
1206.336175000096
 20
-198.5000000000004
 30
0.0
 11
1206.336175000096
 21
-168.4120444692004
 31
0.0
  0
ARC
  5
39D
  8
1
  6
CONTINUOUS
 62
     7
 10
1024.012174262494
 20
-169.4999999994004
 30
0.0
 40
1.999999999998892
 50
90.0
 51
170.0
  0
LINE
  5
39E
  8
1
  6
CONTINUOUS
 62
     7
 10
1219.324825737594
 20
-237.5000000006002
 30
0.0
 11
1214.681224262493
 21
-237.5000000006002
 31
0.0
  0
LINE
  5
39F
  8
1
  6
CONTINUOUS
 62
     7
 10
1344.652175000096
 20
-206.5000000000003
 30
0.0
 11
1344.652175000096
 21
-198.5000000000003
 31
0.0
  0
LINE
  5
3A0
  8
1
  6
CONTINUOUS
 62
     7
 10
1211.899134827497
 20
-231.2395277336003
 30
0.0
 11
1212.711608756497
 21
-235.8472963559003
 31
0.0
  0
ARC
  5
3A1
  8
1
  6
CONTINUOUS
 62
     7
 10
1151.754523197997
 20
-231.5000000001001
 30
0.0
 40
1.499999999996504
 50
10.00000000000103
 51
90.0
  0
LINE
  5
3A2
  8
1
  6
CONTINUOUS
 62
     7
 10
1059.667675000099
 20
-206.5000000000003
 30
0.0
 11
1059.667675000099
 21
-236.5879555308003
 31
0.0
  0
ARC
  5
3A3
  8
1
  6
CONTINUOUS
 62
     7
 10
1376.016574262497
 20
-235.5000000006003
 30
0.0
 40
1.999999999998892
 50
190.0
 51
270.0
  0
LINE
  5
3A4
  8
1
  6
CONTINUOUS
 62
     7
 10
999.3220757375946
 20
-237.5000000006002
 30
0.0
 11
994.6784742624949
 21
-237.5000000006002
 31
0.0
  0
ARC
  5
3A5
  8
1
  6
CONTINUOUS
 62
     7
 10
1101.990025737595
 20
-235.5000000007002
 30
0.0
 40
2.000000000002444
 50
270.0
 51
349.9999999999952
  0
LINE
  5
3A6
  8
1
  6
CONTINUOUS
 62
     7
 10
1221.355525000095
 20
-198.5000000000004
 30
0.0
 11
1212.650525000095
 21
-198.5000000000004
 31
0.0
  0
ARC
  5
3A7
  8
1
  6
CONTINUOUS
 62
     7
 10
1076.915626802094
 20
-173.4999999999001
 30
0.0
 40
1.50000000000361
 50
190.0000000000011
 51
270.0
  0
LINE
  5
3A8
  8
1
  6
CONTINUOUS
 62
     7
 10
1351.326475737597
 20
-237.5000000006002
 30
0.0
 11
1346.682874262497
 21
-237.5000000006002
 31
0.0
  0
ARC
  5
3A9
  8
1
  6
CONTINUOUS
 62
     7
 10
1120.916176802097
 20
-231.5000000001001
 30
0.0
 40
1.500000000000057
 50
90.0
 51
169.999999999999
  0
ARC
  5
3AA
  8
1
  6
CONTINUOUS
 62
     7
 10
1068.012724262494
 20
-169.4999999994004
 30
0.0
 40
1.999999999998892
 50
90.0
 51
169.9999999999952
  0
ARC
  5
3AB
  8
1
  6
CONTINUOUS
 62
     7
 10
1181.088223197992
 20
-173.4999999999001
 30
0.0
 40
1.500000000000057
 50
270.0
 51
349.999999999999
  0
LINE
  5
3AC
  8
1
  6
CONTINUOUS
 62
     7
 10
974.9999999999973
 20
-230.0000000001002
 30
0.0
 11
975.7523231979975
 21
-230.0000000001002
 31
0.0
  0
LINE
  5
3AD
  8
1
  6
CONTINUOUS
 62
     7
 10
1343.900784827493
 20
-173.7604722664001
 30
0.0
 11
1344.713258756493
 21
-169.1527036441002
 31
0.0
  0
LINE
  5
3AE
  8
1
  6
CONTINUOUS
 62
     7
 10
1271.670425000092
 20
-206.5000000000003
 30
0.0
 11
1271.670425000092
 21
-236.5879555307002
 31
0.0
  0
ARC
  5
3AF
  8
1
  6
CONTINUOUS
 62
     7
 10
990.4191731979951
 20
-231.5000000001001
 30
0.0
 40
1.500000000000057
 50
10.0
 51
90.0
  0
ARC
  5
3B0
  8
1
  6
CONTINUOUS
 62
     7
 10
1116.656875737596
 20
-235.5000000007002
 30
0.0
 40
1.999999999998892
 50
270.0
 51
349.9999999999996
  0
LINE
  5
3B1
  8
1
  6
CONTINUOUS
 62
     7
 10
1206.688675000094
 20
-198.5000000000004
 30
0.0
 11
1197.983675000094
 21
-198.5000000000004
 31
0.0
  0
LINE
  5
3B2
  8
1
  6
CONTINUOUS
 62
     7
 10
984.6552257375935
 20
-237.5000000006002
 30
0.0
 11
980.0116242624938
 21
-237.5000000006002
 31
0.0
  0
ARC
  5
3B3
  8
1
  6
CONTINUOUS
 62
     7
 10
975.752323197994
 20
-173.4999999999001
 30
0.0
 40
1.500000000000057
 50
270.0
 51
349.9999999999999
  0
ARC
  5
3B4
  8
1
  6
CONTINUOUS
 62
     7
 10
1072.656325737597
 20
-169.4999999993001
 30
0.0
 40
1.999999999998892
 50
10.00000000000483
 51
90.0
  0
ARC
  5
3B5
  8
1
  6
CONTINUOUS
 62
     7
 10
1185.347524262496
 20
-235.5000000006003
 30
0.0
 40
1.999999999998892
 50
190.0000000000048
 51
270.0
  0
ARC
  5
3B6
  8
1
  6
CONTINUOUS
 62
     7
 10
1116.656875737596
 20
-169.4999999993001
 30
0.0
 40
1.999999999998892
 50
10.00000000000042
 51
90.0
  0
ARC
  5
3B7
  8
1
  6
CONTINUOUS
 62
     7
 10
1091.582476802095
 20
-173.4999999999001
 30
0.0
 40
1.50000000000361
 50
190.0000000000011
 51
270.0
  0
ARC
  5
3B8
  8
1
  6
CONTINUOUS
 62
     7
 10
1093.087123197996
 20
-173.4999999999001
 30
0.0
 40
1.500000000000057
 50
270.0
 51
349.999999999999
  0
LINE
  5
3B9
  8
1
  6
CONTINUOUS
 62
     7
 10
987.4373151725949
 20
-173.7604722664001
 30
0.0
 11
986.6248412435941
 21
-169.1527036440003
 31
0.0
  0
ARC
  5
3BA
  8
1
  6
CONTINUOUS
 62
     7
 10
984.6552257375935
 20
-169.4999999993001
 30
0.0
 40
2.000000000002444
 50
10.0
 51
90.0
  0
LINE
  5
3BB
  8
1
  6
CONTINUOUS
 62
     7
 10
986.685925000095
 20
-206.5000000000003
 30
0.0
 11
977.9809250000951
 21
-206.5000000000003
 31
0.0
  0
LINE
  5
3BC
  8
1
  6
CONTINUOUS
 62
     7
 10
1060.771565172597
 20
-231.2395277336003
 30
0.0
 11
1059.959091243596
 21
-235.8472963561002
 31
0.0
  0
LINE
  5
3BD
  8
1
  6
CONTINUOUS
 62
     7
 10
1030.333975000093
 20
-198.5000000000004
 30
0.0
 11
1030.333975000093
 21
-168.4120444692004
 31
0.0
  0
ARC
  5
3BE
  8
1
  6
CONTINUOUS
 62
     7
 10
975.752323197994
 20
-231.5000000001001
 30
0.0
 40
1.500000000000057
 50
10.0
 51
90.0
  0
LINE
  5
3BF
  8
1
  6
CONTINUOUS
 62
     7
 10
1094.344872644693
 20
-230.6840333524001
 30
0.0
 11
1094.344872644693
 21
-174.3159666476002
 31
0.0
  0
ARC
  5
3C0
  8
1
  6
CONTINUOUS
 62
     7
 10
980.0116242624946
 20
-169.4999999994004
 30
0.0
 40
1.999999999998892
 50
90.0
 51
170.0
  0
LINE
  5
3C1
  8
1
  6
CONTINUOUS
 62
     7
 10
1373.234484827495
 20
-173.7604722664001
 30
0.0
 11
1374.046958756495
 21
-169.1527036441002
 31
0.0
  0
LINE
  5
3C2
  8
1
  6
CONTINUOUS
 62
     7
 10
1169.002475000095
 20
-206.5000000000003
 30
0.0
 11
1169.002475000095
 21
-236.5879555307002
 31
0.0
  0
LINE
  5
3C3
  8
1
  6
CONTINUOUS
 62
     7
 10
1022.333975000094
 20
-198.5000000000004
 30
0.0
 11
1022.333975000094
 21
-168.4120444693003
 31
0.0
  0
ARC
  5
3C4
  8
1
  6
CONTINUOUS
 62
     7
 10
1156.013824262498
 20
-235.5000000006003
 30
0.0
 40
1.999999999998892
 50
190.0000000000048
 51
270.0
  0
LINE
  5
3C5
  8
1
  6
CONTINUOUS
 62
     7
 10
984.6552257375935
 20
-167.4999999994003
 30
0.0
 11
980.0116242624938
 21
-167.4999999994003
 31
0.0
  0
ARC
  5
3C6
  8
1
  6
CONTINUOUS
 62
     7
 10
1062.248776802096
 20
-231.5000000001001
 30
0.0
 40
1.500000000000057
 50
90.0
 51
169.999999999999
  0
ARC
  5
3C7
  8
1
  6
CONTINUOUS
 62
     7
 10
1076.915626802094
 20
-231.5000000001001
 30
0.0
 40
1.50000000000361
 50
90.0
 51
169.999999999999
  0
ARC
  5
3C8
  8
1
  6
CONTINUOUS
 62
     7
 10
1170.680674262495
 20
-169.4999999994004
 30
0.0
 40
2.000000000002444
 50
90.0
 51
169.9999999999952
  0
LINE
  5
3C9
  8
1
  6
CONTINUOUS
 62
     7
 10
993.0002750000954
 20
-206.5000000000003
 30
0.0
 11
993.0002750000954
 21
-236.5879555307002
 31
0.0
  0
ARC
  5
3CA
  8
1
  6
CONTINUOUS
 62
     7
 10
1082.679574262495
 20
-169.4999999994004
 30
0.0
 40
1.999999999998892
 50
90.0
 51
169.9999999999952
  0
LINE
  5
3CB
  8
1
  6
CONTINUOUS
 62
     7
 10
986.685925000095
 20
-206.5000000000003
 30
0.0
 11
986.685925000095
 21
-198.5000000000003
 31
0.0
  0
ARC
  5
3CC
  8
1
  6
CONTINUOUS
 62
     7
 10
1370.252626802095
 20
-173.4999999999001
 30
0.0
 40
1.500000000000057
 50
190.0
 51
270.0
  0
ARC
  5
3CD
  8
1
  6
CONTINUOUS
 62
     7
 10
1141.346974262496
 20
-235.5000000006003
 30
0.0
 40
1.999999999998892
 50
190.0000000000048
 51
270.0
  0
ARC
  5
3CE
  8
1
  6
CONTINUOUS
 62
     7
 10
1053.345874262493
 20
-169.4999999994004
 30
0.0
 40
2.000000000002444
 50
90.0
 51
169.9999999999952
  0
LINE
  5
3CF
  8
1
  6
CONTINUOUS
 62
     7
 10
1353.004675000097
 20
-198.5000000000004
 30
0.0
 11
1353.004675000097
 21
-168.4120444692004
 31
0.0
  0
LINE
  5
3D0
  8
1
  6
CONTINUOUS
 62
     7
 10
1204.6579757376
 20
-167.4999999994003
 30
0.0
 11
1200.014374262499
 21
-167.4999999994003
 31
0.0
  0
LINE
  5
3D1
  8
1
  6
CONTINUOUS
 62
     7
 10
1359.319025000097
 20
-206.5000000000003
 30
0.0
 11
1359.319025000097
 21
-198.5000000000003
 31
0.0
  0
LINE
  5
3D2
  8
1
  6
CONTINUOUS
 62
     7
 10
1221.003025000097
 20
-206.5000000000003
 30
0.0
 11
1221.003025000097
 21
-236.5879555308003
 31
0.0
  0
LINE
  5
3D3
  8
1
  6
CONTINUOUS
 62
     7
 10
1354.108565172598
 20
-173.7604722664001
 30
0.0
 11
1353.296091243597
 21
-169.1527036440003
 31
0.0
  0
ARC
  5
3D4
  8
1
  6
CONTINUOUS
 62
     7
 10
1097.346424262497
 20
-169.4999999994004
 30
0.0
 40
1.999999999998892
 50
90.0
 51
169.9999999999952
  0
LINE
  5
3D5
  8
1
  6
CONTINUOUS
 62
     7
 10
1340.918926802096
 20
-174.9999999999002
 30
0.0
 11
1342.423573197996
 21
-174.9999999999002
 31
0.0
  0
LINE
  5
3D6
  8
1
  6
CONTINUOUS
 62
     7
 10
1340.918926802096
 20
-230.0000000001002
 30
0.0
 11
1342.423573197996
 21
-230.0000000001002
 31
0.0
  0
LINE
  5
3D7
  8
1
  6
CONTINUOUS
 62
     7
 10
1221.355525000095
 20
-206.5000000000003
 30
0.0
 11
1221.355525000095
 21
-198.5000000000003
 31
0.0
  0
LINE
  5
3D8
  8
1
  6
CONTINUOUS
 62
     7
 10
1208.917276802093
 20
-230.0000000001002
 30
0.0
 11
1210.421923197993
 21
-230.0000000001002
 31
0.0
  0
ARC
  5
3D9
  8
1
  6
CONTINUOUS
 62
     7
 10
1078.420273197995
 20
-231.5000000001001
 30
0.0
 40
1.500000000000057
 50
10.00000000000103
 51
90.0
  0
ARC
  5
3DA
  8
1
  6
CONTINUOUS
 62
     7
 10
1049.086573197996
 20
-173.4999999999001
 30
0.0
 40
1.500000000000057
 50
270.0
 51
349.999999999999
  0
LINE
  5
3DB
  8
1
  6
CONTINUOUS
 62
     7
 10
1153.231734827496
 20
-173.7604722664001
 30
0.0
 11
1154.044208756497
 21
-169.1527036441002
 31
0.0
  0
ARC
  5
3DC
  8
1
  6
CONTINUOUS
 62
     7
 10
1122.420823197995
 20
-173.4999999999001
 30
0.0
 40
1.500000000000057
 50
270.0
 51
349.999999999999
  0
LINE
  5
3DD
  8
1
  6
CONTINUOUS
 62
     7
 10
1177.354975000095
 20
-206.5000000000003
 30
0.0
 11
1177.354975000095
 21
-198.5000000000003
 31
0.0
  0
LINE
  5
3DE
  8
1
  6
CONTINUOUS
 62
     7
 10
1345.004675000094
 20
-206.5000000000003
 30
0.0
 11
1345.004675000094
 21
-236.5879555307002
 31
0.0
  0
ARC
  5
3DF
  8
1
  6
CONTINUOUS
 62
     7
 10
1150.249876802096
 20
-231.5000000001001
 30
0.0
 40
1.500000000000057
 50
90.0
 51
169.999999999999
  0
ARC
  5
3E0
  8
1
  6
CONTINUOUS
 62
     7
 10
1107.753973197997
 20
-173.4999999999001
 30
0.0
 40
1.500000000000057
 50
270.0
 51
349.999999999999
  0
LINE
  5
3E1
  8
1
  6
CONTINUOUS
 62
     7
 10
1354.108565172598
 20
-231.2395277336003
 30
0.0
 11
1353.296091243597
 21
-235.8472963561002
 31
0.0
  0
LINE
  5
3E2
  8
1
  6
CONTINUOUS
 62
     7
 10
1353.357175000095
 20
-198.5000000000004
 30
0.0
 11
1344.652175000095
 21
-198.5000000000004
 31
0.0
  0
LINE
  5
3E3
  8
1
  6
CONTINUOUS
 62
     7
 10
1270.566534827494
 20
-231.2395277336003
 30
0.0
 11
1271.379008756495
 21
-235.8472963559003
 31
0.0
  0
LINE
  5
3E4
  8
1
  6
CONTINUOUS
 62
     7
 10
1351.326475737597
 20
-167.4999999994003
 30
0.0
 11
1346.682874262497
 21
-167.4999999994003
 31
0.0
  0
LINE
  5
3E5
  8
1
  6
CONTINUOUS
 62
     7
 10
1167.679122644695
 20
-230.6840333524001
 30
0.0
 11
1167.679122644695
 21
-174.3159666476002
 31
0.0
  0
LINE
  5
3E6
  8
1
  6
CONTINUOUS
 62
     7
 10
1221.003025000097
 20
-198.5000000000004
 30
0.0
 11
1221.003025000097
 21
-168.4120444692004
 31
0.0
  0
LINE
  5
3E7
  8
1
  6
CONTINUOUS
 62
     7
 10
1168.649975000093
 20
-206.5000000000003
 30
0.0
 11
1168.649975000093
 21
-198.5000000000003
 31
0.0
  0
ARC
  5
3E8
  8
1
  6
CONTINUOUS
 62
     7
 10
1145.990575737595
 20
-169.4999999993001
 30
0.0
 40
2.000000000002444
 50
10.00000000000483
 51
90.0
  0
LINE
  5
3E9
  8
1
  6
CONTINUOUS
 62
     7
 10
1179.583576802098
 20
-230.0000000001002
 30
0.0
 11
1181.088223197996
 21
-230.0000000001002
 31
0.0
  0
LINE
  5
3EA
  8
1
  6
CONTINUOUS
 62
     7
 10
1208.917276802093
 20
-174.9999999999002
 30
0.0
 11
1210.421923197993
 21
-174.9999999999002
 31
0.0
  0
ARC
  5
3EB
  8
1
  6
CONTINUOUS
 62
     7
 10
1164.916726802097
 20
-231.5000000001001
 30
0.0
 40
1.499999999996504
 50
90.0
 51
169.999999999999
  0
ARC
  5
3EC
  8
1
  6
CONTINUOUS
 62
     7
 10
1078.420273197995
 20
-173.4999999999001
 30
0.0
 40
1.500000000000057
 50
270.0
 51
349.999999999999
  0
LINE
  5
3ED
  8
1
  6
CONTINUOUS
 62
     7
 10
1169.002475000095
 20
-198.5000000000004
 30
0.0
 11
1169.002475000095
 21
-168.4120444693003
 31
0.0
  0
ARC
  5
3EE
  8
1
  6
CONTINUOUS
 62
     7
 10
1141.346974262496
 20
-169.4999999994004
 30
0.0
 40
1.999999999998892
 50
90.0
 51
169.9999999999952
  0
LINE
  5
3EF
  8
1
  6
CONTINUOUS
 62
     7
 10
1267.584676802094
 20
-230.0000000001002
 30
0.0
 11
1269.089323197995
 21
-230.0000000001002
 31
0.0
  0
ARC
  5
3F0
  8
1
  6
CONTINUOUS
 62
     7
 10
1195.755073197993
 20
-173.4999999999001
 30
0.0
 40
1.500000000000057
 50
270.0
 51
349.999999999999
  0
ARC
  5
3F1
  8
1
  6
CONTINUOUS
 62
     7
 10
1137.087673197996
 20
-231.5000000001001
 30
0.0
 40
1.499999999996504
 50
10.00000000000103
 51
90.0
  0
LINE
  5
3F2
  8
1
  6
CONTINUOUS
 62
     7
 10
1663.589626802099
 20
-174.9999999999002
 30
0.0
 11
1665.094273198
 21
-174.9999999999002
 31
0.0
  0
LINE
  5
3F3
  8
1
  6
CONTINUOUS
 62
     7
 10
1754.572584827496
 20
-231.2395277336003
 30
0.0
 11
1755.385058756496
 21
-235.8472963559003
 31
0.0
  0
LINE
  5
3F4
  8
1
  6
CONTINUOUS
 62
     7
 10
1764.028975000098
 20
-206.5000000000003
 30
0.0
 11
1764.028975000098
 21
-198.5000000000003
 31
0.0
  0
LINE
  5
3F5
  8
1
  6
CONTINUOUS
 62
     7
 10
1750.3313573553
 20
-230.6840333524001
 30
0.0
 11
1750.3313573553
 21
-174.3159666476002
 31
0.0
  0
LINE
  5
3F6
  8
1
  6
CONTINUOUS
 62
     7
 10
1703.330875737595
 20
-237.5000000006002
 30
0.0
 11
1698.687274262495
 21
-237.5000000006002
 31
0.0
  0
ARC
  5
3F7
  8
1
  6
CONTINUOUS
 62
     7
 10
1663.589626802099
 20
-173.4999999999001
 30
0.0
 40
1.499999999996504
 50
190.0
 51
270.0
  0
ARC
  5
3F8
  8
1
  6
CONTINUOUS
 62
     7
 10
1663.589626802099
 20
-231.5000000001001
 30
0.0
 40
1.499999999996504
 50
90.0
 51
170.0
  0
LINE
  5
3F9
  8
1
  6
CONTINUOUS
 62
     7
 10
1667.675375000101
 20
-198.5000000000004
 30
0.0
 11
1667.675375000101
 21
-168.4120444693003
 31
0.0
  0
ARC
  5
3FA
  8
1
  6
CONTINUOUS
 62
     7
 10
1723.761673197998
 20
-173.4999999999001
 30
0.0
 40
1.500000000000057
 50
270.0
 51
349.9999999999999
  0
LINE
  5
3FB
  8
1
  6
CONTINUOUS
 62
     7
 10
1725.238884827501
 20
-173.7604722664001
 30
0.0
 11
1726.051358756501
 21
-169.1527036441002
 31
0.0
  0
ARC
  5
3FC
  8
1
  6
CONTINUOUS
 62
     7
 10
1849.999375737599
 20
-169.4999999993001
 30
0.0
 40
1.999999999998892
 50
10.0
 51
90.0
  0
LINE
  5
3FD
  8
1
  6
CONTINUOUS
 62
     7
 10
1676.027875000095
 20
-206.5000000000003
 30
0.0
 11
1667.322875000094
 21
-206.5000000000003
 31
0.0
  0
LINE
  5
3FE
  8
1
  6
CONTINUOUS
 62
     7
 10
1690.342225000097
 20
-206.5000000000003
 30
0.0
 11
1690.342225000097
 21
-236.5879555308003
 31
0.0
  0
LINE
  5
3FF
  8
1
  6
CONTINUOUS
 62
     7
 10
1726.342775000098
 20
-198.5000000000004
 30
0.0
 11
1726.342775000098
 21
-168.4120444693003
 31
0.0
  0
LINE
  5
400
  8
1
  6
CONTINUOUS
 62
     7
 10
1722.257026802097
 20
-174.9999999999002
 30
0.0
 11
1723.761673197997
 21
-174.9999999999002
 31
0.0
  0
ARC
  5
401
  8
1
  6
CONTINUOUS
 62
     7
 10
1766.257576802097
 20
-231.5000000001001
 30
0.0
 40
1.500000000000057
 50
90.0
 51
170.0
  0
LINE
  5
402
  8
1
  6
CONTINUOUS
 62
     7
 10
1734.695275000099
 20
-206.5000000000003
 30
0.0
 11
1725.990275000099
 21
-206.5000000000003
 31
0.0
  0
ARC
  5
403
  8
1
  6
CONTINUOUS
 62
     7
 10
1751.590726802096
 20
-173.4999999999001
 30
0.0
 40
1.50000000000361
 50
190.0
 51
270.0
  0
LINE
  5
404
  8
1
  6
CONTINUOUS
 62
     7
 10
1747.331425737598
 20
-167.4999999994003
 30
0.0
 11
1742.687824262498
 21
-167.4999999994003
 31
0.0
  0
ARC
  5
405
  8
1
  6
CONTINUOUS
 62
     7
 10
1669.353574262501
 20
-169.4999999994004
 30
0.0
 40
1.999999999998892
 50
90.0
 51
170.0
  0
LINE
  5
406
  8
1
  6
CONTINUOUS
 62
     7
 10
1778.343325000101
 20
-206.5000000000003
 30
0.0
 11
1778.343325000101
 21
-236.5879555308003
 31
0.0
  0
LINE
  5
407
  8
1
  6
CONTINUOUS
 62
     7
 10
1764.780365172597
 20
-173.7604722664001
 30
0.0
 11
1763.967891243599
 21
-169.1527036440003
 31
0.0
  0
LINE
  5
408
  8
1
  6
CONTINUOUS
 62
     7
 10
1692.923326802095
 20
-230.0000000001002
 30
0.0
 11
1694.427973197996
 21
-230.0000000001002
 31
0.0
  0
LINE
  5
409
  8
1
  6
CONTINUOUS
 62
     7
 10
1691.446115172595
 20
-231.2395277336003
 30
0.0
 11
1690.633641243594
 21
-235.8472963561002
 31
0.0
  0
LINE
  5
40A
  8
1
  6
CONTINUOUS
 62
     7
 10
1725.0197826447
 20
-230.6840333524001
 30
0.0
 11
1725.0197826447
 21
-174.3159666476002
 31
0.0
  0
LINE
  5
40B
  8
1
  6
CONTINUOUS
 62
     7
 10
1749.362125000097
 20
-198.5000000000004
 30
0.0
 11
1740.657125000096
 21
-198.5000000000004
 31
0.0
  0
ARC
  5
40C
  8
1
  6
CONTINUOUS
 62
     7
 10
1766.257576802097
 20
-173.4999999999001
 30
0.0
 40
1.500000000000057
 50
190.0
 51
270.0
  0
LINE
  5
40D
  8
1
  6
CONTINUOUS
 62
     7
 10
1770.343325000098
 20
-198.5000000000004
 30
0.0
 11
1770.343325000098
 21
-168.4120444693003
 31
0.0
  0
LINE
  5
40E
  8
1
  6
CONTINUOUS
 62
     7
 10
1749.362125000097
 20
-206.5000000000003
 30
0.0
 11
1740.657125000096
 21
-206.5000000000003
 31
0.0
  0
LINE
  5
40F
  8
1
  6
CONTINUOUS
 62
     7
 10
1779.447215172599
 20
-173.7604722664001
 30
0.0
 11
1778.634741243599
 21
-169.1527036440003
 31
0.0
  0
ARC
  5
410
  8
1
  6
CONTINUOUS
 62
     7
 10
1722.257026802097
 20
-173.4999999999001
 30
0.0
 40
1.500000000000057
 50
190.0
 51
270.0
  0
LINE
  5
411
  8
1
  6
CONTINUOUS
 62
     7
 10
1764.780365172597
 20
-231.2395277336003
 30
0.0
 11
1763.967891243599
 21
-235.8472963561002
 31
0.0
  0
ARC
  5
412
  8
1
  6
CONTINUOUS
 62
     7
 10
1761.998275737596
 20
-235.5000000007002
 30
0.0
 40
2.000000000002444
 50
270.0
 51
349.9999999999999
  0
LINE
  5
413
  8
1
  6
CONTINUOUS
 62
     7
 10
1673.997175737596
 20
-237.5000000006002
 30
0.0
 11
1669.353574262499
 21
-237.5000000006002
 31
0.0
  0
LINE
  5
414
  8
1
  6
CONTINUOUS
 62
     7
 10
1754.572584827496
 20
-173.7604722664001
 30
0.0
 11
1755.385058756496
 21
-169.1527036441002
 31
0.0
  0
LINE
  5
415
  8
1
  6
CONTINUOUS
 62
     7
 10
1662.112415172597
 20
-173.7604722664001
 30
0.0
 11
1661.299941243597
 21
-169.1527036440003
 31
0.0
  0
LINE
  5
416
  8
1
  6
CONTINUOUS
 62
     7
 10
1691.663777355295
 20
-230.6840333524001
 30
0.0
 11
1691.663777355295
 21
-174.3159666476002
 31
0.0
  0
ARC
  5
417
  8
1
  6
CONTINUOUS
 62
     7
 10
1703.330875737595
 20
-169.4999999993001
 30
0.0
 40
1.999999999998892
 50
10.0
 51
90.0
  0
LINE
  5
418
  8
1
  6
CONTINUOUS
 62
     7
 10
1761.998275737596
 20
-167.4999999994003
 30
0.0
 11
1757.354674262495
 21
-167.4999999994003
 31
0.0
  0
LINE
  5
419
  8
1
  6
CONTINUOUS
 62
     7
 10
1842.573684827499
 20
-173.7604722664001
 30
0.0
 11
1843.386158756498
 21
-169.1527036441002
 31
0.0
  0
LINE
  5
41A
  8
1
  6
CONTINUOUS
 62
     7
 10
1749.362125000097
 20
-206.5000000000003
 30
0.0
 11
1749.362125000097
 21
-198.5000000000003
 31
0.0
  0
ARC
  5
41B
  8
1
  6
CONTINUOUS
 62
     7
 10
1738.428523197995
 20
-173.4999999999001
 30
0.0
 40
1.500000000000057
 50
270.0
 51
349.9999999999999
  0
LINE
  5
41C
  8
1
  6
CONTINUOUS
 62
     7
 10
1666.5714848275
 20
-173.7604722664001
 30
0.0
 11
1667.3839587565
 21
-169.1527036441002
 31
0.0
  0
ARC
  5
41D
  8
1
  6
CONTINUOUS
 62
     7
 10
1673.997175737596
 20
-169.4999999993001
 30
0.0
 40
1.999999999998892
 50
10.0
 51
90.0
  0
LINE
  5
41E
  8
1
  6
CONTINUOUS
 62
     7
 10
1667.675375000101
 20
-206.5000000000003
 30
0.0
 11
1667.675375000101
 21
-236.5879555307002
 31
0.0
  0
LINE
  5
41F
  8
1
  6
CONTINUOUS
 62
     7
 10
1769.2394348275
 20
-231.2395277336003
 30
0.0
 11
1770.051908756499
 21
-235.8472963559003
 31
0.0
  0
LINE
  5
420
  8
1
  6
CONTINUOUS
 62
     7
 10
1778.343325000101
 20
-198.5000000000004
 30
0.0
 11
1778.343325000101
 21
-168.4120444692004
 31
0.0
  0
ARC
  5
421
  8
1
  6
CONTINUOUS
 62
     7
 10
1767.762223197998
 20
-231.5000000001001
 30
0.0
 40
1.500000000000057
 50
10.0
 51
90.0
  0
LINE
  5
422
  8
1
  6
CONTINUOUS
 62
     7
 10
1769.019792644698
 20
-230.6840333524001
 30
0.0
 11
1769.019792644698
 21
-174.3159666476002
 31
0.0
  0
LINE
  5
423
  8
1
  6
CONTINUOUS
 62
     7
 10
1706.112965172597
 20
-231.2395277336003
 30
0.0
 11
1705.300491243597
 21
-235.8472963561002
 31
0.0
  0
LINE
  5
424
  8
1
  6
CONTINUOUS
 62
     7
 10
1681.238334827494
 20
-231.2395277336003
 30
0.0
 11
1682.050808756495
 21
-235.8472963559003
 31
0.0
  0
ARC
  5
425
  8
1
  6
CONTINUOUS
 62
     7
 10
1669.353574262501
 20
-235.5000000006003
 30
0.0
 40
1.999999999998892
 50
190.0
 51
270.0
  0
LINE
  5
426
  8
1
  6
CONTINUOUS
 62
     7
 10
1676.779265172598
 20
-173.7604722664001
 30
0.0
 11
1675.966791243597
 21
-169.1527036440003
 31
0.0
  0
ARC
  5
427
  8
1
  6
CONTINUOUS
 62
     7
 10
1767.762223197998
 20
-173.4999999999001
 30
0.0
 40
1.500000000000057
 50
270.0
 51
349.9999999999999
  0
ARC
  5
428
  8
1
  6
CONTINUOUS
 62
     7
 10
1761.998275737596
 20
-169.4999999993001
 30
0.0
 40
2.000000000002444
 50
10.0
 51
90.0
  0
LINE
  5
429
  8
1
  6
CONTINUOUS
 62
     7
 10
1675.675375000096
 20
-198.5000000000004
 30
0.0
 11
1675.675375000096
 21
-168.4120444692004
 31
0.0
  0
LINE
  5
42A
  8
1
  6
CONTINUOUS
 62
     7
 10
1763.6764750001
 20
-206.5000000000003
 30
0.0
 11
1763.6764750001
 21
-236.5879555308003
 31
0.0
  0
LINE
  5
42B
  8
1
  6
CONTINUOUS
 62
     7
 10
1688.664025737594
 20
-237.5000000006002
 30
0.0
 11
1684.020424262493
 21
-237.5000000006002
 31
0.0
  0
LINE
  5
42C
  8
1
  6
CONTINUOUS
 62
     7
 10
1705.361575000097
 20
-206.5000000000003
 30
0.0
 11
1705.361575000097
 21
-198.5000000000003
 31
0.0
  0
ARC
  5
42D
  8
1
  6
CONTINUOUS
 62
     7
 10
1757.354674262497
 20
-169.4999999994004
 30
0.0
 40
1.999999999998892
 50
90.0
 51
170.0
  0
LINE
  5
42E
  8
1
  6
CONTINUOUS
 62
     7
 10
1720.998017355299
 20
-230.6840333524001
 30
0.0
 11
1720.998017355299
 21
-174.3159666476002
 31
0.0
  0
LINE
  5
42F
  8
1
  6
CONTINUOUS
 62
     7
 10
1754.353122644694
 20
-230.6840333524001
 30
0.0
 11
1754.353122644694
 21
-174.3159666476002
 31
0.0
  0
ARC
  5
430
  8
1
  6
CONTINUOUS
 62
     7
 10
1665.094273197993
 20
-173.4999999999001
 30
0.0
 40
1.50000000000361
 50
270.0
 51
349.9999999999999
  0
LINE
  5
431
  8
1
  6
CONTINUOUS
 62
     7
 10
1666.5714848275
 20
-231.2395277336003
 30
0.0
 11
1667.3839587565
 21
-235.8472963559003
 31
0.0
  0
LINE
  5
432
  8
1
  6
CONTINUOUS
 62
     7
 10
1676.027875000095
 20
-198.5000000000004
 30
0.0
 11
1667.322875000094
 21
-198.5000000000004
 31
0.0
  0
LINE
  5
433
  8
1
  6
CONTINUOUS
 62
     7
 10
1675.675375000096
 20
-206.5000000000003
 30
0.0
 11
1675.675375000096
 21
-236.5879555308003
 31
0.0
  0
ARC
  5
434
  8
1
  6
CONTINUOUS
 62
     7
 10
1458.253726802098
 20
-173.4999999999001
 30
0.0
 40
1.500000000000057
 50
190.0
 51
270.0
  0
ARC
  5
435
  8
1
  6
CONTINUOUS
 62
     7
 10
1688.664025737594
 20
-169.4999999993001
 30
0.0
 40
2.000000000002444
 50
10.0
 51
90.0
  0
ARC
  5
436
  8
1
  6
CONTINUOUS
 62
     7
 10
1487.587426802097
 20
-173.4999999999001
 30
0.0
 40
1.500000000000057
 50
190.0
 51
270.0
  0
LINE
  5
437
  8
1
  6
CONTINUOUS
 62
     7
 10
1678.256476802097
 20
-174.9999999999002
 30
0.0
 11
1679.761123197998
 21
-174.9999999999002
 31
0.0
  0
LINE
  5
438
  8
1
  6
CONTINUOUS
 62
     7
 10
1432.653275000099
 20
-206.5000000000003
 30
0.0
 11
1432.653275000099
 21
-198.5000000000003
 31
0.0
  0
ARC
  5
439
  8
1
  6
CONTINUOUS
 62
     7
 10
1483.328125737596
 20
-169.4999999993001
 30
0.0
 40
1.999999999998892
 50
10.0
 51
90.0
  0
LINE
  5
43A
  8
1
  6
CONTINUOUS
 62
     7
 10
1706.330447355298
 20
-230.6840333524001
 30
0.0
 11
1706.330447355298
 21
-174.3159666476002
 31
0.0
  0
ARC
  5
43B
  8
1
  6
CONTINUOUS
 62
     7
 10
1434.683974262497
 20
-235.5000000006003
 30
0.0
 40
1.999999999998892
 50
190.0
 51
270.0
  0
LINE
  5
43C
  8
1
  6
CONTINUOUS
 62
     7
 10
1667.322875000095
 20
-206.5000000000003
 30
0.0
 11
1667.322875000095
 21
-198.5000000000003
 31
0.0
  0
LINE
  5
43D
  8
1
  6
CONTINUOUS
 62
     7
 10
1455.672625000094
 20
-206.5000000000003
 30
0.0
 11
1455.672625000094
 21
-236.5879555308003
 31
0.0
  0
LINE
  5
43E
  8
1
  6
CONTINUOUS
 62
     7
 10
1485.358825000098
 20
-206.5000000000003
 30
0.0
 11
1485.358825000098
 21
-198.5000000000003
 31
0.0
  0
LINE
  5
43F
  8
1
  6
CONTINUOUS
 62
     7
 10
1697.0090750001
 20
-198.5000000000004
 30
0.0
 11
1697.0090750001
 21
-168.4120444693003
 31
0.0
  0
ARC
  5
440
  8
1
  6
CONTINUOUS
 62
     7
 10
1472.920576802096
 20
-173.4999999999001
 30
0.0
 40
1.500000000000057
 50
190.0
 51
270.0
  0
LINE
  5
441
  8
1
  6
CONTINUOUS
 62
     7
 10
1483.328125737596
 20
-167.4999999994003
 30
0.0
 11
1478.684524262495
 21
-167.4999999994003
 31
0.0
  0
LINE
  5
442
  8
1
  6
CONTINUOUS
 62
     7
 10
1461.235584827495
 20
-231.2395277336003
 30
0.0
 11
1462.048058756494
 21
-235.8472963559003
 31
0.0
  0
ARC
  5
443
  8
1
  6
CONTINUOUS
 62
     7
 10
1678.256476802097
 20
-173.4999999999001
 30
0.0
 40
1.500000000000057
 50
190.0
 51
270.0
  0
LINE
  5
444
  8
1
  6
CONTINUOUS
 62
     7
 10
1705.361575000097
 20
-206.5000000000003
 30
0.0
 11
1696.656575000097
 21
-206.5000000000003
 31
0.0
  0
LINE
  5
445
  8
1
  6
CONTINUOUS
 62
     7
 10
1458.253726802098
 20
-230.0000000001002
 30
0.0
 11
1459.758373197998
 21
-230.0000000001002
 31
0.0
  0
LINE
  5
446
  8
1
  6
CONTINUOUS
 62
     7
 10
1705.361575000097
 20
-198.5000000000004
 30
0.0
 11
1696.656575000097
 21
-198.5000000000004
 31
0.0
  0
LINE
  5
447
  8
1
  6
CONTINUOUS
 62
     7
 10
1471.661027355295
 20
-230.6840333524001
 30
0.0
 11
1471.661027355295
 21
-174.3159666476002
 31
0.0
  0
ARC
  5
448
  8
1
  6
CONTINUOUS
 62
     7
 10
1453.994425737597
 20
-235.5000000007002
 30
0.0
 40
1.999999999998892
 50
270.0
 51
349.9999999999999
  0
LINE
  5
449
  8
1
  6
CONTINUOUS
 62
     7
 10
1462.339475000096
 20
-206.5000000000003
 30
0.0
 11
1462.339475000096
 21
-236.5879555307002
 31
0.0
  0
ARC
  5
44A
  8
1
  6
CONTINUOUS
 62
     7
 10
1841.096473198
 20
-173.4999999999001
 30
0.0
 40
1.500000000000057
 50
270.0
 51
349.9999999999999
  0
LINE
  5
44B
  8
1
  6
CONTINUOUS
 62
     7
 10
1681.018872644699
 20
-230.6840333524001
 30
0.0
 11
1681.018872644699
 21
-174.3159666476002
 31
0.0
  0
LINE
  5
44C
  8
1
  6
CONTINUOUS
 62
     7
 10
1682.342225000095
 20
-206.5000000000003
 30
0.0
 11
1682.342225000095
 21
-236.5879555307002
 31
0.0
  0
ARC
  5
44D
  8
1
  6
CONTINUOUS
 62
     7
 10
1780.924426802098
 20
-173.4999999999001
 30
0.0
 40
1.500000000000057
 50
190.0
 51
270.0
  0
LINE
  5
44E
  8
1
  6
CONTINUOUS
 62
     7
 10
1735.664687355296
 20
-230.6840333524001
 30
0.0
 11
1735.664687355296
 21
-174.3159666476002
 31
0.0
  0
ARC
  5
44F
  8
1
  6
CONTINUOUS
 62
     7
 10
1445.091523197994
 20
-173.4999999999001
 30
0.0
 40
1.50000000000361
 50
270.0
 51
349.9999999999999
  0
ARC
  5
450
  8
1
  6
CONTINUOUS
 62
     7
 10
1776.665125737597
 20
-235.5000000007002
 30
0.0
 40
1.999999999998892
 50
270.0
 51
349.9999999999999
  0
LINE
  5
451
  8
1
  6
CONTINUOUS
 62
     7
 10
1470.691975000097
 20
-206.5000000000003
 30
0.0
 11
1470.691975000097
 21
-198.5000000000003
 31
0.0
  0
ARC
  5
452
  8
1
  6
CONTINUOUS
 62
     7
 10
1458.253726802098
 20
-231.5000000001001
 30
0.0
 40
1.500000000000057
 50
90.0
 51
170.0
  0
ARC
  5
453
  8
1
  6
CONTINUOUS
 62
     7
 10
1478.684524262497
 20
-169.4999999994004
 30
0.0
 40
1.999999999998892
 50
90.0
 51
170.0
  0
LINE
  5
454
  8
1
  6
CONTINUOUS
 62
     7
 10
1776.665125737597
 20
-167.4999999994003
 30
0.0
 11
1772.021524262497
 21
-167.4999999994003
 31
0.0
  0
LINE
  5
455
  8
1
  6
CONTINUOUS
 62
     7
 10
1453.994425737597
 20
-167.4999999994003
 30
0.0
 11
1449.350824262498
 21
-167.4999999994003
 31
0.0
  0
LINE
  5
456
  8
1
  6
CONTINUOUS
 62
     7
 10
1475.902434827496
 20
-231.2395277336003
 30
0.0
 11
1476.714908756495
 21
-235.8472963559003
 31
0.0
  0
ARC
  5
457
  8
1
  6
CONTINUOUS
 62
     7
 10
1673.997175737596
 20
-235.5000000007002
 30
0.0
 40
1.999999999998892
 50
270.0
 51
349.9999999999999
  0
ARC
  5
458
  8
1
  6
CONTINUOUS
 62
     7
 10
1459.758373197996
 20
-173.4999999999001
 30
0.0
 40
1.50000000000361
 50
270.0
 51
349.9999999999999
  0
ARC
  5
459
  8
1
  6
CONTINUOUS
 62
     7
 10
1464.017674262496
 20
-235.5000000006003
 30
0.0
 40
1.999999999998892
 50
190.0
 51
270.0
  0
LINE
  5
45A
  8
1
  6
CONTINUOUS
 62
     7
 10
1739.905734827502
 20
-173.7604722664001
 30
0.0
 11
1740.718208756502
 21
-169.1527036441002
 31
0.0
  0
LINE
  5
45B
  8
1
  6
CONTINUOUS
 62
     7
 10
1433.005775000097
 20
-198.5000000000004
 30
0.0
 11
1433.005775000097
 21
-168.4120444693003
 31
0.0
  0
LINE
  5
45C
  8
1
  6
CONTINUOUS
 62
     7
 10
1475.902434827496
 20
-173.7604722664001
 30
0.0
 11
1476.714908756495
 21
-169.1527036441002
 31
0.0
  0
ARC
  5
45D
  8
1
  6
CONTINUOUS
 62
     7
 10
1772.021524262498
 20
-169.4999999994004
 30
0.0
 40
1.999999999998892
 50
90.0
 51
170.0
  0
ARC
  5
45E
  8
1
  6
CONTINUOUS
 62
     7
 10
1854.258676802096
 20
-173.4999999999001
 30
0.0
 40
1.50000000000361
 50
190.0
 51
270.0
  0
LINE
  5
45F
  8
1
  6
CONTINUOUS
 62
     7
 10
1764.998027355296
 20
-230.6840333524001
 30
0.0
 11
1764.998027355296
 21
-174.3159666476002
 31
0.0
  0
LINE
  5
460
  8
1
  6
CONTINUOUS
 62
     7
 10
1779.664697355297
 20
-230.6840333524001
 30
0.0
 11
1779.664697355297
 21
-174.3159666476002
 31
0.0
  0
ARC
  5
461
  8
1
  6
CONTINUOUS
 62
     7
 10
1678.256476802097
 20
-231.5000000001001
 30
0.0
 40
1.500000000000057
 50
90.0
 51
170.0
  0
LINE
  5
462
  8
1
  6
CONTINUOUS
 62
     7
 10
1705.009075000099
 20
-198.5000000000004
 30
0.0
 11
1705.009075000099
 21
-168.4120444692004
 31
0.0
  0
ARC
  5
463
  8
1
  6
CONTINUOUS
 62
     7
 10
1694.427973197996
 20
-231.5000000001001
 30
0.0
 40
1.500000000000057
 50
10.0
 51
90.0
  0
ARC
  5
464
  8
1
  6
CONTINUOUS
 62
     7
 10
1679.761123197998
 20
-231.5000000001001
 30
0.0
 40
1.500000000000057
 50
10.0
 51
90.0
  0
LINE
  5
465
  8
1
  6
CONTINUOUS
 62
     7
 10
1446.568734827493
 20
-231.2395277336003
 30
0.0
 11
1447.381208756493
 21
-235.8472963559003
 31
0.0
  0
LINE
  5
466
  8
1
  6
CONTINUOUS
 62
     7
 10
1471.443365172596
 20
-173.7604722664001
 30
0.0
 11
1470.630891243597
 21
-169.1527036440003
 31
0.0
  0
LINE
  5
467
  8
1
  6
CONTINUOUS
 62
     7
 10
1441.358275000098
 20
-198.5000000000004
 30
0.0
 11
1432.653275000098
 21
-198.5000000000004
 31
0.0
  0
LINE
  5
468
  8
1
  6
CONTINUOUS
 62
     7
 10
1475.682792644697
 20
-230.6840333524001
 30
0.0
 11
1475.682792644697
 21
-174.3159666476002
 31
0.0
  0
LINE
  5
469
  8
1
  6
CONTINUOUS
 62
     7
 10
1455.672625000094
 20
-198.5000000000004
 30
0.0
 11
1455.672625000094
 21
-168.4120444692004
 31
0.0
  0
LINE
  5
46A
  8
1
  6
CONTINUOUS
 62
     7
 10
1490.569284827497
 20
-173.7604722664001
 30
0.0
 11
1491.381758756497
 21
-169.1527036441002
 31
0.0
  0
ARC
  5
46B
  8
1
  6
CONTINUOUS
 62
     7
 10
1776.665125737597
 20
-169.4999999993001
 30
0.0
 40
1.999999999998892
 50
10.0
 51
90.0
  0
LINE
  5
46C
  8
1
  6
CONTINUOUS
 62
     7
 10
1676.779265172598
 20
-231.2395277336003
 30
0.0
 11
1675.966791243597
 21
-235.8472963561002
 31
0.0
  0
LINE
  5
46D
  8
1
  6
CONTINUOUS
 62
     7
 10
1739.686452644697
 20
-230.6840333524001
 30
0.0
 11
1739.686452644697
 21
-174.3159666476002
 31
0.0
  0
ARC
  5
46E
  8
1
  6
CONTINUOUS
 62
     7
 10
1692.923326802095
 20
-231.5000000001001
 30
0.0
 40
1.500000000000057
 50
90.0
 51
170.0
  0
LINE
  5
46F
  8
1
  6
CONTINUOUS
 62
     7
 10
1755.676475000097
 20
-198.5000000000004
 30
0.0
 11
1755.676475000097
 21
-168.4120444693003
 31
0.0
  0
ARC
  5
470
  8
1
  6
CONTINUOUS
 62
     7
 10
1472.920576802096
 20
-231.5000000001001
 30
0.0
 40
1.500000000000057
 50
90.0
 51
170.0
  0
LINE
  5
471
  8
1
  6
CONTINUOUS
 62
     7
 10
1442.109665172598
 20
-173.7604722664001
 30
0.0
 11
1441.297191243598
 21
-169.1527036440003
 31
0.0
  0
LINE
  5
472
  8
1
  6
CONTINUOUS
 62
     7
 10
1485.006325000096
 20
-206.5000000000003
 30
0.0
 11
1485.006325000096
 21
-236.5879555308003
 31
0.0
  0
ARC
  5
473
  8
1
  6
CONTINUOUS
 62
     7
 10
1453.994425737597
 20
-169.4999999993001
 30
0.0
 40
1.999999999998892
 50
10.0
 51
90.0
  0
LINE
  5
474
  8
1
  6
CONTINUOUS
 62
     7
 10
1549.236684827498
 20
-231.2395277336003
 30
0.0
 11
1550.049158756498
 21
-235.8472963559003
 31
0.0
  0
LINE
  5
475
  8
1
  6
CONTINUOUS
 62
     7
 10
1439.327575737596
 20
-167.4999999994003
 30
0.0
 11
1434.683974262497
 21
-167.4999999994003
 31
0.0
  0
LINE
  5
476
  8
1
  6
CONTINUOUS
 62
     7
 10
1443.586876802097
 20
-174.9999999999002
 30
0.0
 11
1445.091523197997
 21
-174.9999999999002
 31
0.0
  0
LINE
  5
477
  8
1
  6
CONTINUOUS
 62
     7
 10
1559.4444651726
 20
-173.7604722664001
 30
0.0
 11
1558.6319912436
 21
-169.1527036440003
 31
0.0
  0
LINE
  5
478
  8
1
  6
CONTINUOUS
 62
     7
 10
1666.352202644695
 20
-230.6840333524001
 30
0.0
 11
1666.352202644695
 21
-174.3159666476002
 31
0.0
  0
LINE
  5
479
  8
1
  6
CONTINUOUS
 62
     7
 10
1500.995267355293
 20
-230.6840333524001
 30
0.0
 11
1500.995267355293
 21
-174.3159666476002
 31
0.0
  0
LINE
  5
47A
  8
1
  6
CONTINUOUS
 62
     7
 10
1514.340025000095
 20
-206.5000000000003
 30
0.0
 11
1514.340025000095
 21
-236.5879555308003
 31
0.0
  0
LINE
  5
47B
  8
1
  6
CONTINUOUS
 62
     7
 10
1638.341675000099
 20
-206.5000000000003
 30
0.0
 11
1638.341675000099
 21
-236.5879555307002
 31
0.0
  0
LINE
  5
47C
  8
1
  6
CONTINUOUS
 62
     7
 10
1565.007425000096
 20
-206.5000000000003
 30
0.0
 11
1565.007425000096
 21
-236.5879555307002
 31
0.0
  0
LINE
  5
47D
  8
1
  6
CONTINUOUS
 62
     7
 10
1500.025675000099
 20
-206.5000000000003
 30
0.0
 11
1491.3206750001
 21
-206.5000000000003
 31
0.0
  0
LINE
  5
47E
  8
1
  6
CONTINUOUS
 62
     7
 10
1505.987525000097
 20
-206.5000000000003
 30
0.0
 11
1505.987525000097
 21
-198.5000000000003
 31
0.0
  0
LINE
  5
47F
  8
1
  6
CONTINUOUS
 62
     7
 10
1514.6925250001
 20
-206.5000000000003
 30
0.0
 11
1514.6925250001
 21
-198.5000000000003
 31
0.0
  0
LINE
  5
480
  8
1
  6
CONTINUOUS
 62
     7
 10
1461.986975000098
 20
-206.5000000000003
 30
0.0
 11
1461.986975000098
 21
-198.5000000000003
 31
0.0
  0
LINE
  5
481
  8
1
  6
CONTINUOUS
 62
     7
 10
1456.776515172599
 20
-173.7604722664001
 30
0.0
 11
1455.964041243598
 21
-169.1527036440003
 31
0.0
  0
LINE
  5
482
  8
1
  6
CONTINUOUS
 62
     7
 10
1471.443365172596
 20
-231.2395277336003
 30
0.0
 11
1470.630891243597
 21
-235.8472963561002
 31
0.0
  0
LINE
  5
483
  8
1
  6
CONTINUOUS
 62
     7
 10
1446.349452644696
 20
-230.6840333524001
 30
0.0
 11
1446.349452644696
 21
-174.3159666476002
 31
0.0
  0
ARC
  5
484
  8
1
  6
CONTINUOUS
 62
     7
 10
1483.328125737596
 20
-235.5000000007002
 30
0.0
 40
1.999999999998892
 50
270.0
 51
349.9999999999999
  0
LINE
  5
485
  8
1
  6
CONTINUOUS
 62
     7
 10
1477.006325000097
 20
-206.5000000000003
 30
0.0
 11
1477.006325000097
 21
-236.5879555307002
 31
0.0
  0
ARC
  5
486
  8
1
  6
CONTINUOUS
 62
     7
 10
1478.684524262497
 20
-235.5000000006003
 30
0.0
 40
1.999999999998892
 50
190.0
 51
270.0
  0
LINE
  5
487
  8
1
  6
CONTINUOUS
 62
     7
 10
1550.340575000099
 20
-198.5000000000004
 30
0.0
 11
1550.340575000099
 21
-168.4120444693003
 31
0.0
  0
LINE
  5
488
  8
1
  6
CONTINUOUS
 62
     7
 10
1483.328125737596
 20
-237.5000000006002
 30
0.0
 11
1478.684524262495
 21
-237.5000000006002
 31
0.0
  0
ARC
  5
489
  8
1
  6
CONTINUOUS
 62
     7
 10
1443.586876802097
 20
-173.4999999999001
 30
0.0
 40
1.500000000000057
 50
190.0
 51
270.0
  0
LINE
  5
48A
  8
1
  6
CONTINUOUS
 62
     7
 10
1544.777615172598
 20
-173.7604722664001
 30
0.0
 11
1543.965141243599
 21
-169.1527036440003
 31
0.0
  0
LINE
  5
48B
  8
1
  6
CONTINUOUS
 62
     7
 10
1485.358825000098
 20
-198.5000000000004
 30
0.0
 11
1476.653825000098
 21
-198.5000000000004
 31
0.0
  0
ARC
  5
48C
  8
1
  6
CONTINUOUS
 62
     7
 10
1445.091523197994
 20
-231.5000000001001
 30
0.0
 40
1.50000000000361
 50
10.0
 51
90.0
  0
LINE
  5
48D
  8
1
  6
CONTINUOUS
 62
     7
 10
1549.236684827498
 20
-173.7604722664001
 30
0.0
 11
1550.049158756498
 21
-169.1527036441002
 31
0.0
  0
LINE
  5
48E
  8
1
  6
CONTINUOUS
 62
     7
 10
1470.691975000097
 20
-206.5000000000003
 30
0.0
 11
1461.986975000098
 21
-206.5000000000003
 31
0.0
  0
ARC
  5
48F
  8
1
  6
CONTINUOUS
 62
     7
 10
1468.661275737595
 20
-169.4999999993001
 30
0.0
 40
2.000000000002444
 50
10.0
 51
90.0
  0
LINE
  5
490
  8
1
  6
CONTINUOUS
 62
     7
 10
1447.672625000095
 20
-206.5000000000003
 30
0.0
 11
1447.672625000095
 21
-236.5879555307002
 31
0.0
  0
LINE
  5
491
  8
1
  6
CONTINUOUS
 62
     7
 10
1477.006325000097
 20
-198.5000000000004
 30
0.0
 11
1477.006325000097
 21
-168.4120444693003
 31
0.0
  0
ARC
  5
492
  8
1
  6
CONTINUOUS
 62
     7
 10
1459.758373197996
 20
-231.5000000001001
 30
0.0
 40
1.50000000000361
 50
10.0
 51
90.0
  0
LINE
  5
493
  8
1
  6
CONTINUOUS
 62
     7
 10
1505.236134827498
 20
-173.7604722664001
 30
0.0
 11
1506.048608756497
 21
-169.1527036441002
 31
0.0
  0
LINE
  5
494
  8
1
  6
CONTINUOUS
 62
     7
 10
1491.673175000094
 20
-206.5000000000003
 30
0.0
 11
1491.673175000094
 21
-236.5879555307002
 31
0.0
  0
LINE
  5
495
  8
1
  6
CONTINUOUS
 62
     7
 10
1476.653825000099
 20
-206.5000000000003
 30
0.0
 11
1476.653825000099
 21
-198.5000000000003
 31
0.0
  0
LINE
  5
496
  8
1
  6
CONTINUOUS
 62
     7
 10
1491.673175000094
 20
-198.5000000000004
 30
0.0
 11
1491.673175000094
 21
-168.4120444693003
 31
0.0
  0
LINE
  5
497
  8
1
  6
CONTINUOUS
 62
     7
 10
1456.025125000095
 20
-206.5000000000003
 30
0.0
 11
1456.025125000095
 21
-198.5000000000003
 31
0.0
  0
LINE
  5
498
  8
1
  6
CONTINUOUS
 62
     7
 10
1514.6925250001
 20
-198.5000000000004
 30
0.0
 11
1505.9875250001
 21
-198.5000000000004
 31
0.0
  0
LINE
  5
499
  8
1
  6
CONTINUOUS
 62
     7
 10
1514.6925250001
 20
-206.5000000000003
 30
0.0
 11
1505.9875250001
 21
-206.5000000000003
 31
0.0
  0
LINE
  5
49A
  8
1
  6
CONTINUOUS
 62
     7
 10
1558.340575000095
 20
-206.5000000000003
 30
0.0
 11
1558.340575000095
 21
-236.5879555308003
 31
0.0
  0
LINE
  5
49B
  8
1
  6
CONTINUOUS
 62
     7
 10
1441.358275000098
 20
-206.5000000000003
 30
0.0
 11
1441.358275000098
 21
-198.5000000000003
 31
0.0
  0
LINE
  5
49C
  8
1
  6
CONTINUOUS
 62
     7
 10
1544.026225000099
 20
-198.5000000000004
 30
0.0
 11
1535.321225000099
 21
-198.5000000000004
 31
0.0
  0
LINE
  5
49D
  8
1
  6
CONTINUOUS
 62
     7
 10
1456.025125000095
 20
-206.5000000000003
 30
0.0
 11
1447.320125000095
 21
-206.5000000000003
 31
0.0
  0
ARC
  5
49E
  8
1
  6
CONTINUOUS
 62
     7
 10
1449.350824262495
 20
-169.4999999994004
 30
0.0
 40
2.000000000002444
 50
90.0
 51
170.0
  0
LINE
  5
49F
  8
1
  6
CONTINUOUS
 62
     7
 10
1453.994425737597
 20
-237.5000000006002
 30
0.0
 11
1449.350824262498
 21
-237.5000000006002
 31
0.0
  0
ARC
  5
4A0
  8
1
  6
CONTINUOUS
 62
     7
 10
1449.350824262495
 20
-235.5000000006003
 30
0.0
 40
2.000000000002444
 50
190.0
 51
270.0
  0
LINE
  5
4A1
  8
1
  6
CONTINUOUS
 62
     7
 10
1486.110215172597
 20
-173.7604722664001
 30
0.0
 11
1485.297741243598
 21
-169.1527036440003
 31
0.0
  0
LINE
  5
4A2
  8
1
  6
CONTINUOUS
 62
     7
 10
1461.016122644696
 20
-230.6840333524001
 30
0.0
 11
1461.016122644696
 21
-174.3159666476002
 31
0.0
  0
ARC
  5
4A3
  8
1
  6
CONTINUOUS
 62
     7
 10
1430.424673197997
 20
-173.4999999999001
 30
0.0
 40
1.500000000000057
 50
270.0
 51
349.9999999999999
  0
LINE
  5
4A4
  8
1
  6
CONTINUOUS
 62
     7
 10
1559.4444651726
 20
-231.2395277336003
 30
0.0
 11
1558.6319912436
 21
-235.8472963561002
 31
0.0
  0
LINE
  5
4A5
  8
1
  6
CONTINUOUS
 62
     7
 10
1556.662375737598
 20
-167.4999999994003
 30
0.0
 11
1552.018774262498
 21
-167.4999999994003
 31
0.0
  0
LINE
  5
4A6
  8
1
  6
CONTINUOUS
 62
     7
 10
1485.006325000096
 20
-198.5000000000004
 30
0.0
 11
1485.006325000096
 21
-168.4120444692004
 31
0.0
  0
LINE
  5
4A7
  8
1
  6
CONTINUOUS
 62
     7
 10
1541.995525737597
 20
-167.4999999994003
 30
0.0
 11
1537.351924262496
 21
-167.4999999994003
 31
0.0
  0
LINE
  5
4A8
  8
1
  6
CONTINUOUS
 62
     7
 10
1470.691975000097
 20
-198.5000000000004
 30
0.0
 11
1461.986975000098
 21
-198.5000000000004
 31
0.0
  0
LINE
  5
4A9
  8
1
  6
CONTINUOUS
 62
     7
 10
1431.682782644699
 20
-230.6840333524001
 30
0.0
 11
1431.682782644699
 21
-174.3159666476002
 31
0.0
  0
LINE
  5
4AA
  8
1
  6
CONTINUOUS
 62
     7
 10
1673.997175737596
 20
-167.4999999994003
 30
0.0
 11
1669.353574262499
 21
-167.4999999994003
 31
0.0
  0
LINE
  5
4AB
  8
1
  6
CONTINUOUS
 62
     7
 10
1486.110215172597
 20
-231.2395277336003
 30
0.0
 11
1485.297741243598
 21
-235.8472963561002
 31
0.0
  0
LINE
  5
4AC
  8
1
  6
CONTINUOUS
 62
     7
 10
1531.587976802097
 20
-174.9999999999002
 30
0.0
 11
1533.092623197997
 21
-174.9999999999002
 31
0.0
  0
LINE
  5
4AD
  8
1
  6
CONTINUOUS
 62
     7
 10
1486.327697355296
 20
-230.6840333524001
 30
0.0
 11
1486.327697355296
 21
-174.3159666476002
 31
0.0
  0
LINE
  5
4AE
  8
1
  6
CONTINUOUS
 62
     7
 10
1556.662375737598
 20
-237.5000000006002
 30
0.0
 11
1552.018774262498
 21
-237.5000000006002
 31
0.0
  0
LINE
  5
4AF
  8
1
  6
CONTINUOUS
 62
     7
 10
1565.007425000096
 20
-198.5000000000004
 30
0.0
 11
1565.007425000096
 21
-168.4120444693003
 31
0.0
  0
LINE
  5
4B0
  8
1
  6
CONTINUOUS
 62
     7
 10
1500.025675000099
 20
-198.5000000000004
 30
0.0
 11
1491.3206750001
 21
-198.5000000000004
 31
0.0
  0
LINE
  5
4B1
  8
1
  6
CONTINUOUS
 62
     7
 10
1490.349462644697
 20
-230.6840333524001
 30
0.0
 11
1490.349462644697
 21
-174.3159666476002
 31
0.0
  0
LINE
  5
4B2
  8
1
  6
CONTINUOUS
 62
     7
 10
1579.674275000098
 20
-198.5000000000004
 30
0.0
 11
1579.674275000098
 21
-168.4120444693003
 31
0.0
  0
LINE
  5
4B3
  8
1
  6
CONTINUOUS
 62
     7
 10
1514.340025000095
 20
-198.5000000000004
 30
0.0
 11
1514.340025000095
 21
-168.4120444692004
 31
0.0
  0
LINE
  5
4B4
  8
1
  6
CONTINUOUS
 62
     7
 10
1512.661825737598
 20
-167.4999999994003
 30
0.0
 11
1508.018224262499
 21
-167.4999999994003
 31
0.0
  0
LINE
  5
4B5
  8
1
  6
CONTINUOUS
 62
     7
 10
1487.587426802097
 20
-174.9999999999002
 30
0.0
 11
1489.092073197997
 21
-174.9999999999002
 31
0.0
  0
LINE
  5
4B6
  8
1
  6
CONTINUOUS
 62
     7
 10
1485.358825000098
 20
-206.5000000000003
 30
0.0
 11
1476.653825000098
 21
-206.5000000000003
 31
0.0
  0
LINE
  5
4B7
  8
1
  6
CONTINUOUS
 62
     7
 10
1574.111315172601
 20
-231.2395277336003
 30
0.0
 11
1573.2988412436
 21
-235.8472963561002
 31
0.0
  0
LINE
  5
4B8
  8
1
  6
CONTINUOUS
 62
     7
 10
1530.110765172597
 20
-173.7604722664001
 30
0.0
 11
1529.298291243597
 21
-169.1527036440003
 31
0.0
  0
LINE
  5
4B9
  8
1
  6
CONTINUOUS
 62
     7
 10
1637.237784827498
 20
-231.2395277336003
 30
0.0
 11
1638.050258756496
 21
-235.8472963559003
 31
0.0
  0
LINE
  5
4BA
  8
1
  6
CONTINUOUS
 62
     7
 10
1535.3212250001
 20
-206.5000000000003
 30
0.0
 11
1535.3212250001
 21
-198.5000000000003
 31
0.0
  0
LINE
  5
4BB
  8
1
  6
CONTINUOUS
 62
     7
 10
1575.5885268021
 20
-174.9999999999002
 30
0.0
 11
1577.093173198
 21
-174.9999999999002
 31
0.0
  0
LINE
  5
4BC
  8
1
  6
CONTINUOUS
 62
     7
 10
1588.778165172595
 20
-173.7604722664001
 30
0.0
 11
1587.965691243595
 21
-169.1527036440003
 31
0.0
  0
LINE
  5
4BD
  8
1
  6
CONTINUOUS
 62
     7
 10
1515.443915172596
 20
-173.7604722664001
 30
0.0
 11
1514.631441243596
 21
-169.1527036440003
 31
0.0
  0
LINE
  5
4BE
  8
1
  6
CONTINUOUS
 62
     7
 10
1575.5885268021
 20
-230.0000000001002
 30
0.0
 11
1577.093173198
 21
-230.0000000001002
 31
0.0
  0
ARC
  5
4BF
  8
1
  6
CONTINUOUS
 62
     7
 10
1474.425223197997
 20
-231.5000000001001
 30
0.0
 40
1.500000000000057
 50
10.0
 51
90.0
  0
LINE
  5
4C0
  8
1
  6
CONTINUOUS
 62
     7
 10
1530.110765172597
 20
-231.2395277336003
 30
0.0
 11
1529.298291243597
 21
-235.8472963561002
 31
0.0
  0
LINE
  5
4C1
  8
1
  6
CONTINUOUS
 62
     7
 10
1529.006875000096
 20
-198.5000000000004
 30
0.0
 11
1529.006875000096
 21
-168.4120444692004
 31
0.0
  0
LINE
  5
4C2
  8
1
  6
CONTINUOUS
 62
     7
 10
1578.351282644696
 20
-230.6840333524001
 30
0.0
 11
1578.351282644696
 21
-174.3159666476002
 31
0.0
  0
LINE
  5
4C3
  8
1
  6
CONTINUOUS
 62
     7
 10
1456.994357355298
 20
-230.6840333524001
 30
0.0
 11
1456.994357355298
 21
-174.3159666476002
 31
0.0
  0
LINE
  5
4C4
  8
1
  6
CONTINUOUS
 62
     7
 10
1505.236134827498
 20
-231.2395277336003
 30
0.0
 11
1506.048608756497
 21
-235.8472963559003
 31
0.0
  0
LINE
  5
4C5
  8
1
  6
CONTINUOUS
 62
     7
 10
1456.776515172599
 20
-231.2395277336003
 30
0.0
 11
1455.964041243598
 21
-235.8472963561002
 31
0.0
  0
LINE
  5
4C6
  8
1
  6
CONTINUOUS
 62
     7
 10
1506.340025000095
 20
-198.5000000000004
 30
0.0
 11
1506.340025000095
 21
-168.4120444693003
 31
0.0
  0
LINE
  5
4C7
  8
1
  6
CONTINUOUS
 62
     7
 10
1534.569834827497
 20
-231.2395277336003
 30
0.0
 11
1535.382308756497
 21
-235.8472963559003
 31
0.0
  0
LINE
  5
4C8
  8
1
  6
CONTINUOUS
 62
     7
 10
1535.673725000098
 20
-206.5000000000003
 30
0.0
 11
1535.673725000098
 21
-236.5879555307002
 31
0.0
  0
LINE
  5
4C9
  8
1
  6
CONTINUOUS
 62
     7
 10
1549.988075000101
 20
-206.5000000000003
 30
0.0
 11
1549.988075000101
 21
-198.5000000000003
 31
0.0
  0
LINE
  5
4CA
  8
1
  6
CONTINUOUS
 62
     7
 10
1558.6930750001
 20
-198.5000000000004
 30
0.0
 11
1549.9880750001
 21
-198.5000000000004
 31
0.0
  0
ARC
  5
4CB
  8
1
  6
CONTINUOUS
 62
     7
 10
1487.587426802097
 20
-231.5000000001001
 30
0.0
 40
1.500000000000057
 50
90.0
 51
170.0
  0
LINE
  5
4CC
  8
1
  6
CONTINUOUS
 62
     7
 10
1516.921126802095
 20
-174.9999999999002
 30
0.0
 11
1518.425773197996
 21
-174.9999999999002
 31
0.0
  0
LINE
  5
4CD
  8
1
  6
CONTINUOUS
 62
     7
 10
1560.921676802099
 20
-174.9999999999002
 30
0.0
 11
1562.426323198
 21
-174.9999999999002
 31
0.0
  0
LINE
  5
4CE
  8
1
  6
CONTINUOUS
 62
     7
 10
1491.320675000096
 20
-206.5000000000003
 30
0.0
 11
1491.320675000096
 21
-198.5000000000003
 31
0.0
  0
LINE
  5
4CF
  8
1
  6
CONTINUOUS
 62
     7
 10
1585.996075737597
 20
-237.5000000006002
 30
0.0
 11
1581.352474262497
 21
-237.5000000006002
 31
0.0
  0
LINE
  5
4D0
  8
1
  6
CONTINUOUS
 62
     7
 10
1497.994975737597
 20
-167.4999999994003
 30
0.0
 11
1493.351374262497
 21
-167.4999999994003
 31
0.0
  0
LINE
  5
4D1
  8
1
  6
CONTINUOUS
 62
     7
 10
1521.006875000097
 20
-206.5000000000003
 30
0.0
 11
1521.006875000097
 21
-236.5879555307002
 31
0.0
  0
LINE
  5
4D2
  8
1
  6
CONTINUOUS
 62
     7
 10
1615.329775737599
 20
-237.5000000006002
 30
0.0
 11
1610.686174262499
 21
-237.5000000006002
 31
0.0
  0
LINE
  5
4D3
  8
1
  6
CONTINUOUS
 62
     7
 10
1558.6930750001
 20
-206.5000000000003
 30
0.0
 11
1549.9880750001
 21
-206.5000000000003
 31
0.0
  0
LINE
  5
4D4
  8
1
  6
CONTINUOUS
 62
     7
 10
1578.570384827497
 20
-231.2395277336003
 30
0.0
 11
1579.382858756497
 21
-235.8472963559003
 31
0.0
  0
LINE
  5
4D5
  8
1
  6
CONTINUOUS
 62
     7
 10
1588.026775000095
 20
-198.5000000000004
 30
0.0
 11
1579.321775000095
 21
-198.5000000000004
 31
0.0
  0
LINE
  5
4D6
  8
1
  6
CONTINUOUS
 62
     7
 10
1560.921676802099
 20
-230.0000000001002
 30
0.0
 11
1562.426323198
 21
-230.0000000001002
 31
0.0
  0
LINE
  5
4D7
  8
1
  6
CONTINUOUS
 62
     7
 10
1604.922226802099
 20
-174.9999999999002
 30
0.0
 11
1606.426873197999
 21
-174.9999999999002
 31
0.0
  0
LINE
  5
4D8
  8
1
  6
CONTINUOUS
 62
     7
 10
1588.026775000095
 20
-206.5000000000003
 30
0.0
 11
1579.321775000095
 21
-206.5000000000003
 31
0.0
  0
LINE
  5
4D9
  8
1
  6
CONTINUOUS
 62
     7
 10
1544.777615172598
 20
-231.2395277336003
 30
0.0
 11
1543.965141243599
 21
-235.8472963561002
 31
0.0
  0
LINE
  5
4DA
  8
1
  6
CONTINUOUS
 62
     7
 10
1558.340575000095
 20
-198.5000000000004
 30
0.0
 11
1558.340575000095
 21
-168.4120444692004
 31
0.0
  0
LINE
  5
4DB
  8
1
  6
CONTINUOUS
 62
     7
 10
1519.902984827496
 20
-231.2395277336003
 30
0.0
 11
1520.715458756496
 21
-235.8472963559003
 31
0.0
  0
LINE
  5
4DC
  8
1
  6
CONTINUOUS
 62
     7
 10
1527.328675737599
 20
-167.4999999994003
 30
0.0
 11
1522.6850742625
 21
-167.4999999994003
 31
0.0
  0
ARC
  5
4DD
  8
1
  6
CONTINUOUS
 62
     7
 10
1434.683974262497
 20
-169.4999999994004
 30
0.0
 40
1.999999999998892
 50
90.0
 51
170.0
  0
LINE
  5
4DE
  8
1
  6
CONTINUOUS
 62
     7
 10
1442.327687355295
 20
-230.6840333524001
 30
0.0
 11
1442.327687355295
 21
-174.3159666476002
 31
0.0
  0
LINE
  5
4DF
  8
1
  6
CONTINUOUS
 62
     7
 10
1603.662857355296
 20
-230.6840333524001
 30
0.0
 11
1603.662857355296
 21
-174.3159666476002
 31
0.0
  0
LINE
  5
4E0
  8
1
  6
CONTINUOUS
 62
     7
 10
1637.237784827498
 20
-173.7604722664001
 30
0.0
 11
1638.050258756496
 21
-169.1527036441002
 31
0.0
  0
LINE
  5
4E1
  8
1
  6
CONTINUOUS
 62
     7
 10
1573.359925000097
 20
-206.5000000000003
 30
0.0
 11
1573.359925000097
 21
-198.5000000000003
 31
0.0
  0
LINE
  5
4E2
  8
1
  6
CONTINUOUS
 62
     7
 10
1490.569284827497
 20
-231.2395277336003
 30
0.0
 11
1491.381758756497
 21
-235.8472963559003
 31
0.0
  0
LINE
  5
4E3
  8
1
  6
CONTINUOUS
 62
     7
 10
1487.587426802097
 20
-230.0000000001002
 30
0.0
 11
1489.092073197997
 21
-230.0000000001002
 31
0.0
  0
LINE
  5
4E4
  8
1
  6
CONTINUOUS
 62
     7
 10
1558.6930750001
 20
-206.5000000000003
 30
0.0
 11
1558.6930750001
 21
-198.5000000000003
 31
0.0
  0
LINE
  5
4E5
  8
1
  6
CONTINUOUS
 62
     7
 10
1573.359925000097
 20
-206.5000000000003
 30
0.0
 11
1564.654925000097
 21
-206.5000000000003
 31
0.0
  0
LINE
  5
4E6
  8
1
  6
CONTINUOUS
 62
     7
 10
1622.351292644701
 20
-230.6840333524001
 30
0.0
 11
1622.351292644701
 21
-174.3159666476002
 31
0.0
  0
ARC
  5
4E7
  8
1
  6
CONTINUOUS
 62
     7
 10
1474.425223197997
 20
-173.4999999999001
 30
0.0
 40
1.500000000000057
 50
270.0
 51
349.9999999999999
  0
LINE
  5
4E8
  8
1
  6
CONTINUOUS
 62
     7
 10
1529.359375000098
 20
-206.5000000000003
 30
0.0
 11
1520.654375000098
 21
-206.5000000000003
 31
0.0
  0
LINE
  5
4E9
  8
1
  6
CONTINUOUS
 62
     7
 10
1506.340025000095
 20
-206.5000000000003
 30
0.0
 11
1506.340025000095
 21
-236.5879555307002
 31
0.0
  0
LINE
  5
4EA
  8
1
  6
CONTINUOUS
 62
     7
 10
1550.340575000099
 20
-206.5000000000003
 30
0.0
 11
1550.340575000099
 21
-236.5879555307002
 31
0.0
  0
LINE
  5
4EB
  8
1
  6
CONTINUOUS
 62
     7
 10
1512.661825737598
 20
-237.5000000006002
 30
0.0
 11
1508.018224262499
 21
-237.5000000006002
 31
0.0
  0
LINE
  5
4EC
  8
1
  6
CONTINUOUS
 62
     7
 10
1588.026775000095
 20
-206.5000000000003
 30
0.0
 11
1588.026775000095
 21
-198.5000000000003
 31
0.0
  0
LINE
  5
4ED
  8
1
  6
CONTINUOUS
 62
     7
 10
1546.254826802098
 20
-174.9999999999002
 30
0.0
 11
1547.759473197998
 21
-174.9999999999002
 31
0.0
  0
LINE
  5
4EE
  8
1
  6
CONTINUOUS
 62
     7
 10
1882.115165172599
 20
-231.2395277336003
 30
0.0
 11
1881.302691243599
 21
-235.8472963561002
 31
0.0
  0
ARC
  5
4EF
  8
1
  6
CONTINUOUS
 62
     7
 10
1883.592376802098
 20
-231.5000000001001
 30
0.0
 40
1.500000000000057
 50
90.0
 51
170.0
  0
LINE
  5
4F0
  8
1
  6
CONTINUOUS
 62
     7
 10
1541.995525737597
 20
-237.5000000006002
 30
0.0
 11
1537.351924262496
 21
-237.5000000006002
 31
0.0
  0
LINE
  5
4F1
  8
1
  6
CONTINUOUS
 62
     7
 10
1617.360475000097
 20
-198.5000000000004
 30
0.0
 11
1608.655475000097
 21
-198.5000000000004
 31
0.0
  0
LINE
  5
4F2
  8
1
  6
CONTINUOUS
 62
     7
 10
1617.007975000099
 20
-206.5000000000003
 30
0.0
 11
1617.007975000099
 21
-236.5879555308003
 31
0.0
  0
LINE
  5
4F3
  8
1
  6
CONTINUOUS
 62
     7
 10
1632.778715172595
 20
-231.2395277336003
 30
0.0
 11
1631.966241243599
 21
-235.8472963561002
 31
0.0
  0
LINE
  5
4F4
  8
1
  6
CONTINUOUS
 62
     7
 10
1623.322325000099
 20
-206.5000000000003
 30
0.0
 11
1623.322325000099
 21
-198.5000000000003
 31
0.0
  0
LINE
  5
4F5
  8
1
  6
CONTINUOUS
 62
     7
 10
1871.907384827498
 20
-231.2395277336003
 30
0.0
 11
1872.719858756497
 21
-235.8472963559003
 31
0.0
  0
LINE
  5
4F6
  8
1
  6
CONTINUOUS
 62
     7
 10
1618.329527355296
 20
-230.6840333524001
 30
0.0
 11
1618.329527355296
 21
-174.3159666476002
 31
0.0
  0
LINE
  5
4F7
  8
1
  6
CONTINUOUS
 62
     7
 10
1571.329225737599
 20
-167.4999999994003
 30
0.0
 11
1566.685624262498
 21
-167.4999999994003
 31
0.0
  0
LINE
  5
4F8
  8
1
  6
CONTINUOUS
 62
     7
 10
1623.674825000097
 20
-198.5000000000004
 30
0.0
 11
1623.674825000097
 21
-168.4120444693003
 31
0.0
  0
LINE
  5
4F9
  8
1
  6
CONTINUOUS
 62
     7
 10
1579.321775000099
 20
-206.5000000000003
 30
0.0
 11
1579.321775000099
 21
-198.5000000000003
 31
0.0
  0
LINE
  5
4FA
  8
1
  6
CONTINUOUS
 62
     7
 10
1527.328675737599
 20
-237.5000000006002
 30
0.0
 11
1522.6850742625
 21
-237.5000000006002
 31
0.0
  0
LINE
  5
4FB
  8
1
  6
CONTINUOUS
 62
     7
 10
1578.570384827497
 20
-173.7604722664001
 30
0.0
 11
1579.382858756497
 21
-169.1527036441002
 31
0.0
  0
LINE
  5
4FC
  8
1
  6
CONTINUOUS
 62
     7
 10
1607.904084827499
 20
-231.2395277336003
 30
0.0
 11
1608.716558756499
 21
-235.8472963559003
 31
0.0
  0
LINE
  5
4FD
  8
1
  6
CONTINUOUS
 62
     7
 10
1602.341125000098
 20
-198.5000000000004
 30
0.0
 11
1602.341125000098
 21
-168.4120444692004
 31
0.0
  0
LINE
  5
4FE
  8
1
  6
CONTINUOUS
 62
     7
 10
1515.443915172596
 20
-231.2395277336003
 30
0.0
 11
1514.631441243596
 21
-235.8472963561002
 31
0.0
  0
LINE
  5
4FF
  8
1
  6
CONTINUOUS
 62
     7
 10
1593.017952644693
 20
-230.6840333524001
 30
0.0
 11
1593.017952644693
 21
-174.3159666476002
 31
0.0
  0
LINE
  5
500
  8
1
  6
CONTINUOUS
 62
     7
 10
1534.569834827497
 20
-173.7604722664001
 30
0.0
 11
1535.382308756497
 21
-169.1527036441002
 31
0.0
  0
LINE
  5
501
  8
1
  6
CONTINUOUS
 62
     7
 10
1544.026225000099
 20
-206.5000000000003
 30
0.0
 11
1544.026225000099
 21
-198.5000000000003
 31
0.0
  0
LINE
  5
502
  8
1
  6
CONTINUOUS
 62
     7
 10
1632.027325000102
 20
-206.5000000000003
 30
0.0
 11
1623.322325000103
 21
-206.5000000000003
 31
0.0
  0
LINE
  5
503
  8
1
  6
CONTINUOUS
 62
     7
 10
1543.673725000097
 20
-198.5000000000004
 30
0.0
 11
1543.673725000097
 21
-168.4120444692004
 31
0.0
  0
LINE
  5
504
  8
1
  6
CONTINUOUS
 62
     7
 10
1543.673725000097
 20
-206.5000000000003
 30
0.0
 11
1543.673725000097
 21
-236.5879555308003
 31
0.0
  0
LINE
  5
505
  8
1
  6
CONTINUOUS
 62
     7
 10
1618.111865172593
 20
-231.2395277336003
 30
0.0
 11
1617.299391243594
 21
-235.8472963561002
 31
0.0
  0
LINE
  5
506
  8
1
  6
CONTINUOUS
 62
     7
 10
1529.006875000096
 20
-206.5000000000003
 30
0.0
 11
1529.006875000096
 21
-236.5879555308003
 31
0.0
  0
LINE
  5
507
  8
1
  6
CONTINUOUS
 62
     7
 10
1573.007425000096
 20
-198.5000000000004
 30
0.0
 11
1573.007425000096
 21
-168.4120444692004
 31
0.0
  0
LINE
  5
508
  8
1
  6
CONTINUOUS
 62
     7
 10
1579.674275000098
 20
-206.5000000000003
 30
0.0
 11
1579.674275000098
 21
-236.5879555307002
 31
0.0
  0
LINE
  5
509
  8
1
  6
CONTINUOUS
 62
     7
 10
1940.7825651726
 20
-173.7604722664001
 30
0.0
 11
1939.970091243599
 21
-169.1527036440003
 31
0.0
  0
LINE
  5
50A
  8
1
  6
CONTINUOUS
 62
     7
 10
1516.921126802095
 20
-230.0000000001002
 30
0.0
 11
1518.425773197996
 21
-230.0000000001002
 31
0.0
  0
LINE
  5
50B
  8
1
  6
CONTINUOUS
 62
     7
 10
1622.5709348275
 20
-231.2395277336003
 30
0.0
 11
1623.383408756499
 21
-235.8472963559003
 31
0.0
  0
LINE
  5
50C
  8
1
  6
CONTINUOUS
 62
     7
 10
1590.255376802098
 20
-174.9999999999002
 30
0.0
 11
1591.760023197997
 21
-174.9999999999002
 31
0.0
  0
LINE
  5
50D
  8
1
  6
CONTINUOUS
 62
     7
 10
1535.673725000098
 20
-198.5000000000004
 30
0.0
 11
1535.673725000098
 21
-168.4120444693003
 31
0.0
  0
LINE
  5
50E
  8
1
  6
CONTINUOUS
 62
     7
 10
1938.000475737599
 20
-237.5000000006002
 30
0.0
 11
1933.356874262498
 21
-237.5000000006002
 31
0.0
  0
LINE
  5
50F
  8
1
  6
CONTINUOUS
 62
     7
 10
1593.9886250001
 20
-206.5000000000003
 30
0.0
 11
1593.9886250001
 21
-198.5000000000003
 31
0.0
  0
LINE
  5
510
  8
1
  6
CONTINUOUS
 62
     7
 10
1618.111865172593
 20
-173.7604722664001
 30
0.0
 11
1617.299391243594
 21
-169.1527036440003
 31
0.0
  0
LINE
  5
511
  8
1
  6
CONTINUOUS
 62
     7
 10
1632.996197355296
 20
-230.6840333524001
 30
0.0
 11
1632.996197355296
 21
-174.3159666476002
 31
0.0
  0
LINE
  5
512
  8
1
  6
CONTINUOUS
 62
     7
 10
1939.678675000102
 20
-206.5000000000003
 30
0.0
 11
1939.678675000102
 21
-236.5879555308003
 31
0.0
  0
LINE
  5
513
  8
1
  6
CONTINUOUS
 62
     7
 10
1546.254826802098
 20
-230.0000000001002
 30
0.0
 11
1547.759473197998
 21
-230.0000000001002
 31
0.0
  0
LINE
  5
514
  8
1
  6
CONTINUOUS
 62
     7
 10
1593.237234827498
 20
-231.2395277336003
 30
0.0
 11
1594.049708756498
 21
-235.8472963559003
 31
0.0
  0
LINE
  5
515
  8
1
  6
CONTINUOUS
 62
     7
 10
1908.666775737596
 20
-167.4999999994003
 30
0.0
 11
1904.023174262496
 21
-167.4999999994003
 31
0.0
  0
LINE
  5
516
  8
1
  6
CONTINUOUS
 62
     7
 10
1585.996075737597
 20
-167.4999999994003
 30
0.0
 11
1581.352474262497
 21
-167.4999999994003
 31
0.0
  0
LINE
  5
517
  8
1
  6
CONTINUOUS
 62
     7
 10
1544.026225000099
 20
-206.5000000000003
 30
0.0
 11
1535.321225000099
 21
-206.5000000000003
 31
0.0
  0
LINE
  5
518
  8
1
  6
CONTINUOUS
 62
     7
 10
1871.907384827498
 20
-173.7604722664001
 30
0.0
 11
1872.719858756497
 21
-169.1527036441002
 31
0.0
  0
LINE
  5
519
  8
1
  6
CONTINUOUS
 62
     7
 10
1500.025675000099
 20
-206.5000000000003
 30
0.0
 11
1500.025675000099
 21
-198.5000000000003
 31
0.0
  0
LINE
  5
51A
  8
1
  6
CONTINUOUS
 62
     7
 10
1520.654375000099
 20
-206.5000000000003
 30
0.0
 11
1520.654375000099
 21
-198.5000000000003
 31
0.0
  0
LINE
  5
51B
  8
1
  6
CONTINUOUS
 62
     7
 10
1631.674825000096
 20
-198.5000000000004
 30
0.0
 11
1631.674825000096
 21
-168.4120444692004
 31
0.0
  0
LINE
  5
51C
  8
1
  6
CONTINUOUS
 62
     7
 10
1521.006875000097
 20
-198.5000000000004
 30
0.0
 11
1521.006875000097
 21
-168.4120444693003
 31
0.0
  0
LINE
  5
51D
  8
1
  6
CONTINUOUS
 62
     7
 10
1638.341675000099
 20
-198.5000000000004
 30
0.0
 11
1638.341675000099
 21
-168.4120444693003
 31
0.0
  0
ARC
  5
51E
  8
1
  6
CONTINUOUS
 62
     7
 10
1870.430173197998
 20
-231.5000000001001
 30
0.0
 40
1.500000000000057
 50
10.0
 51
90.0
  0
LINE
  5
51F
  8
1
  6
CONTINUOUS
 62
     7
 10
1881.011275000094
 20
-198.5000000000004
 30
0.0
 11
1881.011275000094
 21
-168.4120444692004
 31
0.0
  0
LINE
  5
520
  8
1
  6
CONTINUOUS
 62
     7
 10
1531.587976802097
 20
-230.0000000001002
 30
0.0
 11
1533.092623197997
 21
-230.0000000001002
 31
0.0
  0
LINE
  5
521
  8
1
  6
CONTINUOUS
 62
     7
 10
1901.241084827496
 20
-173.7604722664001
 30
0.0
 11
1902.053558756497
 21
-169.1527036441002
 31
0.0
  0
LINE
  5
522
  8
1
  6
CONTINUOUS
 62
     7
 10
1886.574234827495
 20
-173.7604722664001
 30
0.0
 11
1887.386708756495
 21
-169.1527036441002
 31
0.0
  0
LINE
  5
523
  8
1
  6
CONTINUOUS
 62
     7
 10
1574.111315172601
 20
-173.7604722664001
 30
0.0
 11
1573.2988412436
 21
-169.1527036440003
 31
0.0
  0
LINE
  5
524
  8
1
  6
CONTINUOUS
 62
     7
 10
1939.678675000102
 20
-198.5000000000004
 30
0.0
 11
1939.678675000102
 21
-168.4120444692004
 31
0.0
  0
LINE
  5
525
  8
1
  6
CONTINUOUS
 62
     7
 10
1632.027325000102
 20
-206.5000000000003
 30
0.0
 11
1632.027325000102
 21
-198.5000000000003
 31
0.0
  0
LINE
  5
526
  8
1
  6
CONTINUOUS
 62
     7
 10
1529.359375000098
 20
-198.5000000000004
 30
0.0
 11
1520.654375000098
 21
-198.5000000000004
 31
0.0
  0
LINE
  5
527
  8
1
  6
CONTINUOUS
 62
     7
 10
1571.329225737599
 20
-237.5000000006002
 30
0.0
 11
1566.685624262498
 21
-237.5000000006002
 31
0.0
  0
LINE
  5
528
  8
1
  6
CONTINUOUS
 62
     7
 10
1505.017032644694
 20
-230.6840333524001
 30
0.0
 11
1505.017032644694
 21
-174.3159666476002
 31
0.0
  0
LINE
  5
529
  8
1
  6
CONTINUOUS
 62
     7
 10
1529.359375000098
 20
-206.5000000000003
 30
0.0
 11
1529.359375000098
 21
-198.5000000000003
 31
0.0
  0
LINE
  5
52A
  8
1
  6
CONTINUOUS
 62
     7
 10
1587.674275000097
 20
-198.5000000000004
 30
0.0
 11
1587.674275000097
 21
-168.4120444692004
 31
0.0
  0
LINE
  5
52B
  8
1
  6
CONTINUOUS
 62
     7
 10
1573.007425000096
 20
-206.5000000000003
 30
0.0
 11
1573.007425000096
 21
-236.5879555308003
 31
0.0
  0
LINE
  5
52C
  8
1
  6
CONTINUOUS
 62
     7
 10
1573.359925000097
 20
-198.5000000000004
 30
0.0
 11
1564.654925000097
 21
-198.5000000000004
 31
0.0
  0
LINE
  5
52D
  8
1
  6
CONTINUOUS
 62
     7
 10
1637.017962644694
 20
-230.6840333524001
 30
0.0
 11
1637.017962644694
 21
-174.3159666476002
 31
0.0
  0
LINE
  5
52E
  8
1
  6
CONTINUOUS
 62
     7
 10
1623.674825000097
 20
-206.5000000000003
 30
0.0
 11
1623.674825000097
 21
-236.5879555307002
 31
0.0
  0
ARC
  5
52F
  8
1
  6
CONTINUOUS
 62
     7
 10
1929.097573197999
 20
-231.5000000001001
 30
0.0
 40
1.500000000000057
 50
9.999999999992678
 51
90.0
  0
LINE
  5
530
  8
1
  6
CONTINUOUS
 62
     7
 10
1872.6587750001
 20
-206.5000000000003
 30
0.0
 11
1872.6587750001
 21
-198.5000000000003
 31
0.0
  0
LINE
  5
531
  8
1
  6
CONTINUOUS
 62
     7
 10
1647.663767355297
 20
-230.6840333524001
 30
0.0
 11
1647.663767355297
 21
-174.3159666476002
 31
0.0
  0
LINE
  5
532
  8
1
  6
CONTINUOUS
 62
     7
 10
1629.996625737597
 20
-237.5000000006002
 30
0.0
 11
1625.353024262496
 21
-237.5000000006002
 31
0.0
  0
LINE
  5
533
  8
1
  6
CONTINUOUS
 62
     7
 10
1881.363775000099
 20
-206.5000000000003
 30
0.0
 11
1881.363775000099
 21
-198.5000000000003
 31
0.0
  0
ARC
  5
534
  8
1
  6
CONTINUOUS
 62
     7
 10
1870.430173197998
 20
-173.4999999999001
 30
0.0
 40
1.500000000000057
 50
270.0
 51
349.9999999999999
  0
LINE
  5
535
  8
1
  6
CONTINUOUS
 62
     7
 10
1902.344975000097
 20
-206.5000000000003
 30
0.0
 11
1902.344975000097
 21
-236.5879555307002
 31
0.0
  0
LINE
  5
536
  8
1
  6
CONTINUOUS
 62
     7
 10
1887.325625000098
 20
-206.5000000000003
 30
0.0
 11
1887.325625000098
 21
-198.5000000000003
 31
0.0
  0
LINE
  5
537
  8
1
  6
CONTINUOUS
 62
     7
 10
1881.363775000099
 20
-198.5000000000004
 30
0.0
 11
1872.658775000099
 21
-198.5000000000004
 31
0.0
  0
LINE
  5
538
  8
1
  6
CONTINUOUS
 62
     7
 10
1519.902984827496
 20
-173.7604722664001
 30
0.0
 11
1520.715458756496
 21
-169.1527036441002
 31
0.0
  0
LINE
  5
539
  8
1
  6
CONTINUOUS
 62
     7
 10
1634.255926802097
 20
-174.9999999999002
 30
0.0
 11
1635.760573197997
 21
-174.9999999999002
 31
0.0
  0
LINE
  5
53A
  8
1
  6
CONTINUOUS
 62
     7
 10
1879.333075737598
 20
-237.5000000006002
 30
0.0
 11
1874.689474262498
 21
-237.5000000006002
 31
0.0
  0
LINE
  5
53B
  8
1
  6
CONTINUOUS
 62
     7
 10
1896.030625000097
 20
-198.5000000000004
 30
0.0
 11
1887.325625000097
 21
-198.5000000000004
 31
0.0
  0
LINE
  5
53C
  8
1
  6
CONTINUOUS
 62
     7
 10
1588.778165172595
 20
-231.2395277336003
 30
0.0
 11
1587.965691243595
 21
-235.8472963561002
 31
0.0
  0
LINE
  5
53D
  8
1
  6
CONTINUOUS
 62
     7
 10
1594.341125000099
 20
-206.5000000000003
 30
0.0
 11
1594.341125000099
 21
-236.5879555307002
 31
0.0
  0
LINE
  5
53E
  8
1
  6
CONTINUOUS
 62
     7
 10
1926.115715172599
 20
-173.7604722664001
 30
0.0
 11
1925.3032412436
 21
-169.1527036440003
 31
0.0
  0
ARC
  5
53F
  8
1
  6
CONTINUOUS
 62
     7
 10
1933.356874262496
 20
-169.4999999994004
 30
0.0
 40
2.000000000002444
 50
90.0
 51
169.9999999999952
  0
ARC
  5
540
  8
1
  6
CONTINUOUS
 62
     7
 10
1893.999925737599
 20
-169.4999999993001
 30
0.0
 40
1.999999999998892
 50
10.0
 51
90.0
  0
LINE
  5
541
  8
1
  6
CONTINUOUS
 62
     7
 10
1587.674275000097
 20
-206.5000000000003
 30
0.0
 11
1587.674275000097
 21
-236.5879555308003
 31
0.0
  0
LINE
  5
542
  8
1
  6
CONTINUOUS
 62
     7
 10
1883.592376802098
 20
-230.0000000001002
 30
0.0
 11
1885.097023197999
 21
-230.0000000001002
 31
0.0
  0
ARC
  5
543
  8
1
  6
CONTINUOUS
 62
     7
 10
1927.592926802098
 20
-173.4999999999001
 30
0.0
 40
1.500000000000057
 50
190.0
 51
270.0
  0
LINE
  5
544
  8
1
  6
CONTINUOUS
 62
     7
 10
1604.922226802099
 20
-230.0000000001002
 30
0.0
 11
1606.426873197999
 21
-230.0000000001002
 31
0.0
  0
LINE
  5
545
  8
1
  6
CONTINUOUS
 62
     7
 10
1887.678125000096
 20
-198.5000000000004
 30
0.0
 11
1887.678125000096
 21
-168.4120444693003
 31
0.0
  0
ARC
  5
546
  8
1
  6
CONTINUOUS
 62
     7
 10
1904.023174262498
 20
-169.4999999994004
 30
0.0
 40
1.999999999998892
 50
90.0
 51
170.0
  0
LINE
  5
547
  8
1
  6
CONTINUOUS
 62
     7
 10
1588.996187355299
 20
-230.6840333524001
 30
0.0
 11
1588.996187355299
 21
-174.3159666476002
 31
0.0
  0
LINE
  5
548
  8
1
  6
CONTINUOUS
 62
     7
 10
1622.5709348275
 20
-173.7604722664001
 30
0.0
 11
1623.383408756499
 21
-169.1527036441002
 31
0.0
  0
LINE
  5
549
  8
1
  6
CONTINUOUS
 62
     7
 10
1600.662925737598
 20
-167.4999999994003
 30
0.0
 11
1596.019324262498
 21
-167.4999999994003
 31
0.0
  0
LINE
  5
54A
  8
1
  6
CONTINUOUS
 62
     7
 10
1602.693625000096
 20
-206.5000000000003
 30
0.0
 11
1593.988625000097
 21
-206.5000000000003
 31
0.0
  0
LINE
  5
54B
  8
1
  6
CONTINUOUS
 62
     7
 10
1886.574234827495
 20
-231.2395277336003
 30
0.0
 11
1887.386708756495
 21
-235.8472963559003
 31
0.0
  0
ARC
  5
54C
  8
1
  6
CONTINUOUS
 62
     7
 10
1904.023174262498
 20
-235.5000000006003
 30
0.0
 40
1.999999999998892
 50
190.0
 51
270.0
  0
ARC
  5
54D
  8
1
  6
CONTINUOUS
 62
     7
 10
1929.097573197999
 20
-173.4999999999001
 30
0.0
 40
1.500000000000057
 50
270.0
 51
349.999999999999
  0
ARC
  5
54E
  8
1
  6
CONTINUOUS
 62
     7
 10
1933.356874262496
 20
-235.5000000006003
 30
0.0
 40
2.000000000002444
 50
190.0000000000048
 51
270.0
  0
LINE
  5
54F
  8
1
  6
CONTINUOUS
 62
     7
 10
1902.344975000097
 20
-198.5000000000004
 30
0.0
 11
1902.344975000097
 21
-168.4120444693003
 31
0.0
  0
LINE
  5
550
  8
1
  6
CONTINUOUS
 62
     7
 10
1603.445015172599
 20
-231.2395277336003
 30
0.0
 11
1602.632541243599
 21
-235.8472963561002
 31
0.0
  0
LINE
  5
551
  8
1
  6
CONTINUOUS
 62
     7
 10
1574.329517355295
 20
-230.6840333524001
 30
0.0
 11
1574.329517355295
 21
-174.3159666476002
 31
0.0
  0
ARC
  5
552
  8
1
  6
CONTINUOUS
 62
     7
 10
1889.356324262497
 20
-235.5000000006003
 30
0.0
 40
2.000000000002444
 50
190.0
 51
270.0
  0
LINE
  5
553
  8
1
  6
CONTINUOUS
 62
     7
 10
1602.341125000098
 20
-206.5000000000003
 30
0.0
 11
1602.341125000098
 21
-236.5879555308003
 31
0.0
  0
LINE
  5
554
  8
1
  6
CONTINUOUS
 62
     7
 10
1873.011275000099
 20
-206.5000000000003
 30
0.0
 11
1873.011275000099
 21
-236.5879555307002
 31
0.0
  0
LINE
  5
555
  8
1
  6
CONTINUOUS
 62
     7
 10
1896.030625000097
 20
-206.5000000000003
 30
0.0
 11
1896.030625000097
 21
-198.5000000000003
 31
0.0
  0
LINE
  5
556
  8
1
  6
CONTINUOUS
 62
     7
 10
1908.666775737596
 20
-237.5000000006002
 30
0.0
 11
1904.023174262496
 21
-237.5000000006002
 31
0.0
  0
LINE
  5
557
  8
1
  6
CONTINUOUS
 62
     7
 10
1881.363775000099
 20
-206.5000000000003
 30
0.0
 11
1872.658775000099
 21
-206.5000000000003
 31
0.0
  0
ARC
  5
558
  8
1
  6
CONTINUOUS
 62
     7
 10
1874.689474262499
 20
-235.5000000006003
 30
0.0
 40
1.999999999998892
 50
190.0
 51
270.0
  0
ARC
  5
559
  8
1
  6
CONTINUOUS
 62
     7
 10
1879.333075737598
 20
-235.5000000007002
 30
0.0
 40
1.999999999998892
 50
270.0
 51
349.9999999999999
  0
LINE
  5
55A
  8
1
  6
CONTINUOUS
 62
     7
 10
1603.445015172599
 20
-173.7604722664001
 30
0.0
 11
1602.632541243599
 21
-169.1527036440003
 31
0.0
  0
ARC
  5
55B
  8
1
  6
CONTINUOUS
 62
     7
 10
1879.333075737598
 20
-169.4999999993001
 30
0.0
 40
1.999999999998892
 50
10.0
 51
90.0
  0
LINE
  5
55C
  8
1
  6
CONTINUOUS
 62
     7
 10
1898.2592268021
 20
-230.0000000001002
 30
0.0
 11
1899.763873198
 21
-230.0000000001002
 31
0.0
  0
ARC
  5
55D
  8
1
  6
CONTINUOUS
 62
     7
 10
1938.000475737599
 20
-235.5000000007002
 30
0.0
 40
1.999999999998892
 50
270.0
 51
349.999999999997
  0
LINE
  5
55E
  8
1
  6
CONTINUOUS
 62
     7
 10
1898.2592268021
 20
-174.9999999999002
 30
0.0
 11
1899.763873198
 21
-174.9999999999002
 31
0.0
  0
ARC
  5
55F
  8
1
  6
CONTINUOUS
 62
     7
 10
1938.000475737599
 20
-169.4999999993001
 30
0.0
 40
1.999999999998892
 50
10.00000000000299
 51
90.0
  0
ARC
  5
560
  8
1
  6
CONTINUOUS
 62
     7
 10
1898.2592268021
 20
-231.5000000001001
 30
0.0
 40
1.500000000000057
 50
90.0
 51
170.0
  0
LINE
  5
561
  8
1
  6
CONTINUOUS
 62
     7
 10
1940.7825651726
 20
-231.2395277336003
 30
0.0
 11
1939.970091243599
 21
-235.8472963561002
 31
0.0
  0
LINE
  5
562
  8
1
  6
CONTINUOUS
 62
     7
 10
1881.011275000094
 20
-206.5000000000003
 30
0.0
 11
1881.011275000094
 21
-236.5879555308003
 31
0.0
  0
LINE
  5
563
  8
1
  6
CONTINUOUS
 62
     7
 10
1634.255926802097
 20
-230.0000000001002
 30
0.0
 11
1635.760573197997
 21
-230.0000000001002
 31
0.0
  0
LINE
  5
564
  8
1
  6
CONTINUOUS
 62
     7
 10
1607.904084827499
 20
-173.7604722664001
 30
0.0
 11
1608.7165587565
 21
-169.1527036441002
 31
0.0
  0
LINE
  5
565
  8
1
  6
CONTINUOUS
 62
     7
 10
1652.656025000098
 20
-206.5000000000003
 30
0.0
 11
1652.656025000098
 21
-198.5000000000003
 31
0.0
  0
LINE
  5
566
  8
1
  6
CONTINUOUS
 62
     7
 10
1925.364325000099
 20
-206.5000000000003
 30
0.0
 11
1925.364325000099
 21
-198.5000000000003
 31
0.0
  0
LINE
  5
567
  8
1
  6
CONTINUOUS
 62
     7
 10
1895.678125000095
 20
-206.5000000000003
 30
0.0
 11
1895.678125000095
 21
-236.5879555308003
 31
0.0
  0
LINE
  5
568
  8
1
  6
CONTINUOUS
 62
     7
 10
1930.574784827498
 20
-173.7604722664001
 30
0.0
 11
1931.387258756498
 21
-169.1527036441002
 31
0.0
  0
ARC
  5
569
  8
1
  6
CONTINUOUS
 62
     7
 10
1874.689474262499
 20
-169.4999999994004
 30
0.0
 40
1.999999999998892
 50
90.0
 51
170.0
  0
LINE
  5
56A
  8
1
  6
CONTINUOUS
 62
     7
 10
1927.592926802098
 20
-230.0000000001002
 30
0.0
 11
1929.097573197998
 21
-230.0000000001002
 31
0.0
  0
LINE
  5
56B
  8
1
  6
CONTINUOUS
 62
     7
 10
1940.0311750001
 20
-206.5000000000003
 30
0.0
 11
1931.326175000101
 21
-206.5000000000003
 31
0.0
  0
LINE
  5
56C
  8
1
  6
CONTINUOUS
 62
     7
 10
1940.0311750001
 20
-206.5000000000003
 30
0.0
 11
1940.0311750001
 21
-198.5000000000003
 31
0.0
  0
LINE
  5
56D
  8
1
  6
CONTINUOUS
 62
     7
 10
1923.333625737598
 20
-237.5000000006002
 30
0.0
 11
1918.690024262497
 21
-237.5000000006002
 31
0.0
  0
ARC
  5
56E
  8
1
  6
CONTINUOUS
 62
     7
 10
1208.917276802093
 20
-231.5000000001001
 30
0.0
 40
1.500000000000057
 50
90.0
 51
169.999999999999
  0
LINE
  5
56F
  8
1
  6
CONTINUOUS
 62
     7
 10
1883.592376802098
 20
-174.9999999999002
 30
0.0
 11
1885.097023197999
 21
-174.9999999999002
 31
0.0
  0
ARC
  5
570
  8
1
  6
CONTINUOUS
 62
     7
 10
1126.680124262495
 20
-235.5000000006003
 30
0.0
 40
2.000000000002444
 50
190.0000000000048
 51
270.0
  0
ARC
  5
571
  8
1
  6
CONTINUOUS
 62
     7
 10
1194.250426802096
 20
-173.4999999999001
 30
0.0
 40
1.50000000000361
 50
190.0000000000011
 51
270.0
  0
ARC
  5
572
  8
1
  6
CONTINUOUS
 62
     7
 10
1195.755073197993
 20
-231.5000000001001
 30
0.0
 40
1.500000000000057
 50
9.999999999992678
 51
90.0
  0
ARC
  5
573
  8
1
  6
CONTINUOUS
 62
     7
 10
1357.090423197995
 20
-231.5000000001001
 30
0.0
 40
1.50000000000361
 50
10.00000000000398
 51
90.0
  0
LINE
  5
574
  8
1
  6
CONTINUOUS
 62
     7
 10
1895.678125000095
 20
-198.5000000000004
 30
0.0
 11
1895.678125000095
 21
-168.4120444692004
 31
0.0
  0
LINE
  5
575
  8
1
  6
CONTINUOUS
 62
     7
 10
1882.333187355296
 20
-230.6840333524001
 30
0.0
 11
1882.333187355296
 21
-174.3159666476002
 31
0.0
  0
LINE
  5
576
  8
1
  6
CONTINUOUS
 62
     7
 10
1893.999925737599
 20
-237.5000000006002
 30
0.0
 11
1889.356324262499
 21
-237.5000000006002
 31
0.0
  0
LINE
  5
577
  8
1
  6
CONTINUOUS
 62
     7
 10
1887.678125000096
 20
-206.5000000000003
 30
0.0
 11
1887.678125000096
 21
-236.5879555307002
 31
0.0
  0
LINE
  5
578
  8
1
  6
CONTINUOUS
 62
     7
 10
1901.241084827496
 20
-231.2395277336003
 30
0.0
 11
1902.053558756495
 21
-235.8472963559003
 31
0.0
  0
LINE
  5
579
  8
1
  6
CONTINUOUS
 62
     7
 10
2049.375078871868
 20
-242.5000000000001
 30
0.0
 11
2049.375078871868
 21
-162.5
 31
0.0
  0
ARC
  5
57A
  8
1
  6
CONTINUOUS
 62
     7
 10
1899.763873197997
 20
-231.5000000001001
 30
0.0
 40
1.50000000000361
 50
10.0
 51
90.0
  0
ARC
  5
57B
  8
1
  6
CONTINUOUS
 62
     7
 10
1883.592376802098
 20
-173.4999999999001
 30
0.0
 40
1.500000000000057
 50
190.0
 51
270.0
  0
LINE
  5
57C
  8
1
  6
CONTINUOUS
 62
     7
 10
1365.993325737594
 20
-167.4999999994003
 30
0.0
 11
1361.349724262495
 21
-167.4999999994003
 31
0.0
  0
LINE
  5
57D
  8
1
  6
CONTINUOUS
 62
     7
 10
1931.678675000096
 20
-206.5000000000003
 30
0.0
 11
1931.678675000096
 21
-236.5879555307002
 31
0.0
  0
LINE
  5
57E
  8
1
  6
CONTINUOUS
 62
     7
 10
1925.011825000098
 20
-206.5000000000003
 30
0.0
 11
1925.011825000098
 21
-236.5879555308003
 31
0.0
  0
LINE
  5
57F
  8
1
  6
CONTINUOUS
 62
     7
 10
1927.592926802098
 20
-174.9999999999002
 30
0.0
 11
1929.097573197998
 21
-174.9999999999002
 31
0.0
  0
LINE
  5
580
  8
1
  6
CONTINUOUS
 62
     7
 10
1896.7820151726
 20
-231.2395277336003
 30
0.0
 11
1895.9695412436
 21
-235.8472963561002
 31
0.0
  0
LINE
  5
581
  8
1
  6
CONTINUOUS
 62
     7
 10
1893.999925737599
 20
-167.4999999994003
 30
0.0
 11
1889.356324262499
 21
-167.4999999994003
 31
0.0
  0
ARC
  5
582
  8
1
  6
CONTINUOUS
 62
     7
 10
1091.582476802095
 20
-231.5000000001001
 30
0.0
 40
1.50000000000361
 50
90.0
 51
169.999999999999
  0
LINE
  5
583
  8
1
  6
CONTINUOUS
 62
     7
 10
1285.984775000095
 20
-206.5000000000003
 30
0.0
 11
1285.984775000095
 21
-198.5000000000003
 31
0.0
  0
LINE
  5
584
  8
1
  6
CONTINUOUS
 62
     7
 10
1931.678675000096
 20
-198.5000000000004
 30
0.0
 11
1931.678675000096
 21
-168.4120444693003
 31
0.0
  0
ARC
  5
585
  8
1
  6
CONTINUOUS
 62
     7
 10
1885.097023197996
 20
-173.4999999999001
 30
0.0
 40
1.50000000000361
 50
270.0
 51
349.9999999999999
  0
LINE
  5
586
  8
1
  6
CONTINUOUS
 62
     7
 10
1896.9998573553
 20
-230.6840333524001
 30
0.0
 11
1896.9998573553
 21
-174.3159666476002
 31
0.0
  0
ARC
  5
587
  8
1
  6
CONTINUOUS
 62
     7
 10
1185.347524262496
 20
-169.4999999994004
 30
0.0
 40
1.999999999998892
 50
90.0
 51
169.9999999999952
  0
ARC
  5
588
  8
1
  6
CONTINUOUS
 62
     7
 10
1107.753973197997
 20
-231.5000000001001
 30
0.0
 40
1.500000000000057
 50
10.00000000000103
 51
90.0
  0
ARC
  5
589
  8
1
  6
CONTINUOUS
 62
     7
 10
1189.991125737595
 20
-169.4999999993001
 30
0.0
 40
2.000000000002444
 50
10.00000000000042
 51
90.0
  0
ARC
  5
58A
  8
1
  6
CONTINUOUS
 62
     7
 10
1156.013824262498
 20
-169.4999999994004
 30
0.0
 40
1.999999999998892
 50
90.0
 51
169.9999999999952
  0
ARC
  5
58B
  8
1
  6
CONTINUOUS
 62
     7
 10
1164.916726802097
 20
-173.4999999999001
 30
0.0
 40
1.499999999996504
 50
190.0000000000011
 51
270.0
  0
LINE
  5
58C
  8
1
  6
CONTINUOUS
 62
     7
 10
1926.333197355297
 20
-230.6840333524001
 30
0.0
 11
1926.333197355297
 21
-174.3159666476002
 31
0.0
  0
ARC
  5
58D
  8
1
  6
CONTINUOUS
 62
     7
 10
1885.097023197996
 20
-231.5000000001001
 30
0.0
 40
1.50000000000361
 50
10.0
 51
90.0
  0
LINE
  5
58E
  8
1
  6
CONTINUOUS
 62
     7
 10
1938.000475737599
 20
-167.4999999994003
 30
0.0
 11
1933.356874262498
 21
-167.4999999994003
 31
0.0
  0
ARC
  5
58F
  8
1
  6
CONTINUOUS
 62
     7
 10
1087.323175737598
 20
-235.5000000007002
 30
0.0
 40
1.999999999998892
 50
270.0
 51
349.9999999999952
  0
ARC
  5
590
  8
1
  6
CONTINUOUS
 62
     7
 10
1889.356324262497
 20
-169.4999999994004
 30
0.0
 40
2.000000000002444
 50
90.0
 51
170.0
  0
ARC
  5
591
  8
1
  6
CONTINUOUS
 62
     7
 10
1893.999925737599
 20
-235.5000000007002
 30
0.0
 40
1.999999999998892
 50
270.0
 51
349.9999999999999
  0
LINE
  5
592
  8
1
  6
CONTINUOUS
 62
     7
 10
1930.354962644699
 20
-230.6840333524001
 30
0.0
 11
1930.354962644699
 21
-174.3159666476002
 31
0.0
  0
ARC
  5
593
  8
1
  6
CONTINUOUS
 62
     7
 10
1131.323725737598
 20
-169.4999999993001
 30
0.0
 40
1.999999999998892
 50
10.00000000000299
 51
90.0
  0
ARC
  5
594
  8
1
  6
CONTINUOUS
 62
     7
 10
1923.333625737598
 20
-235.5000000007002
 30
0.0
 40
1.999999999998892
 50
270.0
 51
349.9999999999999
  0
LINE
  5
595
  8
1
  6
CONTINUOUS
 62
     7
 10
1879.333075737598
 20
-167.4999999994003
 30
0.0
 11
1874.689474262498
 21
-167.4999999994003
 31
0.0
  0
LINE
  5
596
  8
1
  6
CONTINUOUS
 62
     7
 10
1926.115715172599
 20
-231.2395277336003
 30
0.0
 11
1925.3032412436
 21
-235.8472963561002
 31
0.0
  0
ARC
  5
597
  8
1
  6
CONTINUOUS
 62
     7
 10
1181.088223197992
 20
-231.5000000001001
 30
0.0
 40
1.500000000000057
 50
10.00000000000103
 51
90.0
  0
LINE
  5
598
  8
1
  6
CONTINUOUS
 62
     7
 10
1896.030625000097
 20
-206.5000000000003
 30
0.0
 11
1887.325625000097
 21
-206.5000000000003
 31
0.0
  0
LINE
  5
599
  8
1
  6
CONTINUOUS
 62
     7
 10
1901.021622644698
 20
-230.6840333524001
 30
0.0
 11
1901.021622644698
 21
-174.3159666476002
 31
0.0
  0
LINE
  5
59A
  8
1
  6
CONTINUOUS
 62
     7
 10
1941.375078871863
 20
-242.5000000000001
 30
0.0
 11
2049.375078871863
 21
-242.5000000000001
 31
0.0
  0
LINE
  5
59B
  8
1
  6
CONTINUOUS
 62
     7
 10
1867.666517355299
 20
-230.6840333524001
 30
0.0
 11
1867.666517355299
 21
-174.3159666476002
 31
0.0
  0
ARC
  5
59C
  8
1
  6
CONTINUOUS
 62
     7
 10
1923.333625737598
 20
-169.4999999993001
 30
0.0
 40
1.999999999998892
 50
10.0
 51
90.0
  0
ARC
  5
59D
  8
1
  6
CONTINUOUS
 62
     7
 10
1126.680124262495
 20
-169.4999999994004
 30
0.0
 40
2.000000000002444
 50
90.0
 51
169.9999999999952
  0
LINE
  5
59E
  8
1
  6
CONTINUOUS
 62
     7
 10
1925.011825000098
 20
-198.5000000000004
 30
0.0
 11
1925.011825000098
 21
-168.4120444692004
 31
0.0
  0
LINE
  5
59F
  8
1
  6
CONTINUOUS
 62
     7
 10
1931.326175000098
 20
-206.5000000000003
 30
0.0
 11
1931.326175000098
 21
-198.5000000000003
 31
0.0
  0
ARC
  5
5A0
  8
1
  6
CONTINUOUS
 62
     7
 10
1150.249876802096
 20
-173.4999999999001
 30
0.0
 40
1.500000000000057
 50
190.0000000000011
 51
270.0
  0
ARC
  5
5A1
  8
1
  6
CONTINUOUS
 62
     7
 10
1093.087123197996
 20
-231.5000000001001
 30
0.0
 40
1.500000000000057
 50
10.00000000000103
 51
90.0
  0
LINE
  5
5A2
  8
1
  6
CONTINUOUS
 62
     7
 10
1917.011825000098
 20
-242.5
 30
0.0
 11
1917.011825000098
 21
-162.5
 31
0.0
  0
LINE
  5
5A3
  8
1
  6
CONTINUOUS
 62
     7
 10
1901.992475000099
 20
-206.5000000000003
 30
0.0
 11
1901.992475000099
 21
-198.5000000000003
 31
0.0
  0
LINE
  5
5A4
  8
1
  6
CONTINUOUS
 62
     7
 10
1426.691425000097
 20
-206.5000000000003
 30
0.0
 11
1426.691425000097
 21
-198.5000000000003
 31
0.0
  0
LINE
  5
5A5
  8
1
  6
CONTINUOUS
 62
     7
 10
1414.253176802095
 20
-230.0000000001002
 30
0.0
 11
1415.757823197999
 21
-230.0000000001002
 31
0.0
  0
LINE
  5
5A6
  8
1
  6
CONTINUOUS
 62
     7
 10
1427.442815172597
 20
-173.7604722664001
 30
0.0
 11
1426.630341243596
 21
-169.1527036440003
 31
0.0
  0
LINE
  5
5A7
  8
1
  6
CONTINUOUS
 62
     7
 10
1418.338924999996
 20
-206.5000000000003
 30
0.0
 11
1418.338925000096
 21
-236.5879555307002
 31
0.0
  0
LINE
  5
5A8
  8
1
  6
CONTINUOUS
 62
     7
 10
1417.235034827495
 20
-173.7604722664001
 30
0.0
 11
1418.047508756496
 21
-169.1527036441002
 31
0.0
  0
LINE
  5
5A9
  8
1
  6
CONTINUOUS
 62
     7
 10
1468.661275737595
 20
-167.4999999994003
 30
0.0
 11
1464.017674262494
 21
-167.4999999994003
 31
0.0
  0
LINE
  5
5AA
  8
1
  6
CONTINUOUS
 62
     7
 10
1866.3444250001
 20
-198.5000000000004
 30
0.0
 11
1866.3444250001
 21
-168.4120444692004
 31
0.0
  0
ARC
  5
5AB
  8
1
  6
CONTINUOUS
 62
     7
 10
1468.661275737595
 20
-235.5000000007002
 30
0.0
 40
2.000000000002444
 50
270.0
 51
349.9999999999999
  0
ARC
  5
5AC
  8
1
  6
CONTINUOUS
 62
     7
 10
1898.2592268021
 20
-173.4999999999001
 30
0.0
 40
1.500000000000057
 50
190.0
 51
270.0
  0
ARC
  5
5AD
  8
1
  6
CONTINUOUS
 62
     7
 10
1464.017674262496
 20
-169.4999999994004
 30
0.0
 40
1.999999999998892
 50
90.0
 51
170.0
  0
LINE
  5
5AE
  8
1
  6
CONTINUOUS
 62
     7
 10
1857.991925000099
 20
-206.5000000000003
 30
0.0
 11
1857.991925000099
 21
-198.5000000000003
 31
0.0
  0
LINE
  5
5AF
  8
1
  6
CONTINUOUS
 62
     7
 10
1427.442815172597
 20
-231.2395277336003
 30
0.0
 11
1426.630341243596
 21
-235.8472963561002
 31
0.0
  0
LINE
  5
5B0
  8
1
  6
CONTINUOUS
 62
     7
 10
1873.011275000099
 20
-198.5000000000004
 30
0.0
 11
1873.011275000099
 21
-168.4120444693003
 31
0.0
  0
LINE
  5
5B1
  8
1
  6
CONTINUOUS
 62
     7
 10
1813.239984827497
 20
-173.7604722664001
 30
0.0
 11
1814.052458756496
 21
-169.1527036441002
 31
0.0
  0
LINE
  5
5B2
  8
1
  6
CONTINUOUS
 62
     7
 10
1923.333625737598
 20
-167.4999999994003
 30
0.0
 11
1918.690024262497
 21
-167.4999999994003
 31
0.0
  0
ARC
  5
5B3
  8
1
  6
CONTINUOUS
 62
     7
 10
1420.017124262496
 20
-235.5000000006003
 30
0.0
 40
1.999999999998892
 50
190.0
 51
270.0
  0
ARC
  5
5B4
  8
1
  6
CONTINUOUS
 62
     7
 10
1927.592926802098
 20
-231.5000000001001
 30
0.0
 40
1.500000000000057
 50
90.0
 51
170.0
  0
LINE
  5
5B5
  8
1
  6
CONTINUOUS
 62
     7
 10
1426.338925000099
 20
-206.5000000000003
 30
0.0
 11
1426.338925000099
 21
-236.5879555308003
 31
0.0
  0
ARC
  5
5B6
  8
1
  6
CONTINUOUS
 62
     7
 10
1868.925526802097
 20
-231.5000000001001
 30
0.0
 40
1.500000000000057
 50
89.99999999620032
 51
169.9999999999992
  0
LINE
  5
5B7
  8
1
  6
CONTINUOUS
 62
     7
 10
1868.925526802097
 20
-230.0000000001002
 30
0.0
 11
1870.430173197997
 21
-230.0000000001002
 31
0.0
  0
ARC
  5
5B8
  8
1
  6
CONTINUOUS
 62
     7
 10
1428.920026802096
 20
-173.4999999999001
 30
0.0
 40
1.500000000000057
 50
190.0000000000009
 51
270.0000000037997
  0
LINE
  5
5B9
  8
1
  6
CONTINUOUS
 62
     7
 10
1418.338925000096
 20
-198.5000000000004
 30
0.0
 11
1418.338925000096
 21
-168.4120444693003
 31
0.0
  0
ARC
  5
5BA
  8
1
  6
CONTINUOUS
 62
     7
 10
1415.757823197996
 20
-173.4999999999001
 30
0.0
 40
1.500000000000057
 50
270.0
 51
349.9999999999992
  0
ARC
  5
5BB
  8
1
  6
CONTINUOUS
 62
     7
 10
1424.660725737595
 20
-169.4999999993001
 30
0.0
 40
2.000000000002444
 50
9.999999999982322
 51
90.0
  0
LINE
  5
5BC
  8
1
  6
CONTINUOUS
 62
     7
 10
1940.0311750001
 20
-198.5000000000004
 30
0.0
 11
1931.326175000101
 21
-198.5000000000004
 31
0.0
  0
LINE
  5
5BD
  8
1
  6
CONTINUOUS
 62
     7
 10
1868.925526802097
 20
-174.9999999999002
 30
0.0
 11
1870.430173197997
 21
-174.9999999999002
 31
0.0
  0
LINE
  5
5BE
  8
1
  6
CONTINUOUS
 62
     7
 10
1867.448315172598
 20
-173.7604722664001
 30
0.0
 11
1866.635841243597
 21
-169.1527036440003
 31
0.0
  0
LINE
  5
5BF
  8
1
  6
CONTINUOUS
 62
     7
 10
1417.235034827495
 20
-231.2395277336003
 30
0.0
 11
1418.047508756495
 21
-235.8472963559003
 31
0.0
  0
LINE
  5
5C0
  8
1
  6
CONTINUOUS
 62
     7
 10
1417.016112644695
 20
-230.6840333524001
 30
0.0
 11
1417.016112644695
 21
-174.3159666476002
 31
0.0
  0
LINE
  5
5C1
  8
1
  6
CONTINUOUS
 62
     7
 10
1871.688282644701
 20
-230.6840333524001
 30
0.0
 11
1871.688282644701
 21
-174.3159666476002
 31
0.0
  0
LINE
  5
5C2
  8
1
  6
CONTINUOUS
 62
     7
 10
1867.448315172598
 20
-231.2395277336003
 30
0.0
 11
1866.635841243597
 21
-235.8472963561002
 31
0.0
  0
ARC
  5
5C3
  8
1
  6
CONTINUOUS
 62
     7
 10
1420.017124262496
 20
-169.4999999994004
 30
0.0
 40
1.999999999998892
 50
90.0
 51
170.0
  0
ARC
  5
5C4
  8
1
  6
CONTINUOUS
 62
     7
 10
1868.925526802097
 20
-173.4999999999001
 30
0.0
 40
1.500000000000057
 50
190.0000000000009
 51
270.0000000037997
  0
LINE
  5
5C5
  8
1
  6
CONTINUOUS
 62
     7
 10
1424.660725737599
 20
-237.5000000006002
 30
0.0
 11
1420.017124262495
 21
-237.5000000006002
 31
0.0
  0
LINE
  5
5C6
  8
1
  6
CONTINUOUS
 62
     7
 10
1930.574784827498
 20
-231.2395277336003
 30
0.0
 11
1931.387258756498
 21
-235.8472963559003
 31
0.0
  0
LINE
  5
5C7
  8
1
  6
CONTINUOUS
 62
     7
 10
1896.7820151726
 20
-173.7604722664001
 30
0.0
 11
1895.9695412436
 21
-169.1527036440003
 31
0.0
  0
LINE
  5
5C8
  8
1
  6
CONTINUOUS
 62
     7
 10
1866.696925000098
 20
-206.5000000000003
 30
0.0
 11
1866.696925000098
 21
-198.5000000000003
 31
0.0
  0
LINE
  5
5C9
  8
1
  6
CONTINUOUS
 62
     7
 10
1427.661017355298
 20
-230.6840333524001
 30
0.0
 11
1427.661017355298
 21
-174.3159666476002
 31
0.0
  0
LINE
  5
5CA
  8
1
  6
CONTINUOUS
 62
     7
 10
1428.920026802096
 20
-230.0000000001002
 30
0.0
 11
1430.424673197996
 21
-230.0000000001002
 31
0.0
  0
LINE
  5
5CB
  8
1
  6
CONTINUOUS
 62
     7
 10
1882.115165172599
 20
-173.7604722664001
 30
0.0
 11
1881.302691243599
 21
-169.1527036440003
 31
0.0
  0
LINE
  5
5CC
  8
1
  6
CONTINUOUS
 62
     7
 10
1417.986425000098
 20
-206.5000000000003
 30
0.0
 11
1417.986425000098
 21
-198.5000000000003
 31
0.0
  0
ARC
  5
5CD
  8
1
  6
CONTINUOUS
 62
     7
 10
1428.920026802096
 20
-231.5000000001001
 30
0.0
 40
1.500000000000057
 50
89.99999999620032
 51
169.9999999999992
  0
ARC
  5
5CE
  8
1
  6
CONTINUOUS
 62
     7
 10
1424.660725737595
 20
-235.5000000007002
 30
0.0
 40
2.000000000002444
 50
270.0
 51
350.0000000000005
  0
LINE
  5
5CF
  8
1
  6
CONTINUOUS
 62
     7
 10
1866.3444250001
 20
-206.5000000000003
 30
0.0
 11
1866.3444250001
 21
-236.5879555308003
 31
0.0
  0
LINE
  5
5D0
  8
1
  6
CONTINUOUS
 62
     7
 10
1886.354952644698
 20
-230.6840333524001
 30
0.0
 11
1886.354952644698
 21
-174.3159666476002
 31
0.0
  0
LINE
  5
5D1
  8
1
  6
CONTINUOUS
 62
     7
 10
1428.920026802096
 20
-174.9999999999002
 30
0.0
 11
1430.424673197996
 21
-174.9999999999002
 31
0.0
  0
LINE
  5
5D2
  8
1
  6
CONTINUOUS
 62
     7
 10
1426.691425000097
 20
-198.5000000000004
 30
0.0
 11
1417.986425000097
 21
-198.5000000000004
 31
0.0
  0
LINE
  5
5D3
  8
1
  6
CONTINUOUS
 62
     7
 10
1414.253176802095
 20
-174.9999999999002
 30
0.0
 11
1415.757823197999
 21
-174.9999999999002
 31
0.0
  0
LINE
  5
5D4
  8
1
  6
CONTINUOUS
 62
     7
 10
1822.343875000097
 20
-198.5000000000004
 30
0.0
 11
1822.343875000097
 21
-168.4120444692004
 31
0.0
  0
LINE
  5
5D5
  8
1
  6
CONTINUOUS
 62
     7
 10
1500.777065172599
 20
-231.2395277336003
 30
0.0
 11
1499.964591243598
 21
-235.8472963561002
 31
0.0
  0
LINE
  5
5D6
  8
1
  6
CONTINUOUS
 62
     7
 10
1426.691425000097
 20
-206.5000000000003
 30
0.0
 11
1417.986425000097
 21
-206.5000000000003
 31
0.0
  0
LINE
  5
5D7
  8
1
  6
CONTINUOUS
 62
     7
 10
1910.344975000096
 20
-242.5
 30
0.0
 11
1910.344975000096
 21
-162.5
 31
0.0
  0
LINE
  5
5D8
  8
1
  6
CONTINUOUS
 62
     7
 10
1424.660725737599
 20
-167.4999999994003
 30
0.0
 11
1420.017124262495
 21
-167.4999999994003
 31
0.0
  0
ARC
  5
5D9
  8
1
  6
CONTINUOUS
 62
     7
 10
1415.757823197996
 20
-231.5000000001001
 30
0.0
 40
1.500000000000057
 50
10.00000000000084
 51
90.0
  0
LINE
  5
5DA
  8
1
  6
CONTINUOUS
 62
     7
 10
1426.338925000099
 20
-198.5000000000004
 30
0.0
 11
1426.338925000099
 21
-168.4120444692004
 31
0.0
  0
LINE
  5
5DB
  8
1
  6
CONTINUOUS
 62
     7
 10
1808.029525000097
 20
-198.5000000000004
 30
0.0
 11
1799.324525000098
 21
-198.5000000000004
 31
0.0
  0
LINE
  5
5DC
  8
1
  6
CONTINUOUS
 62
     7
 10
1431.901884827496
 20
-173.7604722664001
 30
0.0
 11
1432.714358756496
 21
-169.1527036441002
 31
0.0
  0
LINE
  5
5DD
  8
1
  6
CONTINUOUS
 62
     7
 10
1456.025125000095
 20
-198.5000000000004
 30
0.0
 11
1447.320125000095
 21
-198.5000000000004
 31
0.0
  0
LINE
  5
5DE
  8
1
  6
CONTINUOUS
 62
     7
 10
1941.000767355294
 20
-230.6840333524001
 30
0.0
 11
1941.000767355294
 21
-174.3159666476002
 31
0.0
  0
ARC
  5
5DF
  8
1
  6
CONTINUOUS
 62
     7
 10
1899.763873197997
 20
-173.4999999999001
 30
0.0
 40
1.50000000000361
 50
270.0
 51
349.9999999999999
  0
LINE
  5
5E0
  8
1
  6
CONTINUOUS
 62
     7
 10
1446.568734827493
 20
-173.7604722664001
 30
0.0
 11
1447.381208756493
 21
-169.1527036441002
 31
0.0
  0
ARC
  5
5E1
  8
1
  6
CONTINUOUS
 62
     7
 10
1439.327575737596
 20
-235.5000000007002
 30
0.0
 40
1.999999999998892
 50
270.0
 51
349.9999999999999
  0
LINE
  5
5E2
  8
1
  6
CONTINUOUS
 62
     7
 10
1563.683712644699
 20
-230.6840333524001
 30
0.0
 11
1563.683712644699
 21
-174.3159666476002
 31
0.0
  0
LINE
  5
5E3
  8
1
  6
CONTINUOUS
 62
     7
 10
1499.673175000101
 20
-198.5000000000004
 30
0.0
 11
1499.673175000101
 21
-168.4120444692004
 31
0.0
  0
LINE
  5
5E4
  8
1
  6
CONTINUOUS
 62
     7
 10
1500.777065172599
 20
-173.7604722664001
 30
0.0
 11
1499.964591243598
 21
-169.1527036440003
 31
0.0
  0
ARC
  5
5E5
  8
1
  6
CONTINUOUS
 62
     7
 10
1502.254276802098
 20
-231.5000000001001
 30
0.0
 40
1.500000000000057
 50
90.0
 51
169.999999999999
  0
LINE
  5
5E6
  8
1
  6
CONTINUOUS
 62
     7
 10
1651.904634827499
 20
-231.2395277336003
 30
0.0
 11
1652.717108756498
 21
-235.8472963559003
 31
0.0
  0
ARC
  5
5E7
  8
1
  6
CONTINUOUS
 62
     7
 10
1560.921676802099
 20
-231.5000000001001
 30
0.0
 40
1.500000000000057
 50
90.0
 51
169.999999999999
  0
ARC
  5
5E8
  8
1
  6
CONTINUOUS
 62
     7
 10
1493.351374262495
 20
-169.4999999994004
 30
0.0
 40
2.000000000002444
 50
90.0
 51
169.9999999999952
  0
LINE
  5
5E9
  8
1
  6
CONTINUOUS
 62
     7
 10
1431.901884827496
 20
-231.2395277336003
 30
0.0
 11
1432.714358756496
 21
-235.8472963559003
 31
0.0
  0
LINE
  5
5EA
  8
1
  6
CONTINUOUS
 62
     7
 10
1564.654925000098
 20
-206.5000000000003
 30
0.0
 11
1564.654925000098
 21
-198.5000000000003
 31
0.0
  0
LINE
  5
5EB
  8
1
  6
CONTINUOUS
 62
     7
 10
1544.995277355298
 20
-230.6840333524001
 30
0.0
 11
1544.995277355298
 21
-174.3159666476002
 31
0.0
  0
LINE
  5
5EC
  8
1
  6
CONTINUOUS
 62
     7
 10
1472.920576802096
 20
-174.9999999999002
 30
0.0
 11
1474.425223197996
 21
-174.9999999999002
 31
0.0
  0
ARC
  5
5ED
  8
1
  6
CONTINUOUS
 62
     7
 10
1824.924976802098
 20
-173.4999999999001
 30
0.0
 40
1.500000000000057
 50
190.0
 51
270.0
  0
ARC
  5
5EE
  8
1
  6
CONTINUOUS
 62
     7
 10
1820.665675737597
 20
-169.4999999993001
 30
0.0
 40
1.999999999998892
 50
10.0
 51
90.0
  0
LINE
  5
5EF
  8
1
  6
CONTINUOUS
 62
     7
 10
1823.447765172598
 20
-231.2395277336003
 30
0.0
 11
1822.635291243598
 21
-235.8472963561002
 31
0.0
  0
LINE
  5
5F0
  8
1
  6
CONTINUOUS
 62
     7
 10
1813.020702644699
 20
-230.6840333524001
 30
0.0
 11
1813.020702644699
 21
-174.3159666476002
 31
0.0
  0
LINE
  5
5F1
  8
1
  6
CONTINUOUS
 62
     7
 10
1866.696925000098
 20
-198.5000000000004
 30
0.0
 11
1857.991925000098
 21
-198.5000000000004
 31
0.0
  0
LINE
  5
5F2
  8
1
  6
CONTINUOUS
 62
     7
 10
1442.109665172598
 20
-231.2395277336003
 30
0.0
 11
1441.297191243598
 21
-235.8472963561002
 31
0.0
  0
ARC
  5
5F3
  8
1
  6
CONTINUOUS
 62
     7
 10
1439.327575737596
 20
-169.4999999993001
 30
0.0
 40
1.999999999998892
 50
10.0
 51
90.0
  0
LINE
  5
5F4
  8
1
  6
CONTINUOUS
 62
     7
 10
1799.324525000098
 20
-206.5000000000003
 30
0.0
 11
1799.324525000098
 21
-198.5000000000003
 31
0.0
  0
LINE
  5
5F5
  8
1
  6
CONTINUOUS
 62
     7
 10
1433.005775000097
 20
-206.5000000000003
 30
0.0
 11
1433.005775000097
 21
-236.5879555307002
 31
0.0
  0
LINE
  5
5F6
  8
1
  6
CONTINUOUS
 62
     7
 10
1441.358275000098
 20
-206.5000000000003
 30
0.0
 11
1432.653275000098
 21
-206.5000000000003
 31
0.0
  0
LINE
  5
5F7
  8
1
  6
CONTINUOUS
 62
     7
 10
1439.327575737596
 20
-237.5000000006002
 30
0.0
 11
1434.683974262497
 21
-237.5000000006002
 31
0.0
  0
LINE
  5
5F8
  8
1
  6
CONTINUOUS
 62
     7
 10
1808.029525000097
 20
-206.5000000000003
 30
0.0
 11
1799.324525000098
 21
-206.5000000000003
 31
0.0
  0
LINE
  5
5F9
  8
1
  6
CONTINUOUS
 62
     7
 10
1549.017042644695
 20
-230.6840333524001
 30
0.0
 11
1549.017042644695
 21
-174.3159666476002
 31
0.0
  0
LINE
  5
5FA
  8
1
  6
CONTINUOUS
 62
     7
 10
1502.254276802098
 20
-174.9999999999002
 30
0.0
 11
1503.758923197998
 21
-174.9999999999002
 31
0.0
  0
ARC
  5
5FB
  8
1
  6
CONTINUOUS
 62
     7
 10
1430.424673197997
 20
-231.5000000001001
 30
0.0
 40
1.500000000000057
 50
10.0
 51
90.0
  0
LINE
  5
5FC
  8
1
  6
CONTINUOUS
 62
     7
 10
1502.254276802098
 20
-230.0000000001002
 30
0.0
 11
1503.758923197998
 21
-230.0000000001002
 31
0.0
  0
LINE
  5
5FD
  8
1
  6
CONTINUOUS
 62
     7
 10
1462.339475000096
 20
-198.5000000000004
 30
0.0
 11
1462.339475000096
 21
-168.4120444693003
 31
0.0
  0
LINE
  5
5FE
  8
1
  6
CONTINUOUS
 62
     7
 10
1808.029525000097
 20
-206.5000000000003
 30
0.0
 11
1808.029525000097
 21
-198.5000000000003
 31
0.0
  0
LINE
  5
5FF
  8
1
  6
CONTINUOUS
 62
     7
 10
1468.661275737595
 20
-237.5000000006002
 30
0.0
 11
1464.017674262494
 21
-237.5000000006002
 31
0.0
  0
ARC
  5
600
  8
1
  6
CONTINUOUS
 62
     7
 10
1811.762773197997
 20
-173.4999999999001
 30
0.0
 40
1.500000000000057
 50
270.0
 51
349.9999999999999
  0
ARC
  5
601
  8
1
  6
CONTINUOUS
 62
     7
 10
1860.022624262498
 20
-169.4999999994004
 30
0.0
 40
1.999999999998892
 50
90.0
 51
170.0
  0
LINE
  5
602
  8
1
  6
CONTINUOUS
 62
     7
 10
1461.235584827495
 20
-173.7604722664001
 30
0.0
 11
1462.048058756495
 21
-169.1527036441002
 31
0.0
  0
LINE
  5
603
  8
1
  6
CONTINUOUS
 62
     7
 10
1499.673175000101
 20
-206.5000000000003
 30
0.0
 11
1499.673175000101
 21
-236.5879555308003
 31
0.0
  0
LINE
  5
604
  8
1
  6
CONTINUOUS
 62
     7
 10
1823.665607355302
 20
-230.6840333524001
 30
0.0
 11
1823.665607355302
 21
-174.3159666476002
 31
0.0
  0
LINE
  5
605
  8
1
  6
CONTINUOUS
 62
     7
 10
1472.920576802096
 20
-230.0000000001002
 30
0.0
 11
1474.425223197996
 21
-230.0000000001002
 31
0.0
  0
LINE
  5
606
  8
1
  6
CONTINUOUS
 62
     7
 10
1441.005775000093
 20
-198.5000000000004
 30
0.0
 11
1441.005775000093
 21
-168.4120444692004
 31
0.0
  0
LINE
  5
607
  8
1
  6
CONTINUOUS
 62
     7
 10
1515.661937355297
 20
-230.6840333524001
 30
0.0
 11
1515.661937355297
 21
-174.3159666476002
 31
0.0
  0
LINE
  5
608
  8
1
  6
CONTINUOUS
 62
     7
 10
1534.350372644695
 20
-230.6840333524001
 30
0.0
 11
1534.350372644695
 21
-174.3159666476002
 31
0.0
  0
LINE
  5
609
  8
1
  6
CONTINUOUS
 62
     7
 10
1852.998947355296
 20
-230.6840333524001
 30
0.0
 11
1852.998947355296
 21
-174.3159666476002
 31
0.0
  0
LINE
  5
60A
  8
1
  6
CONTINUOUS
 62
     7
 10
1447.672625000095
 20
-198.5000000000004
 30
0.0
 11
1447.672625000095
 21
-168.4120444693003
 31
0.0
  0
LINE
  5
60B
  8
1
  6
CONTINUOUS
 62
     7
 10
1470.339475000095
 20
-206.5000000000003
 30
0.0
 11
1470.339475000095
 21
-236.5879555308003
 31
0.0
  0
LINE
  5
60C
  8
1
  6
CONTINUOUS
 62
     7
 10
1858.344425000098
 20
-198.5000000000004
 30
0.0
 11
1858.344425000098
 21
-168.4120444693003
 31
0.0
  0
ARC
  5
60D
  8
1
  6
CONTINUOUS
 62
     7
 10
1810.258126802097
 20
-173.4999999999001
 30
0.0
 40
1.500000000000057
 50
190.0
 51
270.0
  0
LINE
  5
60E
  8
1
  6
CONTINUOUS
 62
     7
 10
1458.253726802098
 20
-174.9999999999002
 30
0.0
 11
1459.758373197998
 21
-174.9999999999002
 31
0.0
  0
LINE
  5
60F
  8
1
  6
CONTINUOUS
 62
     7
 10
1814.343875000098
 20
-206.5000000000003
 30
0.0
 11
1814.343875000098
 21
-236.5879555307002
 31
0.0
  0
LINE
  5
610
  8
1
  6
CONTINUOUS
 62
     7
 10
1842.3540426447
 20
-230.6840333524001
 30
0.0
 11
1842.3540426447
 21
-174.3159666476002
 31
0.0
  0
LINE
  5
611
  8
1
  6
CONTINUOUS
 62
     7
 10
1441.005775000093
 20
-206.5000000000003
 30
0.0
 11
1441.005775000093
 21
-236.5879555308003
 31
0.0
  0
LINE
  5
612
  8
1
  6
CONTINUOUS
 62
     7
 10
1798.353132644695
 20
-230.6840333524001
 30
0.0
 11
1798.353132644695
 21
-174.3159666476002
 31
0.0
  0
LINE
  5
613
  8
1
  6
CONTINUOUS
 62
     7
 10
1648.922776802095
 20
-230.0000000001002
 30
0.0
 11
1650.427423197995
 21
-230.0000000001002
 31
0.0
  0
LINE
  5
614
  8
1
  6
CONTINUOUS
 62
     7
 10
1784.657675000097
 20
-206.5000000000003
 30
0.0
 11
1784.657675000097
 21
-198.5000000000003
 31
0.0
  0
LINE
  5
615
  8
1
  6
CONTINUOUS
 62
     7
 10
1707.590176802096
 20
-230.0000000001002
 30
0.0
 11
1709.094823197996
 21
-230.0000000001002
 31
0.0
  0
ARC
  5
616
  8
1
  6
CONTINUOUS
 62
     7
 10
1516.921126802095
 20
-231.5000000001001
 30
0.0
 40
1.50000000000361
 50
90.0
 51
169.999999999999
  0
LINE
  5
617
  8
1
  6
CONTINUOUS
 62
     7
 10
1794.331367355297
 20
-230.6840333524001
 30
0.0
 11
1794.331367355297
 21
-174.3159666476002
 31
0.0
  0
ARC
  5
618
  8
1
  6
CONTINUOUS
 62
     7
 10
1816.022074262498
 20
-235.5000000006003
 30
0.0
 40
1.999999999998892
 50
190.0
 51
270.0
  0
LINE
  5
619
  8
1
  6
CONTINUOUS
 62
     7
 10
1519.683702644698
 20
-230.6840333524001
 30
0.0
 11
1519.683702644698
 21
-174.3159666476002
 31
0.0
  0
LINE
  5
61A
  8
1
  6
CONTINUOUS
 62
     7
 10
1470.339475000095
 20
-198.5000000000004
 30
0.0
 11
1470.339475000095
 21
-168.4120444692004
 31
0.0
  0
LINE
  5
61B
  8
1
  6
CONTINUOUS
 62
     7
 10
1808.998937355298
 20
-230.6840333524001
 30
0.0
 11
1808.998937355298
 21
-174.3159666476002
 31
0.0
  0
LINE
  5
61C
  8
1
  6
CONTINUOUS
 62
     7
 10
1820.665675737597
 20
-237.5000000006002
 30
0.0
 11
1816.022074262497
 21
-237.5000000006002
 31
0.0
  0
LINE
  5
61D
  8
1
  6
CONTINUOUS
 62
     7
 10
1447.320125000096
 20
-206.5000000000003
 30
0.0
 11
1447.320125000096
 21
-198.5000000000003
 31
0.0
  0
ARC
  5
61E
  8
1
  6
CONTINUOUS
 62
     7
 10
1443.586876802097
 20
-231.5000000001001
 30
0.0
 40
1.500000000000057
 50
90.0
 51
170.0
  0
LINE
  5
61F
  8
1
  6
CONTINUOUS
 62
     7
 10
1866.696925000098
 20
-206.5000000000003
 30
0.0
 11
1857.991925000098
 21
-206.5000000000003
 31
0.0
  0
LINE
  5
620
  8
1
  6
CONTINUOUS
 62
     7
 10
1793.362675000096
 20
-206.5000000000003
 30
0.0
 11
1784.657675000096
 21
-206.5000000000003
 31
0.0
  0
LINE
  5
621
  8
1
  6
CONTINUOUS
 62
     7
 10
1711.675925000093
 20
-206.5000000000003
 30
0.0
 11
1711.675925000093
 21
-236.5879555307002
 31
0.0
  0
LINE
  5
622
  8
1
  6
CONTINUOUS
 62
     7
 10
1443.586876802097
 20
-230.0000000001002
 30
0.0
 11
1445.091523197997
 21
-230.0000000001002
 31
0.0
  0
ARC
  5
623
  8
1
  6
CONTINUOUS
 62
     7
 10
1489.092073197998
 20
-173.4999999999001
 30
0.0
 40
1.500000000000057
 50
270.0
 51
349.999999999999
  0
ARC
  5
624
  8
1
  6
CONTINUOUS
 62
     7
 10
1522.685074262497
 20
-169.4999999994004
 30
0.0
 40
1.999999999998892
 50
90.0
 51
169.9999999999952
  0
ARC
  5
625
  8
1
  6
CONTINUOUS
 62
     7
 10
1604.922226802099
 20
-231.5000000001001
 30
0.0
 40
1.499999999996504
 50
90.0
 51
169.999999999999
  0
LINE
  5
626
  8
1
  6
CONTINUOUS
 62
     7
 10
1710.352212644696
 20
-230.6840333524001
 30
0.0
 11
1710.352212644696
 21
-174.3159666476002
 31
0.0
  0
LINE
  5
627
  8
1
  6
CONTINUOUS
 62
     7
 10
1659.330325737595
 20
-237.5000000006002
 30
0.0
 11
1654.686724262495
 21
-237.5000000006002
 31
0.0
  0
ARC
  5
628
  8
1
  6
CONTINUOUS
 62
     7
 10
1577.093173197997
 20
-231.5000000001001
 30
0.0
 40
1.499999999996504
 50
10.00000000000103
 51
90.0
  0
ARC
  5
629
  8
1
  6
CONTINUOUS
 62
     7
 10
1518.425773197996
 20
-173.4999999999001
 30
0.0
 40
1.500000000000057
 50
270.0
 51
349.999999999999
  0
LINE
  5
62A
  8
1
  6
CONTINUOUS
 62
     7
 10
1644.663475737601
 20
-167.4999999994003
 30
0.0
 11
1640.019874262501
 21
-167.4999999994003
 31
0.0
  0
ARC
  5
62B
  8
1
  6
CONTINUOUS
 62
     7
 10
1610.686174262497
 20
-169.4999999994004
 30
0.0
 40
2.000000000002444
 50
90.0
 51
169.9999999999952
  0
LINE
  5
62C
  8
1
  6
CONTINUOUS
 62
     7
 10
1785.010175000095
 20
-206.5000000000003
 30
0.0
 11
1785.010175000095
 21
-236.5879555307002
 31
0.0
  0
LINE
  5
62D
  8
1
  6
CONTINUOUS
 62
     7
 10
1794.1140651726
 20
-173.7604722664001
 30
0.0
 11
1793.301591243599
 21
-169.1527036440003
 31
0.0
  0
ARC
  5
62E
  8
1
  6
CONTINUOUS
 62
     7
 10
1547.759473197999
 20
-173.4999999999001
 30
0.0
 40
1.500000000000057
 50
270.0
 51
349.999999999999
  0
LINE
  5
62F
  8
1
  6
CONTINUOUS
 62
     7
 10
1780.924426802098
 20
-174.9999999999002
 30
0.0
 11
1782.429073197998
 21
-174.9999999999002
 31
0.0
  0
LINE
  5
630
  8
1
  6
CONTINUOUS
 62
     7
 10
1794.1140651726
 20
-231.2395277336003
 30
0.0
 11
1793.301591243599
 21
-235.8472963561002
 31
0.0
  0
LINE
  5
631
  8
1
  6
CONTINUOUS
 62
     7
 10
1780.924426802098
 20
-230.0000000001002
 30
0.0
 11
1782.429073197998
 21
-230.0000000001002
 31
0.0
  0
ARC
  5
632
  8
1
  6
CONTINUOUS
 62
     7
 10
1581.352474262498
 20
-235.5000000006003
 30
0.0
 40
1.999999999998892
 50
190.0000000000048
 51
270.0
  0
ARC
  5
633
  8
1
  6
CONTINUOUS
 62
     7
 10
1581.352474262498
 20
-169.4999999994004
 30
0.0
 40
1.999999999998892
 50
90.0
 51
169.9999999999952
  0
LINE
  5
634
  8
1
  6
CONTINUOUS
 62
     7
 10
1793.010175000098
 20
-206.5000000000003
 30
0.0
 11
1793.010175000098
 21
-236.5879555308003
 31
0.0
  0
ARC
  5
635
  8
1
  6
CONTINUOUS
 62
     7
 10
1531.587976802097
 20
-173.4999999999001
 30
0.0
 40
1.50000000000361
 50
190.0000000000011
 51
270.0
  0
ARC
  5
636
  8
1
  6
CONTINUOUS
 62
     7
 10
1508.018224262496
 20
-235.5000000006003
 30
0.0
 40
1.999999999998892
 50
190.0000000000048
 51
270.0
  0
LINE
  5
637
  8
1
  6
CONTINUOUS
 62
     7
 10
1783.906284827494
 20
-173.7604722664001
 30
0.0
 11
1784.718758756495
 21
-169.1527036441002
 31
0.0
  0
LINE
  5
638
  8
1
  6
CONTINUOUS
 62
     7
 10
1607.684622644697
 20
-230.6840333524001
 30
0.0
 11
1607.684622644697
 21
-174.3159666476002
 31
0.0
  0
LINE
  5
639
  8
1
  6
CONTINUOUS
 62
     7
 10
1647.445565172596
 20
-231.2395277336003
 30
0.0
 11
1646.633091243596
 21
-235.8472963561002
 31
0.0
  0
ARC
  5
63A
  8
1
  6
CONTINUOUS
 62
     7
 10
1537.351924262498
 20
-169.4999999994004
 30
0.0
 40
1.999999999998892
 50
90.0
 51
169.9999999999952
  0
ARC
  5
63B
  8
1
  6
CONTINUOUS
 62
     7
 10
1590.255376802098
 20
-231.5000000001001
 30
0.0
 40
1.500000000000057
 50
90.0
 51
169.999999999999
  0
ARC
  5
63C
  8
1
  6
CONTINUOUS
 62
     7
 10
1621.093723197994
 20
-173.4999999999001
 30
0.0
 40
1.500000000000057
 50
270.0
 51
349.999999999999
  0
ARC
  5
63D
  8
1
  6
CONTINUOUS
 62
     7
 10
1516.921126802095
 20
-173.4999999999001
 30
0.0
 40
1.50000000000361
 50
190.0000000000011
 51
270.0
  0
LINE
  5
63E
  8
1
  6
CONTINUOUS
 62
     7
 10
1710.572034827496
 20
-231.2395277336003
 30
0.0
 11
1711.384508756496
 21
-235.8472963559003
 31
0.0
  0
LINE
  5
63F
  8
1
  6
CONTINUOUS
 62
     7
 10
1646.694175000096
 20
-198.5000000000004
 30
0.0
 11
1637.989175000096
 21
-198.5000000000004
 31
0.0
  0
ARC
  5
640
  8
1
  6
CONTINUOUS
 62
     7
 10
1562.426323197996
 20
-173.4999999999001
 30
0.0
 40
1.500000000000057
 50
270.0
 51
349.999999999999
  0
ARC
  5
641
  8
1
  6
CONTINUOUS
 62
     7
 10
1512.661825737598
 20
-169.4999999993001
 30
0.0
 40
1.999999999998892
 50
10.00000000000483
 51
90.0
  0
ARC
  5
642
  8
1
  6
CONTINUOUS
 62
     7
 10
1556.662375737598
 20
-169.4999999993001
 30
0.0
 40
1.999999999998892
 50
10.00000000000042
 51
90.0
  0
ARC
  5
643
  8
1
  6
CONTINUOUS
 62
     7
 10
1541.995525737597
 20
-235.5000000007002
 30
0.0
 40
2.000000000002444
 50
270.0
 51
349.9999999999952
  0
ARC
  5
644
  8
1
  6
CONTINUOUS
 62
     7
 10
1518.425773197996
 20
-231.5000000001001
 30
0.0
 40
1.500000000000057
 50
10.00000000000103
 51
90.0
  0
LINE
  5
645
  8
1
  6
CONTINUOUS
 62
     7
 10
1653.0085250001
 20
-206.5000000000003
 30
0.0
 11
1653.0085250001
 21
-236.5879555307002
 31
0.0
  0
ARC
  5
646
  8
1
  6
CONTINUOUS
 62
     7
 10
1596.019324262499
 20
-235.5000000006003
 30
0.0
 40
1.999999999998892
 50
190.0000000000048
 51
270.0
  0
LINE
  5
647
  8
1
  6
CONTINUOUS
 62
     7
 10
1793.010175000098
 20
-198.5000000000004
 30
0.0
 11
1793.010175000098
 21
-168.4120444692004
 31
0.0
  0
ARC
  5
648
  8
1
  6
CONTINUOUS
 62
     7
 10
1635.760573197995
 20
-173.4999999999001
 30
0.0
 40
1.500000000000057
 50
270.0
 51
349.999999999999
  0
LINE
  5
649
  8
1
  6
CONTINUOUS
 62
     7
 10
1661.361025000097
 20
-198.5000000000004
 30
0.0
 11
1652.656025000097
 21
-198.5000000000004
 31
0.0
  0
LINE
  5
64A
  8
1
  6
CONTINUOUS
 62
     7
 10
1651.685532644698
 20
-230.6840333524001
 30
0.0
 11
1651.685532644698
 21
-174.3159666476002
 31
0.0
  0
ARC
  5
64B
  8
1
  6
CONTINUOUS
 62
     7
 10
1625.353024262498
 20
-235.5000000006003
 30
0.0
 40
1.999999999998892
 50
190.0000000000048
 51
270.0
  0
ARC
  5
64C
  8
1
  6
CONTINUOUS
 62
     7
 10
1591.760023197998
 20
-231.5000000001001
 30
0.0
 40
1.499999999996504
 50
10.00000000000103
 51
90.0
  0
LINE
  5
64D
  8
1
  6
CONTINUOUS
 62
     7
 10
1661.008525000099
 20
-206.5000000000003
 30
0.0
 11
1661.008525000099
 21
-236.5879555308003
 31
0.0
  0
ARC
  5
64E
  8
1
  6
CONTINUOUS
 62
     7
 10
1508.018224262496
 20
-169.4999999994004
 30
0.0
 40
1.999999999998892
 50
90.0
 51
169.9999999999952
  0
LINE
  5
64F
  8
1
  6
CONTINUOUS
 62
     7
 10
1791.331975737598
 20
-237.5000000006002
 30
0.0
 11
1786.688374262498
 21
-237.5000000006002
 31
0.0
  0
ARC
  5
650
  8
1
  6
CONTINUOUS
 62
     7
 10
1533.092623197997
 20
-173.4999999999001
 30
0.0
 40
1.500000000000057
 50
270.0
 51
349.999999999999
  0
ARC
  5
651
  8
1
  6
CONTINUOUS
 62
     7
 10
1556.662375737598
 20
-235.5000000007002
 30
0.0
 40
1.999999999998892
 50
270.0
 51
349.9999999999996
  0
LINE
  5
652
  8
1
  6
CONTINUOUS
 62
     7
 10
1644.663475737601
 20
-237.5000000006002
 30
0.0
 11
1640.019874262501
 21
-237.5000000006002
 31
0.0
  0
ARC
  5
653
  8
1
  6
CONTINUOUS
 62
     7
 10
1489.092073197998
 20
-231.5000000001001
 30
0.0
 40
1.500000000000057
 50
9.999999999992678
 51
90.0
  0
ARC
  5
654
  8
1
  6
CONTINUOUS
 62
     7
 10
1512.661825737598
 20
-235.5000000007002
 30
0.0
 40
1.999999999998892
 50
270.0
 51
349.9999999999952
  0
LINE
  5
655
  8
1
  6
CONTINUOUS
 62
     7
 10
1785.010175000095
 20
-198.5000000000004
 30
0.0
 11
1785.010175000095
 21
-168.4120444693003
 31
0.0
  0
LINE
  5
656
  8
1
  6
CONTINUOUS
 62
     7
 10
1648.922776802095
 20
-174.9999999999002
 30
0.0
 11
1650.427423197995
 21
-174.9999999999002
 31
0.0
  0
LINE
  5
657
  8
1
  6
CONTINUOUS
 62
     7
 10
1707.590176802096
 20
-174.9999999999002
 30
0.0
 11
1709.094823197996
 21
-174.9999999999002
 31
0.0
  0
LINE
  5
658
  8
1
  6
CONTINUOUS
 62
     7
 10
1646.694175000096
 20
-206.5000000000003
 30
0.0
 11
1637.989175000096
 21
-206.5000000000003
 31
0.0
  0
LINE
  5
659
  8
1
  6
CONTINUOUS
 62
     7
 10
1646.341675000098
 20
-198.5000000000004
 30
0.0
 11
1646.341675000098
 21
-168.4120444692004
 31
0.0
  0
LINE
  5
65A
  8
1
  6
CONTINUOUS
 62
     7
 10
1646.341675000098
 20
-206.5000000000003
 30
0.0
 11
1646.341675000098
 21
-236.5879555308003
 31
0.0
  0
LINE
  5
65B
  8
1
  6
CONTINUOUS
 62
     7
 10
1791.331975737598
 20
-167.4999999994003
 30
0.0
 11
1786.688374262498
 21
-167.4999999994003
 31
0.0
  0
LINE
  5
65C
  8
1
  6
CONTINUOUS
 62
     7
 10
1617.360475000097
 20
-206.5000000000003
 30
0.0
 11
1617.360475000097
 21
-198.5000000000003
 31
0.0
  0
LINE
  5
65D
  8
1
  6
CONTINUOUS
 62
     7
 10
1661.361025000097
 20
-206.5000000000003
 30
0.0
 11
1661.361025000097
 21
-198.5000000000003
 31
0.0
  0
LINE
  5
65E
  8
1
  6
CONTINUOUS
 62
     7
 10
1594.341125000099
 20
-198.5000000000004
 30
0.0
 11
1594.341125000099
 21
-168.4120444693003
 31
0.0
  0
LINE
  5
65F
  8
1
  6
CONTINUOUS
 62
     7
 10
1661.361025000097
 20
-206.5000000000003
 30
0.0
 11
1652.656025000097
 21
-206.5000000000003
 31
0.0
  0
LINE
  5
660
  8
1
  6
CONTINUOUS
 62
     7
 10
1619.5890768021
 20
-230.0000000001002
 30
0.0
 11
1621.093723197997
 21
-230.0000000001002
 31
0.0
  0
LINE
  5
661
  8
1
  6
CONTINUOUS
 62
     7
 10
1608.655475000095
 20
-206.5000000000003
 30
0.0
 11
1608.655475000095
 21
-198.5000000000003
 31
0.0
  0
LINE
  5
662
  8
1
  6
CONTINUOUS
 62
     7
 10
1615.329775737599
 20
-167.4999999994003
 30
0.0
 11
1610.686174262499
 21
-167.4999999994003
 31
0.0
  0
ARC
  5
663
  8
1
  6
CONTINUOUS
 62
     7
 10
1503.758923197999
 20
-231.5000000001001
 30
0.0
 40
1.500000000000057
 50
10.00000000000103
 51
90.0
  0
LINE
  5
664
  8
1
  6
CONTINUOUS
 62
     7
 10
1696.656575000098
 20
-206.5000000000003
 30
0.0
 11
1696.656575000098
 21
-198.5000000000003
 31
0.0
  0
LINE
  5
665
  8
1
  6
CONTINUOUS
 62
     7
 10
1646.694175000096
 20
-206.5000000000003
 30
0.0
 11
1646.694175000096
 21
-198.5000000000003
 31
0.0
  0
LINE
  5
666
  8
1
  6
CONTINUOUS
 62
     7
 10
1593.237234827498
 20
-173.7604722664001
 30
0.0
 11
1594.049708756498
 21
-169.1527036441002
 31
0.0
  0
ARC
  5
667
  8
1
  6
CONTINUOUS
 62
     7
 10
1688.664025737594
 20
-235.5000000007002
 30
0.0
 40
2.000000000002444
 50
270.0
 51
349.9999999999999
  0
ARC
  5
668
  8
1
  6
CONTINUOUS
 62
     7
 10
1497.994975737597
 20
-169.4999999993001
 30
0.0
 40
1.999999999998892
 50
10.00000000000299
 51
90.0
  0
LINE
  5
669
  8
1
  6
CONTINUOUS
 62
     7
 10
1793.362675000096
 20
-206.5000000000003
 30
0.0
 11
1793.362675000096
 21
-198.5000000000003
 31
0.0
  0
LINE
  5
66A
  8
1
  6
CONTINUOUS
 62
     7
 10
1602.693625000096
 20
-198.5000000000004
 30
0.0
 11
1593.988625000097
 21
-198.5000000000004
 31
0.0
  0
LINE
  5
66B
  8
1
  6
CONTINUOUS
 62
     7
 10
1617.007975000099
 20
-198.5000000000004
 30
0.0
 11
1617.007975000099
 21
-168.4120444692004
 31
0.0
  0
ARC
  5
66C
  8
1
  6
CONTINUOUS
 62
     7
 10
1585.996075737597
 20
-169.4999999993001
 30
0.0
 40
2.000000000002444
 50
10.00000000000483
 51
90.0
  0
LINE
  5
66D
  8
1
  6
CONTINUOUS
 62
     7
 10
1632.027325000102
 20
-198.5000000000004
 30
0.0
 11
1623.322325000103
 21
-198.5000000000004
 31
0.0
  0
LINE
  5
66E
  8
1
  6
CONTINUOUS
 62
     7
 10
1629.996625737597
 20
-167.4999999994003
 30
0.0
 11
1625.353024262496
 21
-167.4999999994003
 31
0.0
  0
LINE
  5
66F
  8
1
  6
CONTINUOUS
 62
     7
 10
1710.572034827496
 20
-173.7604722664001
 30
0.0
 11
1711.384508756496
 21
-169.1527036441002
 31
0.0
  0
LINE
  5
670
  8
1
  6
CONTINUOUS
 62
     7
 10
1690.694725000096
 20
-198.5000000000004
 30
0.0
 11
1681.989725000097
 21
-198.5000000000004
 31
0.0
  0
LINE
  5
671
  8
1
  6
CONTINUOUS
 62
     7
 10
1631.674825000096
 20
-206.5000000000003
 30
0.0
 11
1631.674825000096
 21
-236.5879555308003
 31
0.0
  0
LINE
  5
672
  8
1
  6
CONTINUOUS
 62
     7
 10
1637.989175000097
 20
-206.5000000000003
 30
0.0
 11
1637.989175000097
 21
-198.5000000000003
 31
0.0
  0
LINE
  5
673
  8
1
  6
CONTINUOUS
 62
     7
 10
1609.007975000096
 20
-198.5000000000004
 30
0.0
 11
1609.007975000096
 21
-168.4120444693003
 31
0.0
  0
LINE
  5
674
  8
1
  6
CONTINUOUS
 62
     7
 10
1609.007975000096
 20
-206.5000000000003
 30
0.0
 11
1609.007975000096
 21
-236.5879555307002
 31
0.0
  0
LINE
  5
675
  8
1
  6
CONTINUOUS
 62
     7
 10
1711.323425000095
 20
-206.5000000000003
 30
0.0
 11
1711.323425000095
 21
-198.5000000000003
 31
0.0
  0
LINE
  5
676
  8
1
  6
CONTINUOUS
 62
     7
 10
1783.906284827494
 20
-231.2395277336003
 30
0.0
 11
1784.718758756495
 21
-235.8472963559003
 31
0.0
  0
LINE
  5
677
  8
1
  6
CONTINUOUS
 62
     7
 10
1695.905184827498
 20
-173.7604722664001
 30
0.0
 11
1696.717658756498
 21
-169.1527036441002
 31
0.0
  0
LINE
  5
678
  8
1
  6
CONTINUOUS
 62
     7
 10
1852.030075000101
 20
-198.5000000000004
 30
0.0
 11
1843.3250750001
 21
-198.5000000000004
 31
0.0
  0
LINE
  5
679
  8
1
  6
CONTINUOUS
 62
     7
 10
1661.008525000099
 20
-198.5000000000004
 30
0.0
 11
1661.008525000099
 21
-168.4120444692004
 31
0.0
  0
LINE
  5
67A
  8
1
  6
CONTINUOUS
 62
     7
 10
1851.677575000095
 20
-198.5000000000004
 30
0.0
 11
1851.677575000095
 21
-168.4120444692004
 31
0.0
  0
LINE
  5
67B
  8
1
  6
CONTINUOUS
 62
     7
 10
1659.330325737595
 20
-167.4999999994003
 30
0.0
 11
1654.686724262495
 21
-167.4999999994003
 31
0.0
  0
LINE
  5
67C
  8
1
  6
CONTINUOUS
 62
     7
 10
1602.693625000096
 20
-206.5000000000003
 30
0.0
 11
1602.693625000096
 21
-198.5000000000003
 31
0.0
  0
LINE
  5
67D
  8
1
  6
CONTINUOUS
 62
     7
 10
1793.362675000096
 20
-198.5000000000004
 30
0.0
 11
1784.657675000096
 21
-198.5000000000004
 31
0.0
  0
LINE
  5
67E
  8
1
  6
CONTINUOUS
 62
     7
 10
1849.999375737599
 20
-167.4999999994003
 30
0.0
 11
1845.355774262499
 21
-167.4999999994003
 31
0.0
  0
ARC
  5
67F
  8
1
  6
CONTINUOUS
 62
     7
 10
1703.330875737595
 20
-235.5000000007002
 30
0.0
 40
1.999999999998892
 50
270.0
 51
349.9999999999999
  0
LINE
  5
680
  8
1
  6
CONTINUOUS
 62
     7
 10
1617.360475000097
 20
-206.5000000000003
 30
0.0
 11
1608.655475000097
 21
-206.5000000000003
 31
0.0
  0
LINE
  5
681
  8
1
  6
CONTINUOUS
 62
     7
 10
1590.255376802098
 20
-230.0000000001002
 30
0.0
 11
1591.760023197997
 21
-230.0000000001002
 31
0.0
  0
LINE
  5
682
  8
1
  6
CONTINUOUS
 62
     7
 10
1653.0085250001
 20
-198.5000000000004
 30
0.0
 11
1653.0085250001
 21
-168.4120444693003
 31
0.0
  0
LINE
  5
683
  8
1
  6
CONTINUOUS
 62
     7
 10
1695.685542644696
 20
-230.6840333524001
 30
0.0
 11
1695.685542644696
 21
-174.3159666476002
 31
0.0
  0
ARC
  5
684
  8
1
  6
CONTINUOUS
 62
     7
 10
1503.758923197999
 20
-173.4999999999001
 30
0.0
 40
1.500000000000057
 50
270.0
 51
349.999999999999
  0
ARC
  5
685
  8
1
  6
CONTINUOUS
 62
     7
 10
1502.254276802098
 20
-173.4999999999001
 30
0.0
 40
1.500000000000057
 50
190.0000000000011
 51
270.0
  0
ARC
  5
686
  8
1
  6
CONTINUOUS
 62
     7
 10
1546.254826802098
 20
-231.5000000001001
 30
0.0
 40
1.500000000000057
 50
90.0
 51
169.999999999999
  0
ARC
  5
687
  8
1
  6
CONTINUOUS
 62
     7
 10
1610.686174262497
 20
-235.5000000006003
 30
0.0
 40
2.000000000002444
 50
190.0000000000048
 51
270.0
  0
LINE
  5
688
  8
1
  6
CONTINUOUS
 62
     7
 10
1795.591276802099
 20
-230.0000000001002
 30
0.0
 11
1797.095923197999
 21
-230.0000000001002
 31
0.0
  0
ARC
  5
689
  8
1
  6
CONTINUOUS
 62
     7
 10
1854.258676802096
 20
-231.5000000001001
 30
0.0
 40
1.50000000000361
 50
90.0
 51
170.0
  0
LINE
  5
68A
  8
1
  6
CONTINUOUS
 62
     7
 10
1647.445565172596
 20
-173.7604722664001
 30
0.0
 11
1646.633091243596
 21
-169.1527036440003
 31
0.0
  0
LINE
  5
68B
  8
1
  6
CONTINUOUS
 62
     7
 10
1651.904634827499
 20
-173.7604722664001
 30
0.0
 11
1652.717108756498
 21
-169.1527036441002
 31
0.0
  0
LINE
  5
68C
  8
1
  6
CONTINUOUS
 62
     7
 10
1852.781465172597
 20
-173.7604722664001
 30
0.0
 11
1851.968991243598
 21
-169.1527036440003
 31
0.0
  0
LINE
  5
68D
  8
1
  6
CONTINUOUS
 62
     7
 10
1688.664025737594
 20
-167.4999999994003
 30
0.0
 11
1684.020424262493
 21
-167.4999999994003
 31
0.0
  0
LINE
  5
68E
  8
1
  6
CONTINUOUS
 62
     7
 10
1795.591276802099
 20
-174.9999999999002
 30
0.0
 11
1797.095923197999
 21
-174.9999999999002
 31
0.0
  0
LINE
  5
68F
  8
1
  6
CONTINUOUS
 62
     7
 10
1711.675925000093
 20
-198.5000000000004
 30
0.0
 11
1711.675925000093
 21
-168.4120444693003
 31
0.0
  0
LINE
  5
690
  8
1
  6
CONTINUOUS
 62
     7
 10
1783.686462644698
 20
-230.6840333524001
 30
0.0
 11
1783.686462644698
 21
-174.3159666476002
 31
0.0
  0
LINE
  5
691
  8
1
  6
CONTINUOUS
 62
     7
 10
1563.903534827495
 20
-173.7604722664001
 30
0.0
 11
1564.716008756495
 21
-169.1527036441002
 31
0.0
  0
LINE
  5
692
  8
1
  6
CONTINUOUS
 62
     7
 10
1864.6662257376
 20
-237.5000000006002
 30
0.0
 11
1860.0226242625
 21
-237.5000000006002
 31
0.0
  0
LINE
  5
693
  8
1
  6
CONTINUOUS
 62
     7
 10
1705.009075000099
 20
-206.5000000000003
 30
0.0
 11
1705.009075000099
 21
-236.5879555308003
 31
0.0
  0
LINE
  5
694
  8
1
  6
CONTINUOUS
 62
     7
 10
1695.905184827498
 20
-231.2395277336003
 30
0.0
 11
1696.717658756498
 21
-235.8472963559003
 31
0.0
  0
LINE
  5
695
  8
1
  6
CONTINUOUS
 62
     7
 10
1632.778715172595
 20
-173.7604722664001
 30
0.0
 11
1631.966241243599
 21
-169.1527036440003
 31
0.0
  0
LINE
  5
696
  8
1
  6
CONTINUOUS
 62
     7
 10
1619.5890768021
 20
-174.9999999999002
 30
0.0
 11
1621.093723197997
 21
-174.9999999999002
 31
0.0
  0
ARC
  5
697
  8
1
  6
CONTINUOUS
 62
     7
 10
1493.351374262495
 20
-235.5000000006003
 30
0.0
 40
2.000000000002444
 50
190.0000000000048
 51
270.0
  0
LINE
  5
698
  8
1
  6
CONTINUOUS
 62
     7
 10
1690.694725000096
 20
-206.5000000000003
 30
0.0
 11
1681.989725000097
 21
-206.5000000000003
 31
0.0
  0
LINE
  5
699
  8
1
  6
CONTINUOUS
 62
     7
 10
1600.662925737598
 20
-237.5000000006002
 30
0.0
 11
1596.019324262498
 21
-237.5000000006002
 31
0.0
  0
ARC
  5
69A
  8
1
  6
CONTINUOUS
 62
     7
 10
1497.994975737597
 20
-235.5000000007002
 30
0.0
 40
1.999999999998892
 50
270.0
 51
349.999999999997
  0
ARC
  5
69B
  8
1
  6
CONTINUOUS
 62
     7
 10
1694.427973197996
 20
-173.4999999999001
 30
0.0
 40
1.500000000000057
 50
270.0
 51
349.9999999999999
  0
ARC
  5
69C
  8
1
  6
CONTINUOUS
 62
     7
 10
1864.6662257376
 20
-235.5000000007002
 30
0.0
 40
1.999999999998892
 50
270.0
 51
349.9999999999999
  0
ARC
  5
69D
  8
1
  6
CONTINUOUS
 62
     7
 10
1531.587976802097
 20
-231.5000000001001
 30
0.0
 40
1.50000000000361
 50
90.0
 51
169.999999999999
  0
ARC
  5
69E
  8
1
  6
CONTINUOUS
 62
     7
 10
1839.591826802099
 20
-173.4999999999001
 30
0.0
 40
1.500000000000057
 50
190.0
 51
270.0
  0
LINE
  5
69F
  8
1
  6
CONTINUOUS
 62
     7
 10
1837.3632250001
 20
-206.5000000000003
 30
0.0
 11
1828.6582250001
 21
-206.5000000000003
 31
0.0
  0
ARC
  5
6A0
  8
1
  6
CONTINUOUS
 62
     7
 10
1650.427423197999
 20
-231.5000000001001
 30
0.0
 40
1.499999999996504
 50
10.00000000000103
 51
90.0
  0
ARC
  5
6A1
  8
1
  6
CONTINUOUS
 62
     7
 10
1830.688924262496
 20
-235.5000000006003
 30
0.0
 40
2.000000000002444
 50
190.0
 51
270.0
  0
ARC
  5
6A2
  8
1
  6
CONTINUOUS
 62
     7
 10
1606.426873198
 20
-231.5000000001001
 30
0.0
 40
1.500000000000057
 50
10.00000000000103
 51
90.0
  0
ARC
  5
6A3
  8
1
  6
CONTINUOUS
 62
     7
 10
1782.429073197995
 20
-173.4999999999001
 30
0.0
 40
1.50000000000361
 50
270.0
 51
349.999999999996
  0
ARC
  5
6A4
  8
1
  6
CONTINUOUS
 62
     7
 10
1791.331975737598
 20
-235.5000000007002
 30
0.0
 40
1.999999999998892
 50
270.0
 51
349.9999999999974
  0
LINE
  5
6A5
  8
1
  6
CONTINUOUS
 62
     7
 10
1703.330875737595
 20
-167.4999999994003
 30
0.0
 11
1698.687274262495
 21
-167.4999999994003
 31
0.0
  0
ARC
  5
6A6
  8
1
  6
CONTINUOUS
 62
     7
 10
1707.590176802096
 20
-231.5000000001001
 30
0.0
 40
1.500000000000057
 50
90.0
 51
170.0
  0
ARC
  5
6A7
  8
1
  6
CONTINUOUS
 62
     7
 10
1541.995525737597
 20
-169.4999999993001
 30
0.0
 40
2.000000000002444
 50
10.00000000000483
 51
90.0
  0
LINE
  5
6A8
  8
1
  6
CONTINUOUS
 62
     7
 10
1808.780915172597
 20
-231.2395277336003
 30
0.0
 11
1807.968441243597
 21
-235.8472963561002
 31
0.0
  0
LINE
  5
6A9
  8
1
  6
CONTINUOUS
 62
     7
 10
1706.112965172597
 20
-173.7604722664001
 30
0.0
 11
1705.300491243597
 21
-169.1527036440003
 31
0.0
  0
ARC
  5
6AA
  8
1
  6
CONTINUOUS
 62
     7
 10
1728.020974262499
 20
-235.5000000006003
 30
0.0
 40
1.999999999995339
 50
190.0
 51
270.0
  0
LINE
  5
6AB
  8
1
  6
CONTINUOUS
 62
     7
 10
1852.030075000101
 20
-206.5000000000003
 30
0.0
 11
1852.030075000101
 21
-198.5000000000003
 31
0.0
  0
LINE
  5
6AC
  8
1
  6
CONTINUOUS
 62
     7
 10
1843.325075000098
 20
-206.5000000000003
 30
0.0
 11
1843.325075000098
 21
-198.5000000000003
 31
0.0
  0
LINE
  5
6AD
  8
1
  6
CONTINUOUS
 62
     7
 10
1662.330437355301
 20
-230.6840333524001
 30
0.0
 11
1662.330437355301
 21
-174.3159666476002
 31
0.0
  0
ARC
  5
6AE
  8
1
  6
CONTINUOUS
 62
     7
 10
1600.662925737598
 20
-169.4999999993001
 30
0.0
 40
1.999999999998892
 50
10.00000000000483
 51
90.0
  0
ARC
  5
6AF
  8
1
  6
CONTINUOUS
 62
     7
 10
1650.427423197999
 20
-173.4999999999001
 30
0.0
 40
1.499999999996504
 50
270.0
 51
349.999999999999
  0
ARC
  5
6B0
  8
1
  6
CONTINUOUS
 62
     7
 10
1707.590176802096
 20
-173.4999999999001
 30
0.0
 40
1.500000000000057
 50
190.0
 51
270.0
  0
ARC
  5
6B1
  8
1
  6
CONTINUOUS
 62
     7
 10
1692.923326802095
 20
-173.4999999999001
 30
0.0
 40
1.500000000000057
 50
190.0
 51
270.0
  0
LINE
  5
6B2
  8
1
  6
CONTINUOUS
 62
     7
 10
1852.030075000101
 20
-206.5000000000003
 30
0.0
 11
1843.3250750001
 21
-206.5000000000003
 31
0.0
  0
LINE
  5
6B3
  8
1
  6
CONTINUOUS
 62
     7
 10
1858.344425000098
 20
-206.5000000000003
 30
0.0
 11
1858.344425000098
 21
-236.5879555307002
 31
0.0
  0
LINE
  5
6B4
  8
1
  6
CONTINUOUS
 62
     7
 10
1720.779815172598
 20
-231.2395277336003
 30
0.0
 11
1719.967341243597
 21
-235.8472963561002
 31
0.0
  0
ARC
  5
6B5
  8
1
  6
CONTINUOUS
 62
     7
 10
1577.093173197997
 20
-173.4999999999001
 30
0.0
 40
1.499999999996504
 50
270.0
 51
349.999999999999
  0
LINE
  5
6B6
  8
1
  6
CONTINUOUS
 62
     7
 10
1691.446115172595
 20
-173.7604722664001
 30
0.0
 11
1690.633641243594
 21
-169.1527036440003
 31
0.0
  0
ARC
  5
6B7
  8
1
  6
CONTINUOUS
 62
     7
 10
1619.5890768021
 20
-231.5000000001001
 30
0.0
 40
1.499999999996504
 50
90.0
 51
169.999999999999
  0
ARC
  5
6B8
  8
1
  6
CONTINUOUS
 62
     7
 10
1562.426323197996
 20
-231.5000000001001
 30
0.0
 40
1.500000000000057
 50
9.999999999992678
 51
90.0
  0
LINE
  5
6B9
  8
1
  6
CONTINUOUS
 62
     7
 10
1681.238334827494
 20
-173.7604722664001
 30
0.0
 11
1682.050808756496
 21
-169.1527036441002
 31
0.0
  0
LINE
  5
6BA
  8
1
  6
CONTINUOUS
 62
     7
 10
1843.677575000096
 20
-198.5000000000004
 30
0.0
 11
1843.677575000096
 21
-168.4120444693003
 31
0.0
  0
LINE
  5
6BB
  8
1
  6
CONTINUOUS
 62
     7
 10
1722.257026802097
 20
-230.0000000001002
 30
0.0
 11
1723.761673197997
 21
-230.0000000001002
 31
0.0
  0
ARC
  5
6BC
  8
1
  6
CONTINUOUS
 62
     7
 10
1751.590726802096
 20
-231.5000000001001
 30
0.0
 40
1.50000000000361
 50
90.0
 51
170.0
  0
ARC
  5
6BD
  8
1
  6
CONTINUOUS
 62
     7
 10
1575.5885268021
 20
-231.5000000001001
 30
0.0
 40
1.499999999992951
 50
90.0
 51
169.999999999999
  0
ARC
  5
6BE
  8
1
  6
CONTINUOUS
 62
     7
 10
1634.255926802097
 20
-231.5000000001001
 30
0.0
 40
1.50000000000361
 50
90.0
 51
169.999999999999
  0
ARC
  5
6BF
  8
1
  6
CONTINUOUS
 62
     7
 10
1606.426873198
 20
-173.4999999999001
 30
0.0
 40
1.500000000000057
 50
270.0
 51
349.999999999999
  0
ARC
  5
6C0
  8
1
  6
CONTINUOUS
 62
     7
 10
1575.5885268021
 20
-173.4999999999001
 30
0.0
 40
1.499999999992951
 50
190.0000000000011
 51
270.0
  0
LINE
  5
6C1
  8
1
  6
CONTINUOUS
 62
     7
 10
1690.694725000096
 20
-206.5000000000003
 30
0.0
 11
1690.694725000096
 21
-198.5000000000003
 31
0.0
  0
ARC
  5
6C2
  8
1
  6
CONTINUOUS
 62
     7
 10
1585.996075737597
 20
-235.5000000007002
 30
0.0
 40
2.000000000002444
 50
270.0
 51
349.9999999999952
  0
ARC
  5
6C3
  8
1
  6
CONTINUOUS
 62
     7
 10
1722.257026802097
 20
-231.5000000001001
 30
0.0
 40
1.500000000000057
 50
90.0
 51
170.0
  0
ARC
  5
6C4
  8
1
  6
CONTINUOUS
 62
     7
 10
1698.687274262496
 20
-235.5000000006003
 30
0.0
 40
1.999999999998892
 50
190.0
 51
270.0
  0
LINE
  5
6C5
  8
1
  6
CONTINUOUS
 62
     7
 10
1720.779815172598
 20
-173.7604722664001
 30
0.0
 11
1719.967341243597
 21
-169.1527036440003
 31
0.0
  0
ARC
  5
6C6
  8
1
  6
CONTINUOUS
 62
     7
 10
1629.996625737597
 20
-235.5000000007002
 30
0.0
 40
2.000000000002444
 50
270.0
 51
349.9999999999996
  0
ARC
  5
6C7
  8
1
  6
CONTINUOUS
 62
     7
 10
1546.254826802098
 20
-173.4999999999001
 30
0.0
 40
1.500000000000057
 50
190.0000000000011
 51
270.0
  0
LINE
  5
6C8
  8
1
  6
CONTINUOUS
 62
     7
 10
1854.258676802096
 20
-174.9999999999002
 30
0.0
 11
1855.763323197996
 21
-174.9999999999002
 31
0.0
  0
LINE
  5
6C9
  8
1
  6
CONTINUOUS
 62
     7
 10
1676.997107355298
 20
-230.6840333524001
 30
0.0
 11
1676.997107355298
 21
-174.3159666476002
 31
0.0
  0
LINE
  5
6CA
  8
1
  6
CONTINUOUS
 62
     7
 10
1690.342225000097
 20
-198.5000000000004
 30
0.0
 11
1690.342225000097
 21
-168.4120444692004
 31
0.0
  0
LINE
  5
6CB
  8
1
  6
CONTINUOUS
 62
     7
 10
1697.0090750001
 20
-206.5000000000003
 30
0.0
 11
1697.0090750001
 21
-236.5879555307002
 31
0.0
  0
ARC
  5
6CC
  8
1
  6
CONTINUOUS
 62
     7
 10
1560.921676802099
 20
-173.4999999999001
 30
0.0
 40
1.500000000000057
 50
190.0000000000011
 51
270.0
  0
ARC
  5
6CD
  8
1
  6
CONTINUOUS
 62
     7
 10
1684.020424262495
 20
-169.4999999994004
 30
0.0
 40
1.999999999998892
 50
90.0
 51
170.0
  0
LINE
  5
6CE
  8
1
  6
CONTINUOUS
 62
     7
 10
1720.028425000098
 20
-206.5000000000003
 30
0.0
 11
1720.028425000098
 21
-198.5000000000003
 31
0.0
  0
ARC
  5
6CF
  8
1
  6
CONTINUOUS
 62
     7
 10
1591.760023197998
 20
-173.4999999999001
 30
0.0
 40
1.499999999996504
 50
270.0
 51
349.999999999999
  0
LINE
  5
6D0
  8
1
  6
CONTINUOUS
 62
     7
 10
1682.342225000095
 20
-198.5000000000004
 30
0.0
 11
1682.342225000095
 21
-168.4120444693003
 31
0.0
  0
ARC
  5
6D1
  8
1
  6
CONTINUOUS
 62
     7
 10
1522.685074262497
 20
-235.5000000006003
 30
0.0
 40
1.999999999998892
 50
190.0000000000048
 51
270.0
  0
LINE
  5
6D2
  8
1
  6
CONTINUOUS
 62
     7
 10
1736.923876802094
 20
-230.0000000001002
 30
0.0
 11
1738.428523197994
 21
-230.0000000001002
 31
0.0
  0
ARC
  5
6D3
  8
1
  6
CONTINUOUS
 62
     7
 10
1698.687274262496
 20
-169.4999999994004
 30
0.0
 40
1.999999999998892
 50
90.0
 51
170.0
  0
ARC
  5
6D4
  8
1
  6
CONTINUOUS
 62
     7
 10
1860.022624262498
 20
-235.5000000006003
 30
0.0
 40
1.999999999998892
 50
190.0
 51
270.0
  0
ARC
  5
6D5
  8
1
  6
CONTINUOUS
 62
     7
 10
1552.018774262499
 20
-235.5000000006003
 30
0.0
 40
1.999999999998892
 50
190.0000000000048
 51
270.0
  0
ARC
  5
6D6
  8
1
  6
CONTINUOUS
 62
     7
 10
1845.355774262497
 20
-169.4999999994004
 30
0.0
 40
1.999999999998892
 50
90.0
 51
170.0
  0
LINE
  5
6D7
  8
1
  6
CONTINUOUS
 62
     7
 10
1681.989725000097
 20
-206.5000000000003
 30
0.0
 11
1681.989725000097
 21
-198.5000000000003
 31
0.0
  0
ARC
  5
6D8
  8
1
  6
CONTINUOUS
 62
     7
 10
1795.591276802195
 20
-231.5000000001001
 30
0.0
 40
1.500000000000057
 50
90.0
 51
170.0000000006588
  0
ARC
  5
6D9
  8
1
  6
CONTINUOUS
 62
     7
 10
1684.020424262495
 20
-235.5000000006003
 30
0.0
 40
1.999999999998892
 50
190.0
 51
270.0
  0
ARC
  5
6DA
  8
1
  6
CONTINUOUS
 62
     7
 10
1713.354124262494
 20
-235.5000000006003
 30
0.0
 40
2.000000000005997
 50
190.0
 51
270.0
  0
LINE
  5
6DB
  8
1
  6
CONTINUOUS
 62
     7
 10
1692.923326802095
 20
-174.9999999999002
 30
0.0
 11
1694.427973197996
 21
-174.9999999999002
 31
0.0
  0
LINE
  5
6DC
  8
1
  6
CONTINUOUS
 62
     7
 10
1766.257576802097
 20
-230.0000000001002
 30
0.0
 11
1767.762223197995
 21
-230.0000000001002
 31
0.0
  0
ARC
  5
6DD
  8
1
  6
CONTINUOUS
 62
     7
 10
1552.018774262499
 20
-169.4999999994004
 30
0.0
 40
1.999999999998892
 50
90.0
 51
169.9999999999952
  0
ARC
  5
6DE
  8
1
  6
CONTINUOUS
 62
     7
 10
1709.094823197997
 20
-173.4999999999001
 30
0.0
 40
1.500000000000057
 50
270.0
 51
349.999999999996
  0
ARC
  5
6DF
  8
1
  6
CONTINUOUS
 62
     7
 10
1533.092623197997
 20
-231.5000000001001
 30
0.0
 40
1.500000000000057
 50
10.00000000000103
 51
90.0
  0
LINE
  5
6E0
  8
1
  6
CONTINUOUS
 62
     7
 10
1734.342775000101
 20
-206.5000000000003
 30
0.0
 11
1734.342775000101
 21
-236.5879555308003
 31
0.0
  0
ARC
  5
6E1
  8
1
  6
CONTINUOUS
 62
     7
 10
1537.351924262498
 20
-235.5000000006003
 30
0.0
 40
1.999999999998892
 50
190.0000000000048
 51
270.0
  0
LINE
  5
6E2
  8
1
  6
CONTINUOUS
 62
     7
 10
1735.446665172595
 20
-231.2395277336003
 30
0.0
 11
1734.634191243595
 21
-235.8472963561002
 31
0.0
  0
LINE
  5
6E3
  8
1
  6
CONTINUOUS
 62
     7
 10
1805.998825737596
 20
-167.4999999994003
 30
0.0
 11
1801.355224262496
 21
-167.4999999994003
 31
0.0
  0
ARC
  5
6E4
  8
1
  6
CONTINUOUS
 62
     7
 10
1732.664575737597
 20
-235.5000000007002
 30
0.0
 40
1.999999999998892
 50
270.0
 51
349.9999999999999
  0
LINE
  5
6E5
  8
1
  6
CONTINUOUS
 62
     7
 10
1739.905734827502
 20
-231.2395277336003
 30
0.0
 11
1740.718208756502
 21
-235.8472963559003
 31
0.0
  0
ARC
  5
6E6
  8
1
  6
CONTINUOUS
 62
     7
 10
1659.330325737595
 20
-235.5000000007002
 30
0.0
 40
1.999999999998892
 50
270.0
 51
349.9999999999952
  0
ARC
  5
6E7
  8
1
  6
CONTINUOUS
 62
     7
 10
1648.922776802095
 20
-231.5000000001001
 30
0.0
 40
1.500000000000057
 50
90.0
 51
169.999999999999
  0
LINE
  5
6E8
  8
1
  6
CONTINUOUS
 62
     7
 10
1750.113515172596
 20
-173.7604722664001
 30
0.0
 11
1749.301041243597
 21
-169.1527036440003
 31
0.0
  0
ARC
  5
6E9
  8
1
  6
CONTINUOUS
 62
     7
 10
1709.094823197997
 20
-231.5000000001001
 30
0.0
 40
1.500000000000057
 50
10.00000000000102
 51
90.0
  0
ARC
  5
6EA
  8
1
  6
CONTINUOUS
 62
     7
 10
1590.255376802098
 20
-173.4999999999001
 30
0.0
 40
1.500000000000057
 50
190.0000000000011
 51
270.0
  0
ARC
  5
6EB
  8
1
  6
CONTINUOUS
 62
     7
 10
1713.354124262494
 20
-169.4999999994004
 30
0.0
 40
2.000000000005997
 50
90.0
 51
170.0
  0
ARC
  5
6EC
  8
1
  6
CONTINUOUS
 62
     7
 10
1527.328675737599
 20
-235.5000000007002
 30
0.0
 40
1.999999999998892
 50
270.0
 51
349.9999999999952
  0
ARC
  5
6ED
  8
1
  6
CONTINUOUS
 62
     7
 10
1736.923876802094
 20
-231.5000000001001
 30
0.0
 40
1.50000000000361
 50
90.0
 51
170.0
  0
ARC
  5
6EE
  8
1
  6
CONTINUOUS
 62
     7
 10
1635.760573197995
 20
-231.5000000001001
 30
0.0
 40
1.500000000000057
 50
9.999999999992678
 51
90.0
  0
ARC
  5
6EF
  8
1
  6
CONTINUOUS
 62
     7
 10
1795.591276802195
 20
-173.4999999999001
 30
0.0
 40
1.500000000000057
 50
189.9999999993412
 51
270.0
  0
ARC
  5
6F0
  8
1
  6
CONTINUOUS
 62
     7
 10
1596.019324262499
 20
-169.4999999994004
 30
0.0
 40
1.999999999998892
 50
90.0
 51
169.9999999999952
  0
ARC
  5
6F1
  8
1
  6
CONTINUOUS
 62
     7
 10
1644.663475737601
 20
-235.5000000007002
 30
0.0
 40
1.999999999995339
 50
270.0
 51
349.999999999997
  0
ARC
  5
6F2
  8
1
  6
CONTINUOUS
 62
     7
 10
1625.353024262498
 20
-169.4999999994004
 30
0.0
 40
1.999999999998892
 50
90.0
 51
169.9999999999952
  0
LINE
  5
6F3
  8
1
  6
CONTINUOUS
 62
     7
 10
1732.664575737597
 20
-237.5000000006002
 30
0.0
 11
1728.020974262498
 21
-237.5000000006002
 31
0.0
  0
ARC
  5
6F4
  8
1
  6
CONTINUOUS
 62
     7
 10
1566.685624262497
 20
-169.4999999994004
 30
0.0
 40
2.000000000002444
 50
90.0
 51
169.9999999999952
  0
ARC
  5
6F5
  8
1
  6
CONTINUOUS
 62
     7
 10
1782.429073197995
 20
-231.5000000001001
 30
0.0
 40
1.50000000000361
 50
10.00000000000102
 51
90.0
  0
ARC
  5
6F6
  8
1
  6
CONTINUOUS
 62
     7
 10
1615.329775737599
 20
-169.4999999993001
 30
0.0
 40
1.999999999998892
 50
10.00000000000483
 51
90.0
  0
LINE
  5
6F7
  8
1
  6
CONTINUOUS
 62
     7
 10
1725.238884827501
 20
-231.2395277336003
 30
0.0
 11
1726.051358756501
 21
-235.8472963559003
 31
0.0
  0
LINE
  5
6F8
  8
1
  6
CONTINUOUS
 62
     7
 10
1829.010725000095
 20
-198.5000000000004
 30
0.0
 11
1829.010725000095
 21
-168.4120444693003
 31
0.0
  0
ARC
  5
6F9
  8
1
  6
CONTINUOUS
 62
     7
 10
1797.095923197996
 20
-231.5000000001001
 30
0.0
 40
1.50000000000361
 50
10.00000000000398
 51
90.0
  0
ARC
  5
6FA
  8
1
  6
CONTINUOUS
 62
     7
 10
1845.355774262497
 20
-235.5000000006003
 30
0.0
 40
1.999999999998892
 50
190.0
 51
270.0
  0
LINE
  5
6FB
  8
1
  6
CONTINUOUS
 62
     7
 10
1799.677025000097
 20
-198.5000000000004
 30
0.0
 11
1799.677025000097
 21
-168.4120444693003
 31
0.0
  0
ARC
  5
6FC
  8
1
  6
CONTINUOUS
 62
     7
 10
1747.331425737598
 20
-235.5000000007002
 30
0.0
 40
1.999999999998892
 50
270.0
 51
349.9999999999999
  0
LINE
  5
6FD
  8
1
  6
CONTINUOUS
 62
     7
 10
1734.695275000099
 20
-198.5000000000004
 30
0.0
 11
1725.990275000099
 21
-198.5000000000004
 31
0.0
  0
ARC
  5
6FE
  8
1
  6
CONTINUOUS
 62
     7
 10
1654.686724262496
 20
-235.5000000006003
 30
0.0
 40
1.999999999998892
 50
190.0000000000048
 51
270.0
  0
ARC
  5
6FF
  8
1
  6
CONTINUOUS
 62
     7
 10
1786.688374262496
 20
-169.4999999994004
 30
0.0
 40
2.000000000002444
 50
90.0
 51
169.9999999999974
  0
LINE
  5
700
  8
1
  6
CONTINUOUS
 62
     7
 10
1839.591826802099
 20
-174.9999999999002
 30
0.0
 11
1841.096473197998
 21
-174.9999999999002
 31
0.0
  0
ARC
  5
701
  8
1
  6
CONTINUOUS
 62
     7
 10
1634.255926802097
 20
-173.4999999999001
 30
0.0
 40
1.50000000000361
 50
190.0000000000011
 51
270.0
  0
ARC
  5
702
  8
1
  6
CONTINUOUS
 62
     7
 10
1571.329225737599
 20
-235.5000000007002
 30
0.0
 40
1.999999999998892
 50
270.0
 51
349.999999999997
  0
ARC
  5
703
  8
1
  6
CONTINUOUS
 62
     7
 10
1527.328675737599
 20
-169.4999999993001
 30
0.0
 40
1.999999999998892
 50
10.00000000000483
 51
90.0
  0
ARC
  5
704
  8
1
  6
CONTINUOUS
 62
     7
 10
1629.996625737597
 20
-169.4999999993001
 30
0.0
 40
2.000000000002444
 50
10.00000000000042
 51
90.0
  0
ARC
  5
705
  8
1
  6
CONTINUOUS
 62
     7
 10
1547.759473197999
 20
-231.5000000001001
 30
0.0
 40
1.500000000000057
 50
10.00000000000103
 51
90.0
  0
ARC
  5
706
  8
1
  6
CONTINUOUS
 62
     7
 10
1659.330325737595
 20
-169.4999999993001
 30
0.0
 40
1.999999999998892
 50
10.00000000000483
 51
90.0
  0
ARC
  5
707
  8
1
  6
CONTINUOUS
 62
     7
 10
1791.331975737598
 20
-169.4999999993001
 30
0.0
 40
1.999999999998892
 50
10.00000000000263
 51
90.0
  0
LINE
  5
708
  8
1
  6
CONTINUOUS
 62
     7
 10
1736.923876802094
 20
-174.9999999999002
 30
0.0
 11
1738.428523197994
 21
-174.9999999999002
 31
0.0
  0
ARC
  5
709
  8
1
  6
CONTINUOUS
 62
     7
 10
1615.329775737599
 20
-235.5000000007002
 30
0.0
 40
1.999999999998892
 50
270.0
 51
349.9999999999952
  0
ARC
  5
70A
  8
1
  6
CONTINUOUS
 62
     7
 10
1566.685624262497
 20
-235.5000000006003
 30
0.0
 40
2.000000000002444
 50
190.0000000000048
 51
270.0
  0
ARC
  5
70B
  8
1
  6
CONTINUOUS
 62
     7
 10
1621.093723197994
 20
-231.5000000001001
 30
0.0
 40
1.500000000000057
 50
10.00000000000103
 51
90.0
  0
ARC
  5
70C
  8
1
  6
CONTINUOUS
 62
     7
 10
1717.997725737596
 20
-235.5000000007002
 30
0.0
 40
1.999999999998892
 50
270.0
 51
349.9999999999999
  0
LINE
  5
70D
  8
1
  6
CONTINUOUS
 62
     7
 10
1720.028425000098
 20
-198.5000000000004
 30
0.0
 11
1711.323425000098
 21
-198.5000000000004
 31
0.0
  0
ARC
  5
70E
  8
1
  6
CONTINUOUS
 62
     7
 10
1654.686724262496
 20
-169.4999999994004
 30
0.0
 40
1.999999999998892
 50
90.0
 51
169.9999999999952
  0
ARC
  5
70F
  8
1
  6
CONTINUOUS
 62
     7
 10
1571.329225737599
 20
-169.4999999993001
 30
0.0
 40
1.999999999998892
 50
10.00000000000299
 51
90.0
  0
LINE
  5
710
  8
1
  6
CONTINUOUS
 62
     7
 10
1749.009625000098
 20
-198.5000000000004
 30
0.0
 11
1749.009625000098
 21
-168.4120444692004
 31
0.0
  0
LINE
  5
711
  8
1
  6
CONTINUOUS
 62
     7
 10
1719.6759250001
 20
-206.5000000000003
 30
0.0
 11
1719.6759250001
 21
-236.5879555308003
 31
0.0
  0
ARC
  5
712
  8
1
  6
CONTINUOUS
 62
     7
 10
1600.662925737598
 20
-235.5000000007002
 30
0.0
 40
1.999999999998892
 50
270.0
 51
349.9999999999952
  0
ARC
  5
713
  8
1
  6
CONTINUOUS
 62
     7
 10
1780.924426802098
 20
-231.5000000001001
 30
0.0
 40
1.500000000000057
 50
90.0
 51
170.0
  0
ARC
  5
714
  8
1
  6
CONTINUOUS
 62
     7
 10
1619.5890768021
 20
-173.4999999999001
 30
0.0
 40
1.499999999996504
 50
190.0000000000011
 51
270.0
  0
ARC
  5
715
  8
1
  6
CONTINUOUS
 62
     7
 10
1738.428523197995
 20
-231.5000000001001
 30
0.0
 40
1.500000000000057
 50
10.0
 51
90.0
  0
LINE
  5
716
  8
1
  6
CONTINUOUS
 62
     7
 10
1725.990275000096
 20
-206.5000000000003
 30
0.0
 11
1725.990275000096
 21
-198.5000000000003
 31
0.0
  0
ARC
  5
717
  8
1
  6
CONTINUOUS
 62
     7
 10
1604.922226802099
 20
-173.4999999999001
 30
0.0
 40
1.499999999996504
 50
190.0000000000011
 51
270.0
  0
LINE
  5
718
  8
1
  6
CONTINUOUS
 62
     7
 10
1717.997725737596
 20
-237.5000000006002
 30
0.0
 11
1713.354124262497
 21
-237.5000000006002
 31
0.0
  0
LINE
  5
719
  8
1
  6
CONTINUOUS
 62
     7
 10
1734.342775000101
 20
-198.5000000000004
 30
0.0
 11
1734.342775000101
 21
-168.4120444692004
 31
0.0
  0
ARC
  5
71A
  8
1
  6
CONTINUOUS
 62
     7
 10
1644.663475737601
 20
-169.4999999993001
 30
0.0
 40
1.999999999995339
 50
10.00000000000299
 51
90.0
  0
ARC
  5
71B
  8
1
  6
CONTINUOUS
 62
     7
 10
1717.997725737596
 20
-169.4999999993001
 30
0.0
 40
1.999999999998892
 50
10.0
 51
90.0
  0
ARC
  5
71C
  8
1
  6
CONTINUOUS
 62
     7
 10
1786.688374262496
 20
-235.5000000006003
 30
0.0
 40
2.000000000002444
 50
190.0000000000026
 51
270.0
  0
LINE
  5
71D
  8
1
  6
CONTINUOUS
 62
     7
 10
1807.677025000096
 20
-198.5000000000004
 30
0.0
 11
1807.677025000096
 21
-168.4120444692004
 31
0.0
  0
ARC
  5
71E
  8
1
  6
CONTINUOUS
 62
     7
 10
1839.591826802099
 20
-231.5000000001001
 30
0.0
 40
1.500000000000057
 50
90.0
 51
170.0
  0
LINE
  5
71F
  8
1
  6
CONTINUOUS
 62
     7
 10
1810.258126802097
 20
-230.0000000001002
 30
0.0
 11
1811.762773197996
 21
-230.0000000001002
 31
0.0
  0
LINE
  5
720
  8
1
  6
CONTINUOUS
 62
     7
 10
1810.258126802097
 20
-174.9999999999002
 30
0.0
 11
1811.762773197996
 21
-174.9999999999002
 31
0.0
  0
LINE
  5
721
  8
1
  6
CONTINUOUS
 62
     7
 10
1827.906834827498
 20
-173.7604722664001
 30
0.0
 11
1828.719308756498
 21
-169.1527036441002
 31
0.0
  0
LINE
  5
722
  8
1
  6
CONTINUOUS
 62
     7
 10
1837.010725000098
 20
-198.5000000000004
 30
0.0
 11
1837.010725000098
 21
-168.4120444692004
 31
0.0
  0
ARC
  5
723
  8
1
  6
CONTINUOUS
 62
     7
 10
1810.258126802097
 20
-231.5000000001001
 30
0.0
 40
1.500000000000057
 50
90.0
 51
170.0
  0
ARC
  5
724
  8
1
  6
CONTINUOUS
 62
     7
 10
1835.332525737598
 20
-235.5000000007002
 30
0.0
 40
1.999999999998892
 50
270.0
 51
349.9999999999999
  0
ARC
  5
725
  8
1
  6
CONTINUOUS
 62
     7
 10
1728.020974262499
 20
-169.4999999994004
 30
0.0
 40
1.999999999995339
 50
90.0
 51
170.0
  0
LINE
  5
726
  8
1
  6
CONTINUOUS
 62
     7
 10
1828.658225000097
 20
-206.5000000000003
 30
0.0
 11
1828.658225000097
 21
-198.5000000000003
 31
0.0
  0
LINE
  5
727
  8
1
  6
CONTINUOUS
 62
     7
 10
1842.573684827499
 20
-231.2395277336003
 30
0.0
 11
1843.386158756498
 21
-235.8472963559003
 31
0.0
  0
LINE
  5
728
  8
1
  6
CONTINUOUS
 62
     7
 10
1798.573134827496
 20
-231.2395277336003
 30
0.0
 11
1799.385608756495
 21
-235.8472963559003
 31
0.0
  0
LINE
  5
729
  8
1
  6
CONTINUOUS
 62
     7
 10
1747.331425737598
 20
-237.5000000006002
 30
0.0
 11
1742.687824262498
 21
-237.5000000006002
 31
0.0
  0
ARC
  5
72A
  8
1
  6
CONTINUOUS
 62
     7
 10
1830.688924262496
 20
-169.4999999994004
 30
0.0
 40
2.000000000002444
 50
90.0
 51
170.0
  0
LINE
  5
72B
  8
1
  6
CONTINUOUS
 62
     7
 10
1827.906834827498
 20
-231.2395277336003
 30
0.0
 11
1828.719308756498
 21
-235.8472963559003
 31
0.0
  0
LINE
  5
72C
  8
1
  6
CONTINUOUS
 62
     7
 10
1755.323975000099
 20
-206.5000000000003
 30
0.0
 11
1755.323975000099
 21
-198.5000000000003
 31
0.0
  0
LINE
  5
72D
  8
1
  6
CONTINUOUS
 62
     7
 10
1751.590726802096
 20
-174.9999999999002
 30
0.0
 11
1753.095373197996
 21
-174.9999999999002
 31
0.0
  0
ARC
  5
72E
  8
1
  6
CONTINUOUS
 62
     7
 10
1640.019874262499
 20
-235.5000000006003
 30
0.0
 40
1.999999999998892
 50
190.0000000000048
 51
270.0
  0
LINE
  5
72F
  8
1
  6
CONTINUOUS
 62
     7
 10
1720.028425000098
 20
-206.5000000000003
 30
0.0
 11
1711.323425000098
 21
-206.5000000000003
 31
0.0
  0
LINE
  5
730
  8
1
  6
CONTINUOUS
 62
     7
 10
1837.3632250001
 20
-206.5000000000003
 30
0.0
 11
1837.3632250001
 21
-198.5000000000003
 31
0.0
  0
LINE
  5
731
  8
1
  6
CONTINUOUS
 62
     7
 10
1843.677575000096
 20
-206.5000000000003
 30
0.0
 11
1843.677575000096
 21
-236.5879555307002
 31
0.0
  0
LINE
  5
732
  8
1
  6
CONTINUOUS
 62
     7
 10
1849.999375737599
 20
-237.5000000006002
 30
0.0
 11
1845.355774262499
 21
-237.5000000006002
 31
0.0
  0
LINE
  5
733
  8
1
  6
CONTINUOUS
 62
     7
 10
1851.677575000095
 20
-206.5000000000003
 30
0.0
 11
1851.677575000095
 21
-236.5879555308003
 31
0.0
  0
ARC
  5
734
  8
1
  6
CONTINUOUS
 62
     7
 10
1640.019874262499
 20
-169.4999999994004
 30
0.0
 40
1.999999999998892
 50
90.0
 51
169.9999999999952
  0
LINE
  5
735
  8
1
  6
CONTINUOUS
 62
     7
 10
1808.780915172597
 20
-173.7604722664001
 30
0.0
 11
1807.968441243597
 21
-169.1527036440003
 31
0.0
  0
LINE
  5
736
  8
1
  6
CONTINUOUS
 62
     7
 10
1732.664575737597
 20
-167.4999999994003
 30
0.0
 11
1728.020974262498
 21
-167.4999999994003
 31
0.0
  0
ARC
  5
737
  8
1
  6
CONTINUOUS
 62
     7
 10
1648.922776802095
 20
-173.4999999999001
 30
0.0
 40
1.500000000000057
 50
190.0000000000011
 51
270.0
  0
LINE
  5
738
  8
1
  6
CONTINUOUS
 62
     7
 10
1751.590726802096
 20
-230.0000000001002
 30
0.0
 11
1753.095373197996
 21
-230.0000000001002
 31
0.0
  0
LINE
  5
739
  8
1
  6
CONTINUOUS
 62
     7
 10
1807.677025000096
 20
-206.5000000000003
 30
0.0
 11
1807.677025000096
 21
-236.5879555308003
 31
0.0
  0
ARC
  5
73A
  8
1
  6
CONTINUOUS
 62
     7
 10
1723.761673197998
 20
-231.5000000001001
 30
0.0
 40
1.500000000000057
 50
10.0
 51
90.0
  0
LINE
  5
73B
  8
1
  6
CONTINUOUS
 62
     7
 10
1854.258676802096
 20
-230.0000000001002
 30
0.0
 11
1855.763323197996
 21
-230.0000000001002
 31
0.0
  0
LINE
  5
73C
  8
1
  6
CONTINUOUS
 62
     7
 10
1837.3632250001
 20
-198.5000000000004
 30
0.0
 11
1828.6582250001
 21
-198.5000000000004
 31
0.0
  0
LINE
  5
73D
  8
1
  6
CONTINUOUS
 62
     7
 10
1852.781465172597
 20
-231.2395277336003
 30
0.0
 11
1851.968991243598
 21
-235.8472963561002
 31
0.0
  0
LINE
  5
73E
  8
1
  6
CONTINUOUS
 62
     7
 10
1563.903534827495
 20
-231.2395277336003
 30
0.0
 11
1564.716008756495
 21
-235.8472963559003
 31
0.0
  0
LINE
  5
73F
  8
1
  6
CONTINUOUS
 62
     7
 10
1805.998825737596
 20
-237.5000000006002
 30
0.0
 11
1801.355224262496
 21
-237.5000000006002
 31
0.0
  0
ARC
  5
740
  8
1
  6
CONTINUOUS
 62
     7
 10
1753.095373197997
 20
-231.5000000001001
 30
0.0
 40
1.500000000000057
 50
10.0
 51
90.0
  0
LINE
  5
741
  8
1
  6
CONTINUOUS
 62
     7
 10
1835.332525737598
 20
-237.5000000006002
 30
0.0
 11
1830.688924262497
 21
-237.5000000006002
 31
0.0
  0
ARC
  5
742
  8
1
  6
CONTINUOUS
 62
     7
 10
1841.096473198
 20
-231.5000000001001
 30
0.0
 40
1.500000000000057
 50
10.0
 51
90.0
  0
ARC
  5
743
  8
1
  6
CONTINUOUS
 62
     7
 10
1797.095923197996
 20
-173.4999999999001
 30
0.0
 40
1.50000000000361
 50
270.0
 51
349.999999999996
  0
ARC
  5
744
  8
1
  6
CONTINUOUS
 62
     7
 10
1835.332525737598
 20
-169.4999999993001
 30
0.0
 40
1.999999999998892
 50
10.0
 51
90.0
  0
ARC
  5
745
  8
1
  6
CONTINUOUS
 62
     7
 10
1826.429623197999
 20
-231.5000000001001
 30
0.0
 40
1.500000000000057
 50
10.0
 51
90.0
  0
ARC
  5
746
  8
1
  6
CONTINUOUS
 62
     7
 10
1772.021524262498
 20
-235.5000000006003
 30
0.0
 40
1.999999999998892
 50
190.0
 51
270.0
  0
ARC
  5
747
  8
1
  6
CONTINUOUS
 62
     7
 10
1742.687824262496
 20
-235.5000000006003
 30
0.0
 40
1.999999999998892
 50
190.0
 51
270.0
  0
LINE
  5
748
  8
1
  6
CONTINUOUS
 62
     7
 10
1798.573134827496
 20
-173.7604722664001
 30
0.0
 11
1799.385608756495
 21
-169.1527036441002
 31
0.0
  0
LINE
  5
749
  8
1
  6
CONTINUOUS
 62
     7
 10
1835.332525737598
 20
-167.4999999994003
 30
0.0
 11
1830.688924262497
 21
-167.4999999994003
 31
0.0
  0
ARC
  5
74A
  8
1
  6
CONTINUOUS
 62
     7
 10
1801.355224262497
 20
-235.5000000006003
 30
0.0
 40
1.999999999998892
 50
190.0
 51
270.0
  0
LINE
  5
74B
  8
1
  6
CONTINUOUS
 62
     7
 10
1770.343325000098
 20
-206.5000000000003
 30
0.0
 11
1770.343325000098
 21
-236.5879555307002
 31
0.0
  0
ARC
  5
74C
  8
1
  6
CONTINUOUS
 62
     7
 10
1665.094273197993
 20
-231.5000000001001
 30
0.0
 40
1.50000000000361
 50
10.0
 51
90.0
  0
LINE
  5
74D
  8
1
  6
CONTINUOUS
 62
     7
 10
1761.998275737596
 20
-237.5000000006002
 30
0.0
 11
1757.354674262495
 21
-237.5000000006002
 31
0.0
  0
LINE
  5
74E
  8
1
  6
CONTINUOUS
 62
     7
 10
1726.342775000098
 20
-206.5000000000003
 30
0.0
 11
1726.342775000098
 21
-236.5879555307002
 31
0.0
  0
ARC
  5
74F
  8
1
  6
CONTINUOUS
 62
     7
 10
1849.999375737599
 20
-235.5000000007002
 30
0.0
 40
1.999999999998892
 50
270.0
 51
349.9999999999999
  0
LINE
  5
750
  8
1
  6
CONTINUOUS
 62
     7
 10
1799.677025000097
 20
-206.5000000000003
 30
0.0
 11
1799.677025000097
 21
-236.5879555307002
 31
0.0
  0
LINE
  5
751
  8
1
  6
CONTINUOUS
 62
     7
 10
1750.113515172596
 20
-231.2395277336003
 30
0.0
 11
1749.301041243597
 21
-235.8472963561002
 31
0.0
  0
LINE
  5
752
  8
1
  6
CONTINUOUS
 62
     7
 10
1838.1146151726
 20
-173.7604722664001
 30
0.0
 11
1837.3021412436
 21
-169.1527036440003
 31
0.0
  0
ARC
  5
753
  8
1
  6
CONTINUOUS
 62
     7
 10
1855.763323197997
 20
-231.5000000001001
 30
0.0
 40
1.500000000000057
 50
10.0
 51
90.0
  0
LINE
  5
754
  8
1
  6
CONTINUOUS
 62
     7
 10
1769.2394348275
 20
-173.7604722664001
 30
0.0
 11
1770.051908756499
 21
-169.1527036441002
 31
0.0
  0
ARC
  5
755
  8
1
  6
CONTINUOUS
 62
     7
 10
1805.998825737596
 20
-235.5000000007002
 30
0.0
 40
2.000000000002444
 50
270.0
 51
349.9999999999999
  0
ARC
  5
756
  8
1
  6
CONTINUOUS
 62
     7
 10
1805.998825737596
 20
-169.4999999993001
 30
0.0
 40
2.000000000002444
 50
10.0
 51
90.0
  0
LINE
  5
757
  8
1
  6
CONTINUOUS
 62
     7
 10
1717.997725737596
 20
-167.4999999994003
 30
0.0
 11
1713.354124262497
 21
-167.4999999994003
 31
0.0
  0
ARC
  5
758
  8
1
  6
CONTINUOUS
 62
     7
 10
1753.095373197997
 20
-173.4999999999001
 30
0.0
 40
1.500000000000057
 50
270.0
 51
349.9999999999999
  0
ARC
  5
759
  8
1
  6
CONTINUOUS
 62
     7
 10
1826.429623197999
 20
-173.4999999999001
 30
0.0
 40
1.500000000000057
 50
270.0
 51
349.9999999999999
  0
LINE
  5
75A
  8
1
  6
CONTINUOUS
 62
     7
 10
1741.009625000096
 20
-206.5000000000003
 30
0.0
 11
1741.009625000096
 21
-236.5879555307002
 31
0.0
  0
LINE
  5
75B
  8
1
  6
CONTINUOUS
 62
     7
 10
1857.240534827497
 20
-231.2395277336003
 30
0.0
 11
1858.053008756496
 21
-235.8472963559003
 31
0.0
  0
LINE
  5
75C
  8
1
  6
CONTINUOUS
 62
     7
 10
1749.009625000098
 20
-206.5000000000003
 30
0.0
 11
1749.009625000098
 21
-236.5879555308003
 31
0.0
  0
LINE
  5
75D
  8
1
  6
CONTINUOUS
 62
     7
 10
1778.695825000099
 20
-198.5000000000004
 30
0.0
 11
1769.990825000098
 21
-198.5000000000004
 31
0.0
  0
ARC
  5
75E
  8
1
  6
CONTINUOUS
 62
     7
 10
1679.761123197998
 20
-173.4999999999001
 30
0.0
 40
1.500000000000057
 50
270.0
 51
349.9999999999999
  0
LINE
  5
75F
  8
1
  6
CONTINUOUS
 62
     7
 10
1763.6764750001
 20
-198.5000000000004
 30
0.0
 11
1763.6764750001
 21
-168.4120444692004
 31
0.0
  0
LINE
  5
760
  8
1
  6
CONTINUOUS
 62
     7
 10
1769.9908250001
 20
-206.5000000000003
 30
0.0
 11
1769.9908250001
 21
-198.5000000000003
 31
0.0
  0
LINE
  5
761
  8
1
  6
CONTINUOUS
 62
     7
 10
1676.027875000095
 20
-206.5000000000003
 30
0.0
 11
1676.027875000095
 21
-198.5000000000003
 31
0.0
  0
LINE
  5
762
  8
1
  6
CONTINUOUS
 62
     7
 10
1741.009625000096
 20
-198.5000000000004
 30
0.0
 11
1741.009625000096
 21
-168.4120444693003
 31
0.0
  0
LINE
  5
763
  8
1
  6
CONTINUOUS
 62
     7
 10
1778.695825000099
 20
-206.5000000000003
 30
0.0
 11
1769.990825000098
 21
-206.5000000000003
 31
0.0
  0
LINE
  5
764
  8
1
  6
CONTINUOUS
 62
     7
 10
1663.589626802099
 20
-230.0000000001002
 30
0.0
 11
1665.094273198
 21
-230.0000000001002
 31
0.0
  0
ARC
  5
765
  8
1
  6
CONTINUOUS
 62
     7
 10
1736.923876802094
 20
-173.4999999999001
 30
0.0
 40
1.50000000000361
 50
190.0
 51
270.0
  0
ARC
  5
766
  8
1
  6
CONTINUOUS
 62
     7
 10
1747.331425737598
 20
-169.4999999993001
 30
0.0
 40
1.999999999998892
 50
10.0
 51
90.0
  0
LINE
  5
767
  8
1
  6
CONTINUOUS
 62
     7
 10
1740.657125000097
 20
-206.5000000000003
 30
0.0
 11
1740.657125000097
 21
-198.5000000000003
 31
0.0
  0
LINE
  5
768
  8
1
  6
CONTINUOUS
 62
     7
 10
1764.028975000098
 20
-198.5000000000004
 30
0.0
 11
1755.323975000098
 21
-198.5000000000004
 31
0.0
  0
LINE
  5
769
  8
1
  6
CONTINUOUS
 62
     7
 10
1734.695275000099
 20
-206.5000000000003
 30
0.0
 11
1734.695275000099
 21
-198.5000000000003
 31
0.0
  0
LINE
  5
76A
  8
1
  6
CONTINUOUS
 62
     7
 10
1778.695825000099
 20
-206.5000000000003
 30
0.0
 11
1778.695825000099
 21
-198.5000000000003
 31
0.0
  0
ARC
  5
76B
  8
1
  6
CONTINUOUS
 62
     7
 10
1732.664575737597
 20
-169.4999999993001
 30
0.0
 40
1.999999999998892
 50
10.0
 51
90.0
  0
LINE
  5
76C
  8
1
  6
CONTINUOUS
 62
     7
 10
1776.665125737597
 20
-237.5000000006002
 30
0.0
 11
1772.021524262497
 21
-237.5000000006002
 31
0.0
  0
LINE
  5
76D
  8
1
  6
CONTINUOUS
 62
     7
 10
1779.447215172599
 20
-231.2395277336003
 30
0.0
 11
1778.634741243599
 21
-235.8472963561002
 31
0.0
  0
LINE
  5
76E
  8
1
  6
CONTINUOUS
 62
     7
 10
1678.256476802097
 20
-230.0000000001002
 30
0.0
 11
1679.761123197998
 21
-230.0000000001002
 31
0.0
  0
ARC
  5
76F
  8
1
  6
CONTINUOUS
 62
     7
 10
1742.687824262496
 20
-169.4999999994004
 30
0.0
 40
1.999999999998892
 50
90.0
 51
170.0
  0
LINE
  5
770
  8
1
  6
CONTINUOUS
 62
     7
 10
1735.446665172595
 20
-173.7604722664001
 30
0.0
 11
1734.634191243595
 21
-169.1527036440003
 31
0.0
  0
ARC
  5
771
  8
1
  6
CONTINUOUS
 62
     7
 10
1757.354674262497
 20
-235.5000000006003
 30
0.0
 40
1.999999999998892
 50
190.0
 51
270.0
  0
LINE
  5
772
  8
1
  6
CONTINUOUS
 62
     7
 10
1764.028975000098
 20
-206.5000000000003
 30
0.0
 11
1755.323975000098
 21
-206.5000000000003
 31
0.0
  0
LINE
  5
773
  8
1
  6
CONTINUOUS
 62
     7
 10
1719.6759250001
 20
-198.5000000000004
 30
0.0
 11
1719.6759250001
 21
-168.4120444692004
 31
0.0
  0
LINE
  5
774
  8
1
  6
CONTINUOUS
 62
     7
 10
1755.676475000097
 20
-206.5000000000003
 30
0.0
 11
1755.676475000097
 21
-236.5879555307002
 31
0.0
  0
LINE
  5
775
  8
1
  6
CONTINUOUS
 62
     7
 10
1662.112415172597
 20
-231.2395277336003
 30
0.0
 11
1661.299941243597
 21
-235.8472963561002
 31
0.0
  0
LINE
  5
776
  8
1
  6
CONTINUOUS
 62
     7
 10
1766.257576802097
 20
-174.9999999999002
 30
0.0
 11
1767.762223197995
 21
-174.9999999999002
 31
0.0
  0
ENDSEC
  0
EOF
