  0
SECTION
  2
HEADER
  9
$ACADVER
  1
AC1014
  9
$ACADMAINTVER
 70
     9
  9
$DWGCODEPAGE
  3
ANSI_932
  9
$INSBASE
 10
0.0
 20
0.0
 30
0.0
  9
$EXTMIN
 10
341.9999999999999
 20
4.712510941603104
 30
0.0
  9
$EXTMAX
 10
604.0000000000001
 20
268.0000000000002
 30
0.0
  9
$LIMMIN
 10
0.0
 20
0.0
  9
$LIMMAX
 10
12.0
 20
9.0
  9
$ORTHOMODE
 70
     0
  9
$REGENMODE
 70
     1
  9
$FILLMODE
 70
     1
  9
$QTEXTMODE
 70
     0
  9
$MIRRTEXT
 70
     1
  9
$DRAGMODE
 70
     2
  9
$LTSCALE
 40
1.0
  9
$OSMODE
 70
    37
  9
$ATTMODE
 70
     1
  9
$TEXTSIZE
 40
0.2
  9
$TRACEWID
 40
0.05
  9
$TEXTSTYLE
  7
STANDARD
  9
$CLAYER
  8
0
  9
$CELTYPE
  6
BYLAYER
  9
$CECOLOR
 62
   256
  9
$CELTSCALE
 40
1.0
  9
$DELOBJ
 70
     1
  9
$DISPSILH
 70
     0
  9
$DIMSCALE
 40
1.0
  9
$DIMASZ
 40
3.0
  9
$DIMEXO
 40
0.0625
  9
$DIMDLI
 40
0.38
  9
$DIMRND
 40
0.0
  9
$DIMDLE
 40
0.0
  9
$DIMEXE
 40
1.5
  9
$DIMTP
 40
0.0
  9
$DIMTM
 40
0.0
  9
$DIMTXT
 40
3.0
  9
$DIMCEN
 40
0.09
  9
$DIMTSZ
 40
0.0
  9
$DIMTOL
 70
     0
  9
$DIMLIM
 70
     0
  9
$DIMTIH
 70
     1
  9
$DIMTOH
 70
     1
  9
$DIMSE1
 70
     0
  9
$DIMSE2
 70
     0
  9
$DIMTAD
 70
     1
  9
$DIMZIN
 70
     0
  9
$DIMBLK
  1

  9
$DIMASO
 70
     1
  9
$DIMSHO
 70
     1
  9
$DIMPOST
  1

  9
$DIMAPOST
  1

  9
$DIMALT
 70
     0
  9
$DIMALTD
 70
     2
  9
$DIMALTF
 40
25.4
  9
$DIMLFAC
 40
1.0
  9
$DIMTOFL
 70
     0
  9
$DIMTVP
 40
0.0
  9
$DIMTIX
 70
     0
  9
$DIMSOXD
 70
     0
  9
$DIMSAH
 70
     0
  9
$DIMBLK1
  1

  9
$DIMBLK2
  1

  9
$DIMSTYLE
  2
STANDARD
  9
$DIMCLRD
 70
     0
  9
$DIMCLRE
 70
     0
  9
$DIMCLRT
 70
     0
  9
$DIMTFAC
 40
1.0
  9
$DIMGAP
 40
1.5
  9
$DIMJUST
 70
     0
  9
$DIMSD1
 70
     0
  9
$DIMSD2
 70
     0
  9
$DIMTOLJ
 70
     1
  9
$DIMTZIN
 70
     0
  9
$DIMALTZ
 70
     0
  9
$DIMALTTZ
 70
     0
  9
$DIMFIT
 70
     3
  9
$DIMUPT
 70
     0
  9
$DIMUNIT
 70
     2
  9
$DIMDEC
 70
     2
  9
$DIMTDEC
 70
     4
  9
$DIMALTU
 70
     2
  9
$DIMALTTD
 70
     2
  9
$DIMTXSTY
  7
ＭＳ_ゴシック
  9
$DIMAUNIT
 70
     0
  9
$LUNITS
 70
     2
  9
$LUPREC
 70
     4
  9
$SKETCHINC
 40
0.1
  9
$FILLETRAD
 40
0.5
  9
$AUNITS
 70
     0
  9
$AUPREC
 70
     0
  9
$MENU
  1
.
  9
$ELEVATION
 40
0.0
  9
$PELEVATION
 40
0.0
  9
$THICKNESS
 40
0.0
  9
$LIMCHECK
 70
     0
  9
$CHAMFERA
 40
0.0
  9
$CHAMFERB
 40
0.0
  9
$CHAMFERC
 40
0.0
  9
$CHAMFERD
 40
0.0
  9
$SKPOLY
 70
     0
  9
$TDCREATE
 40
2459614.643264861
  9
$TDUPDATE
 40
2459614.64326515
  9
$TDINDWG
 40
0.0000000116
  9
$TDUSRTIMER
 40
0.0000000116
  9
$USRTIMER
 70
     1
  9
$ANGBASE
 50
0.0
  9
$ANGDIR
 70
     0
  9
$PDMODE
 70
     0
  9
$PDSIZE
 40
0.0
  9
$PLINEWID
 40
0.0
  9
$COORDS
 70
     1
  9
$SPLFRAME
 70
     0
  9
$SPLINETYPE
 70
     6
  9
$SPLINESEGS
 70
     8
  9
$ATTDIA
 70
     0
  9
$ATTREQ
 70
     1
  9
$HANDLING
 70
     1
  9
$HANDSEED
  5
377
  9
$SURFTAB1
 70
     6
  9
$SURFTAB2
 70
     6
  9
$SURFTYPE
 70
     6
  9
$SURFU
 70
     6
  9
$SURFV
 70
     6
  9
$UCSNAME
  2

  9
$UCSORG
 10
0.0
 20
0.0
 30
0.0
  9
$UCSXDIR
 10
1.0
 20
0.0
 30
0.0
  9
$UCSYDIR
 10
0.0
 20
1.0
 30
0.0
  9
$PUCSNAME
  2

  9
$PUCSORG
 10
0.0
 20
0.0
 30
0.0
  9
$PUCSXDIR
 10
1.0
 20
0.0
 30
0.0
  9
$PUCSYDIR
 10
0.0
 20
1.0
 30
0.0
  9
$USERI1
 70
     0
  9
$USERI2
 70
     0
  9
$USERI3
 70
     0
  9
$USERI4
 70
     0
  9
$USERI5
 70
     0
  9
$USERR1
 40
0.0
  9
$USERR2
 40
0.0
  9
$USERR3
 40
0.0
  9
$USERR4
 40
0.0
  9
$USERR5
 40
0.0
  9
$WORLDVIEW
 70
     1
  9
$SHADEDGE
 70
     3
  9
$SHADEDIF
 70
    70
  9
$TILEMODE
 70
     1
  9
$MAXACTVP
 70
    64
  9
$PINSBASE
 10
0.0
 20
0.0
 30
0.0
  9
$PLIMCHECK
 70
     0
  9
$PEXTMIN
 10
1.000000000000000E+20
 20
1.000000000000000E+20
 30
1.000000000000000E+20
  9
$PEXTMAX
 10
-1.000000000000000E+20
 20
-1.000000000000000E+20
 30
-1.000000000000000E+20
  9
$PLIMMIN
 10
0.0
 20
0.0
  9
$PLIMMAX
 10
12.0
 20
9.0
  9
$UNITMODE
 70
     0
  9
$VISRETAIN
 70
     1
  9
$PLINEGEN
 70
     0
  9
$PSLTSCALE
 70
     1
  9
$TREEDEPTH
 70
  3020
  9
$PICKSTYLE
 70
     1
  9
$CMLSTYLE
  2
STANDARD
  9
$CMLJUST
 70
     0
  9
$CMLSCALE
 40
1.0
  9
$PROXYGRAPHICS
 70
     1
  9
$MEASUREMENT
 70
     1
  0
ENDSEC
  0
SECTION
  2
CLASSES
  0
CLASS
  1
ACDBDICTIONARYWDFLT
  2
AcDbDictionaryWithDefault
  3
ObjectDBX Classes
 90
        0
280
     0
281
     0
  0
CLASS
  1
VISUALSTYLE
  2
AcDbVisualStyle
  3
ObjectDBX Classes
 90
     4095
280
     0
281
     0
  0
CLASS
  1
MATERIAL
  2
AcDbMaterial
  3
ObjectDBX Classes
 90
     1153
280
     0
281
     0
  0
CLASS
  1
SCALE
  2
AcDbScale
  3
ObjectDBX Classes
 90
     1153
280
     0
281
     0
  0
CLASS
  1
TABLESTYLE
  2
AcDbTableStyle
  3
ObjectDBX Classes
 90
     4095
280
     0
281
     0
  0
CLASS
  1
MLEADERSTYLE
  2
AcDbMLeaderStyle
  3
ACDB_MLEADERSTYLE_CLASS
 90
     4095
280
     0
281
     0
  0
CLASS
  1
SUN
  2
AcDbSun
  3
SCENEOE
 90
     1153
280
     0
281
     0
  0
CLASS
  1
DICTIONARYVAR
  2
AcDbDictionaryVar
  3
ObjectDBX Classes
 90
        0
280
     0
281
     0
  0
CLASS
  1
XRECORD
  2
AcDbXrecord
  3
ObjectDBX Classes
 90
        0
280
     0
281
     0
  0
CLASS
  1
LWPOLYLINE
  2
AcDbPolyline
  3
ObjectDBX Classes
 90
        0
280
     0
281
     1
  0
CLASS
  1
HATCH
  2
AcDbHatch
  3
ObjectDBX Classes
 90
        0
280
     0
281
     1
  0
CLASS
  1
ACDBPLACEHOLDER
  2
AcDbPlaceHolder
  3
ObjectDBX Classes
 90
        0
280
     0
281
     0
  0
CLASS
  1
LAYOUT
  2
AcDbLayout
  3
ObjectDBX Classes
 90
        0
280
     0
281
     0
  0
ENDSEC
  0
SECTION
  2
TABLES
  0
TABLE
  2
VPORT
  5
8
102
{ACAD_XDICTIONARY
360
36C
102
}
330
0
100
AcDbSymbolTable
 70
     1
  0
VPORT
  5
29
330
8
100
AcDbSymbolTableRecord
100
AcDbViewportTableRecord
  2
*ACTIVE
 70
     0
 10
0.0
 20
0.0
 11
1.0
 21
1.0
 12
473.0
 22
136.3562554708017
 13
0.0
 23
0.0
 14
0.5
 24
0.5
 15
0.5
 25
0.5
 16
0.0
 26
0.0
 36
1.0
 17
0.0
 27
0.0
 37
0.0
 40
263.2874890583971
 41
1.6
 42
50.0
 43
0.0
 44
0.0
 50
0.0
 51
0.0
 71
     0
 72
   100
 73
     1
 74
     3
 75
     0
 76
     0
 77
     0
 78
     0
  0
ENDTAB
  0
TABLE
  2
LTYPE
  5
5
330
0
100
AcDbSymbolTable
 70
     2
  0
LTYPE
  5
14
330
5
100
AcDbSymbolTableRecord
100
AcDbLinetypeTableRecord
  2
BYBLOCK
 70
     0
  3

 72
    65
 73
     0
 40
0.0
  0
LTYPE
  5
15
330
5
100
AcDbSymbolTableRecord
100
AcDbLinetypeTableRecord
  2
BYLAYER
 70
     0
  3

 72
    65
 73
     0
 40
0.0
  0
LTYPE
  5
16
330
5
100
AcDbSymbolTableRecord
100
AcDbLinetypeTableRecord
  2
CONTINUOUS
 70
     0
  3
Solid line
 72
    65
 73
     0
 40
0.0
  0
LTYPE
  5
75
330
5
100
AcDbSymbolTableRecord
100
AcDbLinetypeTableRecord
  2
CENTER
 70
     0
  3

 72
    65
 73
     0
 40
0.0
  0
ENDTAB
  0
TABLE
  2
LAYER
  5
2
330
0
100
AcDbSymbolTable
 70
     1
  0
LAYER
  5
10
330
2
100
AcDbSymbolTableRecord
100
AcDbLayerTableRecord
  2
0
 70
     0
 62
     7
  6
CONTINUOUS
  0
ENDTAB
  0
TABLE
  2
STYLE
  5
3
330
0
100
AcDbSymbolTable
 70
     2
  0
STYLE
  5
11
330
3
100
AcDbSymbolTableRecord
100
AcDbTextStyleTableRecord
  2
STANDARD
 70
     0
 40
0.0
 41
1.0
 50
0.0
 71
     0
 42
0.2
  3
txt
  4

  0
STYLE
  5
6E
330
3
100
AcDbSymbolTableRecord
100
AcDbTextStyleTableRecord
  2
ＭＳ_ゴシック
 70
     0
 40
0.0
 41
1.0
 50
0.0
 71
     0
 42
0.2
  3
ＭＳ ゴシック.shx
  4

  0
ENDTAB
  0
TABLE
  2
VIEW
  5
6
330
0
100
AcDbSymbolTable
 70
     0
  0
ENDTAB
  0
TABLE
  2
UCS
  5
7
330
0
100
AcDbSymbolTable
 70
     0
  0
ENDTAB
  0
TABLE
  2
APPID
  5
9
330
0
100
AcDbSymbolTable
 70
     2
  0
APPID
  5
12
330
9
100
AcDbSymbolTableRecord
100
AcDbRegAppTableRecord
  2
ACAD
 70
     0
  0
APPID
  5
376
330
9
100
AcDbSymbolTableRecord
100
AcDbRegAppTableRecord
  2
ACAD_MLEADERVER
 70
     0
  0
ENDTAB
  0
TABLE
  2
DIMSTYLE
  5
A
330
0
100
AcDbSymbolTable
 70
     1
  0
DIMSTYLE
105
27
330
A
100
AcDbSymbolTableRecord
100
AcDbDimStyleTableRecord
  2
STANDARD
 70
     0
  3

  4

  5

  6

  7

 40
1.0
 41
0.18
 42
0.0625
 43
0.38
 44
0.18
 45
0.0
 46
0.0
 47
0.0
 48
0.0
140
0.18
141
0.09
142
0.0
143
25.4
144
1.0
145
0.0
146
1.0
147
0.09
 71
     0
 72
     0
 73
     1
 74
     1
 75
     0
 76
     0
 77
     0
 78
     0
170
     0
171
     2
172
     0
173
     0
174
     0
175
     0
176
     0
177
     0
178
     0
270
     2
271
     4
272
     4
273
     2
274
     2
340
11
275
     0
280
     0
281
     0
282
     0
283
     1
284
     0
285
     0
286
     0
287
     3
288
     0
  0
ENDTAB
  0
TABLE
  2
BLOCK_RECORD
  5
1
330
0
100
AcDbSymbolTable
 70
     0
  0
BLOCK_RECORD
  5
1F
330
1
100
AcDbSymbolTableRecord
100
AcDbBlockTableRecord
  2
*MODEL_SPACE
  0
BLOCK_RECORD
  5
1B
330
1
100
AcDbSymbolTableRecord
100
AcDbBlockTableRecord
  2
*PAPER_SPACE
  0
ENDTAB
  0
ENDSEC
  0
SECTION
  2
BLOCKS
  0
BLOCK
  5
20
330
1F
100
AcDbEntity
  8
0
100
AcDbBlockBegin
  2
*MODEL_SPACE
 70
     0
 10
0.0
 20
0.0
 30
0.0
  3
*MODEL_SPACE
  1

  0
ENDBLK
  5
21
330
1F
100
AcDbEntity
  8
0
100
AcDbBlockEnd
  0
BLOCK
  5
1C
330
1B
100
AcDbEntity
 67
     1
  8
0
100
AcDbBlockBegin
  2
*PAPER_SPACE
 70
     0
 10
0.0
 20
0.0
 30
0.0
  3
*PAPER_SPACE
  1

  0
ENDBLK
  5
1D
330
1B
100
AcDbEntity
 67
     1
  8
0
100
AcDbBlockEnd
  0
ENDSEC
  0
SECTION
  2
ENTITIES
  0
POINT
  5
6F
330
1F
100
AcDbEntity
  8
0
 62
     1
100
AcDbPoint
 10
535.0
 20
215.0
 30
0.0
  0
POINT
  5
70
330
1F
100
AcDbEntity
  8
0
 62
     1
100
AcDbPoint
 10
535.0
 20
85.0
 30
0.0
  0
POINT
  5
71
330
1F
100
AcDbEntity
  8
0
 62
     1
100
AcDbPoint
 10
535.0
 20
85.0
 30
0.0
  0
POINT
  5
72
330
1F
100
AcDbEntity
  8
0
 62
     1
100
AcDbPoint
 10
535.0
 20
215.0
 30
0.0
  0
MTEXT
  5
73
330
1F
100
AcDbEntity
  8
0
 62
     4
100
AcDbMText
 10
490.241027885457
 20
7.371601850694014
 30
0.0
 40
3.0
 41
0.0
 71
     1
 72
     1
  1
{\fＭＳ ゴシック;N-KFEP-75}
  0
LINE
  5
74
330
1F
100
AcDbEntity
  8
0
  6
CENTER
 62
     1
100
AcDbLine
 10
466.0
 20
85.0
 30
0.0
 11
604.0000000000001
 21
85.0
 31
0.0
  0
LINE
  5
76
330
1F
100
AcDbEntity
  8
0
  6
CENTER
 62
     1
100
AcDbLine
 10
341.9999999999999
 20
85.0
 30
0.0
 11
448.0000000000001
 21
85.0
 31
0.0
  0
LINE
  5
77
330
1F
100
AcDbEntity
  8
0
  6
CENTER
 62
     1
100
AcDbLine
 10
395.0
 20
32.00000000000001
 30
0.0
 11
395.0
 21
138.0
 31
0.0
  0
LINE
  5
78
330
1F
100
AcDbEntity
  8
0
  6
CENTER
 62
     1
100
AcDbLine
 10
535.0
 20
161.9999999999999
 30
0.0
 11
535.0
 21
268.0000000000002
 31
0.0
  0
LINE
  5
79
330
1F
100
AcDbEntity
  8
0
  6
CENTER
 62
     1
100
AcDbLine
 10
535.0
 20
31.99999999999985
 30
0.0
 11
535.0
 21
138.0000000000002
 31
0.0
  0
LINE
  5
7A
330
1F
100
AcDbEntity
  8
0
  6
CENTER
 62
     1
100
AcDbLine
 10
466.0
 20
215.0
 30
0.0
 11
604.0000000000001
 21
215.0
 31
0.0
  0
LINE
  5
7B
330
1F
100
AcDbEntity
  8
0
  6
CONTINUOUS
 62
   253
100
AcDbLine
 10
517.5628756344952
 20
94.96754738624396
 30
0.0
 11
517.5628756344952
 21
94.04627983565737
 31
0.0
  0
LINE
  5
7C
330
1F
100
AcDbEntity
  8
0
  6
CONTINUOUS
 62
   253
100
AcDbLine
 10
517.5628756344952
 20
110.1984127210161
 30
0.0
 11
517.5628756344952
 21
94.96754738624396
 31
0.0
  0
LINE
  5
7D
330
1F
100
AcDbEntity
  8
0
  6
CONTINUOUS
 62
   253
100
AcDbLine
 10
473.5628756344953
 20
94.96754738624396
 30
0.0
 11
473.5628756344953
 21
94.04627983565737
 31
0.0
  0
LINE
  5
7E
330
1F
100
AcDbEntity
  8
0
  6
CONTINUOUS
 62
   253
100
AcDbLine
 10
473.5628756344953
 20
110.1984127210161
 30
0.0
 11
473.5628756344953
 21
94.96754738624396
 31
0.0
  0
LINE
  5
7F
330
1F
100
AcDbEntity
  8
0
  6
CONTINUOUS
 62
   253
100
AcDbLine
 10
583.5628756344953
 20
94.96754738624396
 30
0.0
 11
583.5628756344953
 21
94.04627983565737
 31
0.0
  0
LINE
  5
80
330
1F
100
AcDbEntity
  8
0
  6
CONTINUOUS
 62
   253
100
AcDbLine
 10
495.5628756344952
 20
94.96754738624396
 30
0.0
 11
495.5628756344952
 21
94.04627983565737
 31
0.0
  0
LINE
  5
81
330
1F
100
AcDbEntity
  8
0
  6
CONTINUOUS
 62
   253
100
AcDbLine
 10
495.5628756344952
 20
110.1984127210161
 30
0.0
 11
495.5628756344952
 21
94.96754738624396
 31
0.0
  0
LINE
  5
82
330
1F
100
AcDbEntity
  8
0
  6
CONTINUOUS
 62
   253
100
AcDbLine
 10
583.5628756344953
 20
110.1984127210161
 30
0.0
 11
583.5628756344953
 21
94.96754738624396
 31
0.0
  0
LINE
  5
83
330
1F
100
AcDbEntity
  8
0
  6
CONTINUOUS
 62
   253
100
AcDbLine
 10
561.5628756344952
 20
94.96754738624396
 30
0.0
 11
561.5628756344952
 21
94.04627983565737
 31
0.0
  0
LINE
  5
84
330
1F
100
AcDbEntity
  8
0
  6
CONTINUOUS
 62
   253
100
AcDbLine
 10
539.5628756344952
 20
110.1984127210161
 30
0.0
 11
539.5628756344952
 21
94.96754738624396
 31
0.0
  0
LINE
  5
85
330
1F
100
AcDbEntity
  8
0
  6
CONTINUOUS
 62
   253
100
AcDbLine
 10
561.5628756344952
 20
110.1984127210161
 30
0.0
 11
561.5628756344952
 21
94.96754738624396
 31
0.0
  0
LINE
  5
86
330
1F
100
AcDbEntity
  8
0
  6
CONTINUOUS
 62
   253
100
AcDbLine
 10
539.5628756344952
 20
94.96754738624396
 30
0.0
 11
539.5628756344952
 21
94.04627983565737
 31
0.0
  0
LINE
  5
87
330
1F
100
AcDbEntity
  8
0
  6
CONTINUOUS
 62
   253
100
AcDbLine
 10
508.4371243655048
 20
94.04627983565737
 30
0.0
 11
508.4371243655048
 21
94.96754738624396
 31
0.0
  0
LINE
  5
88
330
1F
100
AcDbEntity
  8
0
  6
CONTINUOUS
 62
   253
100
AcDbLine
 10
486.4371243655048
 20
94.04627983565737
 30
0.0
 11
486.4371243655048
 21
94.96754738624396
 31
0.0
  0
LINE
  5
89
330
1F
100
AcDbEntity
  8
0
  6
CONTINUOUS
 62
   253
100
AcDbLine
 10
486.4371243655048
 20
94.96754738624396
 30
0.0
 11
486.4371243655048
 21
110.1984127210161
 31
0.0
  0
LINE
  5
8A
330
1F
100
AcDbEntity
  8
0
  6
CONTINUOUS
 62
   253
100
AcDbLine
 10
574.4371243655048
 20
94.96754738624396
 30
0.0
 11
574.4371243655048
 21
110.1984127210161
 31
0.0
  0
LINE
  5
8B
330
1F
100
AcDbEntity
  8
0
  6
CONTINUOUS
 62
   253
100
AcDbLine
 10
552.4371243655048
 20
94.96754738624396
 30
0.0
 11
552.4371243655048
 21
110.1984127210161
 31
0.0
  0
LINE
  5
8C
330
1F
100
AcDbEntity
  8
0
  6
CONTINUOUS
 62
   253
100
AcDbLine
 10
552.4371243655048
 20
94.04627983565737
 30
0.0
 11
552.4371243655048
 21
94.96754738624396
 31
0.0
  0
LINE
  5
8D
330
1F
100
AcDbEntity
  8
0
  6
CONTINUOUS
 62
   253
100
AcDbLine
 10
530.4371243655048
 20
94.04627983565737
 30
0.0
 11
530.4371243655048
 21
94.96754738624396
 31
0.0
  0
LINE
  5
8E
330
1F
100
AcDbEntity
  8
0
  6
CONTINUOUS
 62
   253
100
AcDbLine
 10
508.4371243655048
 20
94.96754738624396
 30
0.0
 11
508.4371243655048
 21
110.1984127210161
 31
0.0
  0
LINE
  5
8F
330
1F
100
AcDbEntity
  8
0
  6
CONTINUOUS
 62
   253
100
AcDbLine
 10
574.4371243655048
 20
94.04627983565737
 30
0.0
 11
574.4371243655048
 21
94.96754738624396
 31
0.0
  0
LINE
  5
90
330
1F
100
AcDbEntity
  8
0
  6
CONTINUOUS
 62
   253
100
AcDbLine
 10
596.4371243655048
 20
94.04627983565737
 30
0.0
 11
596.4371243655048
 21
94.96754738624396
 31
0.0
  0
LINE
  5
91
330
1F
100
AcDbEntity
  8
0
  6
CONTINUOUS
 62
   253
100
AcDbLine
 10
530.4371243655048
 20
94.96754738624396
 30
0.0
 11
530.4371243655048
 21
110.1984127210161
 31
0.0
  0
LINE
  5
92
330
1F
100
AcDbEntity
  8
0
  6
CONTINUOUS
 62
   253
100
AcDbLine
 10
596.4371243655048
 20
94.96754738624396
 30
0.0
 11
596.4371243655048
 21
110.1984127210161
 31
0.0
  0
LINE
  5
93
330
1F
100
AcDbEntity
  8
0
  6
CONTINUOUS
 62
   253
100
AcDbLine
 10
486.4371243655048
 20
75.0324526137562
 30
0.0
 11
486.4371243655048
 21
75.95372016434291
 31
0.0
  0
LINE
  5
94
330
1F
100
AcDbEntity
  8
0
  6
CONTINUOUS
 62
   253
100
AcDbLine
 10
486.4371243655048
 20
59.80158727898406
 30
0.0
 11
486.4371243655048
 21
75.0324526137562
 31
0.0
  0
LINE
  5
95
330
1F
100
AcDbEntity
  8
0
  6
CONTINUOUS
 62
   253
100
AcDbLine
 10
583.5628756344953
 20
75.0324526137562
 30
0.0
 11
583.5628756344953
 21
59.80158727898407
 31
0.0
  0
LINE
  5
96
330
1F
100
AcDbEntity
  8
0
  6
CONTINUOUS
 62
   253
100
AcDbLine
 10
530.4371243655048
 20
59.80158727898406
 30
0.0
 11
530.4371243655048
 21
75.0324526137562
 31
0.0
  0
LINE
  5
97
330
1F
100
AcDbEntity
  8
0
  6
CONTINUOUS
 62
   253
100
AcDbLine
 10
508.4371243655048
 20
59.80158727898406
 30
0.0
 11
508.4371243655048
 21
75.0324526137562
 31
0.0
  0
LINE
  5
98
330
1F
100
AcDbEntity
  8
0
  6
CONTINUOUS
 62
   253
100
AcDbLine
 10
552.4371243655048
 20
59.80158727898406
 30
0.0
 11
552.4371243655048
 21
75.0324526137562
 31
0.0
  0
LINE
  5
99
330
1F
100
AcDbEntity
  8
0
  6
CONTINUOUS
 62
   253
100
AcDbLine
 10
596.4371243655048
 20
75.0324526137562
 30
0.0
 11
596.4371243655048
 21
75.95372016434291
 31
0.0
  0
LINE
  5
9A
330
1F
100
AcDbEntity
  8
0
  6
CONTINUOUS
 62
   253
100
AcDbLine
 10
508.4371243655048
 20
75.0324526137562
 30
0.0
 11
508.4371243655048
 21
75.95372016434291
 31
0.0
  0
LINE
  5
9B
330
1F
100
AcDbEntity
  8
0
  6
CONTINUOUS
 62
   253
100
AcDbLine
 10
517.5628756344952
 20
75.0324526137562
 30
0.0
 11
517.5628756344952
 21
59.80158727898407
 31
0.0
  0
LINE
  5
9C
330
1F
100
AcDbEntity
  8
0
  6
CONTINUOUS
 62
   253
100
AcDbLine
 10
574.4371243655048
 20
59.80158727898406
 30
0.0
 11
574.4371243655048
 21
75.0324526137562
 31
0.0
  0
LINE
  5
9D
330
1F
100
AcDbEntity
  8
0
  6
CONTINUOUS
 62
   253
100
AcDbLine
 10
596.4371243655048
 20
59.80158727898406
 30
0.0
 11
596.4371243655048
 21
75.0324526137562
 31
0.0
  0
LINE
  5
9E
330
1F
100
AcDbEntity
  8
0
  6
CONTINUOUS
 62
   253
100
AcDbLine
 10
561.5628756344952
 20
75.95372016434291
 30
0.0
 11
561.5628756344952
 21
75.0324526137562
 31
0.0
  0
LINE
  5
9F
330
1F
100
AcDbEntity
  8
0
  6
CONTINUOUS
 62
   253
100
AcDbLine
 10
539.5628756344952
 20
75.95372016434291
 30
0.0
 11
539.5628756344952
 21
75.0324526137562
 31
0.0
  0
LINE
  5
A0
330
1F
100
AcDbEntity
  8
0
  6
CONTINUOUS
 62
   253
100
AcDbLine
 10
530.4371243655048
 20
75.0324526137562
 30
0.0
 11
530.4371243655048
 21
75.95372016434291
 31
0.0
  0
LINE
  5
A1
330
1F
100
AcDbEntity
  8
0
  6
CONTINUOUS
 62
   253
100
AcDbLine
 10
583.5628756344953
 20
75.95372016434291
 30
0.0
 11
583.5628756344953
 21
75.0324526137562
 31
0.0
  0
LINE
  5
A2
330
1F
100
AcDbEntity
  8
0
  6
CONTINUOUS
 62
   253
100
AcDbLine
 10
473.5628756344953
 20
75.0324526137562
 30
0.0
 11
473.5628756344953
 21
59.80158727898407
 31
0.0
  0
LINE
  5
A3
330
1F
100
AcDbEntity
  8
0
  6
CONTINUOUS
 62
   253
100
AcDbLine
 10
495.5628756344952
 20
75.0324526137562
 30
0.0
 11
495.5628756344952
 21
59.80158727898407
 31
0.0
  0
LINE
  5
A4
330
1F
100
AcDbEntity
  8
0
  6
CONTINUOUS
 62
   253
100
AcDbLine
 10
552.4371243655048
 20
75.0324526137562
 30
0.0
 11
552.4371243655048
 21
75.95372016434291
 31
0.0
  0
LINE
  5
A5
330
1F
100
AcDbEntity
  8
0
  6
CONTINUOUS
 62
   253
100
AcDbLine
 10
517.5628756344952
 20
75.95372016434291
 30
0.0
 11
517.5628756344952
 21
75.0324526137562
 31
0.0
  0
LINE
  5
A6
330
1F
100
AcDbEntity
  8
0
  6
CONTINUOUS
 62
   253
100
AcDbLine
 10
473.5628756344953
 20
75.95372016434291
 30
0.0
 11
473.5628756344953
 21
75.0324526137562
 31
0.0
  0
LINE
  5
A7
330
1F
100
AcDbEntity
  8
0
  6
CONTINUOUS
 62
   253
100
AcDbLine
 10
539.5628756344952
 20
75.0324526137562
 30
0.0
 11
539.5628756344952
 21
59.80158727898407
 31
0.0
  0
LINE
  5
A8
330
1F
100
AcDbEntity
  8
0
  6
CONTINUOUS
 62
   253
100
AcDbLine
 10
495.5628756344952
 20
75.95372016434291
 30
0.0
 11
495.5628756344952
 21
75.0324526137562
 31
0.0
  0
LINE
  5
A9
330
1F
100
AcDbEntity
  8
0
  6
CONTINUOUS
 62
   253
100
AcDbLine
 10
574.4371243655048
 20
75.0324526137562
 30
0.0
 11
574.4371243655048
 21
75.95372016434291
 31
0.0
  0
LINE
  5
AA
330
1F
100
AcDbEntity
  8
0
  6
CONTINUOUS
 62
   253
100
AcDbLine
 10
561.5628756344952
 20
75.0324526137562
 30
0.0
 11
561.5628756344952
 21
59.80158727898407
 31
0.0
  0
LINE
  5
AB
330
1F
100
AcDbEntity
  8
0
  6
CONTINUOUS
 62
   253
100
AcDbLine
 10
517.5628756344952
 20
132.1221102879138
 30
0.0
 11
517.5628756344952
 21
110.1984127210161
 31
0.0
  0
LINE
  5
AC
330
1F
100
AcDbEntity
  8
0
  6
CONTINUOUS
 62
   253
100
AcDbLine
 10
583.5628756344953
 20
132.1221102879138
 30
0.0
 11
583.5628756344953
 21
110.1984127210161
 31
0.0
  0
LINE
  5
AD
330
1F
100
AcDbEntity
  8
0
  6
CONTINUOUS
 62
   253
100
AcDbLine
 10
486.4371243655048
 20
110.1984127210161
 30
0.0
 11
486.4371243655048
 21
132.1221102879138
 31
0.0
  0
LINE
  5
AE
330
1F
100
AcDbEntity
  8
0
  6
CONTINUOUS
 62
   253
100
AcDbLine
 10
495.5628756344952
 20
132.1221102879138
 30
0.0
 11
495.5628756344952
 21
110.1984127210161
 31
0.0
  0
LINE
  5
AF
330
1F
100
AcDbEntity
  8
0
  6
CONTINUOUS
 62
   253
100
AcDbLine
 10
552.4371243655048
 20
110.1984127210161
 30
0.0
 11
552.4371243655048
 21
132.1221102879138
 31
0.0
  0
LINE
  5
B0
330
1F
100
AcDbEntity
  8
0
  6
CONTINUOUS
 62
   253
100
AcDbLine
 10
508.4371243655048
 20
110.1984127210161
 30
0.0
 11
508.4371243655048
 21
132.1221102879138
 31
0.0
  0
LINE
  5
B1
330
1F
100
AcDbEntity
  8
0
  6
CONTINUOUS
 62
   253
100
AcDbLine
 10
574.4371243655048
 20
110.1984127210161
 30
0.0
 11
574.4371243655048
 21
132.1221102879138
 31
0.0
  0
LINE
  5
B2
330
1F
100
AcDbEntity
  8
0
  6
CONTINUOUS
 62
   253
100
AcDbLine
 10
530.4371243655048
 20
110.1984127210161
 30
0.0
 11
530.4371243655048
 21
132.1221102879138
 31
0.0
  0
LINE
  5
B3
330
1F
100
AcDbEntity
  8
0
  6
CONTINUOUS
 62
   253
100
AcDbLine
 10
539.5628756344952
 20
132.1221102879138
 30
0.0
 11
539.5628756344952
 21
110.1984127210161
 31
0.0
  0
LINE
  5
B4
330
1F
100
AcDbEntity
  8
0
  6
CONTINUOUS
 62
   253
100
AcDbLine
 10
561.5628756344952
 20
132.1221102879138
 30
0.0
 11
561.5628756344952
 21
110.1984127210161
 31
0.0
  0
LINE
  5
B5
330
1F
100
AcDbEntity
  8
0
  6
CONTINUOUS
 62
   253
100
AcDbLine
 10
473.5628756344953
 20
132.1221102879138
 30
0.0
 11
473.5628756344953
 21
110.1984127210161
 31
0.0
  0
LINE
  5
B6
330
1F
100
AcDbEntity
  8
0
  6
CONTINUOUS
 62
   253
100
AcDbLine
 10
596.4371243655049
 20
110.1984127210161
 30
0.0
 11
596.4371243655049
 21
132.1221102879138
 31
0.0
  0
LINE
  5
B7
330
1F
100
AcDbEntity
  8
0
  6
CONTINUOUS
 62
   253
100
AcDbLine
 10
486.4371243655048
 20
37.87788971208654
 30
0.0
 11
486.4371243655048
 21
59.80158727898406
 31
0.0
  0
LINE
  5
B8
330
1F
100
AcDbEntity
  8
0
  6
CONTINUOUS
 62
   253
100
AcDbLine
 10
517.5628756344952
 20
59.80158727898406
 30
0.0
 11
517.5628756344952
 21
37.87788971208654
 31
0.0
  0
LINE
  5
B9
330
1F
100
AcDbEntity
  8
0
  6
CONTINUOUS
 62
   253
100
AcDbLine
 10
552.4371243655048
 20
37.87788971208654
 30
0.0
 11
552.4371243655048
 21
59.80158727898406
 31
0.0
  0
LINE
  5
BA
330
1F
100
AcDbEntity
  8
0
  6
CONTINUOUS
 62
   253
100
AcDbLine
 10
596.4371243655048
 20
37.87788971208654
 30
0.0
 11
596.4371243655048
 21
59.80158727898406
 31
0.0
  0
LINE
  5
BB
330
1F
100
AcDbEntity
  8
0
  6
CONTINUOUS
 62
   253
100
AcDbLine
 10
473.5628756344952
 20
59.80158727898406
 30
0.0
 11
473.5628756344952
 21
37.87788971208654
 31
0.0
  0
LINE
  5
BC
330
1F
100
AcDbEntity
  8
0
  6
CONTINUOUS
 62
   253
100
AcDbLine
 10
495.5628756344952
 20
59.80158727898406
 30
0.0
 11
495.5628756344952
 21
37.87788971208654
 31
0.0
  0
LINE
  5
BD
330
1F
100
AcDbEntity
  8
0
  6
CONTINUOUS
 62
   253
100
AcDbLine
 10
530.4371243655048
 20
37.87788971208654
 30
0.0
 11
530.4371243655048
 21
59.80158727898406
 31
0.0
  0
LINE
  5
BE
330
1F
100
AcDbEntity
  8
0
  6
CONTINUOUS
 62
   253
100
AcDbLine
 10
561.5628756344952
 20
59.80158727898406
 30
0.0
 11
561.5628756344952
 21
37.87788971208654
 31
0.0
  0
LINE
  5
BF
330
1F
100
AcDbEntity
  8
0
  6
CONTINUOUS
 62
   253
100
AcDbLine
 10
539.5628756344952
 20
59.80158727898406
 30
0.0
 11
539.5628756344952
 21
37.87788971208654
 31
0.0
  0
LINE
  5
C0
330
1F
100
AcDbEntity
  8
0
  6
CONTINUOUS
 62
   253
100
AcDbLine
 10
508.4371243655048
 20
37.87788971208654
 30
0.0
 11
508.4371243655048
 21
59.80158727898406
 31
0.0
  0
LINE
  5
C1
330
1F
100
AcDbEntity
  8
0
  6
CONTINUOUS
 62
   253
100
AcDbLine
 10
583.5628756344952
 20
59.80158727898406
 30
0.0
 11
583.5628756344952
 21
37.87788971208654
 31
0.0
  0
LINE
  5
C2
330
1F
100
AcDbEntity
  8
0
  6
CONTINUOUS
 62
   253
100
AcDbLine
 10
574.4371243655048
 20
37.87788971208654
 30
0.0
 11
574.4371243655048
 21
59.80158727898406
 31
0.0
  0
LINE
  5
C3
330
1F
100
AcDbEntity
  8
0
  6
CONTINUOUS
 62
   253
100
AcDbLine
 10
539.543873118792
 20
75.97272268004606
 30
0.0
 11
539.5628756344952
 21
75.95372016434291
 31
0.0
  0
LWPOLYLINE
  5
C4
330
1F
100
AcDbEntity
  8
0
  6
CONTINUOUS
 62
   253
100
AcDbPolyline
 90
        8
 70
     0
 43
0.0
 10
596.9661053076302
 20
90.58045018441153
 10
596.9538688688959
 20
91.27396168560942
 10
596.9176447889688
 20
91.93997197137294
 10
596.8588695346184
 20
92.55207038763419
 10
596.7798738399846
 20
93.08598415682052
 10
596.6837902812579
 20
93.5205409154392
 10
596.5744290542947
 20
93.8385083046662
 10
596.4561268812079
 20
94.02727731995422
  0
LINE
  5
C5
330
1F
100
AcDbEntity
  8
0
  6
CONTINUOUS
 62
   253
100
AcDbLine
 10
594.0116820485936
 20
90.58045018441186
 30
0.0
 11
596.9661053076302
 21
90.58045018441159
 31
0.0
  0
LWPOLYLINE
  5
C6
330
1F
100
AcDbEntity
  8
0
  6
CONTINUOUS
 62
   253
100
AcDbPolyline
 90
        8
 70
     0
 43
0.0
 10
539.5438731187921
 20
94.02727731995422
 10
539.4255709457053
 20
93.83850830466622
 10
539.3162097187421
 20
93.52054091543926
 10
539.2201261600154
 20
93.08598415682061
 10
539.1411304653816
 20
92.55207038763434
 10
539.0823552110313
 20
91.93997197137317
 10
539.0461311311041
 20
91.27396168560969
 10
539.0338946923698
 20
90.58045018441186
  0
LINE
  5
C7
330
1F
100
AcDbEntity
  8
0
  6
CONTINUOUS
 62
   253
100
AcDbLine
 10
541.9883179514064
 20
90.58045018441153
 30
0.0
 11
539.0338946923698
 21
90.58045018441186
 31
0.0
  0
LWPOLYLINE
  5
C8
330
1F
100
AcDbEntity
  8
0
  6
CONTINUOUS
 62
   253
100
AcDbPolyline
 90
        8
 70
     0
 43
0.0
 10
486.9661053076302
 20
90.58045018441153
 10
486.9538688688961
 20
91.27396168560942
 10
486.9176447889689
 20
91.93997197137294
 10
486.8588695346185
 20
92.55207038763419
 10
486.7798738399848
 20
93.08598415682052
 10
486.683790281258
 20
93.5205409154392
 10
486.5744290542947
 20
93.8385083046662
 10
486.456126881208
 20
94.02727731995422
  0
LINE
  5
C9
330
1F
100
AcDbEntity
  8
0
  6
CONTINUOUS
 62
   253
100
AcDbLine
 10
484.0116820485936
 20
90.58045018441186
 30
0.0
 11
486.9661053076302
 21
90.58045018441159
 31
0.0
  0
LWPOLYLINE
  5
CA
330
1F
100
AcDbEntity
  8
0
  6
CONTINUOUS
 62
   253
100
AcDbPolyline
 90
        8
 70
     0
 43
0.0
 10
596.4561268812079
 20
75.97272268004602
 10
596.5744290542947
 20
76.16149169533406
 10
596.6837902812579
 20
76.47945908456111
 10
596.7798738399846
 20
76.91401584317985
 10
596.8588695346184
 20
77.44792961236627
 10
596.9176447889688
 20
78.06002802862758
 10
596.9538688688959
 20
78.72603831439119
 10
596.9661053076302
 20
79.41954981558914
  0
LINE
  5
CB
330
1F
100
AcDbEntity
  8
0
  6
CONTINUOUS
 62
   253
100
AcDbLine
 10
594.0116820485936
 20
79.41954981558881
 30
0.0
 11
596.9661053076302
 21
79.41954981558914
 31
0.0
  0
LWPOLYLINE
  5
CC
330
1F
100
AcDbEntity
  8
0
  6
CONTINUOUS
 62
   253
100
AcDbPolyline
 90
        8
 70
     0
 43
0.0
 10
574.9661053076303
 20
90.58045018441153
 10
574.953868868896
 20
91.27396168560942
 10
574.9176447889689
 20
91.93997197137294
 10
574.8588695346185
 20
92.55207038763419
 10
574.7798738399847
 20
93.08598415682052
 10
574.683790281258
 20
93.5205409154392
 10
574.5744290542948
 20
93.8385083046662
 10
574.456126881208
 20
94.02727731995422
  0
LINE
  5
CD
330
1F
100
AcDbEntity
  8
0
  6
CONTINUOUS
 62
   253
100
AcDbLine
 10
572.0116820485937
 20
90.58045018441186
 30
0.0
 11
574.9661053076303
 21
90.58045018441159
 31
0.0
  0
LWPOLYLINE
  5
CE
330
1F
100
AcDbEntity
  8
0
  6
CONTINUOUS
 62
   253
100
AcDbPolyline
 90
        8
 70
     0
 43
0.0
 10
495.5438731187921
 20
94.02727731995422
 10
495.4255709457054
 20
93.83850830466622
 10
495.3162097187421
 20
93.52054091543926
 10
495.2201261600154
 20
93.08598415682061
 10
495.1411304653816
 20
92.55207038763434
 10
495.0823552110313
 20
91.93997197137317
 10
495.0461311311041
 20
91.27396168560969
 10
495.0338946923699
 20
90.58045018441186
  0
LINE
  5
CF
330
1F
100
AcDbEntity
  8
0
  6
CONTINUOUS
 62
   253
100
AcDbLine
 10
497.9883179514064
 20
90.58045018441153
 30
0.0
 11
495.0338946923699
 21
90.58045018441186
 31
0.0
  0
LWPOLYLINE
  5
D0
330
1F
100
AcDbEntity
  8
0
  6
CONTINUOUS
 62
   253
100
AcDbPolyline
 90
        8
 70
     0
 43
0.0
 10
561.5438731187921
 20
94.02727731995422
 10
561.4255709457053
 20
93.83850830466622
 10
561.3162097187421
 20
93.52054091543926
 10
561.2201261600154
 20
93.08598415682061
 10
561.1411304653816
 20
92.55207038763434
 10
561.0823552110313
 20
91.93997197137317
 10
561.0461311311041
 20
91.27396168560969
 10
561.0338946923698
 20
90.58045018441186
  0
LINE
  5
D1
330
1F
100
AcDbEntity
  8
0
  6
CONTINUOUS
 62
   253
100
AcDbLine
 10
563.9883179514064
 20
90.58045018441153
 30
0.0
 11
561.0338946923698
 21
90.58045018441186
 31
0.0
  0
LWPOLYLINE
  5
D2
330
1F
100
AcDbEntity
  8
0
  6
CONTINUOUS
 62
   253
100
AcDbPolyline
 90
        8
 70
     0
 43
0.0
 10
508.4561268812079
 20
75.97272268004602
 10
508.5744290542947
 20
76.16149169533406
 10
508.683790281258
 20
76.47945908456111
 10
508.7798738399847
 20
76.91401584317985
 10
508.8588695346186
 20
77.44792961236627
 10
508.9176447889688
 20
78.06002802862758
 10
508.9538688688961
 20
78.72603831439119
 10
508.9661053076302
 20
79.41954981558914
  0
LINE
  5
D3
330
1F
100
AcDbEntity
  8
0
  6
CONTINUOUS
 62
   253
100
AcDbLine
 10
506.0116820485936
 20
79.41954981558881
 30
0.0
 11
508.9661053076302
 21
79.41954981558914
 31
0.0
  0
LWPOLYLINE
  5
D4
330
1F
100
AcDbEntity
  8
0
  6
CONTINUOUS
 62
   253
100
AcDbPolyline
 90
        8
 70
     0
 43
0.0
 10
552.456126881208
 20
75.97272268004602
 10
552.5744290542948
 20
76.16149169533406
 10
552.683790281258
 20
76.47945908456111
 10
552.7798738399847
 20
76.91401584317985
 10
552.8588695346185
 20
77.44792961236627
 10
552.9176447889689
 20
78.06002802862758
 10
552.953868868896
 20
78.72603831439119
 10
552.9661053076303
 20
79.41954981558914
  0
LINE
  5
D5
330
1F
100
AcDbEntity
  8
0
  6
CONTINUOUS
 62
   253
100
AcDbLine
 10
550.0116820485936
 20
79.41954981558881
 30
0.0
 11
552.9661053076302
 21
79.41954981558914
 31
0.0
  0
LWPOLYLINE
  5
D6
330
1F
100
AcDbEntity
  8
0
  6
CONTINUOUS
 62
   253
100
AcDbPolyline
 90
        8
 70
     0
 43
0.0
 10
473.5438731187921
 20
94.02727731995422
 10
473.4255709457054
 20
93.83850830466622
 10
473.3162097187421
 20
93.52054091543926
 10
473.2201261600154
 20
93.08598415682061
 10
473.1411304653816
 20
92.55207038763434
 10
473.0823552110313
 20
91.93997197137317
 10
473.0461311311041
 20
91.27396168560969
 10
473.0338946923699
 20
90.58045018441186
  0
LINE
  5
D7
330
1F
100
AcDbEntity
  8
0
  6
CONTINUOUS
 62
   253
100
AcDbLine
 10
475.9883179514065
 20
90.58045018441153
 30
0.0
 11
473.0338946923699
 21
90.58045018441186
 31
0.0
  0
LWPOLYLINE
  5
D8
330
1F
100
AcDbEntity
  8
0
  6
CONTINUOUS
 62
   253
100
AcDbPolyline
 90
        8
 70
     0
 43
0.0
 10
517.543873118792
 20
94.02727731995422
 10
517.4255709457052
 20
93.83850830466622
 10
517.316209718742
 20
93.52054091543926
 10
517.2201261600153
 20
93.08598415682061
 10
517.1411304653815
 20
92.55207038763434
 10
517.0823552110312
 20
91.93997197137317
 10
517.046131131104
 20
91.27396168560969
 10
517.0338946923697
 20
90.58045018441186
  0
LINE
  5
D9
330
1F
100
AcDbEntity
  8
0
  6
CONTINUOUS
 62
   253
100
AcDbLine
 10
519.9883179514064
 20
90.58045018441153
 30
0.0
 11
517.0338946923698
 21
90.58045018441186
 31
0.0
  0
LWPOLYLINE
  5
DA
330
1F
100
AcDbEntity
  8
0
  6
CONTINUOUS
 62
   253
100
AcDbPolyline
 90
        8
 70
     0
 43
0.0
 10
574.456126881208
 20
75.97272268004602
 10
574.5744290542948
 20
76.16149169533406
 10
574.683790281258
 20
76.47945908456111
 10
574.7798738399847
 20
76.91401584317985
 10
574.8588695346185
 20
77.44792961236627
 10
574.9176447889689
 20
78.06002802862758
 10
574.953868868896
 20
78.72603831439119
 10
574.9661053076303
 20
79.41954981558914
  0
LINE
  5
DB
330
1F
100
AcDbEntity
  8
0
  6
CONTINUOUS
 62
   253
100
AcDbLine
 10
572.0116820485936
 20
79.41954981558881
 30
0.0
 11
574.9661053076302
 21
79.41954981558914
 31
0.0
  0
LWPOLYLINE
  5
DC
330
1F
100
AcDbEntity
  8
0
  6
CONTINUOUS
 62
   253
100
AcDbPolyline
 90
        8
 70
     0
 43
0.0
 10
486.456126881208
 20
75.97272268004602
 10
486.5744290542947
 20
76.16149169533406
 10
486.683790281258
 20
76.47945908456111
 10
486.7798738399848
 20
76.91401584317985
 10
486.8588695346186
 20
77.44792961236627
 10
486.9176447889689
 20
78.06002802862758
 10
486.9538688688961
 20
78.72603831439119
 10
486.9661053076302
 20
79.41954981558914
  0
LINE
  5
DD
330
1F
100
AcDbEntity
  8
0
  6
CONTINUOUS
 62
   253
100
AcDbLine
 10
484.0116820485936
 20
79.41954981558881
 30
0.0
 11
486.9661053076302
 21
79.41954981558914
 31
0.0
  0
LWPOLYLINE
  5
DE
330
1F
100
AcDbEntity
  8
0
  6
CONTINUOUS
 62
   253
100
AcDbPolyline
 90
        8
 70
     0
 43
0.0
 10
530.456126881208
 20
75.97272268004602
 10
530.5744290542948
 20
76.16149169533406
 10
530.683790281258
 20
76.47945908456111
 10
530.7798738399847
 20
76.91401584317985
 10
530.8588695346185
 20
77.44792961236627
 10
530.9176447889689
 20
78.06002802862758
 10
530.953868868896
 20
78.72603831439119
 10
530.9661053076303
 20
79.41954981558914
  0
LINE
  5
DF
330
1F
100
AcDbEntity
  8
0
  6
CONTINUOUS
 62
   253
100
AcDbLine
 10
528.0116820485936
 20
79.41954981558881
 30
0.0
 11
530.9661053076302
 21
79.41954981558914
 31
0.0
  0
LWPOLYLINE
  5
E0
330
1F
100
AcDbEntity
  8
0
  6
CONTINUOUS
 62
   253
100
AcDbPolyline
 90
        8
 70
     0
 43
0.0
 10
530.9661053076303
 20
90.58045018441153
 10
530.953868868896
 20
91.27396168560942
 10
530.9176447889689
 20
91.93997197137294
 10
530.8588695346185
 20
92.55207038763419
 10
530.7798738399847
 20
93.08598415682052
 10
530.683790281258
 20
93.5205409154392
 10
530.5744290542948
 20
93.8385083046662
 10
530.456126881208
 20
94.02727731995422
  0
LINE
  5
E1
330
1F
100
AcDbEntity
  8
0
  6
CONTINUOUS
 62
   253
100
AcDbLine
 10
528.0116820485936
 20
90.58045018441186
 30
0.0
 11
530.9661053076302
 21
90.58045018441159
 31
0.0
  0
LWPOLYLINE
  5
E2
330
1F
100
AcDbEntity
  8
0
  6
CONTINUOUS
 62
   253
100
AcDbPolyline
 90
        8
 70
     0
 43
0.0
 10
508.9661053076302
 20
90.58045018441153
 10
508.9538688688961
 20
91.27396168560942
 10
508.9176447889688
 20
91.93997197137294
 10
508.8588695346186
 20
92.55207038763419
 10
508.7798738399847
 20
93.08598415682052
 10
508.683790281258
 20
93.5205409154392
 10
508.5744290542947
 20
93.8385083046662
 10
508.4561268812079
 20
94.02727731995422
  0
LINE
  5
E3
330
1F
100
AcDbEntity
  8
0
  6
CONTINUOUS
 62
   253
100
AcDbLine
 10
506.0116820485936
 20
90.58045018441186
 30
0.0
 11
508.9661053076302
 21
90.58045018441159
 31
0.0
  0
LWPOLYLINE
  5
E4
330
1F
100
AcDbEntity
  8
0
  6
CONTINUOUS
 62
   253
100
AcDbPolyline
 90
        8
 70
     0
 43
0.0
 10
552.9661053076303
 20
90.58045018441153
 10
552.953868868896
 20
91.27396168560942
 10
552.9176447889689
 20
91.93997197137294
 10
552.8588695346185
 20
92.55207038763419
 10
552.7798738399847
 20
93.08598415682052
 10
552.683790281258
 20
93.5205409154392
 10
552.5744290542948
 20
93.8385083046662
 10
552.456126881208
 20
94.02727731995422
  0
LINE
  5
E5
330
1F
100
AcDbEntity
  8
0
  6
CONTINUOUS
 62
   253
100
AcDbLine
 10
550.0116820485936
 20
90.58045018441186
 30
0.0
 11
552.9661053076302
 21
90.58045018441159
 31
0.0
  0
LWPOLYLINE
  5
E6
330
1F
100
AcDbEntity
  8
0
  6
CONTINUOUS
 62
   253
100
AcDbPolyline
 90
        8
 70
     0
 43
0.0
 10
583.5438731187921
 20
94.02727731995422
 10
583.4255709457053
 20
93.83850830466622
 10
583.3162097187421
 20
93.52054091543926
 10
583.2201261600154
 20
93.08598415682061
 10
583.1411304653816
 20
92.55207038763434
 10
583.0823552110313
 20
91.93997197137317
 10
583.0461311311041
 20
91.27396168560969
 10
583.0338946923698
 20
90.58045018441186
  0
LINE
  5
E7
330
1F
100
AcDbEntity
  8
0
  6
CONTINUOUS
 62
   253
100
AcDbLine
 10
585.9883179514064
 20
90.58045018441153
 30
0.0
 11
583.0338946923698
 21
90.58045018441186
 31
0.0
  0
LWPOLYLINE
  5
E8
330
1F
100
AcDbEntity
  8
0
  6
CONTINUOUS
 62
   253
100
AcDbPolyline
 90
        8
 70
     0
 43
0.0
 10
583.0338946923698
 20
79.41954981558881
 10
583.0461311311041
 20
78.72603831439092
 10
583.0823552110312
 20
78.06002802862737
 10
583.1411304653816
 20
77.44792961236612
 10
583.2201261600154
 20
76.91401584317978
 10
583.3162097187421
 20
76.47945908456109
 10
583.4255709457053
 20
76.16149169533406
 10
583.5438731187921
 20
75.97272268004603
  0
LINE
  5
E9
330
1F
100
AcDbEntity
  8
0
  6
CONTINUOUS
 62
   253
100
AcDbLine
 10
585.9883179514064
 20
79.41954981558914
 30
0.0
 11
583.0338946923698
 21
79.41954981558887
 31
0.0
  0
LWPOLYLINE
  5
EA
330
1F
100
AcDbEntity
  8
0
  6
CONTINUOUS
 62
   253
100
AcDbPolyline
 90
        8
 70
     0
 43
0.0
 10
561.0338946923698
 20
79.41954981558881
 10
561.0461311311041
 20
78.72603831439092
 10
561.0823552110312
 20
78.06002802862737
 10
561.1411304653816
 20
77.44792961236612
 10
561.2201261600154
 20
76.91401584317978
 10
561.3162097187421
 20
76.47945908456109
 10
561.4255709457053
 20
76.16149169533406
 10
561.5438731187921
 20
75.97272268004603
  0
LINE
  5
EB
330
1F
100
AcDbEntity
  8
0
  6
CONTINUOUS
 62
   253
100
AcDbLine
 10
563.9883179514064
 20
79.41954981558914
 30
0.0
 11
561.0338946923698
 21
79.41954981558887
 31
0.0
  0
LWPOLYLINE
  5
EC
330
1F
100
AcDbEntity
  8
0
  6
CONTINUOUS
 62
   253
100
AcDbPolyline
 90
        8
 70
     0
 43
0.0
 10
539.0338946923698
 20
79.41954981558881
 10
539.0461311311041
 20
78.72603831439092
 10
539.0823552110312
 20
78.06002802862737
 10
539.1411304653816
 20
77.44792961236612
 10
539.2201261600154
 20
76.91401584317978
 10
539.3162097187421
 20
76.47945908456109
 10
539.4255709457053
 20
76.16149169533406
 10
539.5438731187921
 20
75.97272268004603
  0
LINE
  5
ED
330
1F
100
AcDbEntity
  8
0
  6
CONTINUOUS
 62
   253
100
AcDbLine
 10
541.9883179514064
 20
79.41954981558914
 30
0.0
 11
539.0338946923698
 21
79.41954981558887
 31
0.0
  0
LWPOLYLINE
  5
EE
330
1F
100
AcDbEntity
  8
0
  6
CONTINUOUS
 62
   253
100
AcDbPolyline
 90
        8
 70
     0
 43
0.0
 10
495.0338946923699
 20
79.41954981558881
 10
495.0461311311041
 20
78.72603831439092
 10
495.0823552110313
 20
78.06002802862737
 10
495.1411304653816
 20
77.44792961236612
 10
495.2201261600154
 20
76.91401584317978
 10
495.3162097187421
 20
76.47945908456109
 10
495.4255709457054
 20
76.16149169533406
 10
495.5438731187921
 20
75.97272268004603
  0
LINE
  5
EF
330
1F
100
AcDbEntity
  8
0
  6
CONTINUOUS
 62
   253
100
AcDbLine
 10
497.9883179514064
 20
79.41954981558914
 30
0.0
 11
495.0338946923699
 21
79.41954981558887
 31
0.0
  0
LWPOLYLINE
  5
F0
330
1F
100
AcDbEntity
  8
0
  6
CONTINUOUS
 62
   253
100
AcDbPolyline
 90
        8
 70
     0
 43
0.0
 10
473.0338946923699
 20
79.41954981558881
 10
473.0461311311041
 20
78.72603831439092
 10
473.0823552110313
 20
78.06002802862737
 10
473.1411304653816
 20
77.44792961236612
 10
473.2201261600154
 20
76.91401584317978
 10
473.3162097187421
 20
76.47945908456109
 10
473.4255709457054
 20
76.16149169533406
 10
473.5438731187921
 20
75.97272268004603
  0
LINE
  5
F1
330
1F
100
AcDbEntity
  8
0
  6
CONTINUOUS
 62
   253
100
AcDbLine
 10
475.9883179514065
 20
79.41954981558914
 30
0.0
 11
473.0338946923698
 21
79.41954981558887
 31
0.0
  0
LWPOLYLINE
  5
F2
330
1F
100
AcDbEntity
  8
0
  6
CONTINUOUS
 62
   253
100
AcDbPolyline
 90
        8
 70
     0
 43
0.0
 10
517.0338946923697
 20
79.41954981558881
 10
517.046131131104
 20
78.72603831439092
 10
517.0823552110311
 20
78.06002802862737
 10
517.1411304653815
 20
77.44792961236612
 10
517.2201261600153
 20
76.91401584317978
 10
517.316209718742
 20
76.47945908456109
 10
517.4255709457052
 20
76.16149169533406
 10
517.543873118792
 20
75.97272268004603
  0
LINE
  5
F3
330
1F
100
AcDbEntity
  8
0
  6
CONTINUOUS
 62
   253
100
AcDbLine
 10
519.9883179514064
 20
79.41954981558914
 30
0.0
 11
517.0338946923698
 21
79.41954981558887
 31
0.0
  0
LINE
  5
F4
330
1F
100
AcDbEntity
  8
0
  6
CONTINUOUS
 62
   253
100
AcDbLine
 10
509.3836900730606
 20
110.057888556778
 30
0.0
 11
509.3836900730606
 21
94.89727326353155
 31
0.0
  0
LINE
  5
F5
330
1F
100
AcDbEntity
  8
0
  6
CONTINUOUS
 62
   253
100
AcDbLine
 10
560.6163099269395
 20
59.94211144322221
 30
0.0
 11
560.6163099269395
 21
75.10272673646864
 31
0.0
  0
LINE
  5
F6
330
1F
100
AcDbEntity
  8
0
  6
CONTINUOUS
 62
   253
100
AcDbLine
 10
560.6163099269395
 20
75.10272673646864
 30
0.0
 11
560.6163099269395
 21
94.89727326353155
 31
0.0
  0
LINE
  5
F7
330
1F
100
AcDbEntity
  8
0
  6
CONTINUOUS
 62
   253
100
AcDbLine
 10
561.0338946923698
 20
90.58045018441186
 30
0.0
 11
561.0338946923698
 21
79.41954981558881
 31
0.0
  0
LINE
  5
F8
330
1F
100
AcDbEntity
  8
0
  6
CONTINUOUS
 62
   253
100
AcDbLine
 10
531.3836900730606
 20
110.057888556778
 30
0.0
 11
531.3836900730606
 21
94.89727326353155
 31
0.0
  0
LINE
  5
F9
330
1F
100
AcDbEntity
  8
0
  6
CONTINUOUS
 62
   253
100
AcDbLine
 10
553.3836900730606
 20
94.89727326353153
 30
0.0
 11
553.3836900730606
 21
75.10272673646863
 31
0.0
  0
LINE
  5
FA
330
1F
100
AcDbEntity
  8
0
  6
CONTINUOUS
 62
   253
100
AcDbLine
 10
552.9661053076302
 20
79.41954981558914
 30
0.0
 11
552.9661053076302
 21
90.58045018441153
 31
0.0
  0
LINE
  5
FB
330
1F
100
AcDbEntity
  8
0
  6
CONTINUOUS
 62
   253
100
AcDbLine
 10
575.3836900730605
 20
94.89727326353153
 30
0.0
 11
575.3836900730605
 21
75.10272673646863
 31
0.0
  0
LINE
  5
FC
330
1F
100
AcDbEntity
  8
0
  6
CONTINUOUS
 62
   253
100
AcDbLine
 10
574.9661053076303
 20
79.41954981558914
 30
0.0
 11
574.9661053076303
 21
90.58045018441153
 31
0.0
  0
LINE
  5
FD
330
1F
100
AcDbEntity
  8
0
  6
CONTINUOUS
 62
   253
100
AcDbLine
 10
494.6163099269395
 20
59.94211144322221
 30
0.0
 11
494.6163099269395
 21
75.10272673646864
 31
0.0
  0
LINE
  5
FE
330
1F
100
AcDbEntity
  8
0
  6
CONTINUOUS
 62
   253
100
AcDbLine
 10
597.3836900730606
 20
94.89727326353153
 30
0.0
 11
597.3836900730606
 21
75.10272673646863
 31
0.0
  0
LINE
  5
FF
330
1F
100
AcDbEntity
  8
0
  6
CONTINUOUS
 62
   253
100
AcDbLine
 10
596.9661053076303
 20
79.41954981558914
 30
0.0
 11
596.9661053076303
 21
90.58045018441153
 31
0.0
  0
LINE
  5
100
330
1F
100
AcDbEntity
  8
0
  6
CONTINUOUS
 62
   253
100
AcDbLine
 10
531.3836900730606
 20
94.89727326353153
 30
0.0
 11
531.3836900730606
 21
75.10272673646863
 31
0.0
  0
LINE
  5
101
330
1F
100
AcDbEntity
  8
0
  6
CONTINUOUS
 62
   253
100
AcDbLine
 10
530.9661053076302
 20
79.41954981558914
 30
0.0
 11
530.9661053076302
 21
90.58045018441153
 31
0.0
  0
LINE
  5
102
330
1F
100
AcDbEntity
  8
0
  6
CONTINUOUS
 62
   253
100
AcDbLine
 10
538.6163099269394
 20
59.94211144322221
 30
0.0
 11
538.6163099269394
 21
75.10272673646864
 31
0.0
  0
LINE
  5
103
330
1F
100
AcDbEntity
  8
0
  6
CONTINUOUS
 62
   253
100
AcDbLine
 10
494.6163099269395
 20
75.10272673646864
 30
0.0
 11
494.6163099269395
 21
94.89727326353155
 31
0.0
  0
LINE
  5
104
330
1F
100
AcDbEntity
  8
0
  6
CONTINUOUS
 62
   253
100
AcDbLine
 10
495.0338946923699
 20
90.58045018441186
 30
0.0
 11
495.0338946923699
 21
79.41954981558881
 31
0.0
  0
LINE
  5
105
330
1F
100
AcDbEntity
  8
0
  6
CONTINUOUS
 62
   253
100
AcDbLine
 10
516.6163099269394
 20
75.10272673646864
 30
0.0
 11
516.6163099269394
 21
94.89727326353155
 31
0.0
  0
LINE
  5
106
330
1F
100
AcDbEntity
  8
0
  6
CONTINUOUS
 62
   253
100
AcDbLine
 10
517.0338946923698
 20
90.58045018441186
 30
0.0
 11
517.0338946923698
 21
79.41954981558881
 31
0.0
  0
LINE
  5
107
330
1F
100
AcDbEntity
  8
0
  6
CONTINUOUS
 62
   253
100
AcDbLine
 10
509.3836900730606
 20
94.89727326353153
 30
0.0
 11
509.3836900730606
 21
75.10272673646863
 31
0.0
  0
LINE
  5
108
330
1F
100
AcDbEntity
  8
0
  6
CONTINUOUS
 62
   253
100
AcDbLine
 10
508.9661053076302
 20
79.41954981558914
 30
0.0
 11
508.9661053076302
 21
90.58045018441153
 31
0.0
  0
LINE
  5
109
330
1F
100
AcDbEntity
  8
0
  6
CONTINUOUS
 62
   253
100
AcDbLine
 10
538.6163099269394
 20
75.10272673646864
 30
0.0
 11
538.6163099269394
 21
94.89727326353155
 31
0.0
  0
LINE
  5
10A
330
1F
100
AcDbEntity
  8
0
  6
CONTINUOUS
 62
   253
100
AcDbLine
 10
539.0338946923698
 20
90.58045018441186
 30
0.0
 11
539.0338946923698
 21
79.41954981558881
 31
0.0
  0
LINE
  5
10B
330
1F
100
AcDbEntity
  8
0
  6
CONTINUOUS
 62
   253
100
AcDbLine
 10
575.3836900730605
 20
110.057888556778
 30
0.0
 11
575.3836900730605
 21
94.89727326353155
 31
0.0
  0
LINE
  5
10C
330
1F
100
AcDbEntity
  8
0
  6
CONTINUOUS
 62
   253
100
AcDbLine
 10
487.3836900730606
 20
110.057888556778
 30
0.0
 11
487.3836900730606
 21
94.89727326353155
 31
0.0
  0
LINE
  5
10D
330
1F
100
AcDbEntity
  8
0
  6
CONTINUOUS
 62
   253
100
AcDbLine
 10
582.6163099269395
 20
59.94211144322221
 30
0.0
 11
582.6163099269395
 21
75.10272673646864
 31
0.0
  0
LINE
  5
10E
330
1F
100
AcDbEntity
  8
0
  6
CONTINUOUS
 62
   253
100
AcDbLine
 10
472.6163099269395
 20
59.94211144322221
 30
0.0
 11
472.6163099269395
 21
75.10272673646864
 31
0.0
  0
LINE
  5
10F
330
1F
100
AcDbEntity
  8
0
  6
CONTINUOUS
 62
   253
100
AcDbLine
 10
582.6163099269395
 20
75.10272673646864
 30
0.0
 11
582.6163099269395
 21
94.89727326353155
 31
0.0
  0
LINE
  5
110
330
1F
100
AcDbEntity
  8
0
  6
CONTINUOUS
 62
   253
100
AcDbLine
 10
583.0338946923698
 20
90.58045018441186
 30
0.0
 11
583.0338946923698
 21
79.41954981558881
 31
0.0
  0
LINE
  5
111
330
1F
100
AcDbEntity
  8
0
  6
CONTINUOUS
 62
   253
100
AcDbLine
 10
553.3836900730606
 20
110.057888556778
 30
0.0
 11
553.3836900730606
 21
94.89727326353155
 31
0.0
  0
LINE
  5
112
330
1F
100
AcDbEntity
  8
0
  6
CONTINUOUS
 62
   253
100
AcDbLine
 10
487.3836900730606
 20
94.89727326353153
 30
0.0
 11
487.3836900730606
 21
75.10272673646863
 31
0.0
  0
LINE
  5
113
330
1F
100
AcDbEntity
  8
0
  6
CONTINUOUS
 62
   253
100
AcDbLine
 10
486.9661053076302
 20
79.41954981558914
 30
0.0
 11
486.9661053076302
 21
90.58045018441153
 31
0.0
  0
LINE
  5
114
330
1F
100
AcDbEntity
  8
0
  6
CONTINUOUS
 62
   253
100
AcDbLine
 10
516.6163099269394
 20
59.94211144322221
 30
0.0
 11
516.6163099269394
 21
75.10272673646864
 31
0.0
  0
LINE
  5
115
330
1F
100
AcDbEntity
  8
0
  6
CONTINUOUS
 62
   253
100
AcDbLine
 10
472.6163099269395
 20
75.10272673646864
 30
0.0
 11
472.6163099269395
 21
94.89727326353155
 31
0.0
  0
LINE
  5
116
330
1F
100
AcDbEntity
  8
0
  6
CONTINUOUS
 62
   253
100
AcDbLine
 10
473.0338946923699
 20
90.58045018441186
 30
0.0
 11
473.0338946923699
 21
79.41954981558881
 31
0.0
  0
LINE
  5
117
330
1F
100
AcDbEntity
  8
0
  6
CONTINUOUS
 62
   253
100
AcDbLine
 10
597.3836900730606
 20
110.057888556778
 30
0.0
 11
597.3836900730606
 21
94.89727326353155
 31
0.0
  0
LINE
  5
118
330
1F
100
AcDbEntity
  8
0
  6
CONTINUOUS
 62
   253
100
AcDbLine
 10
487.3836900730606
 20
75.10272673646864
 30
0.0
 11
487.3836900730606
 21
59.94211144322222
 31
0.0
  0
LINE
  5
119
330
1F
100
AcDbEntity
  8
0
  6
CONTINUOUS
 62
   253
100
AcDbLine
 10
575.3836900730605
 20
75.10272673646864
 30
0.0
 11
575.3836900730605
 21
59.94211144322222
 31
0.0
  0
LINE
  5
11A
330
1F
100
AcDbEntity
  8
0
  6
CONTINUOUS
 62
   253
100
AcDbLine
 10
582.6163099269395
 20
94.89727326353153
 30
0.0
 11
582.6163099269395
 21
110.057888556778
 31
0.0
  0
LINE
  5
11B
330
1F
100
AcDbEntity
  8
0
  6
CONTINUOUS
 62
   253
100
AcDbLine
 10
509.3836900730606
 20
75.10272673646864
 30
0.0
 11
509.3836900730606
 21
59.94211144322222
 31
0.0
  0
LINE
  5
11C
330
1F
100
AcDbEntity
  8
0
  6
CONTINUOUS
 62
   253
100
AcDbLine
 10
553.3836900730606
 20
75.10272673646864
 30
0.0
 11
553.3836900730606
 21
59.94211144322222
 31
0.0
  0
LINE
  5
11D
330
1F
100
AcDbEntity
  8
0
  6
CONTINUOUS
 62
   253
100
AcDbLine
 10
538.6163099269394
 20
94.89727326353153
 30
0.0
 11
538.6163099269394
 21
110.057888556778
 31
0.0
  0
LINE
  5
11E
330
1F
100
AcDbEntity
  8
0
  6
CONTINUOUS
 62
   253
100
AcDbLine
 10
494.6163099269395
 20
94.89727326353153
 30
0.0
 11
494.6163099269395
 21
110.057888556778
 31
0.0
  0
LINE
  5
11F
330
1F
100
AcDbEntity
  8
0
  6
CONTINUOUS
 62
   253
100
AcDbLine
 10
516.6163099269394
 20
94.89727326353153
 30
0.0
 11
516.6163099269394
 21
110.057888556778
 31
0.0
  0
LINE
  5
120
330
1F
100
AcDbEntity
  8
0
  6
CONTINUOUS
 62
   253
100
AcDbLine
 10
560.6163099269395
 20
94.89727326353153
 30
0.0
 11
560.6163099269395
 21
110.057888556778
 31
0.0
  0
LINE
  5
121
330
1F
100
AcDbEntity
  8
0
  6
CONTINUOUS
 62
   253
100
AcDbLine
 10
597.3836900730606
 20
75.10272673646864
 30
0.0
 11
597.3836900730606
 21
59.94211144322222
 31
0.0
  0
LINE
  5
122
330
1F
100
AcDbEntity
  8
0
  6
CONTINUOUS
 62
   253
100
AcDbLine
 10
531.3836900730606
 20
75.10272673646864
 30
0.0
 11
531.3836900730606
 21
59.94211144322222
 31
0.0
  0
LINE
  5
123
330
1F
100
AcDbEntity
  8
0
  6
CONTINUOUS
 62
   253
100
AcDbLine
 10
472.6163099269395
 20
94.89727326353153
 30
0.0
 11
472.6163099269395
 21
110.057888556778
 31
0.0
  0
LINE
  5
124
330
1F
100
AcDbEntity
  8
0
  6
CONTINUOUS
 62
   253
100
AcDbLine
 10
497.9883179514064
 20
90.58045018441153
 30
0.0
 11
506.0116820485936
 21
90.58045018441153
 31
0.0
  0
LINE
  5
125
330
1F
100
AcDbEntity
  8
0
  6
CONTINUOUS
 62
   253
100
AcDbLine
 10
475.9883179514065
 20
79.41954981558881
 30
0.0
 11
484.0116820485936
 21
79.41954981558881
 31
0.0
  0
LINE
  5
126
330
1F
100
AcDbEntity
  8
0
  6
CONTINUOUS
 62
   253
100
AcDbLine
 10
497.9883179514064
 20
79.41954981558881
 30
0.0
 11
506.0116820485936
 21
79.41954981558881
 31
0.0
  0
LINE
  5
127
330
1F
100
AcDbEntity
  8
0
  6
CONTINUOUS
 62
   253
100
AcDbLine
 10
541.9883179514064
 20
90.58045018441153
 30
0.0
 11
550.0116820485936
 21
90.58045018441153
 31
0.0
  0
LINE
  5
128
330
1F
100
AcDbEntity
  8
0
  6
CONTINUOUS
 62
   253
100
AcDbLine
 10
541.9883179514064
 20
79.41954981558881
 30
0.0
 11
550.0116820485935
 21
79.41954981558881
 31
0.0
  0
LINE
  5
129
330
1F
100
AcDbEntity
  8
0
  6
CONTINUOUS
 62
   253
100
AcDbLine
 10
475.9883179514065
 20
90.58045018441153
 30
0.0
 11
484.0116820485936
 21
90.58045018441153
 31
0.0
  0
LINE
  5
12A
330
1F
100
AcDbEntity
  8
0
  6
CONTINUOUS
 62
   253
100
AcDbLine
 10
585.9883179514064
 20
79.41954981558881
 30
0.0
 11
594.0116820485936
 21
79.41954981558881
 31
0.0
  0
LINE
  5
12B
330
1F
100
AcDbEntity
  8
0
  6
CONTINUOUS
 62
   253
100
AcDbLine
 10
519.9883179514064
 20
79.41954981558881
 30
0.0
 11
528.0116820485935
 21
79.41954981558881
 31
0.0
  0
LINE
  5
12C
330
1F
100
AcDbEntity
  8
0
  6
CONTINUOUS
 62
   253
100
AcDbLine
 10
585.9883179514064
 20
90.58045018441153
 30
0.0
 11
594.0116820485937
 21
90.58045018441153
 31
0.0
  0
LINE
  5
12D
330
1F
100
AcDbEntity
  8
0
  6
CONTINUOUS
 62
   253
100
AcDbLine
 10
519.9883179514064
 20
90.58045018441153
 30
0.0
 11
528.0116820485936
 21
90.58045018441153
 31
0.0
  0
LINE
  5
12E
330
1F
100
AcDbEntity
  8
0
  6
CONTINUOUS
 62
   253
100
AcDbLine
 10
563.9883179514064
 20
90.58045018441153
 30
0.0
 11
572.0116820485937
 21
90.58045018441153
 31
0.0
  0
LINE
  5
12F
330
1F
100
AcDbEntity
  8
0
  6
CONTINUOUS
 62
   253
100
AcDbLine
 10
563.9883179514064
 20
79.41954981558881
 30
0.0
 11
572.0116820485936
 21
79.41954981558881
 31
0.0
  0
LINE
  5
130
330
1F
100
AcDbEntity
  8
0
  6
CONTINUOUS
 62
   253
100
AcDbLine
 10
575.3836900730605
 20
126.7557089616567
 30
0.0
 11
575.3836900730605
 21
110.057888556778
 31
0.0
  0
LINE
  5
131
330
1F
100
AcDbEntity
  8
0
  6
CONTINUOUS
 62
   253
100
AcDbLine
 10
516.6163099269394
 20
110.057888556778
 30
0.0
 11
516.6163099269394
 21
126.7557089616567
 31
0.0
  0
LINE
  5
132
330
1F
100
AcDbEntity
  8
0
  6
CONTINUOUS
 62
   253
100
AcDbLine
 10
509.3836900730606
 20
126.7557089616567
 30
0.0
 11
509.3836900730606
 21
110.057888556778
 31
0.0
  0
LINE
  5
133
330
1F
100
AcDbEntity
  8
0
  6
CONTINUOUS
 62
   253
100
AcDbLine
 10
487.3836900730606
 20
126.7557089616567
 30
0.0
 11
487.3836900730606
 21
110.057888556778
 31
0.0
  0
LINE
  5
134
330
1F
100
AcDbEntity
  8
0
  6
CONTINUOUS
 62
   253
100
AcDbLine
 10
597.3836900730606
 20
126.7557089616567
 30
0.0
 11
597.3836900730606
 21
110.057888556778
 31
0.0
  0
LINE
  5
135
330
1F
100
AcDbEntity
  8
0
  6
CONTINUOUS
 62
   253
100
AcDbLine
 10
553.3836900730606
 20
126.7557089616567
 30
0.0
 11
553.3836900730606
 21
110.057888556778
 31
0.0
  0
LINE
  5
136
330
1F
100
AcDbEntity
  8
0
  6
CONTINUOUS
 62
   253
100
AcDbLine
 10
531.3836900730606
 20
126.7557089616567
 30
0.0
 11
531.3836900730606
 21
110.057888556778
 31
0.0
  0
LINE
  5
137
330
1F
100
AcDbEntity
  8
0
  6
CONTINUOUS
 62
   253
100
AcDbLine
 10
582.6163099269395
 20
110.057888556778
 30
0.0
 11
582.6163099269395
 21
126.7557089616567
 31
0.0
  0
LINE
  5
138
330
1F
100
AcDbEntity
  8
0
  6
CONTINUOUS
 62
   253
100
AcDbLine
 10
560.6163099269395
 20
110.057888556778
 30
0.0
 11
560.6163099269395
 21
126.7557089616567
 31
0.0
  0
LINE
  5
139
330
1F
100
AcDbEntity
  8
0
  6
CONTINUOUS
 62
   253
100
AcDbLine
 10
538.6163099269394
 20
110.057888556778
 30
0.0
 11
538.6163099269394
 21
126.7557089616567
 31
0.0
  0
LINE
  5
13A
330
1F
100
AcDbEntity
  8
0
  6
CONTINUOUS
 62
   253
100
AcDbLine
 10
472.6163099269395
 20
110.057888556778
 30
0.0
 11
472.6163099269395
 21
126.7557089616567
 31
0.0
  0
LINE
  5
13B
330
1F
100
AcDbEntity
  8
0
  6
CONTINUOUS
 62
   253
100
AcDbLine
 10
494.6163099269395
 20
110.057888556778
 30
0.0
 11
494.6163099269395
 21
126.7557089616567
 31
0.0
  0
LINE
  5
13C
330
1F
100
AcDbEntity
  8
0
  6
CONTINUOUS
 62
   253
100
AcDbLine
 10
509.3836900730606
 20
59.94211144322221
 30
0.0
 11
509.3836900730606
 21
43.24429103834357
 31
0.0
  0
LINE
  5
13D
330
1F
100
AcDbEntity
  8
0
  6
CONTINUOUS
 62
   253
100
AcDbLine
 10
553.3836900730606
 20
59.94211144322221
 30
0.0
 11
553.3836900730606
 21
43.24429103834357
 31
0.0
  0
LINE
  5
13E
330
1F
100
AcDbEntity
  8
0
  6
CONTINUOUS
 62
   253
100
AcDbLine
 10
531.3836900730606
 20
59.94211144322221
 30
0.0
 11
531.3836900730606
 21
43.24429103834357
 31
0.0
  0
LINE
  5
13F
330
1F
100
AcDbEntity
  8
0
  6
CONTINUOUS
 62
   253
100
AcDbLine
 10
575.3836900730605
 20
59.94211144322221
 30
0.0
 11
575.3836900730605
 21
43.24429103834357
 31
0.0
  0
LINE
  5
140
330
1F
100
AcDbEntity
  8
0
  6
CONTINUOUS
 62
   253
100
AcDbLine
 10
597.3836900730606
 20
59.94211144322221
 30
0.0
 11
597.3836900730606
 21
43.24429103834357
 31
0.0
  0
LINE
  5
141
330
1F
100
AcDbEntity
  8
0
  6
CONTINUOUS
 62
   253
100
AcDbLine
 10
487.3836900730606
 20
59.94211144322221
 30
0.0
 11
487.3836900730606
 21
43.24429103834357
 31
0.0
  0
LINE
  5
142
330
1F
100
AcDbEntity
  8
0
  6
CONTINUOUS
 62
   253
100
AcDbLine
 10
538.6163099269394
 20
43.24429103834354
 30
0.0
 11
538.6163099269394
 21
59.94211144322222
 31
0.0
  0
LINE
  5
143
330
1F
100
AcDbEntity
  8
0
  6
CONTINUOUS
 62
   253
100
AcDbLine
 10
472.6163099269395
 20
43.24429103834354
 30
0.0
 11
472.6163099269395
 21
59.94211144322222
 31
0.0
  0
LINE
  5
144
330
1F
100
AcDbEntity
  8
0
  6
CONTINUOUS
 62
   253
100
AcDbLine
 10
516.6163099269394
 20
43.24429103834354
 30
0.0
 11
516.6163099269394
 21
59.94211144322222
 31
0.0
  0
LINE
  5
145
330
1F
100
AcDbEntity
  8
0
  6
CONTINUOUS
 62
   253
100
AcDbLine
 10
494.6163099269395
 20
43.24429103834354
 30
0.0
 11
494.6163099269395
 21
59.94211144322222
 31
0.0
  0
LINE
  5
146
330
1F
100
AcDbEntity
  8
0
  6
CONTINUOUS
 62
   253
100
AcDbLine
 10
582.6163099269395
 20
43.24429103834354
 30
0.0
 11
582.6163099269395
 21
59.94211144322222
 31
0.0
  0
LINE
  5
147
330
1F
100
AcDbEntity
  8
0
  6
CONTINUOUS
 62
   253
100
AcDbLine
 10
560.6163099269395
 20
43.24429103834354
 30
0.0
 11
560.6163099269395
 21
59.94211144322222
 31
0.0
  0
LINE
  5
148
330
1F
100
AcDbEntity
  8
0
  6
CONTINUOUS
 62
     7
100
AcDbLine
 10
601.0
 20
75.12436181230626
 30
0.0
 11
601.0
 21
94.87563818769414
 31
0.0
  0
LINE
  5
149
330
1F
100
AcDbEntity
  8
0
  6
CONTINUOUS
 62
     7
100
AcDbLine
 10
601.0
 20
59.98537418109691
 30
0.0
 11
601.0
 21
75.12436181230626
 31
0.0
  0
LINE
  5
14A
330
1F
100
AcDbEntity
  8
0
  6
CONTINUOUS
 62
     7
100
AcDbLine
 10
469.0000000000001
 20
75.12436181230626
 30
0.0
 11
469.0000000000001
 21
59.98537418109691
 31
0.0
  0
LINE
  5
14B
330
1F
100
AcDbEntity
  8
0
  6
CONTINUOUS
 62
     7
100
AcDbLine
 10
469.0000000000001
 20
94.87563818769414
 30
0.0
 11
469.0000000000001
 21
75.12436181230626
 31
0.0
  0
LINE
  5
14C
330
1F
100
AcDbEntity
  8
0
  6
CONTINUOUS
 62
     7
100
AcDbLine
 10
469.0000000000001
 20
110.0146258189033
 30
0.0
 11
469.0000000000001
 21
94.87563818769412
 31
0.0
  0
LINE
  5
14D
330
1F
100
AcDbEntity
  8
0
  6
CONTINUOUS
 62
     7
100
AcDbLine
 10
601.0
 20
94.87563818769414
 30
0.0
 11
601.0
 21
110.0146258189033
 31
0.0
  0
LINE
  5
14E
330
1F
100
AcDbEntity
  8
0
  6
CONTINUOUS
 62
     7
100
AcDbLine
 10
469.0000000000001
 20
59.98537418109691
 30
0.0
 11
469.0000000000001
 21
44.89642834274786
 31
0.0
  0
LINE
  5
14F
330
1F
100
AcDbEntity
  8
0
  6
CONTINUOUS
 62
     7
100
AcDbLine
 10
601.0
 20
44.89642834274785
 30
0.0
 11
601.0
 21
59.98537418109691
 31
0.0
  0
LINE
  5
150
330
1F
100
AcDbEntity
  8
0
  6
CONTINUOUS
 62
     7
100
AcDbLine
 10
601.0
 20
110.0146258189033
 30
0.0
 11
601.0
 21
125.1035716572524
 31
0.0
  0
LINE
  5
151
330
1F
100
AcDbEntity
  8
0
  6
CONTINUOUS
 62
     7
100
AcDbLine
 10
469.0000000000001
 20
125.1035716572524
 30
0.0
 11
469.0000000000001
 21
110.0146258189033
 31
0.0
  0
LINE
  5
152
330
1F
100
AcDbEntity
  8
0
  6
CONTINUOUS
 62
     7
100
AcDbLine
 10
593.4827011064682
 20
135.0000000000002
 30
0.0
 11
586.5172988935319
 21
135.0000000000002
 31
0.0
  0
LINE
  5
153
330
1F
100
AcDbEntity
  8
0
  6
CONTINUOUS
 62
   253
100
AcDbLine
 10
530.4371243655048
 20
132.1221102879138
 30
0.0
 11
530.4371243655048
 21
132.5209445330009
 31
0.0
  0
ARC
  5
154
330
1F
100
AcDbEntity
  8
0
  6
CONTINUOUS
 62
     7
100
AcDbCircle
 10
527.4827011064682
 20
131.9999999999958
 30
0.0
 40
3.0
100
AcDbArc
 50
10.0
 51
90.0
  0
LINE
  5
155
330
1F
100
AcDbEntity
  8
0
  6
CONTINUOUS
 62
   253
100
AcDbLine
 10
486.4371243655048
 20
37.47905546699934
 30
0.0
 11
486.4371243655048
 21
37.87788971208654
 31
0.0
  0
ARC
  5
156
330
1F
100
AcDbEntity
  8
0
  6
CONTINUOUS
 62
     7
100
AcDbCircle
 10
483.4827011064682
 20
37.99999999999985
 30
0.0
 40
3.0
100
AcDbArc
 50
270.0
 51
349.9999999999999
  0
LINE
  5
157
330
1F
100
AcDbEntity
  8
0
  6
CONTINUOUS
 62
     7
100
AcDbLine
 10
505.4827011064682
 20
135.0000000000002
 30
0.0
 11
498.5172988935319
 21
135.0000000000002
 31
0.0
  0
LINE
  5
158
330
1F
100
AcDbEntity
  8
0
  6
CONTINUOUS
 62
   253
100
AcDbLine
 10
508.4371243655048
 20
132.1221102879138
 30
0.0
 11
508.4371243655048
 21
132.5209445330009
 31
0.0
  0
ARC
  5
159
330
1F
100
AcDbEntity
  8
0
  6
CONTINUOUS
 62
     7
100
AcDbCircle
 10
505.4827011064682
 20
131.9999999999958
 30
0.0
 40
3.0
100
AcDbArc
 50
10.0
 51
90.0
  0
LINE
  5
15A
330
1F
100
AcDbEntity
  8
0
  6
CONTINUOUS
 62
     7
100
AcDbLine
 10
593.4827011064682
 20
35.00000000000014
 30
0.0
 11
586.5172988935319
 21
35.00000000000014
 31
0.0
  0
LINE
  5
15B
330
1F
100
AcDbEntity
  8
0
  6
CONTINUOUS
 62
     7
100
AcDbLine
 10
571.4827011064681
 20
35.00000000000014
 30
0.0
 11
564.5172988935318
 21
35.00000000000014
 31
0.0
  0
LINE
  5
15C
330
1F
100
AcDbEntity
  8
0
  6
CONTINUOUS
 62
     7
100
AcDbLine
 10
549.4827011064682
 20
35.00000000000014
 30
0.0
 11
542.5172988935319
 21
35.00000000000014
 31
0.0
  0
LINE
  5
15D
330
1F
100
AcDbEntity
  8
0
  6
CONTINUOUS
 62
   253
100
AcDbLine
 10
539.5628756344952
 20
132.5209445330009
 30
0.0
 11
539.5628756344952
 21
132.1221102879138
 31
0.0
  0
ARC
  5
15E
330
1F
100
AcDbEntity
  8
0
  6
CONTINUOUS
 62
     7
100
AcDbCircle
 10
542.5172988935318
 20
132.0000000000001
 30
0.0
 40
3.0
100
AcDbArc
 50
90.0000000000003
 51
170.0
  0
LINE
  5
15F
330
1F
100
AcDbEntity
  8
0
  6
CONTINUOUS
 62
   253
100
AcDbLine
 10
583.5628756344953
 20
132.5209445330009
 30
0.0
 11
583.5628756344953
 21
132.1221102879138
 31
0.0
  0
ARC
  5
160
330
1F
100
AcDbEntity
  8
0
  6
CONTINUOUS
 62
     7
100
AcDbCircle
 10
586.5172988935319
 20
132.0000000000001
 30
0.0
 40
3.0
100
AcDbArc
 50
90.0000000000003
 51
170.0
  0
LINE
  5
161
330
1F
100
AcDbEntity
  8
0
  6
CONTINUOUS
 62
   253
100
AcDbLine
 10
552.4371243655048
 20
37.47905546699934
 30
0.0
 11
552.4371243655048
 21
37.87788971208654
 31
0.0
  0
ARC
  5
162
330
1F
100
AcDbEntity
  8
0
  6
CONTINUOUS
 62
     7
100
AcDbCircle
 10
549.4827011064682
 20
37.99999999999985
 30
0.0
 40
3.0
100
AcDbArc
 50
269.9999999999999
 51
349.9999999999999
  0
LINE
  5
163
330
1F
100
AcDbEntity
  8
0
  6
CONTINUOUS
 62
   253
100
AcDbLine
 10
495.5628756344952
 20
37.87788971208656
 30
0.0
 11
495.5628756344952
 21
37.47905546699936
 31
0.0
  0
ARC
  5
164
330
1F
100
AcDbEntity
  8
0
  6
CONTINUOUS
 62
     7
100
AcDbCircle
 10
498.5172988935319
 20
38.00000000000023
 30
0.0
 40
3.0
100
AcDbArc
 50
190.0000000000002
 51
270.0000000000002
  0
LINE
  5
165
330
1F
100
AcDbEntity
  8
0
  6
CONTINUOUS
 62
   253
100
AcDbLine
 10
508.4371243655048
 20
37.47905546699934
 30
0.0
 11
508.4371243655048
 21
37.87788971208654
 31
0.0
  0
ARC
  5
166
330
1F
100
AcDbEntity
  8
0
  6
CONTINUOUS
 62
     7
100
AcDbCircle
 10
505.4827011064682
 20
37.99999999999985
 30
0.0
 40
3.0
100
AcDbArc
 50
270.0
 51
349.9999999999999
  0
LINE
  5
167
330
1F
100
AcDbEntity
  8
0
  6
CONTINUOUS
 62
   253
100
AcDbLine
 10
473.5628756344953
 20
132.5209445330009
 30
0.0
 11
473.5628756344953
 21
132.1221102879138
 31
0.0
  0
ARC
  5
168
330
1F
100
AcDbEntity
  8
0
  6
CONTINUOUS
 62
     7
100
AcDbCircle
 10
476.5172988935319
 20
132.0000000000001
 30
0.0
 40
3.0
100
AcDbArc
 50
90.0000000000003
 51
170.0000000000001
  0
LINE
  5
169
330
1F
100
AcDbEntity
  8
0
  6
CONTINUOUS
 62
   253
100
AcDbLine
 10
596.4371243655048
 20
37.47905546699934
 30
0.0
 11
596.4371243655048
 21
37.87788971208654
 31
0.0
  0
ARC
  5
16A
330
1F
100
AcDbEntity
  8
0
  6
CONTINUOUS
 62
     7
100
AcDbCircle
 10
593.4827011064682
 20
37.99999999999985
 30
0.0
 40
3.0
100
AcDbArc
 50
269.9999999999999
 51
349.9999999999999
  0
LINE
  5
16B
330
1F
100
AcDbEntity
  8
0
  6
CONTINUOUS
 62
   253
100
AcDbLine
 10
596.4371243655048
 20
132.1221102879138
 30
0.0
 11
596.4371243655048
 21
132.5209445330009
 31
0.0
  0
ARC
  5
16C
330
1F
100
AcDbEntity
  8
0
  6
CONTINUOUS
 62
     7
100
AcDbCircle
 10
593.4827011064682
 20
131.9999999999958
 30
0.0
 40
3.0
100
AcDbArc
 50
10.0
 51
90.0
  0
LINE
  5
16D
330
1F
100
AcDbEntity
  8
0
  6
CONTINUOUS
 62
   253
100
AcDbLine
 10
552.4371243655048
 20
132.1221102879138
 30
0.0
 11
552.4371243655048
 21
132.5209445330009
 31
0.0
  0
ARC
  5
16E
330
1F
100
AcDbEntity
  8
0
  6
CONTINUOUS
 62
     7
100
AcDbCircle
 10
549.4827011064682
 20
131.9999999999958
 30
0.0
 40
3.0
100
AcDbArc
 50
10.0
 51
90.0
  0
LINE
  5
16F
330
1F
100
AcDbEntity
  8
0
  6
CONTINUOUS
 62
   253
100
AcDbLine
 10
517.5628756344952
 20
37.87788971208656
 30
0.0
 11
517.5628756344952
 21
37.47905546699936
 31
0.0
  0
ARC
  5
170
330
1F
100
AcDbEntity
  8
0
  6
CONTINUOUS
 62
     7
100
AcDbCircle
 10
520.5172988935318
 20
38.00000000000023
 30
0.0
 40
3.0
100
AcDbArc
 50
190.0000000000002
 51
270.0000000000002
  0
LINE
  5
171
330
1F
100
AcDbEntity
  8
0
  6
CONTINUOUS
 62
   253
100
AcDbLine
 10
574.4371243655048
 20
37.47905546699934
 30
0.0
 11
574.4371243655048
 21
37.87788971208654
 31
0.0
  0
ARC
  5
172
330
1F
100
AcDbEntity
  8
0
  6
CONTINUOUS
 62
     7
100
AcDbCircle
 10
571.4827011064682
 20
37.99999999999985
 30
0.0
 40
3.0
100
AcDbArc
 50
269.9999999999997
 51
349.9999999999999
  0
LINE
  5
173
330
1F
100
AcDbEntity
  8
0
  6
CONTINUOUS
 62
   253
100
AcDbLine
 10
561.5628756344952
 20
132.5209445330009
 30
0.0
 11
561.5628756344952
 21
132.1221102879138
 31
0.0
  0
ARC
  5
174
330
1F
100
AcDbEntity
  8
0
  6
CONTINUOUS
 62
     7
100
AcDbCircle
 10
564.5172988935318
 20
132.0000000000001
 30
0.0
 40
3.0
100
AcDbArc
 50
90.0000000000003
 51
170.0
  0
LINE
  5
175
330
1F
100
AcDbEntity
  8
0
  6
CONTINUOUS
 62
   253
100
AcDbLine
 10
495.5628756344952
 20
132.5209445330009
 30
0.0
 11
495.5628756344952
 21
132.1221102879138
 31
0.0
  0
ARC
  5
176
330
1F
100
AcDbEntity
  8
0
  6
CONTINUOUS
 62
     7
100
AcDbCircle
 10
498.5172988935319
 20
132.0000000000001
 30
0.0
 40
3.0
100
AcDbArc
 50
90.0000000000003
 51
170.0
  0
LINE
  5
177
330
1F
100
AcDbEntity
  8
0
  6
CONTINUOUS
 62
   253
100
AcDbLine
 10
530.4371243655048
 20
37.47905546699934
 30
0.0
 11
530.4371243655048
 21
37.87788971208654
 31
0.0
  0
ARC
  5
178
330
1F
100
AcDbEntity
  8
0
  6
CONTINUOUS
 62
     7
100
AcDbCircle
 10
527.4827011064682
 20
37.99999999999985
 30
0.0
 40
3.0
100
AcDbArc
 50
270.0
 51
349.9999999999999
  0
LINE
  5
179
330
1F
100
AcDbEntity
  8
0
  6
CONTINUOUS
 62
     7
100
AcDbLine
 10
527.4827011064682
 20
135.0000000000002
 30
0.0
 11
520.5172988935319
 21
135.0000000000002
 31
0.0
  0
LINE
  5
17A
330
1F
100
AcDbEntity
  8
0
  6
CONTINUOUS
 62
     7
100
AcDbLine
 10
571.4827011064681
 20
135.0000000000002
 30
0.0
 11
564.5172988935318
 21
135.0000000000002
 31
0.0
  0
LINE
  5
17B
330
1F
100
AcDbEntity
  8
0
  6
CONTINUOUS
 62
     7
100
AcDbLine
 10
527.4827011064682
 20
35.00000000000014
 30
0.0
 11
520.5172988935319
 21
35.00000000000014
 31
0.0
  0
LINE
  5
17C
330
1F
100
AcDbEntity
  8
0
  6
CONTINUOUS
 62
   253
100
AcDbLine
 10
517.5628756344952
 20
132.5209445330009
 30
0.0
 11
517.5628756344952
 21
132.1221102879138
 31
0.0
  0
ARC
  5
17D
330
1F
100
AcDbEntity
  8
0
  6
CONTINUOUS
 62
     7
100
AcDbCircle
 10
520.5172988935318
 20
132.0000000000001
 30
0.0
 40
3.0
100
AcDbArc
 50
90.0000000000003
 51
170.0
  0
LINE
  5
17E
330
1F
100
AcDbEntity
  8
0
  6
CONTINUOUS
 62
     7
100
AcDbLine
 10
549.4827011064682
 20
135.0000000000002
 30
0.0
 11
542.5172988935319
 21
135.0000000000002
 31
0.0
  0
LINE
  5
17F
330
1F
100
AcDbEntity
  8
0
  6
CONTINUOUS
 62
     7
100
AcDbLine
 10
505.4827011064682
 20
35.00000000000014
 30
0.0
 11
498.5172988935319
 21
35.00000000000014
 31
0.0
  0
LINE
  5
180
330
1F
100
AcDbEntity
  8
0
  6
CONTINUOUS
 62
   253
100
AcDbLine
 10
583.5628756344953
 20
37.87788971208656
 30
0.0
 11
583.5628756344953
 21
37.47905546699936
 31
0.0
  0
ARC
  5
181
330
1F
100
AcDbEntity
  8
0
  6
CONTINUOUS
 62
     7
100
AcDbCircle
 10
586.5172988935319
 20
38.00000000000023
 30
0.0
 40
3.0
100
AcDbArc
 50
190.0000000000002
 51
270.0000000000002
  0
LINE
  5
182
330
1F
100
AcDbEntity
  8
0
  6
CONTINUOUS
 62
     7
100
AcDbLine
 10
483.4827011064682
 20
35.00000000000014
 30
0.0
 11
476.5172988935318
 21
35.00000000000014
 31
0.0
  0
LINE
  5
183
330
1F
100
AcDbEntity
  8
0
  6
CONTINUOUS
 62
   253
100
AcDbLine
 10
574.4371243655048
 20
132.1221102879138
 30
0.0
 11
574.4371243655048
 21
132.5209445330009
 31
0.0
  0
ARC
  5
184
330
1F
100
AcDbEntity
  8
0
  6
CONTINUOUS
 62
     7
100
AcDbCircle
 10
571.4827011064681
 20
131.9999999999958
 30
0.0
 40
3.0
100
AcDbArc
 50
10.0
 51
90.0
  0
LINE
  5
185
330
1F
100
AcDbEntity
  8
0
  6
CONTINUOUS
 62
   253
100
AcDbLine
 10
473.5628756344953
 20
37.87788971208656
 30
0.0
 11
473.5628756344953
 21
37.47905546699936
 31
0.0
  0
ARC
  5
186
330
1F
100
AcDbEntity
  8
0
  6
CONTINUOUS
 62
     7
100
AcDbCircle
 10
476.5172988935319
 20
38.00000000000023
 30
0.0
 40
3.0
100
AcDbArc
 50
190.0000000000002
 51
270.0000000000002
  0
LINE
  5
187
330
1F
100
AcDbEntity
  8
0
  6
CONTINUOUS
 62
   253
100
AcDbLine
 10
486.4371243655048
 20
132.1221102879138
 30
0.0
 11
486.4371243655048
 21
132.5209445330009
 31
0.0
  0
ARC
  5
188
330
1F
100
AcDbEntity
  8
0
  6
CONTINUOUS
 62
     7
100
AcDbCircle
 10
483.4827011064682
 20
131.9999999999958
 30
0.0
 40
3.0
100
AcDbArc
 50
10.0
 51
90.0
  0
LINE
  5
189
330
1F
100
AcDbEntity
  8
0
  6
CONTINUOUS
 62
     7
100
AcDbLine
 10
483.4827011064682
 20
135.0000000000002
 30
0.0
 11
476.5172988935318
 21
135.0000000000002
 31
0.0
  0
LINE
  5
18A
330
1F
100
AcDbEntity
  8
0
  6
CONTINUOUS
 62
   253
100
AcDbLine
 10
539.5628756344952
 20
37.87788971208656
 30
0.0
 11
539.5628756344952
 21
37.47905546699936
 31
0.0
  0
ARC
  5
18B
330
1F
100
AcDbEntity
  8
0
  6
CONTINUOUS
 62
     7
100
AcDbCircle
 10
542.5172988935318
 20
38.00000000000023
 30
0.0
 40
3.0
100
AcDbArc
 50
190.0000000000002
 51
270.0000000000002
  0
LINE
  5
18C
330
1F
100
AcDbEntity
  8
0
  6
CONTINUOUS
 62
   253
100
AcDbLine
 10
561.5628756344952
 20
37.87788971208656
 30
0.0
 11
561.5628756344952
 21
37.47905546699936
 31
0.0
  0
ARC
  5
18D
330
1F
100
AcDbEntity
  8
0
  6
CONTINUOUS
 62
     7
100
AcDbCircle
 10
564.5172988935318
 20
38.00000000000023
 30
0.0
 40
3.0
100
AcDbArc
 50
190.0000000000002
 51
270.0000000000002
  0
LINE
  5
18E
330
1F
100
AcDbEntity
  8
0
  6
CONTINUOUS
 62
     7
100
AcDbLine
 10
486.4371243655048
 20
132.5209445330009
 30
0.0
 11
487.3836900730606
 21
127.1527036446663
 31
0.0
  0
LINE
  5
18F
330
1F
100
AcDbEntity
  8
0
  6
CONTINUOUS
 62
   253
100
AcDbLine
 10
487.3836900730606
 20
127.1527036446663
 30
0.0
 11
487.3836900730606
 21
126.7557089616568
 31
0.0
  0
LINE
  5
190
330
1F
100
AcDbEntity
  8
0
  6
CONTINUOUS
 62
     7
100
AcDbLine
 10
530.4371243655048
 20
132.5209445330009
 30
0.0
 11
531.3836900730606
 21
127.1527036446663
 31
0.0
  0
LINE
  5
191
330
1F
100
AcDbEntity
  8
0
  6
CONTINUOUS
 62
   253
100
AcDbLine
 10
531.3836900730606
 20
127.1527036446663
 30
0.0
 11
531.3836900730606
 21
126.7557089616568
 31
0.0
  0
LINE
  5
192
330
1F
100
AcDbEntity
  8
0
  6
CONTINUOUS
 62
   253
100
AcDbLine
 10
516.6163099269394
 20
126.7557089616567
 30
0.0
 11
516.6163099269394
 21
127.1527036446663
 31
0.0
  0
LINE
  5
193
330
1F
100
AcDbEntity
  8
0
  6
CONTINUOUS
 62
     7
100
AcDbLine
 10
517.5628756344952
 20
132.5209445330009
 30
0.0
 11
516.6163099269394
 21
127.1527036446663
 31
0.0
  0
LINE
  5
194
330
1F
100
AcDbEntity
  8
0
  6
CONTINUOUS
 62
   253
100
AcDbLine
 10
582.6163099269395
 20
126.7557089616567
 30
0.0
 11
582.6163099269395
 21
127.1527036446663
 31
0.0
  0
LINE
  5
195
330
1F
100
AcDbEntity
  8
0
  6
CONTINUOUS
 62
     7
100
AcDbLine
 10
583.5628756344953
 20
132.5209445330009
 30
0.0
 11
582.6163099269395
 21
127.1527036446663
 31
0.0
  0
LINE
  5
196
330
1F
100
AcDbEntity
  8
0
  6
CONTINUOUS
 62
     7
100
AcDbLine
 10
574.4371243655048
 20
132.5209445330009
 30
0.0
 11
575.3836900730606
 21
127.1527036446663
 31
0.0
  0
LINE
  5
197
330
1F
100
AcDbEntity
  8
0
  6
CONTINUOUS
 62
   253
100
AcDbLine
 10
575.3836900730605
 20
127.1527036446663
 30
0.0
 11
575.3836900730605
 21
126.7557089616568
 31
0.0
  0
LINE
  5
198
330
1F
100
AcDbEntity
  8
0
  6
CONTINUOUS
 62
   253
100
AcDbLine
 10
472.6163099269395
 20
126.7557089616567
 30
0.0
 11
472.6163099269395
 21
127.1527036446663
 31
0.0
  0
LINE
  5
199
330
1F
100
AcDbEntity
  8
0
  6
CONTINUOUS
 62
     7
100
AcDbLine
 10
473.5628756344953
 20
132.5209445330009
 30
0.0
 11
472.6163099269395
 21
127.1527036446663
 31
0.0
  0
LINE
  5
19A
330
1F
100
AcDbEntity
  8
0
  6
CONTINUOUS
 62
     7
100
AcDbLine
 10
552.4371243655048
 20
132.5209445330009
 30
0.0
 11
553.3836900730606
 21
127.1527036446663
 31
0.0
  0
LINE
  5
19B
330
1F
100
AcDbEntity
  8
0
  6
CONTINUOUS
 62
   253
100
AcDbLine
 10
553.3836900730606
 20
127.1527036446663
 30
0.0
 11
553.3836900730606
 21
126.7557089616568
 31
0.0
  0
LINE
  5
19C
330
1F
100
AcDbEntity
  8
0
  6
CONTINUOUS
 62
     7
100
AcDbLine
 10
508.4371243655048
 20
132.5209445330009
 30
0.0
 11
509.3836900730606
 21
127.1527036446663
 31
0.0
  0
LINE
  5
19D
330
1F
100
AcDbEntity
  8
0
  6
CONTINUOUS
 62
   253
100
AcDbLine
 10
509.3836900730606
 20
127.1527036446663
 30
0.0
 11
509.3836900730606
 21
126.7557089616568
 31
0.0
  0
LINE
  5
19E
330
1F
100
AcDbEntity
  8
0
  6
CONTINUOUS
 62
   253
100
AcDbLine
 10
494.6163099269395
 20
126.7557089616567
 30
0.0
 11
494.6163099269395
 21
127.1527036446663
 31
0.0
  0
LINE
  5
19F
330
1F
100
AcDbEntity
  8
0
  6
CONTINUOUS
 62
     7
100
AcDbLine
 10
495.5628756344952
 20
132.5209445330009
 30
0.0
 11
494.6163099269395
 21
127.1527036446663
 31
0.0
  0
LINE
  5
1A0
330
1F
100
AcDbEntity
  8
0
  6
CONTINUOUS
 62
     7
100
AcDbLine
 10
596.4371243655048
 20
132.5209445330009
 30
0.0
 11
597.3836900730606
 21
127.1527036446663
 31
0.0
  0
LINE
  5
1A1
330
1F
100
AcDbEntity
  8
0
  6
CONTINUOUS
 62
   253
100
AcDbLine
 10
597.3836900730606
 20
127.1527036446663
 30
0.0
 11
597.3836900730606
 21
126.7557089616568
 31
0.0
  0
LINE
  5
1A2
330
1F
100
AcDbEntity
  8
0
  6
CONTINUOUS
 62
   253
100
AcDbLine
 10
560.6163099269395
 20
126.7557089616567
 30
0.0
 11
560.6163099269395
 21
127.1527036446663
 31
0.0
  0
LINE
  5
1A3
330
1F
100
AcDbEntity
  8
0
  6
CONTINUOUS
 62
     7
100
AcDbLine
 10
561.5628756344952
 20
132.5209445330009
 30
0.0
 11
560.6163099269395
 21
127.1527036446663
 31
0.0
  0
LINE
  5
1A4
330
1F
100
AcDbEntity
  8
0
  6
CONTINUOUS
 62
   253
100
AcDbLine
 10
538.6163099269394
 20
126.7557089616567
 30
0.0
 11
538.6163099269394
 21
127.1527036446663
 31
0.0
  0
LINE
  5
1A5
330
1F
100
AcDbEntity
  8
0
  6
CONTINUOUS
 62
     7
100
AcDbLine
 10
539.5628756344952
 20
132.5209445330009
 30
0.0
 11
538.6163099269394
 21
127.1527036446663
 31
0.0
  0
LINE
  5
1A6
330
1F
100
AcDbEntity
  8
0
  6
CONTINUOUS
 62
   253
100
AcDbLine
 10
553.3836900730606
 20
43.24429103834355
 30
0.0
 11
553.3836900730606
 21
42.847296355334
 31
0.0
  0
LINE
  5
1A7
330
1F
100
AcDbEntity
  8
0
  6
CONTINUOUS
 62
     7
100
AcDbLine
 10
552.4371243655048
 20
37.47905546699934
 30
0.0
 11
553.3836900730606
 21
42.847296355334
 31
0.0
  0
LINE
  5
1A8
330
1F
100
AcDbEntity
  8
0
  6
CONTINUOUS
 62
   253
100
AcDbLine
 10
487.3836900730606
 20
43.24429103834355
 30
0.0
 11
487.3836900730606
 21
42.847296355334
 31
0.0
  0
LINE
  5
1A9
330
1F
100
AcDbEntity
  8
0
  6
CONTINUOUS
 62
     7
100
AcDbLine
 10
486.4371243655048
 20
37.47905546699934
 30
0.0
 11
487.3836900730606
 21
42.847296355334
 31
0.0
  0
LINE
  5
1AA
330
1F
100
AcDbEntity
  8
0
  6
CONTINUOUS
 62
   253
100
AcDbLine
 10
597.3836900730606
 20
43.24429103834355
 30
0.0
 11
597.3836900730606
 21
42.847296355334
 31
0.0
  0
LINE
  5
1AB
330
1F
100
AcDbEntity
  8
0
  6
CONTINUOUS
 62
     7
100
AcDbLine
 10
596.4371243655048
 20
37.47905546699934
 30
0.0
 11
597.3836900730606
 21
42.847296355334
 31
0.0
  0
LINE
  5
1AC
330
1F
100
AcDbEntity
  8
0
  6
CONTINUOUS
 62
   253
100
AcDbLine
 10
531.3836900730606
 20
43.24429103834355
 30
0.0
 11
531.3836900730606
 21
42.847296355334
 31
0.0
  0
LINE
  5
1AD
330
1F
100
AcDbEntity
  8
0
  6
CONTINUOUS
 62
     7
100
AcDbLine
 10
530.4371243655048
 20
37.47905546699934
 30
0.0
 11
531.3836900730606
 21
42.847296355334
 31
0.0
  0
LINE
  5
1AE
330
1F
100
AcDbEntity
  8
0
  6
CONTINUOUS
 62
   253
100
AcDbLine
 10
575.3836900730605
 20
43.24429103834355
 30
0.0
 11
575.3836900730605
 21
42.847296355334
 31
0.0
  0
LINE
  5
1AF
330
1F
100
AcDbEntity
  8
0
  6
CONTINUOUS
 62
     7
100
AcDbLine
 10
574.4371243655048
 20
37.47905546699934
 30
0.0
 11
575.3836900730606
 21
42.847296355334
 31
0.0
  0
LINE
  5
1B0
330
1F
100
AcDbEntity
  8
0
  6
CONTINUOUS
 62
   253
100
AcDbLine
 10
509.3836900730606
 20
43.24429103834355
 30
0.0
 11
509.3836900730606
 21
42.847296355334
 31
0.0
  0
LINE
  5
1B1
330
1F
100
AcDbEntity
  8
0
  6
CONTINUOUS
 62
     7
100
AcDbLine
 10
508.4371243655048
 20
37.47905546699934
 30
0.0
 11
509.3836900730606
 21
42.847296355334
 31
0.0
  0
LINE
  5
1B2
330
1F
100
AcDbEntity
  8
0
  6
CONTINUOUS
 62
     7
100
AcDbLine
 10
539.5628756344952
 20
37.47905546699936
 30
0.0
 11
538.6163099269394
 21
42.847296355334
 31
0.0
  0
LINE
  5
1B3
330
1F
100
AcDbEntity
  8
0
  6
CONTINUOUS
 62
   253
100
AcDbLine
 10
538.6163099269394
 20
42.847296355334
 30
0.0
 11
538.6163099269394
 21
43.24429103834355
 31
0.0
  0
LINE
  5
1B4
330
1F
100
AcDbEntity
  8
0
  6
CONTINUOUS
 62
     7
100
AcDbLine
 10
473.5628756344953
 20
37.47905546699936
 30
0.0
 11
472.6163099269395
 21
42.847296355334
 31
0.0
  0
LINE
  5
1B5
330
1F
100
AcDbEntity
  8
0
  6
CONTINUOUS
 62
   253
100
AcDbLine
 10
472.6163099269395
 20
42.847296355334
 30
0.0
 11
472.6163099269395
 21
43.24429103834355
 31
0.0
  0
LINE
  5
1B6
330
1F
100
AcDbEntity
  8
0
  6
CONTINUOUS
 62
     7
100
AcDbLine
 10
561.5628756344952
 20
37.47905546699936
 30
0.0
 11
560.6163099269395
 21
42.847296355334
 31
0.0
  0
LINE
  5
1B7
330
1F
100
AcDbEntity
  8
0
  6
CONTINUOUS
 62
   253
100
AcDbLine
 10
560.6163099269395
 20
42.847296355334
 30
0.0
 11
560.6163099269395
 21
43.24429103834355
 31
0.0
  0
LINE
  5
1B8
330
1F
100
AcDbEntity
  8
0
  6
CONTINUOUS
 62
     7
100
AcDbLine
 10
495.5628756344952
 20
37.47905546699936
 30
0.0
 11
494.6163099269395
 21
42.847296355334
 31
0.0
  0
LINE
  5
1B9
330
1F
100
AcDbEntity
  8
0
  6
CONTINUOUS
 62
   253
100
AcDbLine
 10
494.6163099269395
 20
42.847296355334
 30
0.0
 11
494.6163099269395
 21
43.24429103834355
 31
0.0
  0
LINE
  5
1BA
330
1F
100
AcDbEntity
  8
0
  6
CONTINUOUS
 62
     7
100
AcDbLine
 10
517.5628756344952
 20
37.47905546699936
 30
0.0
 11
516.6163099269394
 21
42.847296355334
 31
0.0
  0
LINE
  5
1BB
330
1F
100
AcDbEntity
  8
0
  6
CONTINUOUS
 62
   253
100
AcDbLine
 10
516.6163099269394
 20
42.847296355334
 30
0.0
 11
516.6163099269394
 21
43.24429103834355
 31
0.0
  0
LINE
  5
1BC
330
1F
100
AcDbEntity
  8
0
  6
CONTINUOUS
 62
     7
100
AcDbLine
 10
583.5628756344953
 20
37.47905546699936
 30
0.0
 11
582.6163099269395
 21
42.847296355334
 31
0.0
  0
LINE
  5
1BD
330
1F
100
AcDbEntity
  8
0
  6
CONTINUOUS
 62
   253
100
AcDbLine
 10
582.6163099269395
 20
42.847296355334
 30
0.0
 11
582.6163099269395
 21
43.24429103834355
 31
0.0
  0
ARC
  5
1BE
330
1F
100
AcDbEntity
  8
0
  6
CONTINUOUS
 62
     7
100
AcDbCircle
 10
577.353305579085
 20
127.4999999999954
 30
0.0
 40
2.0
100
AcDbArc
 50
190.0000000000007
 51
269.9999999999999
  0
ARC
  5
1BF
330
1F
100
AcDbEntity
  8
0
  6
CONTINUOUS
 62
     7
100
AcDbCircle
 10
555.353305579085
 20
127.4999999999954
 30
0.0
 40
2.0
100
AcDbArc
 50
190.0000000000007
 51
269.9999999999999
  0
ARC
  5
1C0
330
1F
100
AcDbEntity
  8
0
  6
CONTINUOUS
 62
     7
100
AcDbCircle
 10
511.353305579085
 20
127.4999999999954
 30
0.0
 40
2.0
100
AcDbArc
 50
190.0000000000007
 51
269.9999999999999
  0
ARC
  5
1C1
330
1F
100
AcDbEntity
  8
0
  6
CONTINUOUS
 62
     7
100
AcDbCircle
 10
470.646694420915
 20
127.4999999999954
 30
0.0
 40
2.0
100
AcDbArc
 50
270.0
 51
349.9999999999994
  0
ARC
  5
1C2
330
1F
100
AcDbEntity
  8
0
  6
CONTINUOUS
 62
     7
100
AcDbCircle
 10
533.353305579085
 20
127.4999999999954
 30
0.0
 40
2.0
100
AcDbArc
 50
190.0000000000007
 51
269.9999999999999
  0
ARC
  5
1C3
330
1F
100
AcDbEntity
  8
0
  6
CONTINUOUS
 62
     7
100
AcDbCircle
 10
492.6466944209151
 20
127.4999999999954
 30
0.0
 40
2.0
100
AcDbArc
 50
270.0
 51
349.9999999999993
  0
ARC
  5
1C4
330
1F
100
AcDbEntity
  8
0
  6
CONTINUOUS
 62
     7
100
AcDbCircle
 10
489.353305579085
 20
127.4999999999954
 30
0.0
 40
2.0
100
AcDbArc
 50
190.0000000000007
 51
269.9999999999999
  0
ARC
  5
1C5
330
1F
100
AcDbEntity
  8
0
  6
CONTINUOUS
 62
     7
100
AcDbCircle
 10
514.6466944209151
 20
127.4999999999954
 30
0.0
 40
2.0
100
AcDbArc
 50
270.0
 51
349.9999999999993
  0
ARC
  5
1C6
330
1F
100
AcDbEntity
  8
0
  6
CONTINUOUS
 62
     7
100
AcDbCircle
 10
599.353305579085
 20
127.4999999999954
 30
0.0
 40
2.0
100
AcDbArc
 50
190.0000000000007
 51
270.0
  0
ARC
  5
1C7
330
1F
100
AcDbEntity
  8
0
  6
CONTINUOUS
 62
     7
100
AcDbCircle
 10
580.6466944209151
 20
127.4999999999954
 30
0.0
 40
2.0
100
AcDbArc
 50
270.0
 51
349.9999999999993
  0
ARC
  5
1C8
330
1F
100
AcDbEntity
  8
0
  6
CONTINUOUS
 62
     7
100
AcDbCircle
 10
558.6466944209151
 20
127.4999999999954
 30
0.0
 40
2.0
100
AcDbArc
 50
270.0
 51
349.9999999999993
  0
ARC
  5
1C9
330
1F
100
AcDbEntity
  8
0
  6
CONTINUOUS
 62
     7
100
AcDbCircle
 10
536.6466944209151
 20
127.4999999999954
 30
0.0
 40
2.0
100
AcDbArc
 50
270.0
 51
349.9999999999993
  0
ARC
  5
1CA
330
1F
100
AcDbEntity
  8
0
  6
CONTINUOUS
 62
     7
100
AcDbCircle
 10
555.353305579085
 20
42.49999999999935
 30
0.0
 40
2.0
100
AcDbArc
 50
90.0
 51
170.0000000000001
  0
ARC
  5
1CB
330
1F
100
AcDbEntity
  8
0
  6
CONTINUOUS
 62
     7
100
AcDbCircle
 10
533.353305579085
 20
42.49999999999935
 30
0.0
 40
2.0
100
AcDbArc
 50
90.0
 51
170.0000000000001
  0
ARC
  5
1CC
330
1F
100
AcDbEntity
  8
0
  6
CONTINUOUS
 62
     7
100
AcDbCircle
 10
514.6466944209151
 20
42.49999999999935
 30
0.0
 40
2.0
100
AcDbArc
 50
10.00000000000028
 51
90.0
  0
ARC
  5
1CD
330
1F
100
AcDbEntity
  8
0
  6
CONTINUOUS
 62
     7
100
AcDbCircle
 10
470.646694420915
 20
42.49999999999935
 30
0.0
 40
2.0
100
AcDbArc
 50
10.00000000000023
 51
90.0
  0
ARC
  5
1CE
330
1F
100
AcDbEntity
  8
0
  6
CONTINUOUS
 62
     7
100
AcDbCircle
 10
489.353305579085
 20
42.49999999999935
 30
0.0
 40
2.0
100
AcDbArc
 50
90.0
 51
170.0000000000001
  0
ARC
  5
1CF
330
1F
100
AcDbEntity
  8
0
  6
CONTINUOUS
 62
     7
100
AcDbCircle
 10
599.353305579085
 20
42.49999999999935
 30
0.0
 40
2.0
100
AcDbArc
 50
90.0
 51
170.0000000000001
  0
ARC
  5
1D0
330
1F
100
AcDbEntity
  8
0
  6
CONTINUOUS
 62
     7
100
AcDbCircle
 10
492.646694420915
 20
42.49999999999935
 30
0.0
 40
2.0
100
AcDbArc
 50
10.00000000000028
 51
90.0
  0
ARC
  5
1D1
330
1F
100
AcDbEntity
  8
0
  6
CONTINUOUS
 62
     7
100
AcDbCircle
 10
558.6466944209151
 20
42.49999999999935
 30
0.0
 40
2.0
100
AcDbArc
 50
10.00000000000034
 51
90.00000000000021
  0
ARC
  5
1D2
330
1F
100
AcDbEntity
  8
0
  6
CONTINUOUS
 62
     7
100
AcDbCircle
 10
577.353305579085
 20
42.49999999999935
 30
0.0
 40
2.0
100
AcDbArc
 50
89.99999999999977
 51
170.0000000000001
  0
ARC
  5
1D3
330
1F
100
AcDbEntity
  8
0
  6
CONTINUOUS
 62
     7
100
AcDbCircle
 10
580.646694420915
 20
42.49999999999935
 30
0.0
 40
2.0
100
AcDbArc
 50
10.00000000000023
 51
90.0
  0
ARC
  5
1D4
330
1F
100
AcDbEntity
  8
0
  6
CONTINUOUS
 62
     7
100
AcDbCircle
 10
511.353305579085
 20
42.49999999999935
 30
0.0
 40
2.0
100
AcDbArc
 50
90.0
 51
170.0000000000001
  0
ARC
  5
1D5
330
1F
100
AcDbEntity
  8
0
  6
CONTINUOUS
 62
     7
100
AcDbCircle
 10
536.6466944209151
 20
42.49999999999935
 30
0.0
 40
2.0
100
AcDbArc
 50
10.00000000000028
 51
90.0
  0
LINE
  5
1D6
330
1F
100
AcDbEntity
  8
0
  6
CONTINUOUS
 62
     7
100
AcDbLine
 10
470.646694420915
 20
125.5000000000002
 30
0.0
 11
469.0000000000001
 21
125.5000000000002
 31
0.0
  0
LINE
  5
1D7
330
1F
100
AcDbEntity
  8
0
  6
CONTINUOUS
 62
     7
100
AcDbLine
 10
469.0000000000001
 20
125.5000000000002
 30
0.0
 11
469.0000000000001
 21
125.1035716572524
 31
0.0
  0
LINE
  5
1D8
330
1F
100
AcDbEntity
  8
0
  6
CONTINUOUS
 62
     7
100
AcDbLine
 10
492.6466944209151
 20
125.5000000000002
 30
0.0
 11
489.3533055790851
 21
125.5000000000002
 31
0.0
  0
LINE
  5
1D9
330
1F
100
AcDbEntity
  8
0
  6
CONTINUOUS
 62
     7
100
AcDbLine
 10
580.6466944209151
 20
125.5000000000002
 30
0.0
 11
577.353305579085
 21
125.5000000000002
 31
0.0
  0
LINE
  5
1DA
330
1F
100
AcDbEntity
  8
0
  6
CONTINUOUS
 62
     7
100
AcDbLine
 10
558.6466944209151
 20
125.5000000000002
 30
0.0
 11
555.353305579085
 21
125.5000000000002
 31
0.0
  0
LINE
  5
1DB
330
1F
100
AcDbEntity
  8
0
  6
CONTINUOUS
 62
     7
100
AcDbLine
 10
599.353305579085
 20
125.5000000000002
 30
0.0
 11
601.0000000000001
 21
125.5000000000002
 31
0.0
  0
LINE
  5
1DC
330
1F
100
AcDbEntity
  8
0
  6
CONTINUOUS
 62
     7
100
AcDbLine
 10
601.0
 20
125.1035716572524
 30
0.0
 11
601.0
 21
125.5000000000002
 31
0.0
  0
LINE
  5
1DD
330
1F
100
AcDbEntity
  8
0
  6
CONTINUOUS
 62
     7
100
AcDbLine
 10
536.6466944209151
 20
125.5000000000002
 30
0.0
 11
533.353305579085
 21
125.5000000000002
 31
0.0
  0
LINE
  5
1DE
330
1F
100
AcDbEntity
  8
0
  6
CONTINUOUS
 62
     7
100
AcDbLine
 10
514.6466944209151
 20
125.5000000000002
 30
0.0
 11
511.353305579085
 21
125.5000000000002
 31
0.0
  0
LINE
  5
1DF
330
1F
100
AcDbEntity
  8
0
  6
CONTINUOUS
 62
     7
100
AcDbLine
 10
536.6466944209151
 20
44.50000000000015
 30
0.0
 11
533.353305579085
 21
44.50000000000015
 31
0.0
  0
LINE
  5
1E0
330
1F
100
AcDbEntity
  8
0
  6
CONTINUOUS
 62
     7
100
AcDbLine
 10
514.6466944209151
 20
44.50000000000015
 30
0.0
 11
511.353305579085
 21
44.50000000000015
 31
0.0
  0
LINE
  5
1E1
330
1F
100
AcDbEntity
  8
0
  6
CONTINUOUS
 62
     7
100
AcDbLine
 10
470.646694420915
 20
44.50000000000015
 30
0.0
 11
469.0000000000001
 21
44.50000000000015
 31
0.0
  0
LINE
  5
1E2
330
1F
100
AcDbEntity
  8
0
  6
CONTINUOUS
 62
     7
100
AcDbLine
 10
469.0
 20
44.89642834274786
 30
0.0
 11
469.0000000000001
 21
44.50000000000015
 31
0.0
  0
LINE
  5
1E3
330
1F
100
AcDbEntity
  8
0
  6
CONTINUOUS
 62
     7
100
AcDbLine
 10
558.6466944209151
 20
44.50000000000015
 30
0.0
 11
555.353305579085
 21
44.50000000000015
 31
0.0
  0
LINE
  5
1E4
330
1F
100
AcDbEntity
  8
0
  6
CONTINUOUS
 62
     7
100
AcDbLine
 10
492.646694420915
 20
44.50000000000015
 30
0.0
 11
489.353305579085
 21
44.50000000000015
 31
0.0
  0
LINE
  5
1E5
330
1F
100
AcDbEntity
  8
0
  6
CONTINUOUS
 62
     7
100
AcDbLine
 10
599.353305579085
 20
44.50000000000015
 30
0.0
 11
601.0000000000001
 21
44.50000000000015
 31
0.0
  0
LINE
  5
1E6
330
1F
100
AcDbEntity
  8
0
  6
CONTINUOUS
 62
     7
100
AcDbLine
 10
601.0
 20
44.50000000000015
 30
0.0
 11
601.0
 21
44.89642834274786
 31
0.0
  0
LINE
  5
1E7
330
1F
100
AcDbEntity
  8
0
  6
CONTINUOUS
 62
     7
100
AcDbLine
 10
580.646694420915
 20
44.50000000000015
 30
0.0
 11
577.3533055790849
 21
44.50000000000015
 31
0.0
  0
LINE
  5
1E8
330
1F
100
AcDbEntity
  8
0
  6
CONTINUOUS
 62
     7
100
AcDbLine
 10
354.5
 20
94.875638187694
 30
0.0
 11
354.5
 21
75.12436181230612
 31
0.0
  0
LINE
  5
1E9
330
1F
100
AcDbEntity
  8
0
  6
CONTINUOUS
 62
     7
100
AcDbLine
 10
354.8964283427478
 20
110.0146258189032
 30
0.0
 11
354.5
 21
94.875638187694
 31
0.0
  0
ARC
  5
1EA
330
1F
100
AcDbEntity
  8
0
  6
CONTINUOUS
 62
     7
100
AcDbCircle
 10
370.3911168798688
 20
109.6088831201312
 30
0.0
 40
15.49999999999998
100
AcDbArc
 50
91.50000000000026
 51
178.5
  0
LINE
  5
1EB
330
1F
100
AcDbEntity
  8
0
  6
CONTINUOUS
 62
     7
100
AcDbLine
 10
385.1243618123061
 20
125.5
 30
0.0
 11
369.9853741810968
 21
125.1035716572523
 31
0.0
  0
LINE
  5
1EC
330
1F
100
AcDbEntity
  8
0
  6
CONTINUOUS
 62
     7
100
AcDbLine
 10
404.8756381876939
 20
125.5
 30
0.0
 11
385.1243618123061
 21
125.5
 31
0.0
  0
LINE
  5
1ED
330
1F
100
AcDbEntity
  8
0
  6
CONTINUOUS
 62
     7
100
AcDbLine
 10
404.8756381876939
 20
125.5
 30
0.0
 11
420.0146258189033
 21
125.1035716572523
 31
0.0
  0
ARC
  5
1EE
330
1F
100
AcDbEntity
  8
0
  6
CONTINUOUS
 62
     7
100
AcDbCircle
 10
419.6088831201311
 20
109.6088831201312
 30
0.0
 40
15.49999999999998
100
AcDbArc
 50
1.500000000000114
 51
88.49999999999977
  0
LINE
  5
1EF
330
1F
100
AcDbEntity
  8
0
  6
CONTINUOUS
 62
     7
100
AcDbLine
 10
435.1035716572522
 20
110.0146258189032
 30
0.0
 11
435.5000000000001
 21
94.875638187694
 31
0.0
  0
LINE
  5
1F0
330
1F
100
AcDbEntity
  8
0
  6
CONTINUOUS
 62
     7
100
AcDbLine
 10
435.5000000000001
 20
94.875638187694
 30
0.0
 11
435.5000000000001
 21
75.12436181230612
 31
0.0
  0
LINE
  5
1F1
330
1F
100
AcDbEntity
  8
0
  6
CONTINUOUS
 62
     7
100
AcDbLine
 10
420.0146258189032
 20
44.89642834274773
 30
0.0
 11
404.8756381876941
 21
44.50000000000001
 31
0.0
  0
LINE
  5
1F2
330
1F
100
AcDbEntity
  8
0
  6
CONTINUOUS
 62
     7
100
AcDbLine
 10
385.1243618123059
 20
44.50000000000001
 30
0.0
 11
404.8756381876941
 21
44.50000000000001
 31
0.0
  0
LINE
  5
1F3
330
1F
100
AcDbEntity
  8
0
  6
CONTINUOUS
 62
     7
100
AcDbLine
 10
433.0000000000001
 20
94.84291139498204
 30
0.0
 11
433.0000000000001
 21
75.1570886050188
 31
0.0
  0
LINE
  5
1F4
330
1F
100
AcDbEntity
  8
0
  6
CONTINUOUS
 62
     7
100
AcDbLine
 10
432.6044283448134
 20
109.9491834481335
 30
0.0
 11
433.0000000000001
 21
94.84291139498204
 31
0.0
  0
ARC
  5
1F5
330
1F
100
AcDbEntity
  8
0
  6
CONTINUOUS
 62
     7
100
AcDbCircle
 10
419.6088831201311
 20
109.6088831201312
 30
0.0
 40
12.99999999999999
100
AcDbArc
 50
1.5
 51
88.49999999999966
  0
LINE
  5
1F6
330
1F
100
AcDbEntity
  8
0
  6
CONTINUOUS
 62
     7
100
AcDbLine
 10
404.842911394983
 20
123.0
 30
0.0
 11
419.9491834481336
 21
122.6044283448134
 31
0.0
  0
LINE
  5
1F7
330
1F
100
AcDbEntity
  8
0
  6
CONTINUOUS
 62
     7
100
AcDbLine
 10
404.842911394983
 20
123.0
 30
0.0
 11
385.1570886050169
 21
123.0
 31
0.0
  0
LINE
  5
1F8
330
1F
100
AcDbEntity
  8
0
  6
CONTINUOUS
 62
     7
100
AcDbLine
 10
385.1570886050169
 20
123.0
 30
0.0
 11
370.0508165518664
 21
122.6044283448134
 31
0.0
  0
ARC
  5
1F9
330
1F
100
AcDbEntity
  8
0
  6
CONTINUOUS
 62
     7
100
AcDbCircle
 10
370.3911168798688
 20
109.6088831201312
 30
0.0
 40
12.99999999999999
100
AcDbArc
 50
91.5000000000003
 51
178.5
  0
LINE
  5
1FA
330
1F
100
AcDbEntity
  8
0
  6
CONTINUOUS
 62
     7
100
AcDbLine
 10
357.3955716551866
 20
109.9491834481335
 30
0.0
 11
357.0
 21
94.84291139498204
 31
0.0
  0
LINE
  5
1FB
330
1F
100
AcDbEntity
  8
0
  6
CONTINUOUS
 62
     7
100
AcDbLine
 10
357.0
 20
94.84291139498204
 30
0.0
 11
357.0
 21
75.1570886050188
 31
0.0
  0
LINE
  5
1FC
330
1F
100
AcDbEntity
  8
0
  6
CONTINUOUS
 62
     7
100
AcDbLine
 10
357.0
 20
75.1570886050188
 30
0.0
 11
357.3955716551866
 21
60.05081655186645
 31
0.0
  0
ARC
  5
1FD
330
1F
100
AcDbEntity
  8
0
  6
CONTINUOUS
 62
     7
100
AcDbCircle
 10
370.3911168798688
 20
60.39111687986888
 30
0.0
 40
12.99999999999997
100
AcDbArc
 50
181.5000000000003
 51
268.5
  0
LINE
  5
1FE
330
1F
100
AcDbEntity
  8
0
  6
CONTINUOUS
 62
     7
100
AcDbLine
 10
385.1570886050184
 20
47.0
 30
0.0
 11
404.8429113949816
 21
47.0
 31
0.0
  0
ARC
  5
1FF
330
1F
100
AcDbEntity
  8
0
  6
CONTINUOUS
 62
     7
100
AcDbCircle
 10
419.6088831201311
 20
60.39111687986888
 30
0.0
 40
15.50000000000002
100
AcDbArc
 50
271.5
 51
358.4999999999998
  0
LINE
  5
200
330
1F
100
AcDbEntity
  8
0
  6
CONTINUOUS
 62
     7
100
AcDbLine
 10
435.5000000000001
 20
75.12436181230612
 30
0.0
 11
435.1035716572522
 21
59.98537418109677
 31
0.0
  0
LINE
  5
201
330
1F
100
AcDbEntity
  8
0
  6
CONTINUOUS
 62
     7
100
AcDbLine
 10
419.9491834481335
 20
47.39557165518661
 30
0.0
 11
404.8429113949816
 21
47.0
 31
0.0
  0
ARC
  5
202
330
1F
100
AcDbEntity
  8
0
  6
CONTINUOUS
 62
     7
100
AcDbCircle
 10
419.6088831201311
 20
60.39111687986888
 30
0.0
 40
13.00000000000003
100
AcDbArc
 50
271.5
 51
358.4999999999998
  0
LINE
  5
203
330
1F
100
AcDbEntity
  8
0
  6
CONTINUOUS
 62
     7
100
AcDbLine
 10
370.0508165518665
 20
47.39557165518661
 30
0.0
 11
385.1570886050184
 21
47.0
 31
0.0
  0
LINE
  5
204
330
1F
100
AcDbEntity
  8
0
  6
CONTINUOUS
 62
     7
100
AcDbLine
 10
369.9853741810968
 20
44.89642834274773
 30
0.0
 11
385.1243618123059
 21
44.50000000000001
 31
0.0
  0
ARC
  5
205
330
1F
100
AcDbEntity
  8
0
  6
CONTINUOUS
 62
     7
100
AcDbCircle
 10
370.3911168798688
 20
60.39111687986888
 30
0.0
 40
15.49999999999997
100
AcDbArc
 50
181.5000000000003
 51
268.5
  0
LINE
  5
206
330
1F
100
AcDbEntity
  8
0
  6
CONTINUOUS
 62
     7
100
AcDbLine
 10
354.5
 20
75.12436181230612
 30
0.0
 11
354.8964283427478
 21
59.98537418109677
 31
0.0
  0
LINE
  5
207
330
1F
100
AcDbEntity
  8
0
  6
CONTINUOUS
 62
     7
100
AcDbLine
 10
433.0000000000001
 20
75.1570886050188
 30
0.0
 11
432.6044283448134
 21
60.05081655186645
 31
0.0
  0
LWPOLYLINE
  5
208
330
1F
100
AcDbEntity
  8
0
  6
CONTINUOUS
 62
     7
100
AcDbPolyline
 90
       29
 70
     0
 43
0.0
 10
348.0
 20
90.5804501844114
 10
347.9993784606095
 20
90.60537312724175
 10
347.9975153876827
 20
90.6302341077093
 10
347.9944154131126
 20
90.65497131749949
 10
347.9900862439243
 20
90.6795232560111
 10
347.9845386431145
 20
90.70382888325653
 10
347.9777864028931
 20
90.72782777161684
 10
347.9698463103929
 20
90.75146025607422
 10
347.9607381059352
 20
90.77466758254873
 10
347.9504844339512
 20
90.79739205397017
 10
347.9391107866851
 20
90.81957717372205
 10
347.9266454408161
 20
90.84116778610112
 10
347.913119387158
 20
90.86211021344319
 10
347.8985662536115
 20
90.88235238957412
 10
347.8830222215595
 20
90.90184398925464
 10
347.8665259359149
 20
90.92053655329683
 10
347.849118409043
 20
90.93838360904122
 10
347.8308429187985
 20
90.95534078589523
 10
347.8117449009293
 20
90.97136592564539
 10
347.7918718361174
 20
90.98641918726929
 10
347.7712731319329
 20
91.00046314598676
 10
347.75
 20
91.01346288630359
 10
347.7281053286766
 20
91.0253860888171
 10
347.7056435515653
 20
91.0362031105672
 10
347.6826705121832
 20
91.04588705873347
 10
347.6592433251259
 20
91.05441385749494
 10
347.6354202340715
 20
91.06176230788637
 10
347.6112604669781
 20
91.06791414050227
 10
347.5868240888335
 20
91.07285406091748
  0
LWPOLYLINE
  5
209
330
1F
100
AcDbEntity
  8
0
  6
CONTINUOUS
 62
     7
100
AcDbPolyline
 90
       29
 70
     0
 43
0.0
 10
347.5868240888335
 20
78.92714593908252
 10
347.6112604669781
 20
78.9320858594977
 10
347.6354202340715
 20
78.93823769211362
 10
347.6592433251259
 20
78.94558614250506
 10
347.6826705121832
 20
78.95411294126653
 10
347.7056435515653
 20
78.96379688943279
 10
347.7281053286766
 20
78.9746139111829
 10
347.75
 20
78.98653711369641
 10
347.7712731319329
 20
78.99953685401326
 10
347.7918718361174
 20
79.01358081273071
 10
347.8117449009293
 20
79.02863407435461
 10
347.8308429187985
 20
79.04465921410478
 10
347.8491184090431
 20
79.06161639095878
 10
347.8665259359149
 20
79.07946344670319
 10
347.8830222215595
 20
79.09815601074538
 10
347.8985662536115
 20
79.11764761042592
 10
347.913119387158
 20
79.13788978655684
 10
347.9266454408161
 20
79.1588322138989
 10
347.9391107866851
 20
79.180422826278
 10
347.9504844339512
 20
79.20260794602989
 10
347.9607381059352
 20
79.22533241745131
 10
347.9698463103929
 20
79.24853974392583
 10
347.9777864028931
 20
79.27217222838321
 10
347.9845386431145
 20
79.29617111674351
 10
347.9900862439243
 20
79.32047674398896
 10
347.9944154131126
 20
79.34502868250058
 10
347.9975153876827
 20
79.36976589229076
 10
347.9993784606095
 20
79.39462687275834
 10
348.0
 20
79.41954981558867
  0
LWPOLYLINE
  5
20A
330
1F
100
AcDbEntity
  8
0
  6
CONTINUOUS
 62
     7
100
AcDbPolyline
 90
       29
 70
     0
 43
0.0
 10
-442.4131759111665
 20
78.92714593908252
 10
-442.3887395330218
 20
78.9320858594977
 10
-442.3645797659285
 20
78.93823769211362
 10
-442.3407566748742
 20
78.94558614250506
 10
-442.3173294878168
 20
78.95411294126653
 10
-442.2943564484347
 20
78.96379688943279
 10
-442.2718946713234
 20
78.9746139111829
 10
-442.2499999999999
 20
78.98653711369641
 10
-442.2287268680671
 20
78.99953685401326
 10
-442.2081281638826
 20
79.01358081273071
 10
-442.1882550990706
 20
79.02863407435461
 10
-442.1691570812015
 20
79.04465921410478
 10
-442.1508815909569
 20
79.06161639095878
 10
-442.1334740640851
 20
79.07946344670319
 10
-442.1169777784405
 20
79.09815601074538
 10
-442.1014337463885
 20
79.11764761042592
 10
-442.086880612842
 20
79.13788978655684
 10
-442.0733545591839
 20
79.1588322138989
 10
-442.0608892133149
 20
79.180422826278
 10
-442.0495155660487
 20
79.20260794602989
 10
-442.0392618940648
 20
79.22533241745131
 10
-442.0301536896071
 20
79.24853974392583
 10
-442.0222135971069
 20
79.27217222838321
 10
-442.0154613568855
 20
79.29617111674351
 10
-442.0099137560757
 20
79.32047674398896
 10
-442.0055845868874
 20
79.34502868250058
 10
-442.0024846123173
 20
79.36976589229076
 10
-442.0006215393906
 20
79.39462687275834
 10
-442.0
 20
79.41954981558867
210
0.0
220
0.0
230
-1.0
  0
LWPOLYLINE
  5
20B
330
1F
100
AcDbEntity
  8
0
  6
CONTINUOUS
 62
     7
100
AcDbPolyline
 90
       29
 70
     0
 43
0.0
 10
-442.0
 20
90.5804501844114
 10
-442.0006215393906
 20
90.60537312724175
 10
-442.0024846123173
 20
90.6302341077093
 10
-442.0055845868874
 20
90.65497131749949
 10
-442.0099137560757
 20
90.6795232560111
 10
-442.0154613568855
 20
90.70382888325653
 10
-442.0222135971069
 20
90.72782777161684
 10
-442.0301536896071
 20
90.75146025607422
 10
-442.0392618940649
 20
90.77466758254873
 10
-442.0495155660488
 20
90.79739205397017
 10
-442.0608892133149
 20
90.81957717372205
 10
-442.0733545591839
 20
90.84116778610112
 10
-442.086880612842
 20
90.86211021344319
 10
-442.1014337463885
 20
90.88235238957412
 10
-442.1169777784405
 20
90.90184398925464
 10
-442.1334740640851
 20
90.92053655329683
 10
-442.150881590957
 20
90.93838360904122
 10
-442.1691570812015
 20
90.95534078589523
 10
-442.1882550990707
 20
90.97136592564539
 10
-442.2081281638826
 20
90.98641918726929
 10
-442.2287268680671
 20
91.00046314598676
 10
-442.25
 20
91.01346288630359
 10
-442.2718946713234
 20
91.0253860888171
 10
-442.2943564484347
 20
91.0362031105672
 10
-442.3173294878168
 20
91.04588705873347
 10
-442.3407566748742
 20
91.05441385749494
 10
-442.3645797659285
 20
91.06176230788637
 10
-442.3887395330218
 20
91.06791414050227
 10
-442.4131759111665
 20
91.07285406091748
210
0.0
220
0.0
230
-1.0
  0
LINE
  5
20C
330
1F
100
AcDbEntity
  8
0
  6
CONTINUOUS
 62
     7
100
AcDbLine
 10
442.0
 20
79.41954981558868
 30
0.0
 11
442.0
 21
90.5804501844114
 31
0.0
  0
LINE
  5
20D
330
1F
100
AcDbEntity
  8
0
  6
CONTINUOUS
 62
     7
100
AcDbLine
 10
347.9999999999999
 20
79.41954981558868
 30
0.0
 11
347.9999999999999
 21
90.5804501844114
 31
0.0
  0
LINE
  5
20E
330
1F
100
AcDbEntity
  8
0
  6
CONTINUOUS
 62
     7
100
AcDbLine
 10
443.3472963553339
 20
78.76243530154447
 30
0.0
 11
442.4131759111665
 21
78.92714593908256
 31
0.0
  0
LINE
  5
20F
330
1F
100
AcDbEntity
  8
0
  6
CONTINUOUS
 62
     7
100
AcDbLine
 10
346.6527036446661
 20
78.76243530154447
 30
0.0
 11
347.5868240888335
 21
78.92714593908256
 31
0.0
  0
LINE
  5
210
330
1F
100
AcDbEntity
  8
0
  6
CONTINUOUS
 62
     7
100
AcDbLine
 10
347.5868240888335
 20
91.07285406091748
 30
0.0
 11
346.6527036446661
 21
91.23756469845554
 31
0.0
  0
LINE
  5
211
330
1F
100
AcDbEntity
  8
0
  6
CONTINUOUS
 62
     7
100
AcDbLine
 10
442.4131759111665
 20
91.07285406091748
 30
0.0
 11
443.3472963553339
 21
91.23756469845554
 31
0.0
  0
LINE
  5
212
330
1F
100
AcDbEntity
  8
0
  6
CONTINUOUS
 62
     7
100
AcDbLine
 10
404.9999999999999
 20
35.00000000000001
 30
0.0
 11
385.0000000000001
 21
35.00000000000001
 31
0.0
  0
LINE
  5
213
330
1F
100
AcDbEntity
  8
0
  6
CONTINUOUS
 62
     7
100
AcDbLine
 10
445.0
 20
95.0
 30
0.0
 11
444.6003162445201
 21
110.263306827828
 31
0.0
  0
LINE
  5
214
330
1F
100
AcDbEntity
  8
0
  6
CONTINUOUS
 62
     7
100
AcDbLine
 10
404.9999999999999
 20
35.00000000000001
 30
0.0
 11
420.263306827828
 21
35.39968375547993
 31
0.0
  0
ARC
  5
215
330
1F
100
AcDbEntity
  8
0
  6
CONTINUOUS
 62
     7
100
AcDbCircle
 10
370.3911168798689
 20
60.39111687986888
 30
0.0
 40
25.00000000000001
100
AcDbArc
 50
181.5
 51
268.5
  0
LINE
  5
216
330
1F
100
AcDbEntity
  8
0
  6
CONTINUOUS
 62
     7
100
AcDbLine
 10
444.6003162445201
 20
59.73669317217202
 30
0.0
 11
445.0
 21
75.00000000000001
 31
0.0
  0
LINE
  5
217
330
1F
100
AcDbEntity
  8
0
  6
CONTINUOUS
 62
     7
100
AcDbLine
 10
445.0
 20
93.21774463320635
 30
0.0
 11
445.0
 21
95.0
 31
0.0
  0
LINE
  5
218
330
1F
100
AcDbEntity
  8
0
  6
CONTINUOUS
 62
     7
100
AcDbLine
 10
345.0
 20
95.0
 30
0.0
 11
345.3996837554799
 21
110.263306827828
 31
0.0
  0
LINE
  5
219
330
1F
100
AcDbEntity
  8
0
  6
CONTINUOUS
 62
     7
100
AcDbLine
 10
385.0000000000001
 20
35.00000000000001
 30
0.0
 11
369.7366931721721
 21
35.39968375547993
 31
0.0
  0
LINE
  5
21A
330
1F
100
AcDbEntity
  8
0
  6
CONTINUOUS
 62
     7
100
AcDbLine
 10
420.263306827828
 20
134.6003162445201
 30
0.0
 11
404.9999999999999
 21
135.0
 31
0.0
  0
ARC
  5
21B
330
1F
100
AcDbEntity
  8
0
  6
CONTINUOUS
 62
     7
100
AcDbCircle
 10
419.6088831201311
 20
60.39111687986888
 30
0.0
 40
25.00000000000001
100
AcDbArc
 50
271.5000000000001
 51
358.4999999999998
  0
ARC
  5
21C
330
1F
100
AcDbEntity
  8
0
  6
CONTINUOUS
 62
     7
100
AcDbCircle
 10
419.6088831201312
 20
109.6088831201311
 30
0.0
 40
25.00000000000002
100
AcDbArc
 50
1.500000000000064
 51
88.50000000000009
  0
LINE
  5
21D
330
1F
100
AcDbEntity
  8
0
  6
CONTINUOUS
 62
     7
100
AcDbLine
 10
345.0
 20
75.00000000000001
 30
0.0
 11
345.0
 21
76.78225536679366
 31
0.0
  0
LINE
  5
21E
330
1F
100
AcDbEntity
  8
0
  6
CONTINUOUS
 62
     7
100
AcDbLine
 10
445.0
 20
75.00000000000001
 30
0.0
 11
445.0
 21
76.78225536679366
 31
0.0
  0
LINE
  5
21F
330
1F
100
AcDbEntity
  8
0
  6
CONTINUOUS
 62
     7
100
AcDbLine
 10
345.3996837554799
 20
59.73669317217202
 30
0.0
 11
345.0
 21
75.00000000000001
 31
0.0
  0
LINE
  5
220
330
1F
100
AcDbEntity
  8
0
  6
CONTINUOUS
 62
     7
100
AcDbLine
 10
345.0
 20
93.21774463320635
 30
0.0
 11
345.0
 21
95.0
 31
0.0
  0
LINE
  5
221
330
1F
100
AcDbEntity
  8
0
  6
CONTINUOUS
 62
     7
100
AcDbLine
 10
369.7366931721721
 20
134.6003162445201
 30
0.0
 11
385.0000000000001
 21
135.0
 31
0.0
  0
LINE
  5
222
330
1F
100
AcDbEntity
  8
0
  6
CONTINUOUS
 62
     7
100
AcDbLine
 10
385.0000000000001
 20
135.0
 30
0.0
 11
404.9999999999999
 21
135.0
 31
0.0
  0
ARC
  5
223
330
1F
100
AcDbEntity
  8
0
  6
CONTINUOUS
 62
     7
100
AcDbCircle
 10
370.3911168798688
 20
109.6088831201311
 30
0.0
 40
25.00000000000002
100
AcDbArc
 50
91.49999999999996
 51
178.5
  0
LINE
  5
224
330
1F
100
AcDbEntity
  8
0
  6
CONTINUOUS
 62
     7
100
AcDbLine
 10
445.0
 20
93.20718020447995
 30
0.0
 11
445.0
 21
93.21774463320635
 31
0.0
  0
ARC
  5
225
330
1F
100
AcDbEntity
  8
0
  6
CONTINUOUS
 62
     7
100
AcDbCircle
 10
443.0
 20
93.20718020447995
 30
0.0
 40
2.00000000000001
100
AcDbArc
 50
279.9999999999999
 51
0.0000000000003979
  0
ARC
  5
226
330
1F
100
AcDbEntity
  8
0
  6
CONTINUOUS
 62
     7
100
AcDbCircle
 10
347.0
 20
76.79281979552005
 30
0.0
 40
2.000000000000002
100
AcDbArc
 50
100.0000000000006
 51
180.0
  0
LINE
  5
227
330
1F
100
AcDbEntity
  8
0
  6
CONTINUOUS
 62
     7
100
AcDbLine
 10
345.0
 20
76.78225536679366
 30
0.0
 11
345.0
 21
76.79281979552005
 31
0.0
  0
LINE
  5
228
330
1F
100
AcDbEntity
  8
0
  6
CONTINUOUS
 62
     7
100
AcDbLine
 10
345.0
 20
93.20718020447995
 30
0.0
 11
345.0
 21
93.21774463320635
 31
0.0
  0
ARC
  5
229
330
1F
100
AcDbEntity
  8
0
  6
CONTINUOUS
 62
     7
100
AcDbCircle
 10
346.9999999999999
 20
93.20718020447995
 30
0.0
 40
2.0
100
AcDbArc
 50
179.9999999999995
 51
260.0000000000001
  0
ARC
  5
22A
330
1F
100
AcDbEntity
  8
0
  6
CONTINUOUS
 62
     7
100
AcDbCircle
 10
443.0
 20
76.79281979552005
 30
0.0
 40
2.000000000000002
100
AcDbArc
 50
0.0
 51
79.99999999999939
  0
LINE
  5
22B
330
1F
100
AcDbEntity
  8
0
  6
CONTINUOUS
 62
     7
100
AcDbLine
 10
445.0
 20
76.78225536679366
 30
0.0
 11
445.0
 21
76.79281979552005
 31
0.0
  0
LINE
  5
22C
330
1F
100
AcDbEntity
  8
0
  6
CONTINUOUS
 62
   253
100
AcDbLine
 10
486.4371243655048
 20
240.1984127210161
 30
0.0
 11
486.4371243655048
 21
224.967547386244
 31
0.0
  0
LINE
  5
22D
330
1F
100
AcDbEntity
  8
0
  6
CONTINUOUS
 62
   253
100
AcDbLine
 10
583.5628756344952
 20
205.0324526137561
 30
0.0
 11
583.5628756344952
 21
189.8015872789839
 31
0.0
  0
LINE
  5
22E
330
1F
100
AcDbEntity
  8
0
  6
CONTINUOUS
 62
   253
100
AcDbLine
 10
596.4371243655048
 20
189.8015872789839
 30
0.0
 11
596.4371243655048
 21
205.0324526137561
 31
0.0
  0
LINE
  5
22F
330
1F
100
AcDbEntity
  8
0
  6
CONTINUOUS
 62
   253
100
AcDbLine
 10
517.5628756344952
 20
205.0324526137561
 30
0.0
 11
517.5628756344952
 21
189.8015872789839
 31
0.0
  0
LINE
  5
230
330
1F
100
AcDbEntity
  8
0
  6
CONTINUOUS
 62
   253
100
AcDbLine
 10
530.4371243655047
 20
189.8015872789839
 30
0.0
 11
530.4371243655047
 21
205.0324526137561
 31
0.0
  0
LINE
  5
231
330
1F
100
AcDbEntity
  8
0
  6
CONTINUOUS
 62
   253
100
AcDbLine
 10
473.5628756344952
 20
205.0324526137561
 30
0.0
 11
473.5628756344952
 21
189.8015872789839
 31
0.0
  0
LINE
  5
232
330
1F
100
AcDbEntity
  8
0
  6
CONTINUOUS
 62
   253
100
AcDbLine
 10
486.4371243655048
 20
189.8015872789839
 30
0.0
 11
486.4371243655048
 21
205.0324526137561
 31
0.0
  0
LINE
  5
233
330
1F
100
AcDbEntity
  8
0
  6
CONTINUOUS
 62
   253
100
AcDbLine
 10
539.5628756344952
 20
224.967547386244
 30
0.0
 11
539.5628756344952
 21
240.1984127210161
 31
0.0
  0
LINE
  5
234
330
1F
100
AcDbEntity
  8
0
  6
CONTINUOUS
 62
   253
100
AcDbLine
 10
539.5628756344952
 20
205.0324526137561
 30
0.0
 11
539.5628756344952
 21
224.967547386244
 31
0.0
  0
LINE
  5
235
330
1F
100
AcDbEntity
  8
0
  6
CONTINUOUS
 62
   253
100
AcDbLine
 10
552.4371243655047
 20
224.967547386244
 30
0.0
 11
552.4371243655047
 21
205.0324526137561
 31
0.0
  0
LINE
  5
236
330
1F
100
AcDbEntity
  8
0
  6
CONTINUOUS
 62
   253
100
AcDbLine
 10
552.4371243655047
 20
240.1984127210161
 30
0.0
 11
552.4371243655047
 21
224.967547386244
 31
0.0
  0
LINE
  5
237
330
1F
100
AcDbEntity
  8
0
  6
CONTINUOUS
 62
   253
100
AcDbLine
 10
574.4371243655047
 20
240.1984127210161
 30
0.0
 11
574.4371243655047
 21
224.967547386244
 31
0.0
  0
LINE
  5
238
330
1F
100
AcDbEntity
  8
0
  6
CONTINUOUS
 62
   253
100
AcDbLine
 10
486.4371243655048
 20
224.967547386244
 30
0.0
 11
486.4371243655048
 21
205.0324526137561
 31
0.0
  0
LINE
  5
239
330
1F
100
AcDbEntity
  8
0
  6
CONTINUOUS
 62
   253
100
AcDbLine
 10
552.4371243655047
 20
189.8015872789839
 30
0.0
 11
552.4371243655047
 21
205.0324526137561
 31
0.0
  0
LINE
  5
23A
330
1F
100
AcDbEntity
  8
0
  6
CONTINUOUS
 62
   253
100
AcDbLine
 10
583.5628756344952
 20
224.967547386244
 30
0.0
 11
583.5628756344952
 21
240.1984127210161
 31
0.0
  0
LINE
  5
23B
330
1F
100
AcDbEntity
  8
0
  6
CONTINUOUS
 62
   253
100
AcDbLine
 10
583.5628756344952
 20
205.0324526137561
 30
0.0
 11
583.5628756344952
 21
224.967547386244
 31
0.0
  0
LINE
  5
23C
330
1F
100
AcDbEntity
  8
0
  6
CONTINUOUS
 62
   253
100
AcDbLine
 10
596.4371243655048
 20
224.967547386244
 30
0.0
 11
596.4371243655048
 21
205.0324526137561
 31
0.0
  0
LINE
  5
23D
330
1F
100
AcDbEntity
  8
0
  6
CONTINUOUS
 62
   253
100
AcDbLine
 10
596.4371243655048
 20
240.1984127210161
 30
0.0
 11
596.4371243655048
 21
224.967547386244
 31
0.0
  0
LINE
  5
23E
330
1F
100
AcDbEntity
  8
0
  6
CONTINUOUS
 62
   253
100
AcDbLine
 10
495.5628756344952
 20
205.0324526137561
 30
0.0
 11
495.5628756344952
 21
189.8015872789839
 31
0.0
  0
LINE
  5
23F
330
1F
100
AcDbEntity
  8
0
  6
CONTINUOUS
 62
   253
100
AcDbLine
 10
517.5628756344952
 20
224.967547386244
 30
0.0
 11
517.5628756344952
 21
240.1984127210161
 31
0.0
  0
LINE
  5
240
330
1F
100
AcDbEntity
  8
0
  6
CONTINUOUS
 62
   253
100
AcDbLine
 10
517.5628756344952
 20
205.0324526137561
 30
0.0
 11
517.5628756344952
 21
224.967547386244
 31
0.0
  0
LINE
  5
241
330
1F
100
AcDbEntity
  8
0
  6
CONTINUOUS
 62
   253
100
AcDbLine
 10
530.4371243655047
 20
224.967547386244
 30
0.0
 11
530.4371243655047
 21
205.0324526137561
 31
0.0
  0
LINE
  5
242
330
1F
100
AcDbEntity
  8
0
  6
CONTINUOUS
 62
   253
100
AcDbLine
 10
530.4371243655047
 20
240.1984127210161
 30
0.0
 11
530.4371243655047
 21
224.967547386244
 31
0.0
  0
LINE
  5
243
330
1F
100
AcDbEntity
  8
0
  6
CONTINUOUS
 62
   253
100
AcDbLine
 10
508.4371243655048
 20
240.1984127210161
 30
0.0
 11
508.4371243655048
 21
224.967547386244
 31
0.0
  0
LINE
  5
244
330
1F
100
AcDbEntity
  8
0
  6
CONTINUOUS
 62
   253
100
AcDbLine
 10
473.5628756344952
 20
205.0324526137561
 30
0.0
 11
473.5628756344952
 21
224.967547386244
 31
0.0
  0
LINE
  5
245
330
1F
100
AcDbEntity
  8
0
  6
CONTINUOUS
 62
   253
100
AcDbLine
 10
495.5628756344952
 20
205.0324526137561
 30
0.0
 11
495.5628756344952
 21
224.967547386244
 31
0.0
  0
LINE
  5
246
330
1F
100
AcDbEntity
  8
0
  6
CONTINUOUS
 62
   253
100
AcDbLine
 10
561.5628756344952
 20
205.0324526137561
 30
0.0
 11
561.5628756344952
 21
189.8015872789839
 31
0.0
  0
LINE
  5
247
330
1F
100
AcDbEntity
  8
0
  6
CONTINUOUS
 62
   253
100
AcDbLine
 10
574.4371243655047
 20
189.8015872789839
 30
0.0
 11
574.4371243655047
 21
205.0324526137561
 31
0.0
  0
LINE
  5
248
330
1F
100
AcDbEntity
  8
0
  6
CONTINUOUS
 62
   253
100
AcDbLine
 10
508.4371243655048
 20
189.8015872789839
 30
0.0
 11
508.4371243655048
 21
205.0324526137561
 31
0.0
  0
LINE
  5
249
330
1F
100
AcDbEntity
  8
0
  6
CONTINUOUS
 62
   253
100
AcDbLine
 10
574.4371243655047
 20
224.967547386244
 30
0.0
 11
574.4371243655047
 21
205.0324526137561
 31
0.0
  0
LINE
  5
24A
330
1F
100
AcDbEntity
  8
0
  6
CONTINUOUS
 62
   253
100
AcDbLine
 10
495.5628756344952
 20
224.967547386244
 30
0.0
 11
495.5628756344952
 21
240.1984127210161
 31
0.0
  0
LINE
  5
24B
330
1F
100
AcDbEntity
  8
0
  6
CONTINUOUS
 62
   253
100
AcDbLine
 10
561.5628756344952
 20
224.967547386244
 30
0.0
 11
561.5628756344952
 21
240.1984127210161
 31
0.0
  0
LINE
  5
24C
330
1F
100
AcDbEntity
  8
0
  6
CONTINUOUS
 62
   253
100
AcDbLine
 10
508.4371243655048
 20
224.967547386244
 30
0.0
 11
508.4371243655048
 21
205.0324526137561
 31
0.0
  0
LINE
  5
24D
330
1F
100
AcDbEntity
  8
0
  6
CONTINUOUS
 62
   253
100
AcDbLine
 10
473.5628756344952
 20
224.967547386244
 30
0.0
 11
473.5628756344952
 21
240.1984127210161
 31
0.0
  0
LINE
  5
24E
330
1F
100
AcDbEntity
  8
0
  6
CONTINUOUS
 62
   253
100
AcDbLine
 10
539.5628756344952
 20
205.0324526137561
 30
0.0
 11
539.5628756344952
 21
189.8015872789839
 31
0.0
  0
LINE
  5
24F
330
1F
100
AcDbEntity
  8
0
  6
CONTINUOUS
 62
   253
100
AcDbLine
 10
561.5628756344952
 20
205.0324526137561
 30
0.0
 11
561.5628756344952
 21
224.967547386244
 31
0.0
  0
LINE
  5
250
330
1F
100
AcDbEntity
  8
0
  6
CONTINUOUS
 62
   253
100
AcDbLine
 10
596.4371243655048
 20
167.8778897120864
 30
0.0
 11
596.4371243655048
 21
189.8015872789839
 31
0.0
  0
LINE
  5
251
330
1F
100
AcDbEntity
  8
0
  6
CONTINUOUS
 62
   253
100
AcDbLine
 10
539.5628756344952
 20
240.1984127210161
 30
0.0
 11
539.5628756344952
 21
262.1221102879136
 31
0.0
  0
LINE
  5
252
330
1F
100
AcDbEntity
  8
0
  6
CONTINUOUS
 62
   253
100
AcDbLine
 10
552.4371243655047
 20
262.1221102879136
 30
0.0
 11
552.4371243655047
 21
240.1984127210161
 31
0.0
  0
LINE
  5
253
330
1F
100
AcDbEntity
  8
0
  6
CONTINUOUS
 62
   253
100
AcDbLine
 10
574.4371243655047
 20
262.1221102879136
 30
0.0
 11
574.4371243655047
 21
240.1984127210161
 31
0.0
  0
LINE
  5
254
330
1F
100
AcDbEntity
  8
0
  6
CONTINUOUS
 62
   253
100
AcDbLine
 10
583.5628756344952
 20
189.8015872789839
 30
0.0
 11
583.5628756344952
 21
167.8778897120864
 31
0.0
  0
LINE
  5
255
330
1F
100
AcDbEntity
  8
0
  6
CONTINUOUS
 62
   253
100
AcDbLine
 10
552.4371243655047
 20
167.8778897120864
 30
0.0
 11
552.4371243655047
 21
189.8015872789839
 31
0.0
  0
LINE
  5
256
330
1F
100
AcDbEntity
  8
0
  6
CONTINUOUS
 62
   253
100
AcDbLine
 10
486.4371243655048
 20
167.8778897120864
 30
0.0
 11
486.4371243655048
 21
189.8015872789839
 31
0.0
  0
LINE
  5
257
330
1F
100
AcDbEntity
  8
0
  6
CONTINUOUS
 62
   253
100
AcDbLine
 10
561.5628756344951
 20
240.1984127210161
 30
0.0
 11
561.5628756344951
 21
262.1221102879136
 31
0.0
  0
LINE
  5
258
330
1F
100
AcDbEntity
  8
0
  6
CONTINUOUS
 62
   253
100
AcDbLine
 10
530.4371243655047
 20
262.1221102879136
 30
0.0
 11
530.4371243655048
 21
240.1984127210161
 31
0.0
  0
LINE
  5
259
330
1F
100
AcDbEntity
  8
0
  6
CONTINUOUS
 62
   253
100
AcDbLine
 10
539.5628756344952
 20
189.8015872789839
 30
0.0
 11
539.5628756344952
 21
167.8778897120864
 31
0.0
  0
LINE
  5
25A
330
1F
100
AcDbEntity
  8
0
  6
CONTINUOUS
 62
   253
100
AcDbLine
 10
508.4371243655048
 20
262.1221102879136
 30
0.0
 11
508.4371243655048
 21
240.1984127210161
 31
0.0
  0
LINE
  5
25B
330
1F
100
AcDbEntity
  8
0
  6
CONTINUOUS
 62
   253
100
AcDbLine
 10
574.4371243655047
 20
167.8778897120864
 30
0.0
 11
574.4371243655047
 21
189.8015872789839
 31
0.0
  0
LINE
  5
25C
330
1F
100
AcDbEntity
  8
0
  6
CONTINUOUS
 62
   253
100
AcDbLine
 10
561.5628756344951
 20
189.8015872789839
 30
0.0
 11
561.5628756344951
 21
167.8778897120864
 31
0.0
  0
LINE
  5
25D
330
1F
100
AcDbEntity
  8
0
  6
CONTINUOUS
 62
   253
100
AcDbLine
 10
596.4371243655048
 20
262.1221102879136
 30
0.0
 11
596.4371243655048
 21
240.1984127210161
 31
0.0
  0
LINE
  5
25E
330
1F
100
AcDbEntity
  8
0
  6
CONTINUOUS
 62
   253
100
AcDbLine
 10
530.4371243655047
 20
167.8778897120864
 30
0.0
 11
530.4371243655048
 21
189.8015872789839
 31
0.0
  0
LINE
  5
25F
330
1F
100
AcDbEntity
  8
0
  6
CONTINUOUS
 62
   253
100
AcDbLine
 10
486.4371243655048
 20
262.1221102879136
 30
0.0
 11
486.4371243655048
 21
240.1984127210161
 31
0.0
  0
LINE
  5
260
330
1F
100
AcDbEntity
  8
0
  6
CONTINUOUS
 62
   253
100
AcDbLine
 10
517.5628756344952
 20
240.1984127210161
 30
0.0
 11
517.5628756344952
 21
262.1221102879136
 31
0.0
  0
LINE
  5
261
330
1F
100
AcDbEntity
  8
0
  6
CONTINUOUS
 62
   253
100
AcDbLine
 10
473.5628756344952
 20
240.1984127210161
 30
0.0
 11
473.5628756344952
 21
262.1221102879136
 31
0.0
  0
LINE
  5
262
330
1F
100
AcDbEntity
  8
0
  6
CONTINUOUS
 62
   253
100
AcDbLine
 10
495.5628756344952
 20
189.8015872789839
 30
0.0
 11
495.5628756344952
 21
167.8778897120864
 31
0.0
  0
LINE
  5
263
330
1F
100
AcDbEntity
  8
0
  6
CONTINUOUS
 62
   253
100
AcDbLine
 10
473.5628756344952
 20
189.8015872789839
 30
0.0
 11
473.5628756344952
 21
167.8778897120864
 31
0.0
  0
LINE
  5
264
330
1F
100
AcDbEntity
  8
0
  6
CONTINUOUS
 62
   253
100
AcDbLine
 10
495.5628756344952
 20
240.1984127210161
 30
0.0
 11
495.5628756344952
 21
262.1221102879136
 31
0.0
  0
LINE
  5
265
330
1F
100
AcDbEntity
  8
0
  6
CONTINUOUS
 62
   253
100
AcDbLine
 10
508.4371243655048
 20
167.8778897120864
 30
0.0
 11
508.4371243655048
 21
189.8015872789839
 31
0.0
  0
LINE
  5
266
330
1F
100
AcDbEntity
  8
0
  6
CONTINUOUS
 62
   253
100
AcDbLine
 10
517.5628756344952
 20
189.8015872789839
 30
0.0
 11
517.5628756344952
 21
167.8778897120864
 31
0.0
  0
LINE
  5
267
330
1F
100
AcDbEntity
  8
0
  6
CONTINUOUS
 62
   253
100
AcDbLine
 10
583.5628756344952
 20
240.1984127210161
 30
0.0
 11
583.5628756344952
 21
262.1221102879136
 31
0.0
  0
LINE
  5
268
330
1F
100
AcDbEntity
  8
0
  6
CONTINUOUS
 62
   253
100
AcDbLine
 10
538.6163099269394
 20
189.9421114432221
 30
0.0
 11
538.6163099269394
 21
205.1027267364685
 31
0.0
  0
LINE
  5
269
330
1F
100
AcDbEntity
  8
0
  6
CONTINUOUS
 62
   253
100
AcDbLine
 10
494.6163099269394
 20
240.057888556778
 30
0.0
 11
494.6163099269394
 21
224.8972732635315
 31
0.0
  0
LINE
  5
26A
330
1F
100
AcDbEntity
  8
0
  6
CONTINUOUS
 62
   253
100
AcDbLine
 10
472.6163099269394
 20
240.057888556778
 30
0.0
 11
472.6163099269394
 21
224.8972732635315
 31
0.0
  0
LINE
  5
26B
330
1F
100
AcDbEntity
  8
0
  6
CONTINUOUS
 62
   253
100
AcDbLine
 10
472.6163099269394
 20
189.9421114432221
 30
0.0
 11
472.6163099269394
 21
205.1027267364685
 31
0.0
  0
LINE
  5
26C
330
1F
100
AcDbEntity
  8
0
  6
CONTINUOUS
 62
   253
100
AcDbLine
 10
516.6163099269394
 20
224.8972732635315
 30
0.0
 11
516.6163099269394
 21
205.1027267364685
 31
0.0
  0
LINE
  5
26D
330
1F
100
AcDbEntity
  8
0
  6
CONTINUOUS
 62
   253
100
AcDbLine
 10
560.6163099269395
 20
224.8972732635315
 30
0.0
 11
560.6163099269395
 21
205.1027267364685
 31
0.0
  0
LINE
  5
26E
330
1F
100
AcDbEntity
  8
0
  6
CONTINUOUS
 62
   253
100
AcDbLine
 10
582.6163099269395
 20
224.8972732635315
 30
0.0
 11
582.6163099269395
 21
205.1027267364685
 31
0.0
  0
LINE
  5
26F
330
1F
100
AcDbEntity
  8
0
  6
CONTINUOUS
 62
   253
100
AcDbLine
 10
516.6163099269394
 20
189.9421114432221
 30
0.0
 11
516.6163099269394
 21
205.1027267364685
 31
0.0
  0
LINE
  5
270
330
1F
100
AcDbEntity
  8
0
  6
CONTINUOUS
 62
   253
100
AcDbLine
 10
582.6163099269395
 20
240.057888556778
 30
0.0
 11
582.6163099269395
 21
224.8972732635315
 31
0.0
  0
LINE
  5
271
330
1F
100
AcDbEntity
  8
0
  6
CONTINUOUS
 62
   253
100
AcDbLine
 10
538.6163099269394
 20
240.057888556778
 30
0.0
 11
538.6163099269394
 21
224.8972732635315
 31
0.0
  0
LINE
  5
272
330
1F
100
AcDbEntity
  8
0
  6
CONTINUOUS
 62
   253
100
AcDbLine
 10
494.6163099269394
 20
224.8972732635315
 30
0.0
 11
494.6163099269394
 21
205.1027267364685
 31
0.0
  0
LINE
  5
273
330
1F
100
AcDbEntity
  8
0
  6
CONTINUOUS
 62
   253
100
AcDbLine
 10
494.6163099269394
 20
189.9421114432221
 30
0.0
 11
494.6163099269394
 21
205.1027267364685
 31
0.0
  0
LINE
  5
274
330
1F
100
AcDbEntity
  8
0
  6
CONTINUOUS
 62
   253
100
AcDbLine
 10
560.6163099269395
 20
189.9421114432221
 30
0.0
 11
560.6163099269395
 21
205.1027267364685
 31
0.0
  0
LINE
  5
275
330
1F
100
AcDbEntity
  8
0
  6
CONTINUOUS
 62
   253
100
AcDbLine
 10
582.6163099269395
 20
189.9421114432221
 30
0.0
 11
582.6163099269395
 21
205.1027267364685
 31
0.0
  0
LINE
  5
276
330
1F
100
AcDbEntity
  8
0
  6
CONTINUOUS
 62
   253
100
AcDbLine
 10
516.6163099269394
 20
240.057888556778
 30
0.0
 11
516.6163099269394
 21
224.8972732635315
 31
0.0
  0
LINE
  5
277
330
1F
100
AcDbEntity
  8
0
  6
CONTINUOUS
 62
   253
100
AcDbLine
 10
560.6163099269395
 20
240.057888556778
 30
0.0
 11
560.6163099269395
 21
224.8972732635315
 31
0.0
  0
LINE
  5
278
330
1F
100
AcDbEntity
  8
0
  6
CONTINUOUS
 62
   253
100
AcDbLine
 10
538.6163099269394
 20
224.8972732635315
 30
0.0
 11
538.6163099269394
 21
205.1027267364685
 31
0.0
  0
LINE
  5
279
330
1F
100
AcDbEntity
  8
0
  6
CONTINUOUS
 62
   253
100
AcDbLine
 10
472.6163099269394
 20
224.8972732635315
 30
0.0
 11
472.6163099269394
 21
205.1027267364685
 31
0.0
  0
LINE
  5
27A
330
1F
100
AcDbEntity
  8
0
  6
CONTINUOUS
 62
   253
100
AcDbLine
 10
553.3836900730605
 20
224.8972732635315
 30
0.0
 11
553.3836900730605
 21
240.057888556778
 31
0.0
  0
LINE
  5
27B
330
1F
100
AcDbEntity
  8
0
  6
CONTINUOUS
 62
   253
100
AcDbLine
 10
509.3836900730605
 20
205.1027267364685
 30
0.0
 11
509.3836900730606
 21
189.9421114432221
 31
0.0
  0
LINE
  5
27C
330
1F
100
AcDbEntity
  8
0
  6
CONTINUOUS
 62
   253
100
AcDbLine
 10
487.3836900730605
 20
205.1027267364685
 30
0.0
 11
487.3836900730606
 21
189.9421114432221
 31
0.0
  0
LINE
  5
27D
330
1F
100
AcDbEntity
  8
0
  6
CONTINUOUS
 62
   253
100
AcDbLine
 10
597.3836900730606
 20
205.1027267364685
 30
0.0
 11
597.3836900730606
 21
189.9421114432221
 31
0.0
  0
LINE
  5
27E
330
1F
100
AcDbEntity
  8
0
  6
CONTINUOUS
 62
   253
100
AcDbLine
 10
575.3836900730605
 20
205.1027267364685
 30
0.0
 11
575.3836900730605
 21
224.8972732635315
 31
0.0
  0
LINE
  5
27F
330
1F
100
AcDbEntity
  8
0
  6
CONTINUOUS
 62
   253
100
AcDbLine
 10
553.3836900730605
 20
205.1027267364685
 30
0.0
 11
553.3836900730605
 21
224.8972732635315
 31
0.0
  0
LINE
  5
280
330
1F
100
AcDbEntity
  8
0
  6
CONTINUOUS
 62
   253
100
AcDbLine
 10
487.3836900730605
 20
224.8972732635315
 30
0.0
 11
487.3836900730606
 21
240.057888556778
 31
0.0
  0
LINE
  5
281
330
1F
100
AcDbEntity
  8
0
  6
CONTINUOUS
 62
   253
100
AcDbLine
 10
487.3836900730605
 20
205.1027267364685
 30
0.0
 11
487.3836900730605
 21
224.8972732635315
 31
0.0
  0
LINE
  5
282
330
1F
100
AcDbEntity
  8
0
  6
CONTINUOUS
 62
   253
100
AcDbLine
 10
553.3836900730605
 20
205.1027267364685
 30
0.0
 11
553.3836900730605
 21
189.9421114432221
 31
0.0
  0
LINE
  5
283
330
1F
100
AcDbEntity
  8
0
  6
CONTINUOUS
 62
   253
100
AcDbLine
 10
531.3836900730605
 20
224.8972732635315
 30
0.0
 11
531.3836900730605
 21
240.057888556778
 31
0.0
  0
LINE
  5
284
330
1F
100
AcDbEntity
  8
0
  6
CONTINUOUS
 62
   253
100
AcDbLine
 10
531.3836900730605
 20
205.1027267364685
 30
0.0
 11
531.3836900730605
 21
189.9421114432221
 31
0.0
  0
LINE
  5
285
330
1F
100
AcDbEntity
  8
0
  6
CONTINUOUS
 62
   253
100
AcDbLine
 10
575.3836900730605
 20
205.1027267364685
 30
0.0
 11
575.3836900730605
 21
189.9421114432221
 31
0.0
  0
LINE
  5
286
330
1F
100
AcDbEntity
  8
0
  6
CONTINUOUS
 62
   253
100
AcDbLine
 10
575.3836900730605
 20
224.8972732635315
 30
0.0
 11
575.3836900730605
 21
240.057888556778
 31
0.0
  0
LINE
  5
287
330
1F
100
AcDbEntity
  8
0
  6
CONTINUOUS
 62
   253
100
AcDbLine
 10
509.3836900730605
 20
205.1027267364685
 30
0.0
 11
509.3836900730605
 21
224.8972732635315
 31
0.0
  0
LINE
  5
288
330
1F
100
AcDbEntity
  8
0
  6
CONTINUOUS
 62
   253
100
AcDbLine
 10
509.3836900730605
 20
224.8972732635315
 30
0.0
 11
509.3836900730606
 21
240.057888556778
 31
0.0
  0
LINE
  5
289
330
1F
100
AcDbEntity
  8
0
  6
CONTINUOUS
 62
   253
100
AcDbLine
 10
597.3836900730606
 20
224.8972732635315
 30
0.0
 11
597.3836900730606
 21
240.057888556778
 31
0.0
  0
LINE
  5
28A
330
1F
100
AcDbEntity
  8
0
  6
CONTINUOUS
 62
   253
100
AcDbLine
 10
597.3836900730606
 20
205.1027267364685
 30
0.0
 11
597.3836900730606
 21
224.8972732635315
 31
0.0
  0
LINE
  5
28B
330
1F
100
AcDbEntity
  8
0
  6
CONTINUOUS
 62
   253
100
AcDbLine
 10
531.3836900730605
 20
205.1027267364685
 30
0.0
 11
531.3836900730605
 21
224.8972732635315
 31
0.0
  0
LINE
  5
28C
330
1F
100
AcDbEntity
  8
0
  6
CONTINUOUS
 62
   253
100
AcDbLine
 10
472.6163099269394
 20
173.2442910383434
 30
0.0
 11
472.6163099269394
 21
189.9421114432221
 31
0.0
  0
LINE
  5
28D
330
1F
100
AcDbEntity
  8
0
  6
CONTINUOUS
 62
   253
100
AcDbLine
 10
516.6163099269394
 20
173.2442910383434
 30
0.0
 11
516.6163099269394
 21
189.9421114432221
 31
0.0
  0
LINE
  5
28E
330
1F
100
AcDbEntity
  8
0
  6
CONTINUOUS
 62
   253
100
AcDbLine
 10
494.6163099269394
 20
173.2442910383434
 30
0.0
 11
494.6163099269394
 21
189.9421114432221
 31
0.0
  0
LINE
  5
28F
330
1F
100
AcDbEntity
  8
0
  6
CONTINUOUS
 62
   253
100
AcDbLine
 10
472.6163099269394
 20
256.7557089616566
 30
0.0
 11
472.6163099269394
 21
240.0578885567779
 31
0.0
  0
LINE
  5
290
330
1F
100
AcDbEntity
  8
0
  6
CONTINUOUS
 62
   253
100
AcDbLine
 10
516.6163099269394
 20
256.7557089616566
 30
0.0
 11
516.6163099269394
 21
240.0578885567779
 31
0.0
  0
LINE
  5
291
330
1F
100
AcDbEntity
  8
0
  6
CONTINUOUS
 62
   253
100
AcDbLine
 10
582.6163099269395
 20
256.7557089616566
 30
0.0
 11
582.6163099269395
 21
240.0578885567779
 31
0.0
  0
LINE
  5
292
330
1F
100
AcDbEntity
  8
0
  6
CONTINUOUS
 62
   253
100
AcDbLine
 10
575.3836900730605
 20
240.057888556778
 30
0.0
 11
575.3836900730605
 21
256.7557089616566
 31
0.0
  0
LINE
  5
293
330
1F
100
AcDbEntity
  8
0
  6
CONTINUOUS
 62
   253
100
AcDbLine
 10
575.3836900730605
 20
189.9421114432221
 30
0.0
 11
575.3836900730605
 21
173.2442910383434
 31
0.0
  0
LINE
  5
294
330
1F
100
AcDbEntity
  8
0
  6
CONTINUOUS
 62
   253
100
AcDbLine
 10
553.3836900730605
 20
240.057888556778
 30
0.0
 11
553.3836900730605
 21
256.7557089616566
 31
0.0
  0
LINE
  5
295
330
1F
100
AcDbEntity
  8
0
  6
CONTINUOUS
 62
   253
100
AcDbLine
 10
487.3836900730606
 20
189.9421114432221
 30
0.0
 11
487.3836900730606
 21
173.2442910383434
 31
0.0
  0
LINE
  5
296
330
1F
100
AcDbEntity
  8
0
  6
CONTINUOUS
 62
   253
100
AcDbLine
 10
531.3836900730605
 20
189.9421114432221
 30
0.0
 11
531.3836900730605
 21
173.2442910383434
 31
0.0
  0
LINE
  5
297
330
1F
100
AcDbEntity
  8
0
  6
CONTINUOUS
 62
   253
100
AcDbLine
 10
538.6163099269394
 20
173.2442910383434
 30
0.0
 11
538.6163099269394
 21
189.9421114432221
 31
0.0
  0
LINE
  5
298
330
1F
100
AcDbEntity
  8
0
  6
CONTINUOUS
 62
   253
100
AcDbLine
 10
494.6163099269394
 20
256.7557089616566
 30
0.0
 11
494.6163099269394
 21
240.0578885567779
 31
0.0
  0
LINE
  5
299
330
1F
100
AcDbEntity
  8
0
  6
CONTINUOUS
 62
   253
100
AcDbLine
 10
538.6163099269394
 20
256.7557089616566
 30
0.0
 11
538.6163099269394
 21
240.0578885567779
 31
0.0
  0
LINE
  5
29A
330
1F
100
AcDbEntity
  8
0
  6
CONTINUOUS
 62
   253
100
AcDbLine
 10
560.6163099269395
 20
173.2442910383434
 30
0.0
 11
560.6163099269395
 21
189.9421114432221
 31
0.0
  0
LINE
  5
29B
330
1F
100
AcDbEntity
  8
0
  6
CONTINUOUS
 62
   253
100
AcDbLine
 10
582.6163099269395
 20
173.2442910383434
 30
0.0
 11
582.6163099269395
 21
189.9421114432221
 31
0.0
  0
LINE
  5
29C
330
1F
100
AcDbEntity
  8
0
  6
CONTINUOUS
 62
   253
100
AcDbLine
 10
553.3836900730605
 20
189.9421114432221
 30
0.0
 11
553.3836900730605
 21
173.2442910383434
 31
0.0
  0
LINE
  5
29D
330
1F
100
AcDbEntity
  8
0
  6
CONTINUOUS
 62
   253
100
AcDbLine
 10
487.3836900730606
 20
240.057888556778
 30
0.0
 11
487.3836900730606
 21
256.7557089616566
 31
0.0
  0
LINE
  5
29E
330
1F
100
AcDbEntity
  8
0
  6
CONTINUOUS
 62
   253
100
AcDbLine
 10
531.3836900730605
 20
240.057888556778
 30
0.0
 11
531.3836900730605
 21
256.7557089616566
 31
0.0
  0
LINE
  5
29F
330
1F
100
AcDbEntity
  8
0
  6
CONTINUOUS
 62
   253
100
AcDbLine
 10
560.6163099269395
 20
256.7557089616566
 30
0.0
 11
560.6163099269395
 21
240.0578885567779
 31
0.0
  0
LINE
  5
2A0
330
1F
100
AcDbEntity
  8
0
  6
CONTINUOUS
 62
   253
100
AcDbLine
 10
597.3836900730606
 20
240.057888556778
 30
0.0
 11
597.3836900730606
 21
256.7557089616566
 31
0.0
  0
LINE
  5
2A1
330
1F
100
AcDbEntity
  8
0
  6
CONTINUOUS
 62
   253
100
AcDbLine
 10
509.3836900730606
 20
189.9421114432221
 30
0.0
 11
509.3836900730606
 21
173.2442910383434
 31
0.0
  0
LINE
  5
2A2
330
1F
100
AcDbEntity
  8
0
  6
CONTINUOUS
 62
   253
100
AcDbLine
 10
509.3836900730606
 20
240.057888556778
 30
0.0
 11
509.3836900730606
 21
256.7557089616566
 31
0.0
  0
LINE
  5
2A3
330
1F
100
AcDbEntity
  8
0
  6
CONTINUOUS
 62
   253
100
AcDbLine
 10
597.3836900730606
 20
189.9421114432221
 30
0.0
 11
597.3836900730606
 21
173.2442910383434
 31
0.0
  0
LINE
  5
2A4
330
1F
100
AcDbEntity
  8
0
  6
CONTINUOUS
 62
     7
100
AcDbLine
 10
468.9999999999999
 20
205.1243618123061
 30
0.0
 11
468.9999999999999
 21
224.8756381876939
 31
0.0
  0
LINE
  5
2A5
330
1F
100
AcDbEntity
  8
0
  6
CONTINUOUS
 62
     7
100
AcDbLine
 10
468.9999999999999
 20
205.1243618123061
 30
0.0
 11
468.9999999999999
 21
189.9853741810968
 31
0.0
  0
LINE
  5
2A6
330
1F
100
AcDbEntity
  8
0
  6
CONTINUOUS
 62
     7
100
AcDbLine
 10
601.0
 20
240.0146258189033
 30
0.0
 11
601.0
 21
224.8756381876939
 31
0.0
  0
LINE
  5
2A7
330
1F
100
AcDbEntity
  8
0
  6
CONTINUOUS
 62
     7
100
AcDbLine
 10
601.0
 20
224.8756381876939
 30
0.0
 11
601.0
 21
205.1243618123061
 31
0.0
  0
LINE
  5
2A8
330
1F
100
AcDbEntity
  8
0
  6
CONTINUOUS
 62
     7
100
AcDbLine
 10
601.0
 20
189.9853741810968
 30
0.0
 11
601.0
 21
205.1243618123061
 31
0.0
  0
LINE
  5
2A9
330
1F
100
AcDbEntity
  8
0
  6
CONTINUOUS
 62
     7
100
AcDbLine
 10
468.9999999999999
 20
224.8756381876939
 30
0.0
 11
468.9999999999999
 21
240.0146258189033
 31
0.0
  0
LINE
  5
2AA
330
1F
100
AcDbEntity
  8
0
  6
CONTINUOUS
 62
     7
100
AcDbLine
 10
468.9999999999999
 20
189.9853741810968
 30
0.0
 11
468.9999999999999
 21
174.8964283427478
 31
0.0
  0
LINE
  5
2AB
330
1F
100
AcDbEntity
  8
0
  6
CONTINUOUS
 62
     7
100
AcDbLine
 10
601.0
 20
255.1035716572523
 30
0.0
 11
601.0
 21
240.0146258189032
 31
0.0
  0
LINE
  5
2AC
330
1F
100
AcDbEntity
  8
0
  6
CONTINUOUS
 62
     7
100
AcDbLine
 10
601.0
 20
174.8964283427477
 30
0.0
 11
601.0
 21
189.9853741810968
 31
0.0
  0
LINE
  5
2AD
330
1F
100
AcDbEntity
  8
0
  6
CONTINUOUS
 62
     7
100
AcDbLine
 10
468.9999999999999
 20
240.0146258189033
 30
0.0
 11
468.9999999999999
 21
255.1035716572523
 31
0.0
  0
LINE
  5
2AE
330
1F
100
AcDbEntity
  8
0
  6
CONTINUOUS
 62
   253
100
AcDbLine
 10
574.4371243655047
 20
167.4790554669992
 30
0.0
 11
574.4371243655047
 21
167.8778897120864
 31
0.0
  0
ARC
  5
2AF
330
1F
100
AcDbEntity
  8
0
  6
CONTINUOUS
 62
     7
100
AcDbCircle
 10
571.4827011064681
 20
168.0
 30
0.0
 40
3.0
100
AcDbArc
 50
270.0
 51
349.9999999999997
  0
LINE
  5
2B0
330
1F
100
AcDbEntity
  8
0
  6
CONTINUOUS
 62
   253
100
AcDbLine
 10
552.4371243655047
 20
167.4790554669992
 30
0.0
 11
552.4371243655047
 21
167.8778897120864
 31
0.0
  0
ARC
  5
2B1
330
1F
100
AcDbEntity
  8
0
  6
CONTINUOUS
 62
     7
100
AcDbCircle
 10
549.4827011064681
 20
168.0
 30
0.0
 40
3.0
100
AcDbArc
 50
270.0
 51
349.9999999999997
  0
LINE
  5
2B2
330
1F
100
AcDbEntity
  8
0
  6
CONTINUOUS
 62
   253
100
AcDbLine
 10
583.5628756344952
 20
167.8778897120864
 30
0.0
 11
583.5628756344952
 21
167.4790554669993
 31
0.0
  0
ARC
  5
2B3
330
1F
100
AcDbEntity
  8
0
  6
CONTINUOUS
 62
     7
100
AcDbCircle
 10
586.5172988935318
 20
168.0
 30
0.0
 40
3.0
100
AcDbArc
 50
189.9999999999998
 51
270.0
  0
LINE
  5
2B4
330
1F
100
AcDbEntity
  8
0
  6
CONTINUOUS
 62
     7
100
AcDbLine
 10
549.4827011064681
 20
165.0
 30
0.0
 11
542.5172988935318
 21
165.0
 31
0.0
  0
LINE
  5
2B5
330
1F
100
AcDbEntity
  8
0
  6
CONTINUOUS
 62
   253
100
AcDbLine
 10
561.5628756344952
 20
167.8778897120864
 30
0.0
 11
561.5628756344951
 21
167.4790554669993
 31
0.0
  0
ARC
  5
2B6
330
1F
100
AcDbEntity
  8
0
  6
CONTINUOUS
 62
     7
100
AcDbCircle
 10
564.5172988935318
 20
168.0
 30
0.0
 40
3.0
100
AcDbArc
 50
189.9999999999994
 51
270.0
  0
LINE
  5
2B7
330
1F
100
AcDbEntity
  8
0
  6
CONTINUOUS
 62
   253
100
AcDbLine
 10
473.5628756344952
 20
167.8778897120864
 30
0.0
 11
473.5628756344952
 21
167.4790554669993
 31
0.0
  0
ARC
  5
2B8
330
1F
100
AcDbEntity
  8
0
  6
CONTINUOUS
 62
     7
100
AcDbCircle
 10
476.5172988935317
 20
168.0
 30
0.0
 40
3.0
100
AcDbArc
 50
189.9999999999998
 51
270.000000000001
  0
LINE
  5
2B9
330
1F
100
AcDbEntity
  8
0
  6
CONTINUOUS
 62
     7
100
AcDbLine
 10
593.4827011064682
 20
165.0
 30
0.0
 11
586.5172988935318
 21
165.0
 31
0.0
  0
LINE
  5
2BA
330
1F
100
AcDbEntity
  8
0
  6
CONTINUOUS
 62
     7
100
AcDbLine
 10
571.4827011064681
 20
165.0
 30
0.0
 11
564.5172988935318
 21
165.0
 31
0.0
  0
LINE
  5
2BB
330
1F
100
AcDbEntity
  8
0
  6
CONTINUOUS
 62
   253
100
AcDbLine
 10
517.5628756344952
 20
167.8778897120864
 30
0.0
 11
517.5628756344952
 21
167.4790554669993
 31
0.0
  0
ARC
  5
2BC
330
1F
100
AcDbEntity
  8
0
  6
CONTINUOUS
 62
     7
100
AcDbCircle
 10
520.5172988935318
 20
168.0
 30
0.0
 40
3.0
100
AcDbArc
 50
189.9999999999998
 51
270.0
  0
LINE
  5
2BD
330
1F
100
AcDbEntity
  8
0
  6
CONTINUOUS
 62
     7
100
AcDbLine
 10
483.4827011064682
 20
165.0
 30
0.0
 11
476.5172988935318
 21
165.0
 31
0.0
  0
LINE
  5
2BE
330
1F
100
AcDbEntity
  8
0
  6
CONTINUOUS
 62
   253
100
AcDbLine
 10
596.4371243655048
 20
167.4790554669992
 30
0.0
 11
596.4371243655048
 21
167.8778897120864
 31
0.0
  0
ARC
  5
2BF
330
1F
100
AcDbEntity
  8
0
  6
CONTINUOUS
 62
     7
100
AcDbCircle
 10
593.4827011064682
 20
168.0
 30
0.0
 40
3.0
100
AcDbArc
 50
270.0
 51
349.9999999999997
  0
LINE
  5
2C0
330
1F
100
AcDbEntity
  8
0
  6
CONTINUOUS
 62
   253
100
AcDbLine
 10
530.4371243655048
 20
167.4790554669992
 30
0.0
 11
530.4371243655047
 21
167.8778897120864
 31
0.0
  0
ARC
  5
2C1
330
1F
100
AcDbEntity
  8
0
  6
CONTINUOUS
 62
     7
100
AcDbCircle
 10
527.4827011064681
 20
168.0
 30
0.0
 40
3.0
100
AcDbArc
 50
270.0
 51
350.0000000000001
  0
LINE
  5
2C2
330
1F
100
AcDbEntity
  8
0
  6
CONTINUOUS
 62
   253
100
AcDbLine
 10
495.5628756344952
 20
167.8778897120864
 30
0.0
 11
495.5628756344952
 21
167.4790554669993
 31
0.0
  0
ARC
  5
2C3
330
1F
100
AcDbEntity
  8
0
  6
CONTINUOUS
 62
     7
100
AcDbCircle
 10
498.5172988935318
 20
168.0
 30
0.0
 40
3.0
100
AcDbArc
 50
189.9999999999998
 51
270.0
  0
LINE
  5
2C4
330
1F
100
AcDbEntity
  8
0
  6
CONTINUOUS
 62
   253
100
AcDbLine
 10
486.4371243655048
 20
167.4790554669992
 30
0.0
 11
486.4371243655048
 21
167.8778897120864
 31
0.0
  0
ARC
  5
2C5
330
1F
100
AcDbEntity
  8
0
  6
CONTINUOUS
 62
     7
100
AcDbCircle
 10
483.4827011064682
 20
168.0
 30
0.0
 40
3.0
100
AcDbArc
 50
269.9999999999989
 51
349.9999999999997
  0
LINE
  5
2C6
330
1F
100
AcDbEntity
  8
0
  6
CONTINUOUS
 62
     7
100
AcDbLine
 10
527.4827011064681
 20
165.0
 30
0.0
 11
520.5172988935318
 21
165.0
 31
0.0
  0
LINE
  5
2C7
330
1F
100
AcDbEntity
  8
0
  6
CONTINUOUS
 62
   253
100
AcDbLine
 10
539.5628756344952
 20
167.8778897120864
 30
0.0
 11
539.5628756344952
 21
167.4790554669993
 31
0.0
  0
ARC
  5
2C8
330
1F
100
AcDbEntity
  8
0
  6
CONTINUOUS
 62
     7
100
AcDbCircle
 10
542.5172988935318
 20
168.0
 30
0.0
 40
3.0
100
AcDbArc
 50
189.9999999999998
 51
270.0
  0
LINE
  5
2C9
330
1F
100
AcDbEntity
  8
0
  6
CONTINUOUS
 62
   253
100
AcDbLine
 10
508.4371243655048
 20
167.4790554669992
 30
0.0
 11
508.4371243655048
 21
167.8778897120864
 31
0.0
  0
ARC
  5
2CA
330
1F
100
AcDbEntity
  8
0
  6
CONTINUOUS
 62
     7
100
AcDbCircle
 10
505.4827011064682
 20
168.0
 30
0.0
 40
3.0
100
AcDbArc
 50
269.9999999999979
 51
349.9999999999997
  0
LINE
  5
2CB
330
1F
100
AcDbEntity
  8
0
  6
CONTINUOUS
 62
     7
100
AcDbLine
 10
505.4827011064682
 20
165.0
 30
0.0
 11
498.5172988935318
 21
165.0
 31
0.0
  0
ARC
  5
2CC
330
1F
100
AcDbEntity
  8
0
  6
CONTINUOUS
 62
     7
100
AcDbCircle
 10
571.4827011064681
 20
262.0
 30
0.0
 40
3.0
100
AcDbArc
 50
10.00000000000034
 51
90.0
  0
LINE
  5
2CD
330
1F
100
AcDbEntity
  8
0
  6
CONTINUOUS
 62
   253
100
AcDbLine
 10
574.4371243655047
 20
262.5209445330008
 30
0.0
 11
574.4371243655047
 21
262.1221102879136
 31
0.0
  0
LINE
  5
2CE
330
1F
100
AcDbEntity
  8
0
  6
CONTINUOUS
 62
   253
100
AcDbLine
 10
495.5628756344952
 20
262.1221102879136
 30
0.0
 11
495.5628756344952
 21
262.5209445330008
 31
0.0
  0
ARC
  5
2CF
330
1F
100
AcDbEntity
  8
0
  6
CONTINUOUS
 62
     7
100
AcDbCircle
 10
498.5172988935318
 20
262.0000000000001
 30
0.0
 40
3.0
100
AcDbArc
 50
90.0
 51
170.0000000000002
  0
LINE
  5
2D0
330
1F
100
AcDbEntity
  8
0
  6
CONTINUOUS
 62
     7
100
AcDbLine
 10
527.4827011064681
 20
265.0
 30
0.0
 11
520.5172988935318
 21
265.0
 31
0.0
  0
LINE
  5
2D1
330
1F
100
AcDbEntity
  8
0
  6
CONTINUOUS
 62
     7
100
AcDbLine
 10
571.4827011064681
 20
265.0
 30
0.0
 11
564.5172988935318
 21
265.0
 31
0.0
  0
LINE
  5
2D2
330
1F
100
AcDbEntity
  8
0
  6
CONTINUOUS
 62
   253
100
AcDbLine
 10
539.5628756344952
 20
262.1221102879136
 30
0.0
 11
539.5628756344952
 21
262.5209445330008
 31
0.0
  0
ARC
  5
2D3
330
1F
100
AcDbEntity
  8
0
  6
CONTINUOUS
 62
     7
100
AcDbCircle
 10
542.5172988935318
 20
262.0000000000001
 30
0.0
 40
3.0
100
AcDbArc
 50
90.0
 51
170.0000000000002
  0
LINE
  5
2D4
330
1F
100
AcDbEntity
  8
0
  6
CONTINUOUS
 62
   253
100
AcDbLine
 10
517.5628756344952
 20
262.1221102879136
 30
0.0
 11
517.5628756344952
 21
262.5209445330008
 31
0.0
  0
ARC
  5
2D5
330
1F
100
AcDbEntity
  8
0
  6
CONTINUOUS
 62
     7
100
AcDbCircle
 10
520.5172988935318
 20
262.0000000000001
 30
0.0
 40
3.0
100
AcDbArc
 50
90.0
 51
170.0000000000002
  0
LINE
  5
2D6
330
1F
100
AcDbEntity
  8
0
  6
CONTINUOUS
 62
     7
100
AcDbLine
 10
549.4827011064681
 20
265.0
 30
0.0
 11
542.5172988935318
 21
265.0
 31
0.0
  0
LINE
  5
2D7
330
1F
100
AcDbEntity
  8
0
  6
CONTINUOUS
 62
     7
100
AcDbLine
 10
505.4827011064682
 20
265.0
 30
0.0
 11
498.5172988935318
 21
265.0
 31
0.0
  0
ARC
  5
2D8
330
1F
100
AcDbEntity
  8
0
  6
CONTINUOUS
 62
     7
100
AcDbCircle
 10
483.4827011064682
 20
262.0
 30
0.0
 40
3.0
100
AcDbArc
 50
10.00000000000034
 51
90.0000000000011
  0
LINE
  5
2D9
330
1F
100
AcDbEntity
  8
0
  6
CONTINUOUS
 62
   253
100
AcDbLine
 10
486.4371243655048
 20
262.5209445330008
 30
0.0
 11
486.4371243655048
 21
262.1221102879136
 31
0.0
  0
ARC
  5
2DA
330
1F
100
AcDbEntity
  8
0
  6
CONTINUOUS
 62
     7
100
AcDbCircle
 10
593.4827011064682
 20
262.0
 30
0.0
 40
3.0
100
AcDbArc
 50
10.00000000000034
 51
90.0
  0
LINE
  5
2DB
330
1F
100
AcDbEntity
  8
0
  6
CONTINUOUS
 62
   253
100
AcDbLine
 10
596.4371243655048
 20
262.5209445330008
 30
0.0
 11
596.4371243655048
 21
262.1221102879136
 31
0.0
  0
LINE
  5
2DC
330
1F
100
AcDbEntity
  8
0
  6
CONTINUOUS
 62
     7
100
AcDbLine
 10
483.4827011064682
 20
265.0
 30
0.0
 11
476.5172988935318
 21
265.0
 31
0.0
  0
LINE
  5
2DD
330
1F
100
AcDbEntity
  8
0
  6
CONTINUOUS
 62
   253
100
AcDbLine
 10
583.5628756344952
 20
262.1221102879136
 30
0.0
 11
583.5628756344952
 21
262.5209445330008
 31
0.0
  0
ARC
  5
2DE
330
1F
100
AcDbEntity
  8
0
  6
CONTINUOUS
 62
     7
100
AcDbCircle
 10
586.5172988935318
 20
262.0000000000001
 30
0.0
 40
3.0
100
AcDbArc
 50
90.0
 51
170.0000000000002
  0
LINE
  5
2DF
330
1F
100
AcDbEntity
  8
0
  6
CONTINUOUS
 62
     7
100
AcDbLine
 10
593.4827011064682
 20
265.0
 30
0.0
 11
586.5172988935318
 21
265.0
 31
0.0
  0
ARC
  5
2E0
330
1F
100
AcDbEntity
  8
0
  6
CONTINUOUS
 62
     7
100
AcDbCircle
 10
549.4827011064681
 20
262.0
 30
0.0
 40
3.0
100
AcDbArc
 50
10.00000000000034
 51
90.0
  0
LINE
  5
2E1
330
1F
100
AcDbEntity
  8
0
  6
CONTINUOUS
 62
   253
100
AcDbLine
 10
552.4371243655047
 20
262.5209445330008
 30
0.0
 11
552.4371243655047
 21
262.1221102879136
 31
0.0
  0
LINE
  5
2E2
330
1F
100
AcDbEntity
  8
0
  6
CONTINUOUS
 62
   253
100
AcDbLine
 10
561.5628756344952
 20
262.1221102879136
 30
0.0
 11
561.5628756344951
 21
262.5209445330008
 31
0.0
  0
ARC
  5
2E3
330
1F
100
AcDbEntity
  8
0
  6
CONTINUOUS
 62
     7
100
AcDbCircle
 10
564.5172988935318
 20
262.0000000000001
 30
0.0
 40
3.0
100
AcDbArc
 50
90.0
 51
170.0000000000006
  0
LINE
  5
2E4
330
1F
100
AcDbEntity
  8
0
  6
CONTINUOUS
 62
   253
100
AcDbLine
 10
473.5628756344952
 20
262.1221102879136
 30
0.0
 11
473.5628756344952
 21
262.5209445330008
 31
0.0
  0
ARC
  5
2E5
330
1F
100
AcDbEntity
  8
0
  6
CONTINUOUS
 62
     7
100
AcDbCircle
 10
476.5172988935317
 20
262.0000000000001
 30
0.0
 40
3.0
100
AcDbArc
 50
89.99999999999898
 51
170.0000000000002
  0
ARC
  5
2E6
330
1F
100
AcDbEntity
  8
0
  6
CONTINUOUS
 62
     7
100
AcDbCircle
 10
505.4827011064682
 20
262.0
 30
0.0
 40
3.0
100
AcDbArc
 50
10.00000000000028
 51
90.0000000000021
  0
LINE
  5
2E7
330
1F
100
AcDbEntity
  8
0
  6
CONTINUOUS
 62
   253
100
AcDbLine
 10
508.4371243655048
 20
262.5209445330008
 30
0.0
 11
508.4371243655048
 21
262.1221102879136
 31
0.0
  0
ARC
  5
2E8
330
1F
100
AcDbEntity
  8
0
  6
CONTINUOUS
 62
     7
100
AcDbCircle
 10
527.4827011064681
 20
262.0
 30
0.0
 40
3.0
100
AcDbArc
 50
9.999999999999945
 51
90.0
  0
LINE
  5
2E9
330
1F
100
AcDbEntity
  8
0
  6
CONTINUOUS
 62
   253
100
AcDbLine
 10
530.4371243655048
 20
262.5209445330008
 30
0.0
 11
530.4371243655047
 21
262.1221102879136
 31
0.0
  0
LINE
  5
2EA
330
1F
100
AcDbEntity
  8
0
  6
CONTINUOUS
 62
   253
100
AcDbLine
 10
553.3836900730605
 20
173.2442910383434
 30
0.0
 11
553.3836900730605
 21
172.8472963553339
 31
0.0
  0
LINE
  5
2EB
330
1F
100
AcDbEntity
  8
0
  6
CONTINUOUS
 62
     7
100
AcDbLine
 10
552.4371243655047
 20
167.4790554669992
 30
0.0
 11
553.3836900730605
 21
172.8472963553339
 31
0.0
  0
LINE
  5
2EC
330
1F
100
AcDbEntity
  8
0
  6
CONTINUOUS
 62
   253
100
AcDbLine
 10
487.3836900730606
 20
173.2442910383434
 30
0.0
 11
487.3836900730605
 21
172.8472963553339
 31
0.0
  0
LINE
  5
2ED
330
1F
100
AcDbEntity
  8
0
  6
CONTINUOUS
 62
     7
100
AcDbLine
 10
486.4371243655048
 20
167.4790554669992
 30
0.0
 11
487.3836900730605
 21
172.8472963553339
 31
0.0
  0
LINE
  5
2EE
330
1F
100
AcDbEntity
  8
0
  6
CONTINUOUS
 62
   253
100
AcDbLine
 10
531.3836900730605
 20
173.2442910383434
 30
0.0
 11
531.3836900730605
 21
172.8472963553339
 31
0.0
  0
LINE
  5
2EF
330
1F
100
AcDbEntity
  8
0
  6
CONTINUOUS
 62
     7
100
AcDbLine
 10
530.4371243655048
 20
167.4790554669992
 30
0.0
 11
531.3836900730605
 21
172.8472963553339
 31
0.0
  0
LINE
  5
2F0
330
1F
100
AcDbEntity
  8
0
  6
CONTINUOUS
 62
   253
100
AcDbLine
 10
509.3836900730606
 20
173.2442910383434
 30
0.0
 11
509.3836900730605
 21
172.8472963553339
 31
0.0
  0
LINE
  5
2F1
330
1F
100
AcDbEntity
  8
0
  6
CONTINUOUS
 62
     7
100
AcDbLine
 10
508.4371243655048
 20
167.4790554669992
 30
0.0
 11
509.3836900730605
 21
172.8472963553339
 31
0.0
  0
LINE
  5
2F2
330
1F
100
AcDbEntity
  8
0
  6
CONTINUOUS
 62
     7
100
AcDbLine
 10
473.5628756344952
 20
167.4790554669993
 30
0.0
 11
472.6163099269394
 21
172.8472963553339
 31
0.0
  0
LINE
  5
2F3
330
1F
100
AcDbEntity
  8
0
  6
CONTINUOUS
 62
   253
100
AcDbLine
 10
472.6163099269394
 20
172.8472963553339
 30
0.0
 11
472.6163099269394
 21
173.2442910383434
 31
0.0
  0
LINE
  5
2F4
330
1F
100
AcDbEntity
  8
0
  6
CONTINUOUS
 62
   253
100
AcDbLine
 10
575.3836900730605
 20
173.2442910383434
 30
0.0
 11
575.3836900730605
 21
172.8472963553339
 31
0.0
  0
LINE
  5
2F5
330
1F
100
AcDbEntity
  8
0
  6
CONTINUOUS
 62
     7
100
AcDbLine
 10
574.4371243655047
 20
167.4790554669992
 30
0.0
 11
575.3836900730605
 21
172.8472963553339
 31
0.0
  0
LINE
  5
2F6
330
1F
100
AcDbEntity
  8
0
  6
CONTINUOUS
 62
     7
100
AcDbLine
 10
495.5628756344952
 20
167.4790554669993
 30
0.0
 11
494.6163099269394
 21
172.8472963553339
 31
0.0
  0
LINE
  5
2F7
330
1F
100
AcDbEntity
  8
0
  6
CONTINUOUS
 62
   253
100
AcDbLine
 10
494.6163099269394
 20
172.8472963553339
 30
0.0
 11
494.6163099269394
 21
173.2442910383434
 31
0.0
  0
LINE
  5
2F8
330
1F
100
AcDbEntity
  8
0
  6
CONTINUOUS
 62
   253
100
AcDbLine
 10
597.3836900730606
 20
173.2442910383434
 30
0.0
 11
597.3836900730606
 21
172.8472963553339
 31
0.0
  0
LINE
  5
2F9
330
1F
100
AcDbEntity
  8
0
  6
CONTINUOUS
 62
     7
100
AcDbLine
 10
596.4371243655048
 20
167.4790554669992
 30
0.0
 11
597.3836900730606
 21
172.8472963553339
 31
0.0
  0
LINE
  5
2FA
330
1F
100
AcDbEntity
  8
0
  6
CONTINUOUS
 62
     7
100
AcDbLine
 10
583.5628756344952
 20
167.4790554669993
 30
0.0
 11
582.6163099269395
 21
172.8472963553339
 31
0.0
  0
LINE
  5
2FB
330
1F
100
AcDbEntity
  8
0
  6
CONTINUOUS
 62
   253
100
AcDbLine
 10
582.6163099269395
 20
172.8472963553339
 30
0.0
 11
582.6163099269395
 21
173.2442910383434
 31
0.0
  0
LINE
  5
2FC
330
1F
100
AcDbEntity
  8
0
  6
CONTINUOUS
 62
     7
100
AcDbLine
 10
517.5628756344952
 20
167.4790554669993
 30
0.0
 11
516.6163099269394
 21
172.8472963553339
 31
0.0
  0
LINE
  5
2FD
330
1F
100
AcDbEntity
  8
0
  6
CONTINUOUS
 62
   253
100
AcDbLine
 10
516.6163099269394
 20
172.8472963553339
 30
0.0
 11
516.6163099269394
 21
173.2442910383434
 31
0.0
  0
LINE
  5
2FE
330
1F
100
AcDbEntity
  8
0
  6
CONTINUOUS
 62
     7
100
AcDbLine
 10
561.5628756344951
 20
167.4790554669993
 30
0.0
 11
560.6163099269395
 21
172.8472963553339
 31
0.0
  0
LINE
  5
2FF
330
1F
100
AcDbEntity
  8
0
  6
CONTINUOUS
 62
   253
100
AcDbLine
 10
560.6163099269395
 20
172.8472963553339
 30
0.0
 11
560.6163099269395
 21
173.2442910383434
 31
0.0
  0
LINE
  5
300
330
1F
100
AcDbEntity
  8
0
  6
CONTINUOUS
 62
     7
100
AcDbLine
 10
539.5628756344952
 20
167.4790554669993
 30
0.0
 11
538.6163099269394
 21
172.8472963553339
 31
0.0
  0
LINE
  5
301
330
1F
100
AcDbEntity
  8
0
  6
CONTINUOUS
 62
   253
100
AcDbLine
 10
538.6163099269394
 20
172.8472963553339
 30
0.0
 11
538.6163099269394
 21
173.2442910383434
 31
0.0
  0
LINE
  5
302
330
1F
100
AcDbEntity
  8
0
  6
CONTINUOUS
 62
   253
100
AcDbLine
 10
516.6163099269394
 20
257.1527036446662
 30
0.0
 11
516.6163099269394
 21
256.7557089616566
 31
0.0
  0
LINE
  5
303
330
1F
100
AcDbEntity
  8
0
  6
CONTINUOUS
 62
     7
100
AcDbLine
 10
517.5628756344952
 20
262.5209445330008
 30
0.0
 11
516.6163099269394
 21
257.1527036446662
 31
0.0
  0
LINE
  5
304
330
1F
100
AcDbEntity
  8
0
  6
CONTINUOUS
 62
   253
100
AcDbLine
 10
509.3836900730606
 20
256.7557089616566
 30
0.0
 11
509.3836900730605
 21
257.1527036446661
 31
0.0
  0
LINE
  5
305
330
1F
100
AcDbEntity
  8
0
  6
CONTINUOUS
 62
     7
100
AcDbLine
 10
508.4371243655048
 20
262.5209445330008
 30
0.0
 11
509.3836900730605
 21
257.1527036446661
 31
0.0
  0
LINE
  5
306
330
1F
100
AcDbEntity
  8
0
  6
CONTINUOUS
 62
   253
100
AcDbLine
 10
531.3836900730605
 20
256.7557089616566
 30
0.0
 11
531.3836900730605
 21
257.1527036446661
 31
0.0
  0
LINE
  5
307
330
1F
100
AcDbEntity
  8
0
  6
CONTINUOUS
 62
     7
100
AcDbLine
 10
530.4371243655048
 20
262.5209445330008
 30
0.0
 11
531.3836900730605
 21
257.1527036446661
 31
0.0
  0
LINE
  5
308
330
1F
100
AcDbEntity
  8
0
  6
CONTINUOUS
 62
   253
100
AcDbLine
 10
538.6163099269394
 20
257.1527036446662
 30
0.0
 11
538.6163099269394
 21
256.7557089616566
 31
0.0
  0
LINE
  5
309
330
1F
100
AcDbEntity
  8
0
  6
CONTINUOUS
 62
     7
100
AcDbLine
 10
539.5628756344952
 20
262.5209445330008
 30
0.0
 11
538.6163099269394
 21
257.1527036446662
 31
0.0
  0
LINE
  5
30A
330
1F
100
AcDbEntity
  8
0
  6
CONTINUOUS
 62
   253
100
AcDbLine
 10
582.6163099269395
 20
257.1527036446662
 30
0.0
 11
582.6163099269395
 21
256.7557089616566
 31
0.0
  0
LINE
  5
30B
330
1F
100
AcDbEntity
  8
0
  6
CONTINUOUS
 62
     7
100
AcDbLine
 10
583.5628756344952
 20
262.5209445330008
 30
0.0
 11
582.6163099269395
 21
257.1527036446662
 31
0.0
  0
LINE
  5
30C
330
1F
100
AcDbEntity
  8
0
  6
CONTINUOUS
 62
   253
100
AcDbLine
 10
472.6163099269394
 20
257.1527036446662
 30
0.0
 11
472.6163099269394
 21
256.7557089616566
 31
0.0
  0
LINE
  5
30D
330
1F
100
AcDbEntity
  8
0
  6
CONTINUOUS
 62
     7
100
AcDbLine
 10
473.5628756344952
 20
262.5209445330008
 30
0.0
 11
472.6163099269394
 21
257.1527036446662
 31
0.0
  0
LINE
  5
30E
330
1F
100
AcDbEntity
  8
0
  6
CONTINUOUS
 62
   253
100
AcDbLine
 10
575.3836900730605
 20
256.7557089616566
 30
0.0
 11
575.3836900730605
 21
257.1527036446661
 31
0.0
  0
LINE
  5
30F
330
1F
100
AcDbEntity
  8
0
  6
CONTINUOUS
 62
     7
100
AcDbLine
 10
574.4371243655047
 20
262.5209445330008
 30
0.0
 11
575.3836900730605
 21
257.1527036446661
 31
0.0
  0
LINE
  5
310
330
1F
100
AcDbEntity
  8
0
  6
CONTINUOUS
 62
   253
100
AcDbLine
 10
494.6163099269394
 20
257.1527036446662
 30
0.0
 11
494.6163099269394
 21
256.7557089616566
 31
0.0
  0
LINE
  5
311
330
1F
100
AcDbEntity
  8
0
  6
CONTINUOUS
 62
     7
100
AcDbLine
 10
495.5628756344952
 20
262.5209445330008
 30
0.0
 11
494.6163099269394
 21
257.1527036446662
 31
0.0
  0
LINE
  5
312
330
1F
100
AcDbEntity
  8
0
  6
CONTINUOUS
 62
   253
100
AcDbLine
 10
487.3836900730606
 20
256.7557089616566
 30
0.0
 11
487.3836900730605
 21
257.1527036446661
 31
0.0
  0
LINE
  5
313
330
1F
100
AcDbEntity
  8
0
  6
CONTINUOUS
 62
     7
100
AcDbLine
 10
486.4371243655048
 20
262.5209445330008
 30
0.0
 11
487.3836900730605
 21
257.1527036446661
 31
0.0
  0
LINE
  5
314
330
1F
100
AcDbEntity
  8
0
  6
CONTINUOUS
 62
   253
100
AcDbLine
 10
553.3836900730605
 20
256.7557089616566
 30
0.0
 11
553.3836900730605
 21
257.1527036446661
 31
0.0
  0
LINE
  5
315
330
1F
100
AcDbEntity
  8
0
  6
CONTINUOUS
 62
     7
100
AcDbLine
 10
552.4371243655047
 20
262.5209445330008
 30
0.0
 11
553.3836900730605
 21
257.1527036446661
 31
0.0
  0
LINE
  5
316
330
1F
100
AcDbEntity
  8
0
  6
CONTINUOUS
 62
   253
100
AcDbLine
 10
560.6163099269395
 20
257.1527036446662
 30
0.0
 11
560.6163099269395
 21
256.7557089616566
 31
0.0
  0
LINE
  5
317
330
1F
100
AcDbEntity
  8
0
  6
CONTINUOUS
 62
     7
100
AcDbLine
 10
561.5628756344951
 20
262.5209445330008
 30
0.0
 11
560.6163099269395
 21
257.1527036446662
 31
0.0
  0
LINE
  5
318
330
1F
100
AcDbEntity
  8
0
  6
CONTINUOUS
 62
   253
100
AcDbLine
 10
597.3836900730606
 20
256.7557089616566
 30
0.0
 11
597.3836900730606
 21
257.1527036446661
 31
0.0
  0
LINE
  5
319
330
1F
100
AcDbEntity
  8
0
  6
CONTINUOUS
 62
     7
100
AcDbLine
 10
596.4371243655048
 20
262.5209445330008
 30
0.0
 11
597.3836900730606
 21
257.1527036446661
 31
0.0
  0
ARC
  5
31A
330
1F
100
AcDbEntity
  8
0
  6
CONTINUOUS
 62
     7
100
AcDbCircle
 10
577.3533055790849
 20
172.5
 30
0.0
 40
2.0
100
AcDbArc
 50
90.0
 51
169.9999999999995
  0
ARC
  5
31B
330
1F
100
AcDbEntity
  8
0
  6
CONTINUOUS
 62
     7
100
AcDbCircle
 10
599.3533055790849
 20
172.5
 30
0.0
 40
2.0
100
AcDbArc
 50
90.0
 51
169.9999999999995
  0
ARC
  5
31C
330
1F
100
AcDbEntity
  8
0
  6
CONTINUOUS
 62
     7
100
AcDbCircle
 10
558.646694420915
 20
172.5
 30
0.0
 40
2.0
100
AcDbArc
 50
9.999999999999945
 51
90.0
  0
ARC
  5
31D
330
1F
100
AcDbEntity
  8
0
  6
CONTINUOUS
 62
     7
100
AcDbCircle
 10
536.646694420915
 20
172.5
 30
0.0
 40
2.0
100
AcDbArc
 50
9.999999999999945
 51
90.0
  0
ARC
  5
31E
330
1F
100
AcDbEntity
  8
0
  6
CONTINUOUS
 62
     7
100
AcDbCircle
 10
511.353305579085
 20
172.5
 30
0.0
 40
2.0
100
AcDbArc
 50
90.0
 51
169.9999999999995
  0
ARC
  5
31F
330
1F
100
AcDbEntity
  8
0
  6
CONTINUOUS
 62
     7
100
AcDbCircle
 10
580.646694420915
 20
172.5
 30
0.0
 40
2.0
100
AcDbArc
 50
9.999999999999945
 51
90.0
  0
ARC
  5
320
330
1F
100
AcDbEntity
  8
0
  6
CONTINUOUS
 62
     7
100
AcDbCircle
 10
555.3533055790849
 20
172.5
 30
0.0
 40
2.0
100
AcDbArc
 50
90.0
 51
169.9999999999995
  0
ARC
  5
321
330
1F
100
AcDbEntity
  8
0
  6
CONTINUOUS
 62
     7
100
AcDbCircle
 10
470.646694420915
 20
172.5
 30
0.0
 40
2.0
100
AcDbArc
 50
10.00000000000023
 51
90.0
  0
ARC
  5
322
330
1F
100
AcDbEntity
  8
0
  6
CONTINUOUS
 62
     7
100
AcDbCircle
 10
533.353305579085
 20
172.5
 30
0.0
 40
2.0
100
AcDbArc
 50
90.00000000000006
 51
170.0000000000001
  0
ARC
  5
323
330
1F
100
AcDbEntity
  8
0
  6
CONTINUOUS
 62
     7
100
AcDbCircle
 10
489.353305579085
 20
172.5
 30
0.0
 40
2.0
100
AcDbArc
 50
90.0
 51
169.9999999999995
  0
ARC
  5
324
330
1F
100
AcDbEntity
  8
0
  6
CONTINUOUS
 62
     7
100
AcDbCircle
 10
514.6466944209151
 20
172.5
 30
0.0
 40
2.0
100
AcDbArc
 50
10.00000000000051
 51
90.0
  0
ARC
  5
325
330
1F
100
AcDbEntity
  8
0
  6
CONTINUOUS
 62
     7
100
AcDbCircle
 10
492.646694420915
 20
172.5
 30
0.0
 40
2.0
100
AcDbArc
 50
10.00000000000051
 51
90.0
  0
ARC
  5
326
330
1F
100
AcDbEntity
  8
0
  6
CONTINUOUS
 62
     7
100
AcDbCircle
 10
470.646694420915
 20
257.5000000000001
 30
0.0
 40
2.0
100
AcDbArc
 50
270.0
 51
349.9999999999998
  0
ARC
  5
327
330
1F
100
AcDbEntity
  8
0
  6
CONTINUOUS
 62
     7
100
AcDbCircle
 10
514.6466944209151
 20
257.5000000000001
 30
0.0
 40
2.0
100
AcDbArc
 50
270.0
 51
349.9999999999994
  0
ARC
  5
328
330
1F
100
AcDbEntity
  8
0
  6
CONTINUOUS
 62
     7
100
AcDbCircle
 10
577.3533055790849
 20
257.5000000000001
 30
0.0
 40
2.0
100
AcDbArc
 50
190.0000000000005
 51
270.0
  0
ARC
  5
329
330
1F
100
AcDbEntity
  8
0
  6
CONTINUOUS
 62
     7
100
AcDbCircle
 10
580.646694420915
 20
257.5000000000001
 30
0.0
 40
2.0
100
AcDbArc
 50
270.0
 51
350.0000000000001
  0
ARC
  5
32A
330
1F
100
AcDbEntity
  8
0
  6
CONTINUOUS
 62
     7
100
AcDbCircle
 10
511.353305579085
 20
257.5000000000001
 30
0.0
 40
2.0
100
AcDbArc
 50
190.0000000000005
 51
270.0
  0
ARC
  5
32B
330
1F
100
AcDbEntity
  8
0
  6
CONTINUOUS
 62
     7
100
AcDbCircle
 10
536.646694420915
 20
257.5000000000001
 30
0.0
 40
2.0
100
AcDbArc
 50
270.0
 51
350.0000000000001
  0
ARC
  5
32C
330
1F
100
AcDbEntity
  8
0
  6
CONTINUOUS
 62
     7
100
AcDbCircle
 10
599.3533055790849
 20
257.5000000000001
 30
0.0
 40
2.0
100
AcDbArc
 50
190.0000000000005
 51
270.0
  0
ARC
  5
32D
330
1F
100
AcDbEntity
  8
0
  6
CONTINUOUS
 62
     7
100
AcDbCircle
 10
492.646694420915
 20
257.5000000000001
 30
0.0
 40
2.0
100
AcDbArc
 50
270.0
 51
349.9999999999994
  0
ARC
  5
32E
330
1F
100
AcDbEntity
  8
0
  6
CONTINUOUS
 62
     7
100
AcDbCircle
 10
489.353305579085
 20
257.5000000000001
 30
0.0
 40
2.0
100
AcDbArc
 50
190.0000000000005
 51
270.0
  0
ARC
  5
32F
330
1F
100
AcDbEntity
  8
0
  6
CONTINUOUS
 62
     7
100
AcDbCircle
 10
533.353305579085
 20
257.5000000000001
 30
0.0
 40
2.0
100
AcDbArc
 50
189.9999999999999
 51
269.9999999999999
  0
ARC
  5
330
330
1F
100
AcDbEntity
  8
0
  6
CONTINUOUS
 62
     7
100
AcDbCircle
 10
558.646694420915
 20
257.5000000000001
 30
0.0
 40
2.0
100
AcDbArc
 50
270.0
 51
350.0000000000001
  0
ARC
  5
331
330
1F
100
AcDbEntity
  8
0
  6
CONTINUOUS
 62
     7
100
AcDbCircle
 10
555.3533055790849
 20
257.5000000000001
 30
0.0
 40
2.0
100
AcDbArc
 50
190.0000000000005
 51
270.0
  0
LINE
  5
332
330
1F
100
AcDbEntity
  8
0
  6
CONTINUOUS
 62
     7
100
AcDbLine
 10
599.3533055790849
 20
174.5
 30
0.0
 11
601.0
 21
174.5
 31
0.0
  0
LINE
  5
333
330
1F
100
AcDbEntity
  8
0
  6
CONTINUOUS
 62
     7
100
AcDbLine
 10
601.0
 20
174.5
 30
0.0
 11
601.0
 21
174.8964283427478
 31
0.0
  0
LINE
  5
334
330
1F
100
AcDbEntity
  8
0
  6
CONTINUOUS
 62
     7
100
AcDbLine
 10
536.646694420915
 20
174.5
 30
0.0
 11
533.353305579085
 21
174.5
 31
0.0
  0
LINE
  5
335
330
1F
100
AcDbEntity
  8
0
  6
CONTINUOUS
 62
     7
100
AcDbLine
 10
492.646694420915
 20
174.5
 30
0.0
 11
489.353305579085
 21
174.5
 31
0.0
  0
LINE
  5
336
330
1F
100
AcDbEntity
  8
0
  6
CONTINUOUS
 62
     7
100
AcDbLine
 10
470.646694420915
 20
174.5
 30
0.0
 11
468.9999999999999
 21
174.5
 31
0.0
  0
LINE
  5
337
330
1F
100
AcDbEntity
  8
0
  6
CONTINUOUS
 62
     7
100
AcDbLine
 10
468.9999999999999
 20
174.8964283427478
 30
0.0
 11
468.9999999999999
 21
174.5
 31
0.0
  0
LINE
  5
338
330
1F
100
AcDbEntity
  8
0
  6
CONTINUOUS
 62
     7
100
AcDbLine
 10
514.6466944209151
 20
174.5
 30
0.0
 11
511.353305579085
 21
174.5
 31
0.0
  0
LINE
  5
339
330
1F
100
AcDbEntity
  8
0
  6
CONTINUOUS
 62
     7
100
AcDbLine
 10
580.646694420915
 20
174.5
 30
0.0
 11
577.3533055790849
 21
174.5
 31
0.0
  0
LINE
  5
33A
330
1F
100
AcDbEntity
  8
0
  6
CONTINUOUS
 62
     7
100
AcDbLine
 10
558.646694420915
 20
174.5
 30
0.0
 11
555.3533055790849
 21
174.5
 31
0.0
  0
LINE
  5
33B
330
1F
100
AcDbEntity
  8
0
  6
CONTINUOUS
 62
     7
100
AcDbLine
 10
558.646694420915
 20
255.5000000000001
 30
0.0
 11
555.3533055790849
 21
255.5000000000001
 31
0.0
  0
LINE
  5
33C
330
1F
100
AcDbEntity
  8
0
  6
CONTINUOUS
 62
     7
100
AcDbLine
 10
536.646694420915
 20
255.5000000000001
 30
0.0
 11
533.353305579085
 21
255.5000000000001
 31
0.0
  0
LINE
  5
33D
330
1F
100
AcDbEntity
  8
0
  6
CONTINUOUS
 62
     7
100
AcDbLine
 10
514.6466944209151
 20
255.5000000000001
 30
0.0
 11
511.353305579085
 21
255.5000000000001
 31
0.0
  0
LINE
  5
33E
330
1F
100
AcDbEntity
  8
0
  6
CONTINUOUS
 62
     7
100
AcDbLine
 10
599.3533055790849
 20
255.5000000000001
 30
0.0
 11
601.0
 21
255.5000000000001
 31
0.0
  0
LINE
  5
33F
330
1F
100
AcDbEntity
  8
0
  6
CONTINUOUS
 62
     7
100
AcDbLine
 10
601.0
 20
255.5000000000001
 30
0.0
 11
601.0
 21
255.1035716572523
 31
0.0
  0
LINE
  5
340
330
1F
100
AcDbEntity
  8
0
  6
CONTINUOUS
 62
     7
100
AcDbLine
 10
470.646694420915
 20
255.5000000000001
 30
0.0
 11
468.9999999999999
 21
255.5000000000001
 31
0.0
  0
LINE
  5
341
330
1F
100
AcDbEntity
  8
0
  6
CONTINUOUS
 62
     7
100
AcDbLine
 10
468.9999999999999
 20
255.1035716572523
 30
0.0
 11
468.9999999999999
 21
255.5000000000001
 31
0.0
  0
LINE
  5
342
330
1F
100
AcDbEntity
  8
0
  6
CONTINUOUS
 62
     7
100
AcDbLine
 10
492.646694420915
 20
255.5000000000001
 30
0.0
 11
489.353305579085
 21
255.5000000000001
 31
0.0
  0
LINE
  5
343
330
1F
100
AcDbEntity
  8
0
  6
CONTINUOUS
 62
     7
100
AcDbLine
 10
580.646694420915
 20
255.5000000000001
 30
0.0
 11
577.3533055790849
 21
255.5000000000001
 31
0.0
  0
ENDSEC
  0
SECTION
  2
OBJECTS
  0
DICTIONARY
  5
C
330
0
100
AcDbDictionary
  3
ACAD_GROUP
350
D
  3
ACAD_LAYOUT
350
1A
  3
ACAD_MATERIAL
350
43
  3
ACAD_MLEADERSTYLE
350
6B
  3
ACAD_MLINESTYLE
350
17
  3
ACAD_PLOTSETTINGS
350
19
  3
ACAD_SCALELIST
350
47
  3
ACAD_VISUALSTYLE
350
2A
  3
ACDBHEADERROUNDTRIPXREC
350
344
  3
ACDBVARIABLEDICTIONARY
350
365
  0
DICTIONARY
  5
36C
330
8
100
AcDbDictionary
280
     1
  3
ACAD_XREC_ROUNDTRIP
360
36D
  0
DICTIONARY
  5
D
102
{ACAD_REACTORS
330
C
102
}
330
C
100
AcDbDictionary
  0
DICTIONARY
  5
1A
102
{ACAD_REACTORS
330
C
102
}
330
C
100
AcDbDictionary
  0
DICTIONARY
  5
43
102
{ACAD_REACTORS
330
C
102
}
330
C
100
AcDbDictionary
  3
BYBLOCK
350
45
  3
BYLAYER
350
44
  3
GLOBAL
350
46
  0
DICTIONARY
  5
6B
102
{ACAD_REACTORS
330
C
102
}
330
C
100
AcDbDictionary
  3
STANDARD
350
6C
  0
DICTIONARY
  5
17
102
{ACAD_REACTORS
330
C
102
}
330
C
100
AcDbDictionary
  3
STANDARD
350
18
  0
DICTIONARY
  5
19
102
{ACAD_REACTORS
330
C
102
}
330
C
100
AcDbDictionary
  0
DICTIONARY
  5
47
102
{ACAD_REACTORS
330
C
102
}
330
C
100
AcDbDictionary
  3
A0
350
48
  3
A1
350
49
  3
A2
350
4A
  3
A3
350
4B
  3
A4
350
4C
  3
A5
350
4D
  3
A6
350
4E
  3
A7
350
4F
  3
A8
350
50
  3
A9
350
51
  3
B0
350
52
  3
B1
350
53
  3
B2
350
54
  3
B3
350
55
  3
B4
350
56
  3
B5
350
57
  3
B6
350
58
  3
B7
350
59
  3
B8
350
5A
  3
B9
350
5B
  3
C0
350
5C
  3
C1
350
5D
  3
C2
350
5E
  3
C3
350
5F
  3
C4
350
60
  3
C5
350
61
  3
C6
350
62
  3
C7
350
63
  3
C8
350
64
  3
C9
350
65
  3
D0
350
66
  3
D1
350
67
  3
D2
350
68
  0
DICTIONARY
  5
2A
102
{ACAD_REACTORS
330
C
102
}
330
C
100
AcDbDictionary
  3
2DWIREFRAME
350
2F
  3
BASIC
350
32
  3
BRIGHTEN
350
36
  3
COLORCHANGE
350
3A
  3
CONCEPTUAL
350
34
  3
DIM
350
35
  3
EDGECOLOROFF
350
3D
  3
FACEPATTERN
350
39
  3
FLAT
350
2B
  3
FLATWITHEDGES
350
2C
  3
GOURAUD
350
2D
  3
GOURAUDWITHEDGES
350
2E
  3
HIDDEN
350
31
  3
JITTEROFF
350
3B
  3
LINEPATTERN
350
38
  3
OVERHANGOFF
350
3C
  3
REALISTIC
350
33
  3
SHADED
350
42
  3
SHADED_WITH_EDGES
350
41
  3
SHADES_OF_GRAY
350
3E
  3
SKETCHY
350
3F
  3
THICKEN
350
37
  3
WIREFRAME
350
30
  3
X-RAY
350
40
  0
DICTIONARY
  5
344
102
{ACAD_REACTORS
330
C
102
}
330
C
100
AcDbDictionary
  3
CEPSNID
350
34E
  3
CEPSNTYPE
350
34D
  3
DIMSTYLEDATA
350
364
  3
FINGERPRINTGUID
350
34F
  3
HYPERLINKBASE
350
347
  3
INSUNITS
350
34C
  3
LAYOUTDICT
350
349
  3
LWETCUNION
350
34B
  3
PLOTSETDICT
350
34A
  3
PSVPSCALE
350
351
  3
PUCSBASE
350
354
  3
PUCSORGBACK
350
35A
  3
PUCSORGBOTTOM
350
356
  3
PUCSORGFRONT
350
359
  3
PUCSORGLEFT
350
357
  3
PUCSORGRIGHT
350
358
  3
PUCSORGTOP
350
355
  3
PUCSORTHOREF
350
352
  3
PUCSORTHOVIEW
350
353
  3
STYLESHEET
350
348
  3
TSTACKALIGN
350
345
  3
TSTACKSIZE
350
346
  3
UCSBASE
350
35D
  3
UCSORGBACK
350
363
  3
UCSORGBOTTOM
350
35F
  3
UCSORGFRONT
350
362
  3
UCSORGLEFT
350
360
  3
UCSORGRIGHT
350
361
  3
UCSORGTOP
350
35E
  3
UCSORTHOREF
350
35B
  3
UCSORTHOVIEW
350
35C
  3
VERSIONGUID
350
350
  0
DICTIONARY
  5
365
102
{ACAD_REACTORS
330
C
102
}
330
C
100
AcDbDictionary
  3
CANNOSCALE
350
36E
  3
CMLEADERSTYLE
350
367
  3
CTABLESTYLE
350
366
  3
DIMASSOC
350
36A
  3
HIDETEXT
350
36B
  3
MSLTSCALE
350
36F
  0
XRECORD
  5
36D
102
{ACAD_REACTORS
330
36C
102
}
330
36C
100
AcDbXrecord
102
VTR_0.000_0.000_1.000_1.000_VISUALSTYLE
340
2F
102
VTR_0.000_0.000_1.000_1.000_GRIDDISPLAY
 70
     3
102
VTR_0.000_0.000_1.000_1.000_GRIDMAJOR
 70
     5
102
VTR_0.000_0.000_1.000_1.000_DEFAULTLIGHTING
280
     1
102
VTR_0.000_0.000_1.000_1.000_DEFAULTLIGHTINGTYPE
 70
     1
102
VTR_0.000_0.000_1.000_1.000_BRIGHTNESS
141
0.0
102
VTR_0.000_0.000_1.000_1.000_CONTRAST
142
0.0
  0
MATERIAL
  5
45
102
{ACAD_REACTORS
330
43
102
}
102
{ACAD_XDICTIONARY
360
372
102
}
330
43
100
AcDbMaterial
  1
BYBLOCK
  0
MATERIAL
  5
44
102
{ACAD_REACTORS
330
43
102
}
102
{ACAD_XDICTIONARY
360
370
102
}
330
43
100
AcDbMaterial
  1
BYLAYER
  0
MATERIAL
  5
46
102
{ACAD_REACTORS
330
43
102
}
102
{ACAD_XDICTIONARY
360
374
102
}
330
43
100
AcDbMaterial
  1
GLOBAL
  0
ACAD_PROXY_OBJECT
  5
6C
102
{ACAD_REACTORS
330
6B
102
}
330
6B
100
AcDbProxyObject
 90
      499
 91
      505
 93
      610
310
40901902A4063FBFFFFFE056BD1B81E855B9FC0AD7A3703D0AD73F4214DD185B99185C9900AD7A3703D0AC73F90141901A02B5E8DC0F42B1CFC02B5E8DC0F42B1CFE5764000000000000300FC0
340
14
340
0
340
11
340
0
 94
        0
1001
ACAD_MLEADERVER
1070
     2
  0
MLINESTYLE
  5
18
102
{ACAD_REACTORS
330
17
102
}
330
17
100
AcDbMlineStyle
  2
Standard
 70
     0
  3

 62
   256
 51
90.0
 52
90.0
 71
     2
 49
0.5
 62
   256
  6
BYLAYER
 49
-0.5
 62
   256
  6
BYLAYER
  0
ACAD_PROXY_OBJECT
  5
48
102
{ACAD_REACTORS
330
47
102
}
330
47
100
AcDbProxyObject
 90
      499
 91
      503
 93
       41
310
903313A31580
  0
ACAD_PROXY_OBJECT
  5
49
102
{ACAD_REACTORS
330
47
102
}
330
47
100
AcDbProxyObject
 90
      499
 91
      503
 93
      105
310
903313A324000000000000004000
  0
ACAD_PROXY_OBJECT
  5
4A
102
{ACAD_REACTORS
330
47
102
}
330
47
100
AcDbProxyObject
 90
      499
 91
      503
 93
      105
310
903313A344000000000000104000
  0
ACAD_PROXY_OBJECT
  5
4B
102
{ACAD_REACTORS
330
47
102
}
330
47
100
AcDbProxyObject
 90
      499
 91
      503
 93
      105
310
903313A354000000000000144000
  0
ACAD_PROXY_OBJECT
  5
4C
102
{ACAD_REACTORS
330
47
102
}
330
47
100
AcDbProxyObject
 90
      499
 91
      503
 93
      105
310
903313A384000000000000204000
  0
ACAD_PROXY_OBJECT
  5
4D
102
{ACAD_REACTORS
330
47
102
}
330
47
100
AcDbProxyObject
 90
      499
 91
      503
 93
      113
310
904313A31304000000000000244000
  0
ACAD_PROXY_OBJECT
  5
4E
102
{ACAD_REACTORS
330
47
102
}
330
47
100
AcDbProxyObject
 90
      499
 91
      503
 93
      113
310
904313A31364000000000000304000
  0
ACAD_PROXY_OBJECT
  5
4F
102
{ACAD_REACTORS
330
47
102
}
330
47
100
AcDbProxyObject
 90
      499
 91
      503
 93
      113
310
904313A32304000000000000344000
  0
ACAD_PROXY_OBJECT
  5
50
102
{ACAD_REACTORS
330
47
102
}
330
47
100
AcDbProxyObject
 90
      499
 91
      503
 93
      113
310
904313A333040000000000003E4000
  0
ACAD_PROXY_OBJECT
  5
51
102
{ACAD_REACTORS
330
47
102
}
330
47
100
AcDbProxyObject
 90
      499
 91
      503
 93
      113
310
904313A34304000000000000444000
  0
ACAD_PROXY_OBJECT
  5
52
102
{ACAD_REACTORS
330
47
102
}
330
47
100
AcDbProxyObject
 90
      499
 91
      503
 93
      113
310
904313A35304000000000000494000
  0
ACAD_PROXY_OBJECT
  5
53
102
{ACAD_REACTORS
330
47
102
}
330
47
100
AcDbProxyObject
 90
      499
 91
      503
 93
      121
310
905313A3130304000000000000594000
  0
ACAD_PROXY_OBJECT
  5
54
102
{ACAD_REACTORS
330
47
102
}
330
47
100
AcDbProxyObject
 90
      499
 91
      503
 93
      105
310
903323A310000000000000010100
  0
ACAD_PROXY_OBJECT
  5
55
102
{ACAD_REACTORS
330
47
102
}
330
47
100
AcDbProxyObject
 90
      499
 91
      503
 93
      105
310
903343A310000000000000410100
  0
ACAD_PROXY_OBJECT
  5
56
102
{ACAD_REACTORS
330
47
102
}
330
47
100
AcDbProxyObject
 90
      499
 91
      503
 93
      105
310
903383A310000000000000810100
  0
ACAD_PROXY_OBJECT
  5
57
102
{ACAD_REACTORS
330
47
102
}
330
47
100
AcDbProxyObject
 90
      499
 91
      503
 93
      113
310
90431303A310000000000000910100
  0
ACAD_PROXY_OBJECT
  5
58
102
{ACAD_REACTORS
330
47
102
}
330
47
100
AcDbProxyObject
 90
      499
 91
      503
 93
      121
310
9053130303A310000000000001650100
  0
ACAD_PROXY_OBJECT
  5
59
102
{ACAD_REACTORS
330
47
102
}
330
47
100
AcDbProxyObject
 90
      499
 91
      503
 93
      257
310
90E312F31323822203D2031272D3022000000000000200FC000000000000284000
  0
ACAD_PROXY_OBJECT
  5
5A
102
{ACAD_REACTORS
330
47
102
}
330
47
100
AcDbProxyObject
 90
      499
 91
      503
 93
      249
310
90D312F363422203D2031272D3022000000000000240FC000000000000284000
  0
ACAD_PROXY_OBJECT
  5
5B
102
{ACAD_REACTORS
330
47
102
}
330
47
100
AcDbProxyObject
 90
      499
 91
      503
 93
      249
310
90D312F333222203D2031272D3022000000000000280FC000000000000284000
  0
ACAD_PROXY_OBJECT
  5
5C
102
{ACAD_REACTORS
330
47
102
}
330
47
100
AcDbProxyObject
 90
      499
 91
      503
 93
      249
310
90D312F313622203D2031272D30220000000000002C0FC000000000000284000
  0
ACAD_PROXY_OBJECT
  5
5D
102
{ACAD_REACTORS
330
47
102
}
330
47
100
AcDbProxyObject
 90
      499
 91
      503
 93
      249
310
90D332F333222203D2031272D30220000000000002E0FC000000000000284000
  0
ACAD_PROXY_OBJECT
  5
5E
102
{ACAD_REACTORS
330
47
102
}
330
47
100
AcDbProxyObject
 90
      499
 91
      503
 93
      241
310
90C312F3822203D2031272D3022000000000000300FC000000000000284000
  0
ACAD_PROXY_OBJECT
  5
5F
102
{ACAD_REACTORS
330
47
102
}
330
47
100
AcDbProxyObject
 90
      499
 91
      503
 93
      249
310
90D332F313622203D2031272D3022000000000000320FC000000000000284000
  0
ACAD_PROXY_OBJECT
  5
60
102
{ACAD_REACTORS
330
47
102
}
330
47
100
AcDbProxyObject
 90
      499
 91
      503
 93
      241
310
90C312F3422203D2031272D3022000000000000340FC000000000000284000
  0
ACAD_PROXY_OBJECT
  5
61
102
{ACAD_REACTORS
330
47
102
}
330
47
100
AcDbProxyObject
 90
      499
 91
      503
 93
      241
310
90C332F3822203D2031272D3022000000000000360FC000000000000284000
  0
ACAD_PROXY_OBJECT
  5
62
102
{ACAD_REACTORS
330
47
102
}
330
47
100
AcDbProxyObject
 90
      499
 91
      503
 93
      241
310
90C312F3222203D2031272D3022000000000000380FC000000000000284000
  0
ACAD_PROXY_OBJECT
  5
63
102
{ACAD_REACTORS
330
47
102
}
330
47
100
AcDbProxyObject
 90
      499
 91
      503
 93
      241
310
90C332F3422203D2031272D30220000000000003A0FC000000000000284000
  0
ACAD_PROXY_OBJECT
  5
64
102
{ACAD_REACTORS
330
47
102
}
330
47
100
AcDbProxyObject
 90
      499
 91
      503
 93
      161
310
90A3122203D2031272D30224000000000000284000
  0
ACAD_PROXY_OBJECT
  5
65
102
{ACAD_REACTORS
330
47
102
}
330
47
100
AcDbProxyObject
 90
      499
 91
      503
 93
      257
310
90E312D312F3222203D2031272D30220000000000003E0FC000000000000284000
  0
ACAD_PROXY_OBJECT
  5
66
102
{ACAD_REACTORS
330
47
102
}
330
47
100
AcDbProxyObject
 90
      499
 91
      503
 93
      225
310
90A3322203D2031272D302200000000000002100000000000000284000
  0
ACAD_PROXY_OBJECT
  5
67
102
{ACAD_REACTORS
330
47
102
}
330
47
100
AcDbProxyObject
 90
      499
 91
      503
 93
      225
310
90A3622203D2031272D302200000000000006100000000000000284000
  0
ACAD_PROXY_OBJECT
  5
68
102
{ACAD_REACTORS
330
47
102
}
330
47
100
AcDbProxyObject
 90
      499
 91
      503
 93
      249
310
90D31272D3022203D2031272D30220000000000000A100000000000000284000
  0
ACAD_PROXY_OBJECT
  5
2F
102
{ACAD_REACTORS
330
2A
102
}
330
2A
100
AcDbProxyObject
 90
      499
 91
      501
 93
      436
310
42CC9915DA5C99599C985B595049028333333333333E33F0000000000000F90107901411070040501600405405064090741402480A0340
1001
ACAD
1000
AcDbSavedByObjectVersion
1070
     0
  0
ACAD_PROXY_OBJECT
  5
32
102
{ACAD_REACTORS
330
2A
102
}
330
2A
100
AcDbProxyObject
 90
      499
 91
      501
 93
      388
310
4150985CDA58D07406404333333333333E33F0000000000000F90107A41107004050150841D405064090741402480A0350
1001
ACAD
1000
AcDbSavedByObjectVersion
1070
     0
  0
ACAD_PROXY_OBJECT
  5
36
102
{ACAD_REACTORS
330
2A
102
}
330
2A
100
AcDbProxyObject
 90
      499
 91
      501
 93
      428
310
42109C9A59DA1D195B90C409028333333333333E33F0000000000000F9010790141107004050150841D405064090741402480A029950
1001
ACAD
1000
AcDbSavedByObjectVersion
1070
     0
  0
ACAD_PROXY_OBJECT
  5
3A
102
{ACAD_REACTORS
330
2A
102
}
330
2A
100
AcDbProxyObject
 90
      499
 91
      501
 93
      452
310
42D0DBDB1BDC90DA185B99D95104090240C333333333333E33F0000000000000F90108901411070040501508421405064090741402480A0350
1001
ACAD
1000
AcDbSavedByObjectVersion
1070
     0
  0
ACAD_PROXY_OBJECT
  5
34
102
{ACAD_REACTORS
330
2A
102
}
330
2A
100
AcDbProxyObject
 90
      499
 91
      501
 93
      500
310
4290DBDB98D95C1D1D585B10940D028333333333333E33F0000000000000F90107902409070040501000000000018199010841D405064090740C02480A0340
1001
ACAD
1000
AcDbSavedByObjectVersion
1070
     0
  0
ACAD_PROXY_OBJECT
  5
35
102
{ACAD_REACTORS
330
2A
102
}
330
2A
100
AcDbProxyObject
 90
      499
 91
      501
 93
      412
310
40D11A5B50B409028333333333333E33F0000000000000F9010790141107004050150841D405064090741402480A02677FFFFFD0
1001
ACAD
1000
AcDbSavedByObjectVersion
1070
     0
  0
ACAD_PROXY_OBJECT
  5
3D
102
{ACAD_REACTORS
330
2A
102
}
330
2A
100
AcDbProxyObject
 90
      499
 91
      501
 93
      452
310
43115919D950DBDB1BDC93D999916409028333333333333E33F0000000000000F9010790141107004050150841D405064090741402480A0350
1001
ACAD
1000
AcDbSavedByObjectVersion
1070
     0
  0
ACAD_PROXY_OBJECT
  5
39
102
{ACAD_REACTORS
330
2A
102
}
330
2A
100
AcDbProxyObject
 90
      499
 91
      501
 93
      444
310
42D19858D95C185D1D195C9B90F409028333333333333E33F0000000000000F9010790141107004050150841D405064090741402480A0350
1001
ACAD
1000
AcDbSavedByObjectVersion
1070
     0
  0
ACAD_PROXY_OBJECT
  5
2B
102
{ACAD_REACTORS
330
2A
102
}
330
2A
100
AcDbProxyObject
 90
      499
 91
      501
 93
      380
310
41119B185D240901404333333333333E33F0000000000000F9010740A907004050150841D405064090741402480A1B50
1001
ACAD
1000
AcDbSavedByObjectVersion
1070
     0
  0
ACAD_PROXY_OBJECT
  5
2C
102
{ACAD_REACTORS
330
2A
102
}
330
2A
100
AcDbProxyObject
 90
      499
 91
      501
 93
      468
310
43519B185D15DA5D1A115919D95CD0140901404333333333333E33F0000000000000F90107409019070040501600405405064090741402480A1B50
1001
ACAD
1000
AcDbSavedByObjectVersion
1070
     0
  0
ACAD_PROXY_OBJECT
  5
2D
102
{ACAD_REACTORS
330
2A
102
}
330
2A
100
AcDbProxyObject
 90
      499
 91
      501
 93
      404
310
41D1DBDD5C985D5910240902404333333333333E33F0000000000000F9010740A9070040501641D405064090741402480A1B50
1001
ACAD
1000
AcDbSavedByObjectVersion
1070
     0
  0
ACAD_PROXY_OBJECT
  5
2E
102
{ACAD_REACTORS
330
2A
102
}
330
2A
100
AcDbProxyObject
 90
      499
 91
      501
 93
      492
310
4411DBDD5C985D5915DA5D1A115919D95CD0340902404333333333333E33F0000000000000F90107409019070040501600405405064090741402480A1B50
1001
ACAD
1000
AcDbSavedByObjectVersion
1070
     0
  0
ACAD_PROXY_OBJECT
  5
31
102
{ACAD_REACTORS
330
2A
102
}
330
2A
100
AcDbProxyObject
 90
      499
 91
      501
 93
      476
310
41921A5919195B90640502408333333333333E33F0000000000000F901079024090700405020000000000001110200405405064090740C02480A0340
1001
ACAD
1000
AcDbSavedByObjectVersion
1070
     0
  0
ACAD_PROXY_OBJECT
  5
3B
102
{ACAD_REACTORS
330
2A
102
}
330
2A
100
AcDbProxyObject
 90
      499
 91
      501
 93
      428
310
42529A5D1D195C93D999914409028333333333333E33F0000000000000F9010790141107004050150A41D405064090741402480A0350
1001
ACAD
1000
AcDbSavedByObjectVersion
1070
     0
  0
ACAD_PROXY_OBJECT
  5
38
102
{ACAD_REACTORS
330
2A
102
}
330
2A
100
AcDbProxyObject
 90
      499
 91
      501
 93
      444
310
42D31A5B995C185D1D195C9B90E409028333333333333E33F0000000000000F9010790141107004050750841D405064090741402483A0350
1001
ACAD
1000
AcDbSavedByObjectVersion
1070
     0
  0
ACAD_PROXY_OBJECT
  5
3C
102
{ACAD_REACTORS
330
2A
102
}
330
2A
100
AcDbProxyObject
 90
      499
 91
      501
 93
      444
310
42D3DD995C9A185B99D3D999915409028333333333333E33F0000000000000F9010790141107004050150941D405064090741402480A0350
1001
ACAD
1000
AcDbSavedByObjectVersion
1070
     0
  0
ACAD_PROXY_OBJECT
  5
33
102
{ACAD_REACTORS
330
2A
102
}
330
2A
100
AcDbProxyObject
 90
      499
 91
      501
 93
      428
310
425499585B1A5CDD1A58D08409038333333333333E33F0000000000000F9010740A907004050150800405405064090740C02480A1B40
1001
ACAD
1000
AcDbSavedByObjectVersion
1070
     0
  0
ACAD_PROXY_OBJECT
  5
42
102
{ACAD_REACTORS
330
2A
102
}
330
2A
100
AcDbProxyObject
 90
      499
 91
      501
 93
      420
310
4194DA1859195911B40902404333333333333E33F0000000000000F9010740A41107004050150800405405064090840C02480A0B40
1001
ACAD
1000
AcDbSavedByObjectVersion
1070
     0
  0
ACAD_PROXY_OBJECT
  5
41
102
{ACAD_REACTORS
330
2A
102
}
330
2A
100
AcDbProxyObject
 90
      499
 91
      501
 93
      516
310
4454DA18591959081DDA5D1A08195919D95CD1A40902404333333333333E33F0000000000000F901074090142907004050250800405405064090740C02480A0B40
1001
ACAD
1000
AcDbSavedByObjectVersion
1070
     0
  0
ACAD_PROXY_OBJECT
  5
3E
102
{ACAD_REACTORS
330
2A
102
}
330
2A
100
AcDbProxyObject
 90
      499
 91
      501
 93
      532
310
4394DA1859195CC81BD98811DC985E5174090240C333333333333E33F0000000000000F901079024090741D01000000000000111010841D405064090740C02480A0340
1001
ACAD
1000
AcDbSavedByObjectVersion
1070
     0
  0
ACAD_PROXY_OBJECT
  5
3F
102
{ACAD_REACTORS
330
2A
102
}
330
2A
100
AcDbProxyObject
 90
      499
 91
      501
 93
      476
310
41D4DAD95D18DA1E51840502408333333333333E33F0000000000000F901079024090741D01000000000000111010B41D405064090741802480A0340
1001
ACAD
1000
AcDbSavedByObjectVersion
1070
     0
  0
ACAD_PROXY_OBJECT
  5
37
102
{ACAD_REACTORS
330
2A
102
}
330
2A
100
AcDbProxyObject
 90
      499
 91
      501
 93
      412
310
41D51A1A58DAD95B90D409028333333333333E33F0000000000000F9010790141107004050150C41D405064090741402480A0350
1001
ACAD
1000
AcDbSavedByObjectVersion
1070
     0
  0
ACAD_PROXY_OBJECT
  5
30
102
{ACAD_REACTORS
330
2A
102
}
330
2A
100
AcDbProxyObject
 90
      499
 91
      501
 93
      420
310
4255DA5C99599C985B595059028333333333333E33F0000000000000F90107901411070040501600405405064090740C02480A0340
1001
ACAD
1000
AcDbSavedByObjectVersion
1070
     0
  0
ACAD_PROXY_OBJECT
  5
40
102
{ACAD_REACTORS
330
2A
102
}
330
2A
100
AcDbProxyObject
 90
      499
 91
      501
 93
      404
310
41560B54985E51940902404000000000000E03F0000000000000F9010740501907004050150841D405064090740C02480A1B40
1001
ACAD
1000
AcDbSavedByObjectVersion
1070
     0
  0
XRECORD
  5
34E
102
{ACAD_REACTORS
330
344
102
}
330
344
100
AcDbXrecord
340
0
  0
XRECORD
  5
34D
102
{ACAD_REACTORS
330
344
102
}
330
344
100
AcDbXrecord
 90
        0
  0
XRECORD
  5
364
102
{ACAD_REACTORS
330
344
102
}
330
344
100
AcDbXrecord
1000
DSTYLE
1002
{
1070
   179
 70
     2
1070
   171
 70
     2
1070
   143
 40
25.4
1070
   274
 70
     2
1070
    41
 40
3.0
1070
   141
 40
0.09
1070
    43
 40
0.38
1070
   278
 70
    46
1070
    44
 40
1.5
1070
    42
 40
0.0625
1070
   147
 40
1.5
1070
   272
 70
     4
1070
    73
 70
     1
1070
   172
 70
     0
1070
    74
 70
     1
1070
   283
 70
     1
1070
   340
340
6E
1070
   140
 40
3.0
1070
   284
 70
     0
1070
    78
 70
     0
1002
}
  0
XRECORD
  5
34F
102
{ACAD_REACTORS
330
344
102
}
330
344
100
AcDbXrecord
  1
{56140D43-4004-4016-A0DF-8ECB99F5999C}
  0
XRECORD
  5
347
102
{ACAD_REACTORS
330
344
102
}
330
344
100
AcDbXrecord
  1

  0
XRECORD
  5
34C
102
{ACAD_REACTORS
330
344
102
}
330
344
100
AcDbXrecord
 90
        4
  0
XRECORD
  5
349
102
{ACAD_REACTORS
330
344
102
}
330
344
100
AcDbXrecord
340
1A
  0
XRECORD
  5
34B
102
{ACAD_REACTORS
330
344
102
}
330
344
100
AcDbXrecord
 90
    10269
  0
XRECORD
  5
34A
102
{ACAD_REACTORS
330
344
102
}
330
344
100
AcDbXrecord
340
19
  0
XRECORD
  5
351
102
{ACAD_REACTORS
330
344
102
}
330
344
100
AcDbXrecord
 40
0.0
  0
XRECORD
  5
354
102
{ACAD_REACTORS
330
344
102
}
330
344
100
AcDbXrecord
340
0
  0
XRECORD
  5
35A
102
{ACAD_REACTORS
330
344
102
}
330
344
100
AcDbXrecord
 10
0.0
 20
0.0
 30
0.0
  0
XRECORD
  5
356
102
{ACAD_REACTORS
330
344
102
}
330
344
100
AcDbXrecord
 10
0.0
 20
0.0
 30
0.0
  0
XRECORD
  5
359
102
{ACAD_REACTORS
330
344
102
}
330
344
100
AcDbXrecord
 10
0.0
 20
0.0
 30
0.0
  0
XRECORD
  5
357
102
{ACAD_REACTORS
330
344
102
}
330
344
100
AcDbXrecord
 10
0.0
 20
0.0
 30
0.0
  0
XRECORD
  5
358
102
{ACAD_REACTORS
330
344
102
}
330
344
100
AcDbXrecord
 10
0.0
 20
0.0
 30
0.0
  0
XRECORD
  5
355
102
{ACAD_REACTORS
330
344
102
}
330
344
100
AcDbXrecord
 10
0.0
 20
0.0
 30
0.0
  0
XRECORD
  5
352
102
{ACAD_REACTORS
330
344
102
}
330
344
100
AcDbXrecord
340
0
  0
XRECORD
  5
353
102
{ACAD_REACTORS
330
344
102
}
330
344
100
AcDbXrecord
 70
     0
  0
XRECORD
  5
348
102
{ACAD_REACTORS
330
344
102
}
330
344
100
AcDbXrecord
  1

  0
XRECORD
  5
345
102
{ACAD_REACTORS
330
344
102
}
330
344
100
AcDbXrecord
 90
        1
  0
XRECORD
  5
346
102
{ACAD_REACTORS
330
344
102
}
330
344
100
AcDbXrecord
 90
       70
  0
XRECORD
  5
35D
102
{ACAD_REACTORS
330
344
102
}
330
344
100
AcDbXrecord
340
0
  0
XRECORD
  5
363
102
{ACAD_REACTORS
330
344
102
}
330
344
100
AcDbXrecord
 10
0.0
 20
0.0
 30
0.0
  0
XRECORD
  5
35F
102
{ACAD_REACTORS
330
344
102
}
330
344
100
AcDbXrecord
 10
0.0
 20
0.0
 30
0.0
  0
XRECORD
  5
362
102
{ACAD_REACTORS
330
344
102
}
330
344
100
AcDbXrecord
 10
0.0
 20
0.0
 30
0.0
  0
XRECORD
  5
360
102
{ACAD_REACTORS
330
344
102
}
330
344
100
AcDbXrecord
 10
0.0
 20
0.0
 30
0.0
  0
XRECORD
  5
361
102
{ACAD_REACTORS
330
344
102
}
330
344
100
AcDbXrecord
 10
0.0
 20
0.0
 30
0.0
  0
XRECORD
  5
35E
102
{ACAD_REACTORS
330
344
102
}
330
344
100
AcDbXrecord
 10
0.0
 20
0.0
 30
0.0
  0
XRECORD
  5
35B
102
{ACAD_REACTORS
330
344
102
}
330
344
100
AcDbXrecord
340
0
  0
XRECORD
  5
35C
102
{ACAD_REACTORS
330
344
102
}
330
344
100
AcDbXrecord
 70
     0
  0
XRECORD
  5
350
102
{ACAD_REACTORS
330
344
102
}
330
344
100
AcDbXrecord
  1
{FAEB1C32-E019-11D5-929B-00C0DF256EC4}
  0
DICTIONARYVAR
  5
36E
102
{ACAD_REACTORS
330
365
102
}
330
365
100
DictionaryVariables
280
     0
  1
1:1
  0
DICTIONARYVAR
  5
367
102
{ACAD_REACTORS
330
365
102
}
330
365
100
DictionaryVariables
280
     0
  1
Standard
  0
DICTIONARYVAR
  5
366
102
{ACAD_REACTORS
330
365
102
}
330
365
100
DictionaryVariables
280
     0
  1
Standard
  0
DICTIONARYVAR
  5
36A
102
{ACAD_REACTORS
330
365
102
}
330
365
100
DictionaryVariables
280
     0
  1
2
  0
DICTIONARYVAR
  5
36B
102
{ACAD_REACTORS
330
365
102
}
330
365
100
DictionaryVariables
280
     0
  1
1
  0
DICTIONARYVAR
  5
36F
102
{ACAD_REACTORS
330
365
102
}
330
365
100
DictionaryVariables
280
     0
  1
1
  0
DICTIONARY
  5
372
330
45
100
AcDbDictionary
280
     1
  3
ACAD_XREC_ROUNDTRIP
360
373
  0
DICTIONARY
  5
370
330
44
100
AcDbDictionary
280
     1
  3
ACAD_XREC_ROUNDTRIP
360
371
  0
DICTIONARY
  5
374
330
46
100
AcDbDictionary
280
     1
  3
ACAD_XREC_ROUNDTRIP
360
375
  0
XRECORD
  5
373
102
{ACAD_REACTORS
330
372
102
}
330
372
100
AcDbXrecord
102
MATERIAL
148
0.0
149
0.0
149
0.0
 93
        0
 94
      127
282
     0
 72
     1
 77
     1
171
     1
175
     1
179
     1
273
     0
  0
XRECORD
  5
371
102
{ACAD_REACTORS
330
370
102
}
330
370
100
AcDbXrecord
102
MATERIAL
148
0.0
149
0.0
149
0.0
 93
        0
 94
      127
282
     0
 72
     1
 77
     1
171
     1
175
     1
179
     1
273
     0
  0
XRECORD
  5
375
102
{ACAD_REACTORS
330
374
102
}
330
374
100
AcDbXrecord
102
MATERIAL
148
0.0
149
0.0
149
0.0
 93
        0
 94
      127
282
     0
 72
     1
 77
     1
171
     1
175
     1
179
     1
273
     0
  0
ENDSEC
  0
EOF
