  0
SECTION
  2
HEADER
  9
$ACADVER
  1
AC1006
  9
$DWGCODEPAGE
  3
ansi_932
  9
$INSBASE
 10
0.0
 20
0.0
 30
0.0
  9
$EXTMIN
 10
0.0
 20
-470.0
  9
$EXTMAX
 10
2385.0
 20
10.0
  9
$LIMMIN
 10
0.0
 20
0.0
  9
$LIMMAX
 10
12.0
 20
9.0
  9
$ORTHOMODE
 70
     0
  9
$REGENMODE
 70
     1
  9
$FILLMODE
 70
     1
  9
$QTEXTMODE
 70
     0
  9
$MIRRTEXT
 70
     1
  9
$DRAGMODE
 70
     2
  9
$LTSCALE
 40
1.0
  9
$OSMODE
 70
    37
  9
$ATTMODE
 70
     1
  9
$TEXTSIZE
 40
0.2
  9
$TRACEWID
 40
0.05
  9
$TEXTSTYLE
  7
STANDARD
  9
$CLAYER
  8
0
  9
$CELTYPE
  6
BYLAYER
  9
$CECOLOR
 62
   256
  9
$DIMSCALE
 40
1.0
  9
$DIMASZ
 40
3.0
  9
$DIMEXO
 40
0.0625
  9
$DIMDLI
 40
0.38
  9
$DIMRND
 40
0.0
  9
$DIMDLE
 40
0.0
  9
$DIMEXE
 40
1.5
  9
$DIMTP
 40
0.0
  9
$DIMTM
 40
0.0
  9
$DIMTXT
 40
3.0
  9
$DIMCEN
 40
0.09
  9
$DIMTSZ
 40
0.0
  9
$DIMTOL
 70
     0
  9
$DIMLIM
 70
     0
  9
$DIMTIH
 70
     1
  9
$DIMTOH
 70
     1
  9
$DIMSE1
 70
     0
  9
$DIMSE2
 70
     0
  9
$DIMTAD
 70
     1
  9
$DIMZIN
 70
     0
  9
$DIMBLK
  1

  9
$DIMASO
 70
     1
  9
$DIMSHO
 70
     1
  9
$DIMPOST
  1

  9
$DIMAPOST
  1

  9
$DIMALT
 70
     0
  9
$DIMALTD
 70
     2
  9
$DIMALTF
 40
25.4
  9
$DIMLFAC
 40
1.0
  9
$DIMTOFL
 70
     0
  9
$DIMTVP
 40
0.0
  9
$DIMTIX
 70
     0
  9
$DIMSOXD
 70
     0
  9
$DIMSAH
 70
     0
  9
$DIMBLK1
  1

  9
$DIMBLK2
  1

  9
$LUNITS
 70
     2
  9
$LUPREC
 70
     4
  9
$SKETCHINC
 40
0.1
  9
$FILLETRAD
 40
0.5
  9
$AUNITS
 70
     0
  9
$AUPREC
 70
     0
  9
$MENU
  1
.
  9
$ELEVATION
 40
0.0
  9
$THICKNESS
 40
0.0
  9
$LIMCHECK
 70
     0
  9
$CHAMFERA
 40
0.0
  9
$CHAMFERB
 40
0.0
  9
$SKPOLY
 70
     0
  9
$TDCREATE
 40
2460119.719693067
  9
$TDUPDATE
 40
2460119.719693588
  9
$TDINDWG
 40
0.0000000116
  9
$TDUSRTIMER
 40
0.0000000116
  9
$USRTIMER
 70
     1
  9
$ANGBASE
 50
0.0
  9
$ANGDIR
 70
     0
  9
$PDMODE
 70
     0
  9
$PDSIZE
 40
0.0
  9
$PLINEWID
 40
0.0
  9
$COORDS
 70
     1
  9
$SPLFRAME
 70
     0
  9
$SPLINETYPE
 70
     6
  9
$SPLINESEGS
 70
     8
  9
$ATTDIA
 70
     0
  9
$ATTREQ
 70
     1
  9
$HANDLING
 70
     1
  9
$HANDSEED
  5
6A7
  9
$SURFTAB1
 70
     6
  9
$SURFTAB2
 70
     6
  9
$SURFTYPE
 70
     6
  9
$SURFU
 70
     6
  9
$SURFV
 70
     6
  9
$UCSNAME
  2

  9
$UCSORG
 10
0.0
 20
0.0
 30
0.0
  9
$UCSXDIR
 10
1.0
 20
0.0
 30
0.0
  9
$UCSYDIR
 10
0.0
 20
1.0
 30
0.0
  9
$USERI1
 70
     0
  9
$USERI2
 70
     0
  9
$USERI3
 70
     0
  9
$USERI4
 70
     0
  9
$USERI5
 70
     0
  9
$USERR1
 40
0.0
  9
$USERR2
 40
0.0
  9
$USERR3
 40
0.0
  9
$USERR4
 40
0.0
  9
$USERR5
 40
0.0
  9
$WORLDVIEW
 70
     1
  0
ENDSEC
  0
SECTION
  2
TABLES
  0
TABLE
  2
VPORT
 70
     1
  0
VPORT
  2
*ACTIVE
 70
     0
 10
0.0
 20
0.0
 11
1.0
 21
1.0
 12
1192.5
 22
-230.0
 13
0.0
 23
0.0
 14
0.5
 24
0.5
 15
0.5
 25
0.5
 16
0.0
 26
0.0
 36
1.0
 17
0.0
 27
0.0
 37
0.0
 40
480.0
 41
1.6
 42
50.0
 43
0.0
 44
0.0
 50
0.0
 51
0.0
 71
     0
 72
   100
 73
     1
 74
     3
 75
     0
 76
     0
 77
     0
 78
     0
  0
ENDTAB
  0
TABLE
  2
LTYPE
 70
     2
  0
LTYPE
  2
CONTINUOUS
 70
     0
  3
Solid line
 72
    65
 73
     0
 40
0.0
  0
LTYPE
  2
CENTER
 70
     0
  3

 72
    65
 73
     0
 40
0.0
  0
ENDTAB
  0
TABLE
  2
LAYER
 70
     2
  0
LAYER
  2
0
 70
     0
 62
     7
  6
CONTINUOUS
  0
LAYER
  2
1
 70
     0
 62
     7
  6
CONTINUOUS
  0
ENDTAB
  0
TABLE
  2
STYLE
 70
     2
  0
STYLE
  2
STANDARD
 70
     0
 40
0.0
 41
1.0
 50
0.0
 71
     0
 42
0.2
  3
txt
  4

  0
STYLE
  2
ＭＳ_ゴシック
 70
     0
 40
0.0
 41
1.0
 50
0.0
 71
     0
 42
0.2
  3
ＭＳ ゴシック.shx
  4

  0
ENDTAB
  0
TABLE
  2
VIEW
 70
     0
  0
ENDTAB
  0
TABLE
  2
UCS
 70
     0
  0
ENDTAB
  0
ENDSEC
  0
SECTION
  2
BLOCKS
  0
ENDSEC
  0
SECTION
  2
ENTITIES
  0
TEXT
  5
70
  8
0
  6
CONTINUOUS
 62
     7
 10
820.0608040515193
 20
-470.5246029761161
 30
0.0
 40
5.0
  1
N-KFEP-75CK
  0
TEXT
  5
71
  8
1
  6
CONTINUOUS
 62
     7
 10
775.1579174498526
 20
-480.3284813365393
 30
0.0
 40
10.0
  1
Ｎ－ＫＦＥＰ－７５ＣＫ
 41
0.771692
  0
LINE
  5
72
  8
1
  6
CONTINUOUS
 62
     7
 10
872.5307287182011
 20
-408.5362031105675
 30
0.0
 11
872.5537017575833
 21
-408.5458870587338
 31
0.0
  0
ARC
  5
73
  8
1
  6
CONTINUOUS
 62
     7
 10
1253.482701106467
 20
-355.4999999999997
 30
0.0
 40
3.000000000003666
 50
9.999999999999886
 51
90.0
  0
ARC
  5
74
  8
1
  6
CONTINUOUS
 62
     7
 10
1202.517298893532
 20
-449.5000000000002
 30
0.0
 40
3.000000000000114
 50
189.9999999999998
 51
270.0000000000028
  0
ARC
  5
75
  8
1
  6
CONTINUOUS
 62
     7
 10
1457.353305579083
 20
-444.9999999999954
 30
0.0
 40
2.000000000002444
 50
89.99999999999841
 51
169.9999999999998
  0
ARC
  5
76
  8
1
  6
CONTINUOUS
 62
     7
 10
1202.517298893532
 20
-355.5000000000001
 30
0.0
 40
3.000000000000114
 50
89.99999999999736
 51
170.0000000000003
  0
LINE
  5
77
  8
1
  6
CONTINUOUS
 62
     7
 10
872.4863722697669
 20
-408.5134628863038
 30
0.0
 11
872.5082669410903
 21
-408.5253860888172
 31
0.0
  0
LINE
  5
78
  8
1
  6
CONTINUOUS
 62
     7
 10
1387.999999999998
 20
-408.4999999999998
 30
0.0
 11
1387.999999999998
 21
-451.1319332953966
 31
0.0
  0
LINE
  5
79
  8
1
  6
CONTINUOUS
 62
     7
 10
872.4650991378318
 20
-408.5004631459868
 30
0.0
 11
872.4863722697646
 21
-408.5134628863036
 31
0.0
  0
ARC
  5
7A
  8
1
  6
CONTINUOUS
 62
     7
 10
1504.646694420916
 20
-359.9999999999992
 30
0.0
 40
1.999999999998892
 50
270.0
 51
349.9999999999998
  0
ARC
  5
7B
  8
1
  6
CONTINUOUS
 62
     7
 10
1369.353305579085
 20
-444.9999999999954
 30
0.0
 40
1.999999999998892
 50
89.9999999999992
 51
169.9999999999998
  0
LINE
  5
7C
  8
1
  6
CONTINUOUS
 62
     7
 10
872.5537017575831
 20
-408.5458870587335
 30
0.0
 11
872.5771289446403
 21
-408.5544138574949
 31
0.0
  0
LINE
  5
7D
  8
1
  6
CONTINUOUS
 62
     7
 10
1375.32489368327
 20
-396.5000000000001
 30
0.0
 11
1388.675106316731
 21
-396.5000000000001
 31
0.0
  0
ARC
  5
7E
  8
1
  6
CONTINUOUS
 62
     7
 10
1501.353305579083
 20
-444.9999999999954
 30
0.0
 40
1.999999999998892
 50
89.99999999999524
 51
169.9999999999998
  0
LINE
  5
7F
  8
1
  6
CONTINUOUS
 62
     7
 10
1376.000000000001
 20
-396.5000000000001
 30
0.0
 11
1376.000000000001
 21
-353.8680667046037
 31
0.0
  0
LINE
  5
80
  8
1
  6
CONTINUOUS
 62
     7
 10
1375.32489368327
 20
-408.5000000000003
 30
0.0
 11
1388.675106316731
 21
-408.5000000000003
 31
0.0
  0
ARC
  5
81
  8
1
  6
CONTINUOUS
 62
     7
 10
1416.646694420918
 20
-359.9999999999992
 30
0.0
 40
1.999999999998892
 50
270.0
 51
349.9999999999998
  0
ARC
  5
82
  8
1
  6
CONTINUOUS
 62
     7
 10
1473.482701106469
 20
-355.4999999999997
 30
0.0
 40
2.999999999996561
 50
9.999999999999801
 51
90.0
  0
ARC
  5
83
  8
1
  6
CONTINUOUS
 62
     7
 10
1325.353305579085
 20
-444.9999999999954
 30
0.0
 40
2.000000000002444
 50
90.0
 51
169.9999999999998
  0
ARC
  5
84
  8
1
  6
CONTINUOUS
 62
     7
 10
1369.353305579085
 20
-359.9999999999992
 30
0.0
 40
1.999999999998892
 50
190.0000000000002
 51
270.0
  0
LINE
  5
85
  8
1
  6
CONTINUOUS
 62
     7
 10
1943.877500908498
 20
-435.6025086125401
 30
0.0
 11
1943.875685351602
 21
-435.6270500884994
 31
0.0
  0
LINE
  5
86
  8
1
  6
CONTINUOUS
 62
     7
 10
2039.997841782969
 20
-454.9327990096461
 30
0.0
 11
2039.929686263681
 21
-454.8179608275238
 31
0.0
  0
ARC
  5
87
  8
1
  6
CONTINUOUS
 62
     7
 10
1504.646694420916
 20
-444.9999999999954
 30
0.0
 40
1.999999999998892
 50
10.00000000000045
 51
90.0
  0
ARC
  5
88
  8
1
  6
CONTINUOUS
 62
     7
 10
1479.353305579088
 20
-359.9999999999992
 30
0.0
 40
1.999999999998892
 50
190.0000000000002
 51
270.0
  0
ARC
  5
89
  8
1
  6
CONTINUOUS
 62
     7
 10
1268.517298893534
 20
-355.5000000000001
 30
0.0
 40
2.999999999996561
 50
90.0
 51
170.0000000000003
  0
LINE
  5
8A
  8
1
  6
CONTINUOUS
 62
     7
 10
872.2462860258431
 20
-408.1795232560112
 30
0.0
 11
872.2518336266528
 21
-408.2038288832567
 31
0.0
  0
ARC
  5
8B
  8
1
  6
CONTINUOUS
 62
     7
 10
1460.646694420916
 20
-444.9999999999954
 30
0.0
 40
2.000000000002444
 50
9.999999999999945
 51
90.0
  0
ARC
  5
8C
  8
1
  6
CONTINUOUS
 62
     7
 10
1240.646694420913
 20
-445.000000000001
 30
0.0
 40
1.999999999998892
 50
10.00000000000028
 51
90.00000000000045
  0
ARC
  5
8D
  8
1
  6
CONTINUOUS
 62
     7
 10
1400.517298893532
 20
-355.5000000000001
 30
0.0
 40
2.999999999996561
 50
89.9999999999979
 51
170.0000000000002
  0
ARC
  5
8E
  8
1
  6
CONTINUOUS
 62
     7
 10
1303.353305579083
 20
-359.9999999999992
 30
0.0
 40
1.999999999998892
 50
190.0000000000002
 51
270.0
  0
ARC
  5
8F
  8
1
  6
CONTINUOUS
 62
     7
 10
1209.482701106466
 20
-355.4999999999997
 30
0.0
 40
3.000000000003666
 50
9.999999999999732
 51
90.0
  0
LINE
  5
90
  8
1
  6
CONTINUOUS
 62
     7
 10
1376.000000000001
 20
-408.4999999999998
 30
0.0
 11
1376.000000000001
 21
-451.1319332953963
 31
0.0
  0
ARC
  5
91
  8
1
  6
CONTINUOUS
 62
     7
 10
1290.517298893533
 20
-449.5000000000002
 30
0.0
 40
3.000000000000114
 50
189.9999999999997
 51
270.0000000000015
  0
ARC
  5
92
  8
1
  6
CONTINUOUS
 62
     7
 10
1193.353305579087
 20
-359.9999999999992
 30
0.0
 40
1.999999999998892
 50
190.0000000000003
 51
270.0
  0
ARC
  5
93
  8
1
  6
CONTINUOUS
 62
     7
 10
1457.353305579083
 20
-359.9999999999992
 30
0.0
 40
2.000000000002444
 50
190.0000000000002
 51
270.0
  0
LINE
  5
94
  8
1
  6
CONTINUOUS
 62
     7
 10
872.4246273688378
 20
-408.4713659256452
 30
0.0
 11
872.4445004336499
 21
-408.4864191872691
 31
0.0
  0
ARC
  5
95
  8
1
  6
CONTINUOUS
 62
     7
 10
1312.517298893531
 20
-355.5000000000001
 30
0.0
 40
3.000000000000114
 50
89.99999999999841
 51
170.0000000000003
  0
LINE
  5
96
  8
1
  6
CONTINUOUS
 62
     7
 10
2039.929686263682
 20
-454.8179608275238
 30
0.0
 11
2039.888742244316
 21
-454.6982915251311
 31
0.0
  0
ARC
  5
97
  8
1
  6
CONTINUOUS
 62
     7
 10
1347.353305579083
 20
-444.9999999999954
 30
0.0
 40
1.999999999998892
 50
90.0
 51
169.9999999999998
  0
ARC
  5
98
  8
1
  6
CONTINUOUS
 62
     7
 10
1281.353305579088
 20
-359.9999999999992
 30
0.0
 40
1.999999999998892
 50
190.0000000000001
 51
270.0
  0
ARC
  5
99
  8
1
  6
CONTINUOUS
 62
     7
 10
1378.51729889353
 20
-355.5000000000001
 30
0.0
 40
3.000000000003666
 50
89.99999999999841
 51
170.0000000000003
  0
ARC
  5
9A
  8
1
  6
CONTINUOUS
 62
     7
 10
1284.646694420913
 20
-444.9999999999954
 30
0.0
 40
1.999999999998892
 50
10.00000000000023
 51
90.0
  0
LINE
  5
9B
  8
1
  6
CONTINUOUS
 62
     7
 10
1943.875078871861
 20
-451.775027825251
 30
0.0
 11
1943.949686789294
 21
-451.8610900048476
 31
0.0
  0
LINE
  5
9C
  8
1
  6
CONTINUOUS
 62
     7
 10
872.2518336266503
 20
-408.2038288832568
 30
0.0
 11
872.2585858668717
 21
-408.227827771617
 31
0.0
  0
ARC
  5
9D
  8
1
  6
CONTINUOUS
 62
     7
 10
1240.646694420913
 20
-359.9999999999992
 30
0.0
 40
1.999999999998892
 50
269.9999999999996
 51
349.9999999999997
  0
ARC
  5
9E
  8
1
  6
CONTINUOUS
 62
     7
 10
1479.353305579088
 20
-444.9999999999954
 30
0.0
 40
1.999999999998892
 50
89.99999999999682
 51
169.9999999999998
  0
ARC
  5
9F
  8
1
  6
CONTINUOUS
 62
     7
 10
1385.482701106468
 20
-355.4999999999997
 30
0.0
 40
3.000000000000114
 50
10.00000000000017
 51
90.0
  0
ARC
  5
A0
  8
1
  6
CONTINUOUS
 62
     7
 10
1262.646694420915
 20
-444.9999999999954
 30
0.0
 40
2.000000000002444
 50
10.00000000000023
 51
90.0
  0
ARC
  5
A1
  8
1
  6
CONTINUOUS
 62
     7
 10
1422.517298893531
 20
-355.5000000000001
 30
0.0
 40
3.000000000000114
 50
89.99999999999682
 51
170.0000000000002
  0
ARC
  5
A2
  8
1
  6
CONTINUOUS
 62
     7
 10
1165.482701106466
 20
-449.5000000000005
 30
0.0
 40
3.000000000003666
 50
270.0
 51
350.0000000000875
  0
LINE
  5
A3
  8
1
  6
CONTINUOUS
 62
     7
 10
1944.066047014181
 20
-435.2585625597951
 30
0.0
 11
1944.048358579604
 21
-435.2731237821895
 31
0.0
  0
ARC
  5
A4
  8
1
  6
CONTINUOUS
 62
     7
 10
1215.353305579082
 20
-444.9999999999954
 30
0.0
 40
2.000000000002444
 50
89.99999999999861
 51
169.9999999999997
  0
ARC
  5
A5
  8
1
  6
CONTINUOUS
 62
     7
 10
1400.517298893532
 20
-449.5000000000002
 30
0.0
 40
2.999999999996561
 50
189.9999999999998
 51
270.0000000000021
  0
ARC
  5
A6
  8
1
  6
CONTINUOUS
 62
     7
 10
1306.646694420916
 20
-359.9999999999992
 30
0.0
 40
1.999999999998892
 50
269.9999999999968
 51
349.9999999999998
  0
ARC
  5
A7
  8
1
  6
CONTINUOUS
 62
     7
 10
1284.646694420913
 20
-359.9999999999992
 30
0.0
 40
1.999999999998892
 50
269.9999999999968
 51
349.9999999999998
  0
LINE
  5
A8
  8
1
  6
CONTINUOUS
 62
     7
 10
872.4055293509684
 20
-408.4553407858953
 30
0.0
 11
872.4246273688375
 21
-408.4713659256454
 31
0.0
  0
LINE
  5
A9
  8
1
  6
CONTINUOUS
 62
     7
 10
1944.031001081398
 20
-435.2888453448271
 30
0.0
 11
1944.014392609583
 21
-435.3053806725076
 31
0.0
  0
LINE
  5
AA
  8
1
  6
CONTINUOUS
 62
     7
 10
872.3872538607238
 20
-408.4383836090413
 30
0.0
 11
872.4055293509683
 21
-408.4553407858954
 31
0.0
  0
ARC
  5
AB
  8
1
  6
CONTINUOUS
 62
     7
 10
1372.646694420915
 20
-359.9999999999992
 30
0.0
 40
2.000000000002444
 50
270.0
 51
349.9999999999998
  0
LINE
  5
AC
  8
1
  6
CONTINUOUS
 62
     7
 10
1943.903727109066
 20
-435.4849222692714
 30
0.0
 11
1943.896282828616
 21
-435.50764987331
 31
0.0
  0
ARC
  5
AD
  8
1
  6
CONTINUOUS
 62
     7
 10
1187.482701106468
 20
-355.4999999999997
 30
0.0
 40
2.999999999996561
 50
9.999999999999945
 51
90.0
  0
LINE
  5
AE
  8
1
  6
CONTINUOUS
 62
     7
 10
2046.62686005491
 20
-435.2196837010993
 30
0.0
 11
2046.646579057009
 21
-435.2317984423519
 31
0.0
  0
LINE
  5
AF
  8
1
  6
CONTINUOUS
 62
     7
 10
2046.498673336735
 20
-435.1671779543502
 30
0.0
 11
2046.521059027238
 21
-435.17343187007
 31
0.0
  0
LINE
  5
B0
  8
1
  6
CONTINUOUS
 62
     7
 10
1353.999999999999
 20
-408.4999999999998
 30
0.0
 11
1353.999999999999
 21
-451.1319332953963
 31
0.0
  0
LINE
  5
B1
  8
1
  6
CONTINUOUS
 62
     7
 10
2040.004195787186
 20
-450.6607193419996
 30
0.0
 11
2039.932388654149
 21
-450.52349710053
 31
0.0
  0
LINE
  5
B2
  8
1
  6
CONTINUOUS
 62
     7
 10
1944.052098842483
 20
-353.1014499764858
 30
0.0
 11
1943.947484618303
 21
-353.1400236846877
 31
0.0
  0
LINE
  5
B3
  8
1
  6
CONTINUOUS
 62
     7
 10
2046.76656107772
 20
-435.3406464703211
 30
0.0
 11
2046.780661589041
 21
-435.3592538641158
 31
0.0
  0
LINE
  5
B4
  8
1
  6
CONTINUOUS
 62
     7
 10
1944.412931878232
 20
-435.1530959389063
 30
0.0
 11
1944.389658214048
 21
-435.1518587326682
 31
0.0
  0
LINE
  5
B5
  8
1
  6
CONTINUOUS
 62
     7
 10
2046.75158109935
 20
-435.3226682270619
 30
0.0
 11
2046.766561077721
 21
-435.3406464703209
 31
0.0
  0
LINE
  5
B6
  8
1
  6
CONTINUOUS
 62
     7
 10
1473.482701106469
 20
-452.4999999999999
 30
0.0
 11
1466.517298893532
 21
-452.4999999999999
 31
0.0
  0
ARC
  5
B7
  8
1
  6
CONTINUOUS
 62
     7
 10
1944.375895030109
 20
-454.4524110639354
 30
0.0
 40
1.559642093141633
 50
257.744367732008
 51
274.7294380038759
  0
LINE
  5
B8
  8
1
  6
CONTINUOUS
 62
     7
 10
1321.999999999999
 20
-408.4999999999998
 30
0.0
 11
1321.999999999999
 21
-451.1319332953966
 31
0.0
  0
LINE
  5
B9
  8
1
  6
CONTINUOUS
 62
     7
 10
2046.865421783813
 20
-435.5538178568046
 30
0.0
 11
2046.869638024637
 21
-435.5780704661169
 31
0.0
  0
LINE
  5
BA
  8
1
  6
CONTINUOUS
 62
     7
 10
1331.324893683273
 20
-396.5000000000001
 30
0.0
 11
1344.675106316734
 21
-396.5000000000001
 31
0.0
  0
LINE
  5
BB
  8
1
  6
CONTINUOUS
 62
     7
 10
2046.606588432829
 20
-435.2084726073571
 30
0.0
 11
2046.626860054909
 21
-435.2196837010995
 31
0.0
  0
LINE
  5
BC
  8
1
  6
CONTINUOUS
 62
     7
 10
2046.837903071142
 20
-435.4625306672934
 30
0.0
 11
2046.84643063466
 21
-435.4849222692712
 31
0.0
  0
LINE
  5
BD
  8
1
  6
CONTINUOUS
 62
     7
 10
2046.64657905701
 20
-435.2317984423519
 30
0.0
 11
2046.665683321199
 21
-435.2447727542166
 31
0.0
  0
LINE
  5
BE
  8
1
  6
CONTINUOUS
 62
     7
 10
2046.543072221644
 20
-435.180691877788
 30
0.0
 11
2046.564635800452
 21
-435.1889376699953
 31
0.0
  0
LINE
  5
BF
  8
1
  6
CONTINUOUS
 62
     7
 10
2046.701799164125
 20
-435.2731237821896
 30
0.0
 11
2046.719156662331
 21
-435.2888453448273
 31
0.0
  0
LINE
  5
C0
  8
1
  6
CONTINUOUS
 62
     7
 10
1944.459177849129
 20
-435.1587700080939
 30
0.0
 11
1944.436131770709
 21
-435.1554027230293
 31
0.0
  0
LINE
  5
C1
  8
1
  6
CONTINUOUS
 62
     7
 10
2039.875078871865
 20
-354.7667508235768
 30
0.0
 11
2039.890759530807
 21
-354.6128603512449
 31
0.0
  0
LINE
  5
C2
  8
1
  6
CONTINUOUS
 62
     7
 10
2046.828315185304
 20
-435.4405488750676
 30
0.0
 11
2046.837903071143
 21
-435.4625306672936
 31
0.0
  0
LINE
  5
C3
  8
1
  6
CONTINUOUS
 62
     7
 10
1476.437124365503
 20
-450.0209445330008
 30
0.0
 11
1477.383690073059
 21
-444.6527036446661
 31
0.0
  0
LINE
  5
C4
  8
1
  6
CONTINUOUS
 62
     7
 10
1344.000000000001
 20
-396.5000000000001
 30
0.0
 11
1344.000000000001
 21
-353.8680667046033
 31
0.0
  0
LINE
  5
C5
  8
1
  6
CONTINUOUS
 62
     7
 10
1332.0
 20
-408.4999999999998
 30
0.0
 11
1332.0
 21
-451.1319332953963
 31
0.0
  0
LINE
  5
C6
  8
1
  6
CONTINUOUS
 62
     7
 10
1462.324893683266
 20
-361.0879555302635
 30
0.0
 11
1462.324893683266
 21
-443.9120444697369
 31
0.0
  0
LINE
  5
C7
  8
1
  6
CONTINUOUS
 62
     7
 10
1485.324893683269
 20
-408.5000000000003
 30
0.0
 11
1498.67510631673
 21
-408.5000000000003
 31
0.0
  0
LINE
  5
C8
  8
1
  6
CONTINUOUS
 62
     7
 10
1432.675106316729
 20
-396.5000000000001
 30
0.0
 11
1432.675106316729
 21
-408.4999999999999
 31
0.0
  0
LINE
  5
C9
  8
1
  6
CONTINUOUS
 62
     7
 10
1484.324893683272
 20
-361.0879555302635
 30
0.0
 11
1484.324893683272
 21
-443.9120444697369
 31
0.0
  0
LINE
  5
CA
  8
1
  6
CONTINUOUS
 62
     7
 10
1944.43613177071
 20
-435.1554027230291
 30
0.0
 11
1944.412931878235
 21
-435.1530959389062
 31
0.0
  0
LINE
  5
CB
  8
1
  6
CONTINUOUS
 62
     7
 10
2046.406948003784
 20
-435.1526293616186
 30
0.0
 11
2046.430052483657
 21
-435.1546558342625
 31
0.0
  0
LINE
  5
CC
  8
1
  6
CONTINUOUS
 62
     7
 10
1476.437124365503
 20
-354.9790554669993
 30
0.0
 11
1477.383690073059
 21
-360.3472963553341
 31
0.0
  0
LINE
  5
CD
  8
1
  6
CONTINUOUS
 62
     7
 10
2046.719156662326
 20
-435.2888453448271
 30
0.0
 11
2046.735765134141
 21
-435.3053806725076
 31
0.0
  0
LINE
  5
CE
  8
1
  6
CONTINUOUS
 62
     7
 10
1353.324893683268
 20
-396.5000000000001
 30
0.0
 11
1366.675106316729
 21
-396.5000000000001
 31
0.0
  0
LINE
  5
CF
  8
1
  6
CONTINUOUS
 62
     7
 10
2046.780661589039
 20
-435.3592538641158
 30
0.0
 11
2046.793839153089
 21
-435.3784288702773
 31
0.0
  0
LINE
  5
D0
  8
1
  6
CONTINUOUS
 62
     7
 10
2046.43005248366
 20
-435.1546558342625
 30
0.0
 11
2046.453092945443
 21
-435.1577696289381
 31
0.0
  0
LINE
  5
D1
  8
1
  6
CONTINUOUS
 62
     7
 10
1944.366390820504
 20
-435.1517001812579
 30
0.0
 11
1944.343209739943
 21
-435.1526293616186
 31
0.0
  0
LINE
  5
D2
  8
1
  6
CONTINUOUS
 62
     7
 10
1501.353305579083
 20
-362.0000000000001
 30
0.0
 11
1504.646694420913
 21
-362.0000000000001
 31
0.0
  0
LINE
  5
D3
  8
1
  6
CONTINUOUS
 62
     7
 10
1331.324893683273
 20
-408.5000000000003
 30
0.0
 11
1344.675106316734
 21
-408.5000000000003
 31
0.0
  0
LINE
  5
D4
  8
1
  6
CONTINUOUS
 62
     7
 10
1950.859850111789
 20
-350.2950607153732
 30
0.0
 11
1950.814241215754
 21
-350.169168289636
 31
0.0
  0
LINE
  5
D5
  8
1
  6
CONTINUOUS
 62
     7
 10
1365.999999999999
 20
-408.4999999999998
 30
0.0
 11
1365.999999999999
 21
-451.1319332953966
 31
0.0
  0
LINE
  5
D6
  8
1
  6
CONTINUOUS
 62
     7
 10
2046.802673125426
 20
-353.140023684688
 30
0.0
 11
2046.874376622611
 21
-353.2161208099994
 31
0.0
  0
LINE
  5
D7
  8
1
  6
CONTINUOUS
 62
     7
 10
2046.806050289653
 20
-435.3981099506361
 30
0.0
 11
2046.817689937891
 21
-435.4190507002847
 31
0.0
  0
LINE
  5
D8
  8
1
  6
CONTINUOUS
 62
     7
 10
2046.453092945444
 20
-435.1577696289381
 30
0.0
 11
2046.475992269636
 21
-435.1619504381368
 31
0.0
  0
LINE
  5
D9
  8
1
  6
CONTINUOUS
 62
     7
 10
1365.999999999999
 20
-396.5000000000001
 30
0.0
 11
1365.999999999999
 21
-353.8680667046033
 31
0.0
  0
LINE
  5
DA
  8
1
  6
CONTINUOUS
 62
     7
 10
2040.090048459795
 20
-455.0385043842367
 30
0.0
 11
2039.99784178297
 21
-454.9327990096461
 31
0.0
  0
LINE
  5
DB
  8
1
  6
CONTINUOUS
 62
     7
 10
2039.932388654147
 20
-450.5234971005301
 30
0.0
 11
2039.889387439081
 21
-450.3804658222344
 31
0.0
  0
LINE
  5
DC
  8
1
  6
CONTINUOUS
 62
     7
 10
1309.999999999998
 20
-408.4999999999998
 30
0.0
 11
1309.999999999998
 21
-451.1319332953963
 31
0.0
  0
LINE
  5
DD
  8
1
  6
CONTINUOUS
 62
     7
 10
2040.246530366494
 20
-450.9222880837096
 30
0.0
 11
2040.107969664627
 21
-450.7938805553133
 31
0.0
  0
LINE
  5
DE
  8
1
  6
CONTINUOUS
 62
     7
 10
2046.684110729546
 20
-435.2585625597951
 30
0.0
 11
2046.701799164123
 21
-435.2731237821895
 31
0.0
  0
LINE
  5
DF
  8
1
  6
CONTINUOUS
 62
     7
 10
1344.000000000001
 20
-408.4999999999998
 30
0.0
 11
1344.000000000001
 21
-451.1319332953966
 31
0.0
  0
ARC
  5
E0
  8
1
  6
CONTINUOUS
 62
     7
 10
1297.482701106467
 20
-449.5000000000005
 30
0.0
 40
3.000000000000114
 50
270.0
 51
350.0000000000874
  0
LINE
  5
E1
  8
1
  6
CONTINUOUS
 62
     7
 10
2040.016504416001
 20
-354.3207651717861
 30
0.0
 11
2040.119318682773
 21
-354.1939938734115
 31
0.0
  0
LINE
  5
E2
  8
1
  6
CONTINUOUS
 62
     7
 10
1463.562875634494
 20
-450.0209445330008
 30
0.0
 11
1462.616309926938
 21
-444.6527036446661
 31
0.0
  0
LINE
  5
E3
  8
1
  6
CONTINUOUS
 62
     7
 10
1353.999999999999
 20
-396.5000000000001
 30
0.0
 11
1353.999999999999
 21
-353.8680667046037
 31
0.0
  0
LINE
  5
E4
  8
1
  6
CONTINUOUS
 62
     7
 10
1495.482701106467
 20
-352.5
 30
0.0
 11
1488.517298893531
 21
-352.5
 31
0.0
  0
LINE
  5
E5
  8
1
  6
CONTINUOUS
 62
     7
 10
1309.324893683267
 20
-408.5000000000003
 30
0.0
 11
1322.675106316728
 21
-408.5000000000003
 31
0.0
  0
LINE
  5
E6
  8
1
  6
CONTINUOUS
 62
     7
 10
2046.665683321201
 20
-435.2447727542166
 30
0.0
 11
2046.684110729548
 21
-435.2585625597952
 31
0.0
  0
LINE
  5
E7
  8
1
  6
CONTINUOUS
 62
     7
 10
2042.098621736556
 20
-368.7201521679124
 30
0.0
 11
2046.245669349312
 21
-369.8313502267239
 31
0.0
  0
LINE
  5
E8
  8
1
  6
CONTINUOUS
 62
     7
 10
2040.241637083791
 20
-354.0818357705749
 30
0.0
 11
2040.388307748716
 21
-353.9766822981933
 31
0.0
  0
LINE
  5
E9
  8
1
  6
CONTINUOUS
 62
     7
 10
1463.562875634494
 20
-354.9790554669993
 30
0.0
 11
1462.616309926938
 21
-360.347296355334
 31
0.0
  0
LINE
  5
EA
  8
1
  6
CONTINUOUS
 62
     7
 10
1463.324893683271
 20
-396.5000000000001
 30
0.0
 11
1463.324893683271
 21
-408.4999999999999
 31
0.0
  0
LINE
  5
EB
  8
1
  6
CONTINUOUS
 62
     7
 10
2039.890759530805
 20
-354.6128603512448
 30
0.0
 11
2039.937868088444
 21
-354.4635801887327
 31
0.0
  0
LINE
  5
EC
  8
1
  6
CONTINUOUS
 62
     7
 10
1950.738368260033
 20
-350.0487585721621
 30
0.0
 11
1950.631988097104
 21
-349.9350358968019
 31
0.0
  0
LINE
  5
ED
  8
1
  6
CONTINUOUS
 62
     7
 10
1519.999999999999
 20
-396.5000000000001
 30
0.0
 11
1519.999999999999
 21
-353.8680667046033
 31
0.0
  0
LINE
  5
EE
  8
1
  6
CONTINUOUS
 62
     7
 10
2046.817689937888
 20
-435.4190507002851
 30
0.0
 11
2046.8283151853
 21
-435.4405488750677
 31
0.0
  0
LINE
  5
EF
  8
1
  6
CONTINUOUS
 62
     7
 10
2046.869638024641
 20
-435.5780704661167
 30
0.0
 11
2046.872656835234
 21
-435.6025086125397
 31
0.0
  0
ARC
  5
F0
  8
1
  6
CONTINUOUS
 62
     7
 10
2046.384041937457
 20
-354.474610111631
 30
0.0
 40
1.408607614024504
 50
77.11897953572651
 51
95.63746200974538
  0
LINE
  5
F1
  8
1
  6
CONTINUOUS
 62
     7
 10
2046.735765134144
 20
-435.3053806725076
 30
0.0
 11
2046.751581099347
 21
-435.3226682270617
 31
0.0
  0
ARC
  5
F2
  8
1
  6
CONTINUOUS
 62
     7
 10
2046.373585697743
 20
-350.5648461691202
 30
0.0
 40
1.576786142866382
 50
77.98583873070646
 51
94.65321810845013
  0
ARC
  5
F3
  8
1
  6
CONTINUOUS
 62
     7
 10
2046.374262713616
 20
-454.452411063935
 30
0.0
 40
1.559642093141633
 50
265.2705619961242
 51
282.25563226799
  0
LINE
  5
F4
  8
1
  6
CONTINUOUS
 62
     7
 10
1950.631988097107
 20
-349.935035896802
 30
0.0
 11
1950.494422736469
 21
-349.8280378279769
 31
0.0
  0
LINE
  5
F5
  8
1
  6
CONTINUOUS
 62
     7
 10
1923.875078871865
 20
-347.5000000000001
 30
0.0
 11
2066.875078871865
 21
-347.5000000000001
 31
0.0
  0
LINE
  5
F6
  8
1
  6
CONTINUOUS
 62
     7
 10
2046.860212951741
 20
-435.530639671718
 30
0.0
 11
2046.865421783813
 21
-435.5538178568045
 31
0.0
  0
LINE
  5
F7
  8
1
  6
CONTINUOUS
 62
     7
 10
2039.937868088443
 20
-354.4635801887328
 30
0.0
 11
2040.016504415997
 21
-354.3207651717863
 31
0.0
  0
LINE
  5
F8
  8
1
  6
CONTINUOUS
 62
     7
 10
1944.389658214049
 20
-435.1518587326681
 30
0.0
 11
1944.366390820503
 21
-435.151700181258
 31
0.0
  0
LINE
  5
F9
  8
1
  6
CONTINUOUS
 62
     7
 10
2046.245669349314
 20
-435.1686497732763
 30
0.0
 11
2042.098621736558
 21
-436.2798478320878
 31
0.0
  0
LINE
  5
FA
  8
1
  6
CONTINUOUS
 62
     7
 10
2039.889387439081
 20
-450.3804658222343
 30
0.0
 11
2039.875078871864
 21
-450.2332491764235
 31
0.0
  0
ARC
  5
FB
  8
1
  6
CONTINUOUS
 62
     7
 10
1948.350138127352
 20
-357.7227348853742
 30
0.0
 40
4.252045933949233
 50
61.76323248264269
 51
85.935293161178
  0
LINE
  5
FC
  8
1
  6
CONTINUOUS
 62
     7
 10
2046.564635800453
 20
-435.1889376699951
 30
0.0
 11
2046.585826308703
 21
-435.1982092380228
 31
0.0
  0
LINE
  5
FD
  8
1
  6
CONTINUOUS
 62
     7
 10
1332.0
 20
-396.5000000000001
 30
0.0
 11
1332.0
 21
-353.8680667046037
 31
0.0
  0
LINE
  5
FE
  8
1
  6
CONTINUOUS
 62
     7
 10
1944.504488394414
 20
-456.006742819177
 30
0.0
 11
1948.65153600717
 21
-455.673555551954
 31
0.0
  0
LINE
  5
FF
  8
1
  6
CONTINUOUS
 62
     7
 10
1243.324893683269
 20
-408.5000000000003
 30
0.0
 11
1256.675106316729
 21
-408.5000000000003
 31
0.0
  0
ARC
  5
100
  8
1
  6
CONTINUOUS
 62
     7
 10
2042.270164835282
 20
-451.4655407028583
 30
0.0
 40
4.211509943583991
 50
240.6253269189244
 51
267.6655841938668
  0
LINE
  5
101
  8
1
  6
CONTINUOUS
 62
     7
 10
2046.698058901241
 20
-353.1014499764858
 30
0.0
 11
2046.802673125422
 21
-353.1400236846877
 31
0.0
  0
LINE
  5
102
  8
1
  6
CONTINUOUS
 62
     7
 10
2042.098621736556
 20
-451.5186156003155
 30
0.0
 11
2046.245669349312
 21
-451.9271846084149
 31
0.0
  0
LINE
  5
103
  8
1
  6
CONTINUOUS
 62
     7
 10
2046.475992269633
 20
-435.1619504381368
 30
0.0
 11
2046.498673336733
 21
-435.1671779543502
 31
0.0
  0
LINE
  5
104
  8
1
  6
CONTINUOUS
 62
     7
 10
1950.875078871866
 20
-350.424868265202
 30
0.0
 11
1950.859850111794
 21
-350.2950607153731
 31
0.0
  0
LINE
  5
105
  8
1
  6
CONTINUOUS
 62
     7
 10
1943.875078871861
 20
-455.867678897035
 30
0.0
 11
1943.875078871861
 21
-435.6516126864207
 31
0.0
  0
LINE
  5
106
  8
1
  6
CONTINUOUS
 62
     7
 10
1950.814241215755
 20
-350.1691682896359
 30
0.0
 11
1950.738368260033
 21
-350.0487585721622
 31
0.0
  0
LINE
  5
107
  8
1
  6
CONTINUOUS
 62
     7
 10
2040.107969664627
 20
-450.7938805553133
 30
0.0
 11
2040.004195787182
 21
-450.6607193419995
 31
0.0
  0
LINE
  5
108
  8
1
  6
CONTINUOUS
 62
     7
 10
1944.297064798284
 20
-435.1577696289381
 30
0.0
 11
1944.274165474092
 21
-435.1619504381368
 31
0.0
  0
LINE
  5
109
  8
1
  6
CONTINUOUS
 62
     7
 10
2040.119318682769
 20
-354.1939938734116
 30
0.0
 11
2040.241637083788
 21
-354.0818357705747
 31
0.0
  0
LINE
  5
10A
  8
1
  6
CONTINUOUS
 62
     7
 10
778.0672151885652
 20
-396.5446592141049
 30
0.0
 11
778.0854906788098
 21
-396.5616163909589
 31
0.0
  0
LINE
  5
10B
  8
1
  6
CONTINUOUS
 62
     7
 10
1143.482701106467
 20
-352.5
 30
0.0
 11
1136.517298893531
 21
-352.5
 31
0.0
  0
LINE
  5
10C
  8
1
  6
CONTINUOUS
 62
     7
 10
1014.437124365503
 20
-450.0209445330008
 30
0.0
 11
1015.383690073059
 21
-444.6527036446661
 31
0.0
  0
LINE
  5
10D
  8
1
  6
CONTINUOUS
 62
     7
 10
872.2585858668714
 20
-396.7721722283832
 30
0.0
 11
872.25183362665
 21
-396.7961711167436
 31
0.0
  0
LINE
  5
10E
  8
1
  6
CONTINUOUS
 62
     7
 10
872.3698463338478
 20
-396.579463446703
 30
0.0
 11
872.3533500482032
 21
-396.5981560107452
 31
0.0
  0
LINE
  5
10F
  8
1
  6
CONTINUOUS
 62
     7
 10
872.3097268289499
 20
-396.6588322138988
 30
0.0
 11
872.2972614830808
 21
-396.6804228262779
 31
0.0
  0
LINE
  5
110
  8
1
  6
CONTINUOUS
 62
     7
 10
1950.86077030465
 20
-450.3804658222343
 30
0.0
 11
1950.875078871867
 21
-450.2332491764235
 31
0.0
  0
LINE
  5
111
  8
1
  6
CONTINUOUS
 62
     7
 10
1067.324893683267
 20
-396.5000000000001
 30
0.0
 11
1067.324893683267
 21
-408.4999999999999
 31
0.0
  0
LINE
  5
112
  8
1
  6
CONTINUOUS
 62
     7
 10
1001.562875634498
 20
-354.9790554669993
 30
0.0
 11
1000.616309926942
 21
-360.347296355334
 31
0.0
  0
LINE
  5
113
  8
1
  6
CONTINUOUS
 62
     7
 10
1350.646694420916
 20
-443.0000000000003
 30
0.0
 11
1347.353305579086
 21
-443.0000000000003
 31
0.0
  0
LINE
  5
114
  8
1
  6
CONTINUOUS
 62
     7
 10
978.3248936832679
 20
-361.0879555302635
 30
0.0
 11
978.3248936832679
 21
-443.9120444697369
 31
0.0
  0
LINE
  5
115
  8
1
  6
CONTINUOUS
 62
     7
 10
872.4650991378318
 20
-396.4995368540134
 30
0.0
 11
872.4445004336472
 21
-396.5135808127309
 31
0.0
  0
LINE
  5
116
  8
1
  6
CONTINUOUS
 62
     7
 10
1037.675106316729
 20
-361.0879555302635
 30
0.0
 11
1037.675106316729
 21
-443.9120444697364
 31
0.0
  0
LINE
  5
117
  8
1
  6
CONTINUOUS
 62
     7
 10
1168.67510631673
 20
-396.5000000000001
 30
0.0
 11
1168.67510631673
 21
-408.4999999999999
 31
0.0
  0
LINE
  5
118
  8
1
  6
CONTINUOUS
 62
     7
 10
872.5771289446391
 20
-396.4455861425049
 30
0.0
 11
872.5537017575817
 21
-396.4541129412663
 31
0.0
  0
LINE
  5
119
  8
1
  6
CONTINUOUS
 62
     7
 10
1950.745961956545
 20
-450.6607193419996
 30
0.0
 11
1950.817769089582
 21
-450.52349710053
 31
0.0
  0
LINE
  5
11A
  8
1
  6
CONTINUOUS
 62
     7
 10
2046.245669349314
 20
-435.1686497732763
 30
0.0
 11
2046.268167672583
 21
-435.1631887171572
 31
0.0
  0
LINE
  5
11B
  8
1
  6
CONTINUOUS
 62
     7
 10
872.4055293509684
 20
-396.5446592141049
 30
0.0
 11
872.387253860724
 21
-396.5616163909589
 31
0.0
  0
LINE
  5
11C
  8
1
  6
CONTINUOUS
 62
     7
 10
777.9420158213326
 20
-396.4637968894327
 30
0.0
 11
777.9644775984439
 21
-396.4746139111828
 31
0.0
  0
LINE
  5
11D
  8
1
  6
CONTINUOUS
 62
     7
 10
872.2665259593696
 20
-396.7485397439258
 30
0.0
 11
872.2585858668695
 21
-396.7721722283833
 31
0.0
  0
LINE
  5
11E
  8
1
  6
CONTINUOUS
 62
     7
 10
872.2972614830779
 20
-396.6804228262779
 30
0.0
 11
872.2858878358119
 21
-396.7026079460298
 31
0.0
  0
LINE
  5
11F
  8
1
  6
CONTINUOUS
 62
     7
 10
1011.482701106466
 20
-452.4999999999999
 30
0.0
 11
1004.517298893529
 21
-452.4999999999999
 31
0.0
  0
LINE
  5
120
  8
1
  6
CONTINUOUS
 62
     7
 10
872.2756341638287
 20
-396.7253324174513
 30
0.0
 11
872.2665259593709
 21
-396.7485397439258
 31
0.0
  0
LINE
  5
121
  8
1
  6
CONTINUOUS
 62
     7
 10
1146.437124365501
 20
-450.0209445330008
 30
0.0
 11
1147.383690073057
 21
-444.6527036446661
 31
0.0
  0
LINE
  5
122
  8
1
  6
CONTINUOUS
 62
     7
 10
872.4445004336494
 20
-396.5135808127309
 30
0.0
 11
872.4246273688374
 21
-396.5286340743547
 31
0.0
  0
LINE
  5
123
  8
1
  6
CONTINUOUS
 62
     7
 10
993.6751063167287
 20
-361.0879555302635
 30
0.0
 11
993.6751063167287
 21
-443.9120444697364
 31
0.0
  0
LINE
  5
124
  8
1
  6
CONTINUOUS
 62
     7
 10
872.2858878358167
 20
-396.7026079460301
 30
0.0
 11
872.2756341638326
 21
-396.7253324174515
 31
0.0
  0
LINE
  5
125
  8
1
  6
CONTINUOUS
 62
     7
 10
872.6009520356945
 20
-396.4382376921136
 30
0.0
 11
872.5771289446402
 21
-396.4455861425051
 31
0.0
  0
LINE
  5
126
  8
1
  6
CONTINUOUS
 62
     7
 10
1066.324893683269
 20
-361.0879555302635
 30
0.0
 11
1066.324893683269
 21
-443.9120444697369
 31
0.0
  0
LINE
  5
127
  8
1
  6
CONTINUOUS
 62
     7
 10
1081.67510631673
 20
-361.0879555302635
 30
0.0
 11
1081.67510631673
 21
-443.9120444697364
 31
0.0
  0
LINE
  5
128
  8
1
  6
CONTINUOUS
 62
     7
 10
1036.437124365505
 20
-354.9790554669993
 30
0.0
 11
1037.383690073061
 21
-360.3472963553341
 31
0.0
  0
LINE
  5
129
  8
1
  6
CONTINUOUS
 62
     7
 10
778.08549067881
 20
-396.5616163909586
 30
0.0
 11
778.1028982056819
 21
-396.579463446703
 31
0.0
  0
LINE
  5
12A
  8
1
  6
CONTINUOUS
 62
     7
 10
1133.324893683269
 20
-396.5000000000001
 30
0.0
 11
1133.324893683269
 21
-408.4999999999999
 31
0.0
  0
LINE
  5
12B
  8
1
  6
CONTINUOUS
 62
     7
 10
1058.437124365504
 20
-450.0209445330008
 30
0.0
 11
1059.38369007306
 21
-444.6527036446661
 31
0.0
  0
LINE
  5
12C
  8
1
  6
CONTINUOUS
 62
     7
 10
1111.324893683267
 20
-396.5000000000001
 30
0.0
 11
1111.324893683267
 21
-408.4999999999999
 31
0.0
  0
LINE
  5
12D
  8
1
  6
CONTINUOUS
 62
     7
 10
1080.675106316732
 20
-396.5000000000001
 30
0.0
 11
1080.675106316732
 21
-408.4999999999999
 31
0.0
  0
LINE
  5
12E
  8
1
  6
CONTINUOUS
 62
     7
 10
1441.324893683269
 20
-396.5000000000001
 30
0.0
 11
1454.67510631673
 21
-396.5000000000001
 31
0.0
  0
LINE
  5
12F
  8
1
  6
CONTINUOUS
 62
     7
 10
1014.67510631673
 20
-396.5000000000001
 30
0.0
 11
1014.67510631673
 21
-408.4999999999999
 31
0.0
  0
LINE
  5
130
  8
1
  6
CONTINUOUS
 62
     7
 10
778.1193944913211
 20
-396.5981560107454
 30
0.0
 11
778.1349385233731
 21
-396.6176476104259
 31
0.0
  0
LINE
  5
131
  8
1
  6
CONTINUOUS
 62
     7
 10
872.2462860258431
 20
-396.8204767439889
 30
0.0
 11
872.2419568566548
 21
-396.8450286825006
 31
0.0
  0
LINE
  5
132
  8
1
  6
CONTINUOUS
 62
     7
 10
1045.324893683272
 20
-396.5000000000001
 30
0.0
 11
1045.324893683272
 21
-408.4999999999999
 31
0.0
  0
LINE
  5
133
  8
1
  6
CONTINUOUS
 62
     7
 10
872.3378060161529
 20
-396.6176476104259
 30
0.0
 11
872.3232528826062
 21
-396.637889786557
 31
0.0
  0
LINE
  5
134
  8
1
  6
CONTINUOUS
 62
     7
 10
1442.0
 20
-396.5000000000001
 30
0.0
 11
1442.0
 21
-353.8680667046037
 31
0.0
  0
LINE
  5
135
  8
1
  6
CONTINUOUS
 62
     7
 10
1033.482701106468
 20
-452.4999999999999
 30
0.0
 11
1026.517298893531
 21
-452.4999999999999
 31
0.0
  0
LINE
  5
136
  8
1
  6
CONTINUOUS
 62
     7
 10
1000.32489368327
 20
-361.0879555302635
 30
0.0
 11
1000.32489368327
 21
-443.9120444697369
 31
0.0
  0
LINE
  5
137
  8
1
  6
CONTINUOUS
 62
     7
 10
1190.675106316728
 20
-396.5000000000001
 30
0.0
 11
1190.675106316728
 21
-408.4999999999999
 31
0.0
  0
LINE
  5
138
  8
1
  6
CONTINUOUS
 62
     7
 10
1950.875078871866
 20
-354.7667508235768
 30
0.0
 11
1950.859398212924
 21
-354.6128603512449
 31
0.0
  0
LINE
  5
139
  8
1
  6
CONTINUOUS
 62
     7
 10
1284.646694420913
 20
-443.0000000000003
 30
0.0
 11
1281.353305579084
 21
-443.0000000000003
 31
0.0
  0
LINE
  5
13A
  8
1
  6
CONTINUOUS
 62
     7
 10
1165.482701106466
 20
-452.4999999999999
 30
0.0
 11
1158.517298893529
 21
-452.4999999999999
 31
0.0
  0
LINE
  5
13B
  8
1
  6
CONTINUOUS
 62
     7
 10
872.2419568566528
 20
-396.8450286825005
 30
0.0
 11
872.2388568820828
 21
-396.8697658922907
 31
0.0
  0
LINE
  5
13C
  8
1
  6
CONTINUOUS
 62
     7
 10
1022.324893683272
 20
-361.0879555302635
 30
0.0
 11
1022.324893683272
 21
-443.9120444697369
 31
0.0
  0
LINE
  5
13D
  8
1
  6
CONTINUOUS
 62
     7
 10
1080.437124365506
 20
-450.0209445330008
 30
0.0
 11
1081.383690073062
 21
-444.6527036446661
 31
0.0
  0
LINE
  5
13E
  8
1
  6
CONTINUOUS
 62
     7
 10
872.323252882603
 20
-396.6378897865572
 30
0.0
 11
872.3097268289449
 21
-396.6588322138992
 31
0.0
  0
LINE
  5
13F
  8
1
  6
CONTINUOUS
 62
     7
 10
872.4863722697669
 20
-396.4865371136963
 30
0.0
 11
872.4650991378339
 21
-396.4995368540132
 31
0.0
  0
LINE
  5
140
  8
1
  6
CONTINUOUS
 62
     7
 10
1209.482701106466
 20
-452.4999999999999
 30
0.0
 11
1202.51729889353
 21
-452.4999999999999
 31
0.0
  0
LINE
  5
141
  8
1
  6
CONTINUOUS
 62
     7
 10
872.5537017575831
 20
-396.4541129412667
 30
0.0
 11
872.5307287182009
 21
-396.463796889433
 31
0.0
  0
LINE
  5
142
  8
1
  6
CONTINUOUS
 62
     7
 10
989.4827011064672
 20
-452.4999999999999
 30
0.0
 11
982.5172988935308
 21
-452.4999999999999
 31
0.0
  0
LINE
  5
143
  8
1
  6
CONTINUOUS
 62
     7
 10
1124.437124365506
 20
-450.0209445330008
 30
0.0
 11
1125.383690073062
 21
-444.6527036446661
 31
0.0
  0
LINE
  5
144
  8
1
  6
CONTINUOUS
 62
     7
 10
778.0076454016948
 20
-396.4995368540134
 30
0.0
 11
778.0282441058794
 21
-396.5135808127309
 31
0.0
  0
LINE
  5
145
  8
1
  6
CONTINUOUS
 62
     7
 10
872.3533500482055
 20
-396.5981560107454
 30
0.0
 11
872.3378060161535
 21
-396.6176476104259
 31
0.0
  0
LINE
  5
146
  8
1
  6
CONTINUOUS
 62
     7
 10
872.4246273688378
 20
-396.5286340743548
 30
0.0
 11
872.4055293509687
 21
-396.544659214105
 31
0.0
  0
LINE
  5
147
  8
1
  6
CONTINUOUS
 62
     7
 10
1454.0
 20
-396.5000000000001
 30
0.0
 11
1454.0
 21
-353.8680667046033
 31
0.0
  0
LINE
  5
148
  8
1
  6
CONTINUOUS
 62
     7
 10
1001.324893683271
 20
-396.5000000000001
 30
0.0
 11
1001.324893683271
 21
-408.4999999999999
 31
0.0
  0
LINE
  5
149
  8
1
  6
CONTINUOUS
 62
     7
 10
1950.812289655281
 20
-354.4635801887328
 30
0.0
 11
1950.733653327727
 21
-354.3207651717863
 31
0.0
  0
LINE
  5
14A
  8
1
  6
CONTINUOUS
 62
     7
 10
777.9190427819472
 20
-396.4541129412667
 30
0.0
 11
777.9420158213292
 21
-396.4637968894328
 31
0.0
  0
ARC
  5
14B
  8
1
  6
CONTINUOUS
 62
     7
 10
1064.646694420915
 20
-444.9999999999954
 30
0.0
 40
1.999999999998892
 50
10.0000000000003
 51
90.0
  0
LINE
  5
14C
  8
1
  6
CONTINUOUS
 62
     7
 10
778.1754830564487
 20
-396.6804228262779
 30
0.0
 11
778.1868567037147
 21
-396.7026079460298
 31
0.0
  0
LINE
  5
14D
  8
1
  6
CONTINUOUS
 62
     7
 10
2046.290979894603
 20
-435.1587700080939
 30
0.0
 11
2046.314025973023
 21
-435.1554027230293
 31
0.0
  0
LINE
  5
14E
  8
1
  6
CONTINUOUS
 62
     7
 10
2046.337225865495
 20
-435.1530959389063
 30
0.0
 11
2046.360499529679
 21
-435.1518587326682
 31
0.0
  0
LINE
  5
14F
  8
1
  6
CONTINUOUS
 62
     7
 10
1441.324893683269
 20
-396.5000000000001
 30
0.0
 11
1441.324893683269
 21
-408.4999999999999
 31
0.0
  0
LINE
  5
150
  8
1
  6
CONTINUOUS
 62
     7
 10
777.8476327367421
 20
-396.4320858594978
 30
0.0
 11
777.8717925038354
 21
-396.4382376921138
 31
0.0
  0
LINE
  5
151
  8
1
  6
CONTINUOUS
 62
     7
 10
1477.675106316731
 20
-361.0879555302635
 30
0.0
 11
1477.675106316731
 21
-443.9120444697364
 31
0.0
  0
ARC
  5
152
  8
1
  6
CONTINUOUS
 62
     7
 10
1077.482701106468
 20
-355.4999999999997
 30
0.0
 40
3.000000000000114
 50
9.999999999999755
 51
90.0
  0
LINE
  5
153
  8
1
  6
CONTINUOUS
 62
     7
 10
778.1494916569236
 20
-396.6378897865572
 30
0.0
 11
778.1630177105817
 21
-396.6588322138994
 31
0.0
  0
LINE
  5
154
  8
1
  6
CONTINUOUS
 62
     7
 10
777.9190427819472
 20
-408.5458870587335
 30
0.0
 11
777.8956155948897
 21
-408.554413857495
 31
0.0
  0
LINE
  5
155
  8
1
  6
CONTINUOUS
 62
     7
 10
778.1028982056788
 20
-408.4205365532969
 30
0.0
 11
778.0854906788068
 21
-408.4383836090413
 31
0.0
  0
LINE
  5
156
  8
1
  6
CONTINUOUS
 62
     7
 10
777.8717925038356
 20
-396.4382376921138
 30
0.0
 11
777.8956155948899
 21
-396.4455861425052
 31
0.0
  0
LINE
  5
157
  8
1
  6
CONTINUOUS
 62
     7
 10
778.0672151885652
 20
-408.4553407858953
 30
0.0
 11
778.0481171706962
 21
-408.4713659256454
 31
0.0
  0
LINE
  5
158
  8
1
  6
CONTINUOUS
 62
     7
 10
777.9863722697669
 20
-396.4865371136963
 30
0.0
 11
778.0076454016997
 21
-396.4995368540132
 31
0.0
  0
LINE
  5
159
  8
1
  6
CONTINUOUS
 62
     7
 10
872.6251118027845
 20
-396.4320858594978
 30
0.0
 11
872.6009520356912
 21
-396.4382376921137
 31
0.0
  0
LINE
  5
15A
  8
1
  6
CONTINUOUS
 62
     7
 10
1950.6421880791
 20
-450.7938805553133
 30
0.0
 11
1950.745961956545
 21
-450.6607193419995
 31
0.0
  0
LINE
  5
15B
  8
1
  6
CONTINUOUS
 62
     7
 10
1055.48270110647
 20
-352.5
 30
0.0
 11
1048.517298893533
 21
-352.5
 31
0.0
  0
LINE
  5
15C
  8
1
  6
CONTINUOUS
 62
     7
 10
1015.675106316731
 20
-361.0879555302635
 30
0.0
 11
1015.675106316731
 21
-443.9120444697364
 31
0.0
  0
LINE
  5
15D
  8
1
  6
CONTINUOUS
 62
     7
 10
1023.562875634493
 20
-450.0209445330008
 30
0.0
 11
1022.616309926937
 21
-444.6527036446661
 31
0.0
  0
LINE
  5
15E
  8
1
  6
CONTINUOUS
 62
     7
 10
1476.675106316729
 20
-396.5000000000001
 30
0.0
 11
1476.675106316729
 21
-408.4999999999999
 31
0.0
  0
LINE
  5
15F
  8
1
  6
CONTINUOUS
 62
     7
 10
1485.324893683269
 20
-396.5000000000001
 30
0.0
 11
1485.324893683269
 21
-408.4999999999999
 31
0.0
  0
LINE
  5
160
  8
1
  6
CONTINUOUS
 62
     7
 10
778.2141586726552
 20
-396.7721722283832
 30
0.0
 11
778.2209109128767
 21
-396.7961711167436
 31
0.0
  0
LINE
  5
161
  8
1
  6
CONTINUOUS
 62
     7
 10
1923.875078871865
 20
-457.5000000000001
 30
0.0
 11
1923.875078871865
 21
-347.5000000000001
 31
0.0
  0
LINE
  5
162
  8
1
  6
CONTINUOUS
 62
     7
 10
778.1028982056788
 20
-396.579463446703
 30
0.0
 11
778.1193944913234
 21
-396.5981560107452
 31
0.0
  0
LINE
  5
163
  8
1
  6
CONTINUOUS
 62
     7
 10
1950.817769089581
 20
-450.5234971005301
 30
0.0
 11
1950.860770304647
 21
-450.3804658222344
 31
0.0
  0
LINE
  5
164
  8
1
  6
CONTINUOUS
 62
     7
 10
872.3872538607238
 20
-396.5616163909586
 30
0.0
 11
872.3698463338519
 21
-396.579463446703
 31
0.0
  0
LINE
  5
165
  8
1
  6
CONTINUOUS
 62
     7
 10
2066.875078871866
 20
-457.5
 30
0.0
 11
2066.875078871866
 21
-347.5
 31
0.0
  0
LINE
  5
166
  8
1
  6
CONTINUOUS
 62
     7
 10
2046.875078871863
 20
-455.867678897035
 30
0.0
 11
2046.801569749832
 21
-455.9438797414123
 31
0.0
  0
ARC
  5
167
  8
1
  6
CONTINUOUS
 62
     7
 10
1092.517298893529
 20
-449.5000000000002
 30
0.0
 40
3.000000000003666
 50
189.9999999999998
 51
270.0000000000015
  0
LINE
  5
168
  8
1
  6
CONTINUOUS
 62
     7
 10
778.1754830564487
 20
-408.319577173722
 30
0.0
 11
778.1630177105795
 21
-408.3411677861011
 31
0.0
  0
LINE
  5
169
  8
1
  6
CONTINUOUS
 62
     7
 10
1441.562875634495
 20
-450.0209445330008
 30
0.0
 11
1440.616309926939
 21
-444.6527036446661
 31
0.0
  0
LINE
  5
16A
  8
1
  6
CONTINUOUS
 62
     7
 10
1507.324893683268
 20
-396.5000000000001
 30
0.0
 11
1507.324893683268
 21
-408.4999999999999
 31
0.0
  0
LINE
  5
16B
  8
1
  6
CONTINUOUS
 62
     7
 10
1485.562875634492
 20
-450.0209445330008
 30
0.0
 11
1484.616309926937
 21
-444.6527036446661
 31
0.0
  0
LINE
  5
16C
  8
1
  6
CONTINUOUS
 62
     7
 10
1036.437124365505
 20
-450.0209445330008
 30
0.0
 11
1037.383690073061
 21
-444.6527036446661
 31
0.0
  0
LINE
  5
16D
  8
1
  6
CONTINUOUS
 62
     7
 10
1950.859398212919
 20
-354.6128603512448
 30
0.0
 11
1950.81228965528
 21
-354.4635801887327
 31
0.0
  0
LINE
  5
16E
  8
1
  6
CONTINUOUS
 62
     7
 10
778.0282441058844
 20
-396.5135808127309
 30
0.0
 11
778.0481171706963
 21
-396.5286340743548
 31
0.0
  0
ARC
  5
16F
  8
1
  6
CONTINUOUS
 62
     7
 10
1083.353305579084
 20
-359.9999999999992
 30
0.0
 40
2.000000000002444
 50
190.0
 51
270.0
  0
LINE
  5
170
  8
1
  6
CONTINUOUS
 62
     7
 10
1045.562875634498
 20
-354.9790554669993
 30
0.0
 11
1044.616309926942
 21
-360.347296355334
 31
0.0
  0
LINE
  5
171
  8
1
  6
CONTINUOUS
 62
     7
 10
2046.314025973021
 20
-435.1554027230291
 30
0.0
 11
2046.337225865496
 21
-435.1530959389062
 31
0.0
  0
LINE
  5
172
  8
1
  6
CONTINUOUS
 62
     7
 10
1950.50362737723
 20
-450.9222880837096
 30
0.0
 11
1950.642188079098
 21
-450.7938805553133
 31
0.0
  0
LINE
  5
173
  8
1
  6
CONTINUOUS
 62
     7
 10
778.2338876574477
 20
-396.8697658922908
 30
0.0
 11
778.2357507303744
 21
-396.8946268727585
 31
0.0
  0
LINE
  5
174
  8
1
  6
CONTINUOUS
 62
     7
 10
1055.48270110647
 20
-452.4999999999999
 30
0.0
 11
1048.517298893533
 21
-452.4999999999999
 31
0.0
  0
LINE
  5
175
  8
1
  6
CONTINUOUS
 62
     7
 10
872.5307287182011
 20
-396.4637968894327
 30
0.0
 11
872.5082669410898
 21
-396.4746139111828
 31
0.0
  0
LINE
  5
176
  8
1
  6
CONTINUOUS
 62
     7
 10
2046.360499529675
 20
-435.1518587326681
 30
0.0
 11
2046.383766923221
 21
-435.151700181258
 31
0.0
  0
LINE
  5
177
  8
1
  6
CONTINUOUS
 62
     7
 10
2046.268167672586
 20
-435.1631887171572
 30
0.0
 11
2046.290979894604
 21
-435.1587700080939
 31
0.0
  0
LINE
  5
178
  8
1
  6
CONTINUOUS
 62
     7
 10
778.2264585136907
 20
-396.8204767439889
 30
0.0
 11
778.2307876828788
 21
-396.8450286825005
 31
0.0
  0
LINE
  5
179
  8
1
  6
CONTINUOUS
 62
     7
 10
1498.000000000001
 20
-408.4999999999998
 30
0.0
 11
1498.000000000001
 21
-451.1319332953966
 31
0.0
  0
LINE
  5
17A
  8
1
  6
CONTINUOUS
 62
     7
 10
778.1868567037171
 20
-396.7026079460301
 30
0.0
 11
778.1971103757011
 21
-396.7253324174515
 31
0.0
  0
LINE
  5
17B
  8
1
  6
CONTINUOUS
 62
     7
 10
1176.324893683268
 20
-361.0879555302635
 30
0.0
 11
1176.324893683268
 21
-443.9120444697369
 31
0.0
  0
LINE
  5
17C
  8
1
  6
CONTINUOUS
 62
     7
 10
1498.437124365505
 20
-450.0209445330008
 30
0.0
 11
1499.383690073061
 21
-444.6527036446661
 31
0.0
  0
LINE
  5
17D
  8
1
  6
CONTINUOUS
 62
     7
 10
1499.675106316729
 20
-361.0879555302635
 30
0.0
 11
1499.675106316729
 21
-443.9120444697364
 31
0.0
  0
ARC
  5
17E
  8
1
  6
CONTINUOUS
 62
     7
 10
1064.646694420915
 20
-359.9999999999992
 30
0.0
 40
1.999999999998892
 50
269.9999999999968
 51
349.9999999999997
  0
LINE
  5
17F
  8
1
  6
CONTINUOUS
 62
     7
 10
2046.869497429518
 20
-369.42257119342
 30
0.0
 11
2046.865186964587
 21
-369.4471145547794
 31
0.0
  0
LINE
  5
180
  8
1
  6
CONTINUOUS
 62
     7
 10
2046.68617548874
 20
-369.7397466267447
 30
0.0
 11
2046.666226782344
 21
-369.7548274477633
 31
0.0
  0
LINE
  5
181
  8
1
  6
CONTINUOUS
 62
     7
 10
777.9644775984393
 20
-396.474613911183
 30
0.0
 11
777.9863722697627
 21
-396.4865371136964
 31
0.0
  0
LINE
  5
182
  8
1
  6
CONTINUOUS
 62
     7
 10
1001.562875634498
 20
-450.0209445330008
 30
0.0
 11
1000.616309926942
 21
-444.6527036446661
 31
0.0
  0
LINE
  5
183
  8
1
  6
CONTINUOUS
 62
     7
 10
777.8956155948911
 20
-396.4455861425049
 30
0.0
 11
777.9190427819484
 21
-396.4541129412664
 31
0.0
  0
LINE
  5
184
  8
1
  6
CONTINUOUS
 62
     7
 10
1950.73365332773
 20
-354.3207651717861
 30
0.0
 11
1950.630839060958
 21
-354.1939938734115
 31
0.0
  0
LINE
  5
185
  8
1
  6
CONTINUOUS
 62
     7
 10
1058.437124365504
 20
-354.9790554669993
 30
0.0
 11
1059.38369007306
 21
-360.3472963553341
 31
0.0
  0
LINE
  5
186
  8
1
  6
CONTINUOUS
 62
     7
 10
1520.67510631673
 20
-396.5000000000001
 30
0.0
 11
1520.67510631673
 21
-408.4999999999999
 31
0.0
  0
LINE
  5
187
  8
1
  6
CONTINUOUS
 62
     7
 10
1498.437124365505
 20
-354.9790554669993
 30
0.0
 11
1499.383690073061
 21
-360.3472963553342
 31
0.0
  0
LINE
  5
188
  8
1
  6
CONTINUOUS
 62
     7
 10
1418.324893683269
 20
-361.0879555302635
 30
0.0
 11
1418.324893683269
 21
-443.9120444697369
 31
0.0
  0
LINE
  5
189
  8
1
  6
CONTINUOUS
 62
     7
 10
1454.437124365505
 20
-354.9790554669993
 30
0.0
 11
1455.38369007306
 21
-360.3472963553341
 31
0.0
  0
LINE
  5
18A
  8
1
  6
CONTINUOUS
 62
     7
 10
1506.324893683267
 20
-361.0879555302635
 30
0.0
 11
1506.324893683267
 21
-443.9120444697369
 31
0.0
  0
LINE
  5
18B
  8
1
  6
CONTINUOUS
 62
     7
 10
1485.324893683269
 20
-396.5000000000001
 30
0.0
 11
1498.67510631673
 21
-396.5000000000001
 31
0.0
  0
ARC
  5
18C
  8
1
  6
CONTINUOUS
 62
     7
 10
995.3533055790865
 20
-445.000000000001
 30
0.0
 40
1.999999999998892
 50
90.0
 51
169.9999999999998
  0
LINE
  5
18D
  8
1
  6
CONTINUOUS
 62
     7
 10
1441.562875634495
 20
-354.9790554669993
 30
0.0
 11
1440.61630992694
 21
-360.347296355334
 31
0.0
  0
LINE
  5
18E
  8
1
  6
CONTINUOUS
 62
     7
 10
1454.437124365505
 20
-450.0209445330008
 30
0.0
 11
1455.38369007306
 21
-444.6527036446661
 31
0.0
  0
LINE
  5
18F
  8
1
  6
CONTINUOUS
 62
     7
 10
2046.383766923223
 20
-435.1517001812579
 30
0.0
 11
2046.406948003785
 21
-435.1526293616186
 31
0.0
  0
ARC
  5
190
  8
1
  6
CONTINUOUS
 62
     7
 10
1017.353305579082
 20
-445.000000000001
 30
0.0
 40
2.000000000002444
 50
90.0
 51
169.9999999999998
  0
LINE
  5
191
  8
1
  6
CONTINUOUS
 62
     7
 10
778.206218580157
 20
-396.7485397439258
 30
0.0
 11
778.214158672657
 21
-396.7721722283833
 31
0.0
  0
LINE
  5
192
  8
1
  6
CONTINUOUS
 62
     7
 10
1507.999999999999
 20
-408.4999999999998
 30
0.0
 11
1507.999999999999
 21
-451.1319332953963
 31
0.0
  0
LINE
  5
193
  8
1
  6
CONTINUOUS
 62
     7
 10
1507.562875634494
 20
-450.0209445330008
 30
0.0
 11
1506.616309926939
 21
-444.6527036446661
 31
0.0
  0
LINE
  5
194
  8
1
  6
CONTINUOUS
 62
     7
 10
1486.000000000004
 20
-396.5000000000001
 30
0.0
 11
1486.000000000004
 21
-353.8680667046037
 31
0.0
  0
LINE
  5
195
  8
1
  6
CONTINUOUS
 62
     7
 10
1451.482701106467
 20
-352.5
 30
0.0
 11
1444.517298893531
 21
-352.5
 31
0.0
  0
LINE
  5
196
  8
1
  6
CONTINUOUS
 62
     7
 10
1950.630839060955
 20
-354.1939938734116
 30
0.0
 11
1950.508520659936
 21
-354.0818357705747
 31
0.0
  0
ARC
  5
197
  8
1
  6
CONTINUOUS
 62
     7
 10
1070.517298893531
 20
-449.5000000000002
 30
0.0
 40
3.000000000000114
 50
189.9999999999998
 51
270.0000000000015
  0
LINE
  5
198
  8
1
  6
CONTINUOUS
 62
     7
 10
1124.000000000002
 20
-408.4999999999998
 30
0.0
 11
1124.000000000002
 21
-451.1319332953966
 31
0.0
  0
LINE
  5
199
  8
1
  6
CONTINUOUS
 62
     7
 10
2046.801569749834
 20
-369.6092557305836
 30
0.0
 11
2046.787878391026
 21
-369.6304506646242
 31
0.0
  0
LINE
  5
19A
  8
1
  6
CONTINUOUS
 62
     7
 10
1397.324893683269
 20
-408.5000000000003
 30
0.0
 11
1410.675106316729
 21
-408.5000000000003
 31
0.0
  0
LINE
  5
19B
  8
1
  6
CONTINUOUS
 62
     7
 10
1517.482701106469
 20
-452.4999999999999
 30
0.0
 11
1510.517298893533
 21
-452.4999999999999
 31
0.0
  0
LINE
  5
19C
  8
1
  6
CONTINUOUS
 62
     7
 10
1211.999999999999
 20
-408.4999999999998
 30
0.0
 11
1211.999999999999
 21
-451.1319332953966
 31
0.0
  0
LINE
  5
19D
  8
1
  6
CONTINUOUS
 62
     7
 10
1517.482701106469
 20
-352.5
 30
0.0
 11
1510.517298893533
 21
-352.5
 31
0.0
  0
ARC
  5
19E
  8
1
  6
CONTINUOUS
 62
     7
 10
1055.48270110647
 20
-449.5000000000005
 30
0.0
 40
2.999999999996561
 50
270.0
 51
350.0000000000867
  0
LINE
  5
19F
  8
1
  6
CONTINUOUS
 62
     7
 10
1498.000000000001
 20
-396.5000000000001
 30
0.0
 11
1498.000000000001
 21
-353.8680667046033
 31
0.0
  0
LINE
  5
1A0
  8
1
  6
CONTINUOUS
 62
     7
 10
1486.000000000004
 20
-408.4999999999998
 30
0.0
 11
1486.000000000004
 21
-451.1319332953963
 31
0.0
  0
ARC
  5
1A1
  8
1
  6
CONTINUOUS
 62
     7
 10
1033.482701106468
 20
-449.5000000000005
 30
0.0
 40
3.000000000000114
 50
270.0
 51
350.0000000000874
  0
LINE
  5
1A2
  8
1
  6
CONTINUOUS
 62
     7
 10
1507.999999999999
 20
-396.5000000000001
 30
0.0
 11
1507.999999999999
 21
-353.8680667046037
 31
0.0
  0
LINE
  5
1A3
  8
1
  6
CONTINUOUS
 62
     7
 10
778.0076454016948
 20
-408.5004631459868
 30
0.0
 11
777.986372269762
 21
-408.5134628863036
 31
0.0
  0
LINE
  5
1A4
  8
1
  6
CONTINUOUS
 62
     7
 10
778.22091091288
 20
-396.7961711167436
 30
0.0
 11
778.2264585136897
 21
-396.820476743989
 31
0.0
  0
LINE
  5
1A5
  8
1
  6
CONTINUOUS
 62
     7
 10
1520.437124365503
 20
-450.0209445330008
 30
0.0
 11
1521.383690073059
 21
-444.6527036446661
 31
0.0
  0
LINE
  5
1A6
  8
1
  6
CONTINUOUS
 62
     7
 10
1521.675106316731
 20
-361.0879555302635
 30
0.0
 11
1521.675106316731
 21
-443.9120444697364
 31
0.0
  0
LINE
  5
1A7
  8
1
  6
CONTINUOUS
 62
     7
 10
1507.324893683268
 20
-396.5000000000001
 30
0.0
 11
1520.675106316729
 21
-396.5000000000001
 31
0.0
  0
ARC
  5
1A8
  8
1
  6
CONTINUOUS
 62
     7
 10
1083.353305579084
 20
-444.9999999999954
 30
0.0
 40
2.000000000002444
 50
90.0
 51
169.9999999999997
  0
LINE
  5
1A9
  8
1
  6
CONTINUOUS
 62
     7
 10
1134.0
 20
-396.5000000000001
 30
0.0
 11
1134.0
 21
-353.8680667046037
 31
0.0
  0
LINE
  5
1AA
  8
1
  6
CONTINUOUS
 62
     7
 10
1520.437124365503
 20
-354.9790554669993
 30
0.0
 11
1521.383690073059
 21
-360.3472963553342
 31
0.0
  0
LINE
  5
1AB
  8
1
  6
CONTINUOUS
 62
     7
 10
778.2307876828773
 20
-396.8450286825005
 30
0.0
 11
778.2338876574474
 21
-396.8697658922907
 31
0.0
  0
ARC
  5
1AC
  8
1
  6
CONTINUOUS
 62
     7
 10
1077.482701106468
 20
-449.5000000000005
 30
0.0
 40
3.000000000000114
 50
270.0
 51
350.0000000000869
  0
LINE
  5
1AD
  8
1
  6
CONTINUOUS
 62
     7
 10
1431.999999999998
 20
-408.4999999999998
 30
0.0
 11
1431.999999999998
 21
-451.1319332953966
 31
0.0
  0
LINE
  5
1AE
  8
1
  6
CONTINUOUS
 62
     7
 10
1501.353305579083
 20
-443.0000000000003
 30
0.0
 11
1504.646694420913
 21
-443.0000000000003
 31
0.0
  0
ARC
  5
1AF
  8
1
  6
CONTINUOUS
 62
     7
 10
1070.517298893531
 20
-355.5000000000001
 30
0.0
 40
3.000000000000114
 50
89.99999999999841
 51
170.0000000000002
  0
LINE
  5
1B0
  8
1
  6
CONTINUOUS
 62
     7
 10
1507.562875634494
 20
-354.9790554669993
 30
0.0
 11
1506.616309926939
 21
-360.3472963553341
 31
0.0
  0
LINE
  5
1B1
  8
1
  6
CONTINUOUS
 62
     7
 10
1001.324893683271
 20
-408.5000000000003
 30
0.0
 11
1014.675106316732
 21
-408.5000000000003
 31
0.0
  0
LINE
  5
1B2
  8
1
  6
CONTINUOUS
 62
     7
 10
778.1349385233738
 20
-396.6176476104259
 30
0.0
 11
778.1494916569203
 21
-396.637889786557
 31
0.0
  0
LINE
  5
1B3
  8
1
  6
CONTINUOUS
 62
     7
 10
1950.508520659936
 20
-354.0818357705749
 30
0.0
 11
1950.361849995012
 21
-353.9766822981933
 31
0.0
  0
LINE
  5
1B4
  8
1
  6
CONTINUOUS
 62
     7
 10
1419.324893683271
 20
-396.5000000000001
 30
0.0
 11
1419.324893683271
 21
-408.4999999999999
 31
0.0
  0
LINE
  5
1B5
  8
1
  6
CONTINUOUS
 62
     7
 10
1124.000000000002
 20
-396.5000000000001
 30
0.0
 11
1124.000000000002
 21
-353.8680667046033
 31
0.0
  0
LINE
  5
1B6
  8
1
  6
CONTINUOUS
 62
     7
 10
2046.801569749834
 20
-455.9438797414122
 30
0.0
 11
2046.705333765263
 21
-455.9765092948433
 31
0.0
  0
ARC
  5
1B7
  8
1
  6
CONTINUOUS
 62
     7
 10
1061.353305579082
 20
-359.9999999999992
 30
0.0
 40
1.999999999998892
 50
190.0000000000003
 51
270.0
  0
LINE
  5
1B8
  8
1
  6
CONTINUOUS
 62
     7
 10
1002.000000000002
 20
-408.4999999999998
 30
0.0
 11
1002.000000000002
 21
-451.1319332953963
 31
0.0
  0
LINE
  5
1B9
  8
1
  6
CONTINUOUS
 62
     7
 10
1200.000000000002
 20
-408.4999999999998
 30
0.0
 11
1200.000000000002
 21
-451.1319332953963
 31
0.0
  0
LINE
  5
1BA
  8
1
  6
CONTINUOUS
 62
     7
 10
989.4827011064672
 20
-352.5
 30
0.0
 11
982.5172988935308
 21
-352.5
 31
0.0
  0
ARC
  5
1BB
  8
1
  6
CONTINUOUS
 62
     7
 10
989.4827011064672
 20
-449.5000000000005
 30
0.0
 40
2.999999999996561
 50
270.0
 51
350.000000000087
  0
LINE
  5
1BC
  8
1
  6
CONTINUOUS
 62
     7
 10
872.2388568820825
 20
-396.8697658922908
 30
0.0
 11
872.2369938091556
 21
-396.8946268727585
 31
0.0
  0
LINE
  5
1BD
  8
1
  6
CONTINUOUS
 62
     7
 10
1189.999999999997
 20
-408.4999999999998
 30
0.0
 11
1189.999999999997
 21
-451.1319332953966
 31
0.0
  0
LINE
  5
1BE
  8
1
  6
CONTINUOUS
 62
     7
 10
872.2518336266503
 20
-396.7961711167436
 30
0.0
 11
872.2462860258405
 21
-396.8204767439889
 31
0.0
  0
LINE
  5
1BF
  8
1
  6
CONTINUOUS
 62
     7
 10
778.1971103757015
 20
-396.7253324174513
 30
0.0
 11
778.2062185801592
 21
-396.7485397439258
 31
0.0
  0
LINE
  5
1C0
  8
1
  6
CONTINUOUS
 62
     7
 10
778.0481171706958
 20
-396.5286340743548
 30
0.0
 11
778.0672151885649
 21
-396.5446592141049
 31
0.0
  0
LINE
  5
1C1
  8
1
  6
CONTINUOUS
 62
     7
 10
778.1630177105839
 20
-396.6588322138991
 30
0.0
 11
778.1754830564529
 21
-396.6804228262781
 31
0.0
  0
LINE
  5
1C2
  8
1
  6
CONTINUOUS
 62
     7
 10
1454.675106316731
 20
-396.5000000000001
 30
0.0
 11
1454.675106316731
 21
-408.4999999999999
 31
0.0
  0
LINE
  5
1C3
  8
1
  6
CONTINUOUS
 62
     7
 10
778.1630177105839
 20
-408.3411677861013
 30
0.0
 11
778.1494916569256
 21
-408.3621102134433
 31
0.0
  0
LINE
  5
1C4
  8
1
  6
CONTINUOUS
 62
     7
 10
872.5082669410873
 20
-396.474613911183
 30
0.0
 11
872.4863722697639
 21
-396.4865371136964
 31
0.0
  0
LINE
  5
1C5
  8
1
  6
CONTINUOUS
 62
     7
 10
1498.675106316731
 20
-396.5000000000001
 30
0.0
 11
1498.675106316731
 21
-408.4999999999999
 31
0.0
  0
LINE
  5
1C6
  8
1
  6
CONTINUOUS
 62
     7
 10
1155.324893683268
 20
-408.5000000000003
 30
0.0
 11
1168.675106316728
 21
-408.5000000000003
 31
0.0
  0
ARC
  5
1C7
  8
1
  6
CONTINUOUS
 62
     7
 10
1004.517298893532
 20
-355.5000000000001
 30
0.0
 40
3.000000000000114
 50
90.0
 51
170.0000000000003
  0
LINE
  5
1C8
  8
1
  6
CONTINUOUS
 62
   253
 10
998.6466944209121
 20
-443.0000000000001
 30
0.0
 11
995.3533055790822
 21
-443.0000000000001
 31
0.0
  0
LINE
  5
1C9
  8
1
  6
CONTINUOUS
 62
     7
 10
1419.324893683271
 20
-396.5000000000001
 30
0.0
 11
1432.675106316731
 21
-396.5000000000001
 31
0.0
  0
LINE
  5
1CA
  8
1
  6
CONTINUOUS
 62
     7
 10
1420.000000000001
 20
-396.5000000000001
 30
0.0
 11
1420.000000000001
 21
-353.8680667046037
 31
0.0
  0
LINE
  5
1CB
  8
1
  6
CONTINUOUS
 62
     7
 10
1111.999999999998
 20
-408.4999999999998
 30
0.0
 11
1111.999999999998
 21
-451.1319332953963
 31
0.0
  0
LINE
  5
1CC
  8
1
  6
CONTINUOUS
 62
     7
 10
1200.000000000002
 20
-396.5000000000001
 30
0.0
 11
1200.000000000002
 21
-353.8680667046037
 31
0.0
  0
LINE
  5
1CD
  8
1
  6
CONTINUOUS
 62
     7
 10
1156.000000000002
 20
-396.5000000000001
 30
0.0
 11
1156.000000000002
 21
-353.8680667046037
 31
0.0
  0
LINE
  5
1CE
  8
1
  6
CONTINUOUS
 62
     7
 10
979.5628756344955
 20
-354.9790554669993
 30
0.0
 11
978.6163099269398
 21
-360.347296355334
 31
0.0
  0
ARC
  5
1CF
  8
1
  6
CONTINUOUS
 62
     7
 10
1004.517298893532
 20
-449.5000000000002
 30
0.0
 40
3.000000000000114
 50
189.9999999999997
 51
270.0
  0
ARC
  5
1D0
  8
1
  6
CONTINUOUS
 62
     7
 10
1033.482701106468
 20
-355.4999999999997
 30
0.0
 40
3.000000000000114
 50
9.999999999999886
 51
90.0
  0
LINE
  5
1D1
  8
1
  6
CONTINUOUS
 62
   253
 10
1240.646694420913
 20
-443.0000000000001
 30
0.0
 11
1237.353305579083
 21
-443.0000000000001
 31
0.0
  0
ARC
  5
1D2
  8
1
  6
CONTINUOUS
 62
     7
 10
1011.482701106466
 20
-449.5000000000005
 30
0.0
 40
3.000000000003666
 50
270.0
 51
350.000000000087
  0
ARC
  5
1D3
  8
1
  6
CONTINUOUS
 62
     7
 10
1061.353305579082
 20
-444.9999999999954
 30
0.0
 40
1.999999999998892
 50
90.0
 51
169.9999999999997
  0
ARC
  5
1D4
  8
1
  6
CONTINUOUS
 62
     7
 10
800.2363722697665
 20
-377.5000000000002
 30
0.0
 40
12.49999999999574
 50
160.8534107822901
 51
180.0
  0
ARC
  5
1D5
  8
1
  6
CONTINUOUS
 62
     7
 10
1048.517298893532
 20
-449.5000000000002
 30
0.0
 40
3.000000000000114
 50
189.9999999999998
 51
270.0000000000002
  0
LINE
  5
1D6
  8
1
  6
CONTINUOUS
 62
     7
 10
1111.999999999998
 20
-396.5000000000001
 30
0.0
 11
1111.999999999998
 21
-353.8680667046037
 31
0.0
  0
LINE
  5
1D7
  8
1
  6
CONTINUOUS
 62
     7
 10
1410.000000000003
 20
-408.4999999999998
 30
0.0
 11
1410.000000000003
 21
-451.1319332953966
 31
0.0
  0
ARC
  5
1D8
  8
1
  6
CONTINUOUS
 62
     7
 10
1042.646694420913
 20
-444.9999999999954
 30
0.0
 40
2.000000000002444
 50
10.0000000000003
 51
90.0
  0
ARC
  5
1D9
  8
1
  6
CONTINUOUS
 62
     7
 10
1092.517298893529
 20
-355.5000000000001
 30
0.0
 40
3.000000000003666
 50
89.99999999999841
 51
170.0000000000002
  0
LINE
  5
1DA
  8
1
  6
CONTINUOUS
 62
     7
 10
1397.324893683269
 20
-396.5000000000001
 30
0.0
 11
1410.675106316729
 21
-396.5000000000001
 31
0.0
  0
LINE
  5
1DB
  8
1
  6
CONTINUOUS
 62
     7
 10
1211.999999999999
 20
-396.5000000000001
 30
0.0
 11
1211.999999999999
 21
-353.8680667046033
 31
0.0
  0
ARC
  5
1DC
  8
1
  6
CONTINUOUS
 62
     7
 10
1114.517298893531
 20
-355.5000000000001
 30
0.0
 40
2.999999999996561
 50
89.99999999999841
 51
170.0000000000003
  0
ARC
  5
1DD
  8
1
  6
CONTINUOUS
 62
     7
 10
1099.48270110647
 20
-449.5000000000005
 30
0.0
 40
2.999999999996561
 50
270.0
 51
350.0000000000875
  0
ARC
  5
1DE
  8
1
  6
CONTINUOUS
 62
     7
 10
1105.353305579082
 20
-359.9999999999992
 30
0.0
 40
2.000000000002444
 50
190.0000000000003
 51
269.9999999999998
  0
LINE
  5
1DF
  8
1
  6
CONTINUOUS
 62
     7
 10
1455.675106316728
 20
-361.0879555302635
 30
0.0
 11
1455.675106316728
 21
-443.9120444697364
 31
0.0
  0
LINE
  5
1E0
  8
1
  6
CONTINUOUS
 62
     7
 10
1156.000000000002
 20
-408.4999999999998
 30
0.0
 11
1156.000000000002
 21
-451.1319332953963
 31
0.0
  0
LINE
  5
1E1
  8
1
  6
CONTINUOUS
 62
     7
 10
1178.0
 20
-396.5000000000001
 30
0.0
 11
1178.0
 21
-353.8680667046037
 31
0.0
  0
LINE
  5
1E2
  8
1
  6
CONTINUOUS
 62
     7
 10
1199.324893683272
 20
-408.5000000000003
 30
0.0
 11
1212.675106316732
 21
-408.5000000000003
 31
0.0
  0
LINE
  5
1E3
  8
1
  6
CONTINUOUS
 62
     7
 10
991.9999999999967
 20
-408.4999999999998
 30
0.0
 11
991.9999999999967
 21
-451.1319332953966
 31
0.0
  0
LINE
  5
1E4
  8
1
  6
CONTINUOUS
 62
     7
 10
1199.324893683272
 20
-396.5000000000001
 30
0.0
 11
1212.675106316732
 21
-396.5000000000001
 31
0.0
  0
LINE
  5
1E5
  8
1
  6
CONTINUOUS
 62
     7
 10
1397.999999999999
 20
-396.5000000000001
 30
0.0
 11
1397.999999999999
 21
-353.8680667046037
 31
0.0
  0
LINE
  5
1E6
  8
1
  6
CONTINUOUS
 62
     7
 10
1485.562875634492
 20
-354.9790554669993
 30
0.0
 11
1484.616309926937
 21
-360.3472963553341
 31
0.0
  0
LINE
  5
1E7
  8
1
  6
CONTINUOUS
 62
     7
 10
1475.999999999999
 20
-396.5000000000001
 30
0.0
 11
1475.999999999999
 21
-353.8680667046033
 31
0.0
  0
LINE
  5
1E8
  8
1
  6
CONTINUOUS
 62
     7
 10
1178.0
 20
-408.4999999999998
 30
0.0
 11
1178.0
 21
-451.1319332953963
 31
0.0
  0
LINE
  5
1E9
  8
1
  6
CONTINUOUS
 62
     7
 10
1463.999999999998
 20
-408.4999999999998
 30
0.0
 11
1463.999999999998
 21
-451.1319332953963
 31
0.0
  0
ARC
  5
1EA
  8
1
  6
CONTINUOUS
 62
     7
 10
998.6466944209121
 20
-445.000000000001
 30
0.0
 40
1.999999999999003
 50
10.00000000000023
 51
90.0
  0
LINE
  5
1EB
  8
1
  6
CONTINUOUS
 62
     7
 10
1519.999999999999
 20
-408.4999999999998
 30
0.0
 11
1519.999999999999
 21
-451.1319332953966
 31
0.0
  0
ARC
  5
1EC
  8
1
  6
CONTINUOUS
 62
     7
 10
1048.517298893532
 20
-355.5000000000001
 30
0.0
 40
3.000000000000114
 50
89.99999999999973
 51
170.0000000000002
  0
LINE
  5
1ED
  8
1
  6
CONTINUOUS
 62
     7
 10
1189.999999999997
 20
-396.5000000000001
 30
0.0
 11
1189.999999999997
 21
-353.8680667046033
 31
0.0
  0
LINE
  5
1EE
  8
1
  6
CONTINUOUS
 62
     7
 10
1495.482701106467
 20
-452.4999999999999
 30
0.0
 11
1488.517298893531
 21
-452.4999999999999
 31
0.0
  0
ARC
  5
1EF
  8
1
  6
CONTINUOUS
 62
     7
 10
1099.48270110647
 20
-355.4999999999997
 30
0.0
 40
2.999999999996561
 50
9.999999999999732
 51
90.0
  0
ARC
  5
1F0
  8
1
  6
CONTINUOUS
 62
     7
 10
976.6466944209172
 20
-445.000000000001
 30
0.0
 40
1.999999999998892
 50
10.00000000000023
 51
90.0
  0
ARC
  5
1F1
  8
1
  6
CONTINUOUS
 62
     7
 10
998.6466944209121
 20
-359.9999999999992
 30
0.0
 40
1.999999999999003
 50
270.0
 51
349.9999999999998
  0
LINE
  5
1F2
  8
1
  6
CONTINUOUS
 62
     7
 10
1145.999999999997
 20
-396.5000000000001
 30
0.0
 11
1145.999999999997
 21
-353.8680667046033
 31
0.0
  0
LINE
  5
1F3
  8
1
  6
CONTINUOUS
 62
     7
 10
1145.999999999997
 20
-408.4999999999998
 30
0.0
 11
1145.999999999997
 21
-451.1319332953966
 31
0.0
  0
ARC
  5
1F4
  8
1
  6
CONTINUOUS
 62
     7
 10
1121.482701106469
 20
-355.4999999999997
 30
0.0
 40
3.000000000000114
 50
9.999999999999732
 51
90.0
  0
LINE
  5
1F5
  8
1
  6
CONTINUOUS
 62
     7
 10
1451.482701106467
 20
-452.4999999999999
 30
0.0
 11
1444.517298893531
 21
-452.4999999999999
 31
0.0
  0
LINE
  5
1F6
  8
1
  6
CONTINUOUS
 62
     7
 10
1089.324893683272
 20
-408.5000000000003
 30
0.0
 11
1102.675106316733
 21
-408.5000000000003
 31
0.0
  0
LINE
  5
1F7
  8
1
  6
CONTINUOUS
 62
     7
 10
979.9999999999999
 20
-396.5000000000001
 30
0.0
 11
979.9999999999999
 21
-353.8680667046037
 31
0.0
  0
LINE
  5
1F8
  8
1
  6
CONTINUOUS
 62
     7
 10
1111.324893683267
 20
-396.5000000000001
 30
0.0
 11
1124.675106316728
 21
-396.5000000000001
 31
0.0
  0
ARC
  5
1F9
  8
1
  6
CONTINUOUS
 62
     7
 10
1026.517298893534
 20
-355.5000000000001
 30
0.0
 40
2.999999999996561
 50
90.0
 51
170.0000000000003
  0
ARC
  5
1FA
  8
1
  6
CONTINUOUS
 62
     7
 10
982.5172988935329
 20
-449.5000000000002
 30
0.0
 40
2.999999999996561
 50
189.9999999999997
 51
270.0
  0
LINE
  5
1FB
  8
1
  6
CONTINUOUS
 62
     7
 10
1397.999999999999
 20
-408.4999999999998
 30
0.0
 11
1397.999999999999
 21
-451.1319332953963
 31
0.0
  0
LINE
  5
1FC
  8
1
  6
CONTINUOUS
 62
     7
 10
1419.324893683271
 20
-408.5000000000003
 30
0.0
 11
1432.675106316731
 21
-408.5000000000003
 31
0.0
  0
LINE
  5
1FD
  8
1
  6
CONTINUOUS
 62
     7
 10
1046.000000000003
 20
-396.5000000000001
 30
0.0
 11
1046.000000000003
 21
-353.8680667046037
 31
0.0
  0
LINE
  5
1FE
  8
1
  6
CONTINUOUS
 62
     7
 10
1507.324893683268
 20
-408.5000000000003
 30
0.0
 11
1520.675106316729
 21
-408.5000000000003
 31
0.0
  0
LINE
  5
1FF
  8
1
  6
CONTINUOUS
 62
     7
 10
1045.324893683272
 20
-408.5000000000003
 30
0.0
 11
1058.675106316733
 21
-408.5000000000003
 31
0.0
  0
ARC
  5
200
  8
1
  6
CONTINUOUS
 62
     7
 10
1020.646694420914
 20
-444.9999999999954
 30
0.0
 40
2.000000000002444
 50
10.00000000000091
 51
90.0
  0
ARC
  5
201
  8
1
  6
CONTINUOUS
 62
     7
 10
1042.646694420913
 20
-359.9999999999992
 30
0.0
 40
2.000000000002444
 50
269.9999999999972
 51
349.9999999999997
  0
ARC
  5
202
  8
1
  6
CONTINUOUS
 62
     7
 10
1105.353305579082
 20
-444.9999999999954
 30
0.0
 40
2.000000000002444
 50
90.0000000000002
 51
169.9999999999997
  0
LINE
  5
203
  8
1
  6
CONTINUOUS
 62
     7
 10
1168.000000000002
 20
-408.4999999999998
 30
0.0
 11
1168.000000000002
 21
-451.1319332953966
 31
0.0
  0
LINE
  5
204
  8
1
  6
CONTINUOUS
 62
     7
 10
1023.32489368327
 20
-408.5000000000003
 30
0.0
 11
1036.675106316731
 21
-408.5000000000003
 31
0.0
  0
LINE
  5
205
  8
1
  6
CONTINUOUS
 62
     7
 10
1111.324893683267
 20
-408.5000000000003
 30
0.0
 11
1124.675106316728
 21
-408.5000000000003
 31
0.0
  0
LINE
  5
206
  8
1
  6
CONTINUOUS
 62
     7
 10
1196.646694420913
 20
-362.0000000000001
 30
0.0
 11
1193.353305579083
 21
-362.0000000000001
 31
0.0
  0
LINE
  5
207
  8
1
  6
CENTER
 62
     1
 10
825.0000000000006
 20
-460.4999999999999
 30
0.0
 11
825.0000000000006
 21
-344.4999999999999
 31
0.0
  0
ARC
  5
209
  8
1
  6
CONTINUOUS
 62
     7
 10
976.6466944209172
 20
-359.9999999999992
 30
0.0
 40
1.999999999998892
 50
270.0
 51
349.9999999999997
  0
LINE
  5
20A
  8
1
  6
CONTINUOUS
 62
     7
 10
1177.32489368327
 20
-408.5000000000003
 30
0.0
 11
1190.675106316731
 21
-408.5000000000003
 31
0.0
  0
LINE
  5
20B
  8
1
  6
CONTINUOUS
 62
     7
 10
815.3607340820712
 20
-443.0000000000003
 30
0.0
 11
835.112010457459
 21
-443.0000000000003
 31
0.0
  0
ARC
  5
20C
  8
1
  6
CONTINUOUS
 62
     7
 10
2299.849999999999
 20
-427.5
 30
0.0
 40
12.49999999999929
 50
180.0
 51
270.0
  0
LINE
  5
20D
  8
1
  6
CONTINUOUS
 62
     7
 10
1441.324893683269
 20
-408.5000000000003
 30
0.0
 11
1454.67510631673
 21
-408.5000000000003
 31
0.0
  0
LINE
  5
20E
  8
1
  6
CONTINUOUS
 62
     7
 10
1410.000000000003
 20
-396.5000000000001
 30
0.0
 11
1410.000000000003
 21
-353.8680667046033
 31
0.0
  0
LINE
  5
20F
  8
1
  6
CENTER
 62
     1
 10
2325.086372269765
 20
-460.4999999999999
 30
0.0
 11
2325.086372269765
 21
-344.4999999999999
 31
0.0
  0
LINE
  5
210
  8
1
  6
CONTINUOUS
 62
     7
 10
1431.999999999998
 20
-396.5000000000001
 30
0.0
 11
1431.999999999998
 21
-353.8680667046033
 31
0.0
  0
LINE
  5
211
  8
1
  6
CONTINUOUS
 62
     7
 10
976.6466944209172
 20
-443.0000000000003
 30
0.0
 11
975.0000000000022
 21
-443.0000000000003
 31
0.0
  0
LINE
  5
212
  8
1
  6
CONTINUOUS
 62
     7
 10
1089.999999999999
 20
-396.5000000000001
 30
0.0
 11
1089.999999999999
 21
-353.8680667046037
 31
0.0
  0
LINE
  5
213
  8
1
  6
CONTINUOUS
 62
     7
 10
1130.646694420917
 20
-362.0000000000001
 30
0.0
 11
1127.353305579087
 21
-362.0000000000001
 31
0.0
  0
LINE
  5
214
  8
1
  6
CENTER
 62
     1
 10
766.9363722697659
 20
-402.5000000000001
 30
0.0
 11
883.2363722697659
 21
-402.5000000000001
 31
0.0
  0
LINE
  5
215
  8
1
  6
CONTINUOUS
 62
     7
 10
2269.849999999997
 20
-404.9999999999996
 30
0.0
 11
2269.849999999997
 21
-400.0
 31
0.0
  0
LINE
  5
216
  8
1
  6
CONTINUOUS
 62
     7
 10
1133.324893683269
 20
-408.5000000000003
 30
0.0
 11
1146.67510631673
 21
-408.5000000000003
 31
0.0
  0
ARC
  5
217
  8
1
  6
CONTINUOUS
 62
     7
 10
1011.482701106466
 20
-355.4999999999997
 30
0.0
 40
3.000000000003666
 50
9.999999999999886
 51
90.0
  0
LINE
  5
218
  8
1
  6
CONTINUOUS
 62
     7
 10
1196.646694420913
 20
-443.0000000000003
 30
0.0
 11
1193.353305579083
 21
-443.0000000000003
 31
0.0
  0
LINE
  5
219
  8
1
  6
CONTINUOUS
 62
     7
 10
979.3248936832691
 20
-396.5000000000001
 30
0.0
 11
992.6751063167301
 21
-396.5000000000001
 31
0.0
  0
LINE
  5
21A
  8
1
  6
CONTINUOUS
 62
     7
 10
1503.0
 20
-362.0000000000001
 30
0.0
 11
1503.0
 21
-362.3964283427478
 31
0.0
  0
LINE
  5
21B
  8
1
  6
CONTINUOUS
 62
     7
 10
1420.000000000001
 20
-408.4999999999998
 30
0.0
 11
1420.000000000001
 21
-451.1319332953963
 31
0.0
  0
ARC
  5
21C
  8
1
  6
CONTINUOUS
 62
     7
 10
982.5172988935329
 20
-355.5000000000001
 30
0.0
 40
2.999999999996561
 50
90.0
 51
169.9999999999998
  0
ARC
  5
21D
  8
1
  6
CONTINUOUS
 62
     7
 10
989.4827011064672
 20
-355.4999999999997
 30
0.0
 40
2.999999999996561
 50
10.00000000000034
 51
90.0
  0
LINE
  5
21E
  8
1
  6
CONTINUOUS
 62
     7
 10
1067.999999999997
 20
-396.5000000000001
 30
0.0
 11
1067.999999999997
 21
-353.8680667046037
 31
0.0
  0
LINE
  5
21F
  8
1
  6
CONTINUOUS
 62
     7
 10
1419.562875634497
 20
-450.0209445330008
 30
0.0
 11
1418.616309926941
 21
-444.6527036446661
 31
0.0
  0
LINE
  5
220
  8
1
  6
CONTINUOUS
 62
     7
 10
1463.999999999998
 20
-396.5000000000001
 30
0.0
 11
1463.999999999998
 21
-353.8680667046037
 31
0.0
  0
LINE
  5
221
  8
1
  6
CONTINUOUS
 62
     7
 10
835.112010457459
 20
-443.0000000000003
 30
0.0
 11
850.2509980886683
 21
-442.6035716572526
 31
0.0
  0
LINE
  5
222
  8
1
  6
CONTINUOUS
 62
     7
 10
1023.999999999997
 20
-408.4999999999998
 30
0.0
 11
1023.999999999997
 21
-451.1319332953963
 31
0.0
  0
LINE
  5
223
  8
1
  6
CONTINUOUS
 62
     7
 10
1013.999999999999
 20
-396.5000000000001
 30
0.0
 11
1013.999999999999
 21
-353.8680667046033
 31
0.0
  0
ARC
  5
224
  8
1
  6
CONTINUOUS
 62
     7
 10
995.3533055790865
 20
-359.9999999999992
 30
0.0
 40
1.999999999998892
 50
190.0000000000005
 51
270.0
  0
ARC
  5
225
  8
1
  6
CONTINUOUS
 62
     7
 10
1026.517298893534
 20
-449.5000000000002
 30
0.0
 40
2.999999999996561
 50
189.9999999999997
 51
270.0
  0
LINE
  5
226
  8
1
  6
CONTINUOUS
 62
     7
 10
1020.646694420914
 20
-443.0000000000003
 30
0.0
 11
1017.353305579084
 21
-443.0000000000003
 31
0.0
  0
LINE
  5
227
  8
1
  6
CONTINUOUS
 62
     7
 10
998.6466944209121
 20
-362.0000000000001
 30
0.0
 11
996.999999999997
 21
-362.0000000000001
 31
0.0
  0
LINE
  5
228
  8
1
  6
CONTINUOUS
 62
     7
 10
1463.324893683271
 20
-408.5000000000003
 30
0.0
 11
1476.675106316732
 21
-408.5000000000003
 31
0.0
  0
LINE
  5
229
  8
1
  6
CONTINUOUS
 62
     7
 10
1177.32489368327
 20
-396.5000000000001
 30
0.0
 11
1190.675106316731
 21
-396.5000000000001
 31
0.0
  0
LINE
  5
22A
  8
1
  6
CONTINUOUS
 62
     7
 10
976.6466944209172
 20
-362.0000000000001
 30
0.0
 11
975.0000000000022
 21
-362.0000000000001
 31
0.0
  0
LINE
  5
22B
  8
1
  6
CONTINUOUS
 62
     7
 10
1002.000000000002
 20
-396.5000000000001
 30
0.0
 11
1002.000000000002
 21
-353.8680667046037
 31
0.0
  0
LINE
  5
22C
  8
1
  6
CONTINUOUS
 62
     7
 10
1133.324893683269
 20
-396.5000000000001
 30
0.0
 11
1146.67510631673
 21
-396.5000000000001
 31
0.0
  0
LINE
  5
22D
  8
1
  6
CONTINUOUS
 62
   253
 10
1240.646694420913
 20
-362.0000000000001
 30
0.0
 11
1237.353305579083
 21
-362.0000000000001
 31
0.0
  0
LINE
  5
22E
  8
1
  6
CONTINUOUS
 62
     7
 10
1463.324893683271
 20
-396.5000000000001
 30
0.0
 11
1476.675106316732
 21
-396.5000000000001
 31
0.0
  0
LINE
  5
22F
  8
1
  6
CONTINUOUS
 62
     7
 10
1064.646694420915
 20
-443.0000000000003
 30
0.0
 11
1061.353305579085
 21
-443.0000000000003
 31
0.0
  0
ARC
  5
230
  8
1
  6
CONTINUOUS
 62
     7
 10
1017.353305579082
 20
-359.9999999999992
 30
0.0
 40
2.000000000002444
 50
190.0000000000002
 51
270.0
  0
ARC
  5
231
  8
1
  6
CONTINUOUS
 62
     7
 10
1055.48270110647
 20
-355.4999999999997
 30
0.0
 40
2.999999999996561
 50
9.999999999999755
 51
90.0
  0
LINE
  5
232
  8
1
  6
CONTINUOUS
 62
     7
 10
1023.999999999997
 20
-396.5000000000001
 30
0.0
 11
1023.999999999997
 21
-353.8680667046037
 31
0.0
  0
LINE
  5
233
  8
1
  6
CONTINUOUS
 62
     7
 10
1442.0
 20
-408.4999999999998
 30
0.0
 11
1442.0
 21
-451.1319332953963
 31
0.0
  0
LINE
  5
234
  8
1
  6
CONTINUOUS
 62
     7
 10
1481.000000000001
 20
-362.0000000000001
 30
0.0
 11
1481.000000000001
 21
-362.3964283427478
 31
0.0
  0
LINE
  5
235
  8
1
  6
CONTINUOUS
 62
     7
 10
1152.646694420912
 20
-362.0000000000001
 30
0.0
 11
1149.353305579082
 21
-362.0000000000001
 31
0.0
  0
LINE
  5
236
  8
1
  6
CONTINUOUS
 62
     7
 10
991.9999999999967
 20
-396.5000000000001
 30
0.0
 11
991.9999999999967
 21
-353.8680667046033
 31
0.0
  0
ARC
  5
237
  8
1
  6
CONTINUOUS
 62
     7
 10
1086.646694420917
 20
-444.9999999999954
 30
0.0
 40
1.999999999998892
 50
10.00000000000091
 51
90.0
  0
LINE
  5
238
  8
1
  6
CONTINUOUS
 62
     7
 10
1134.0
 20
-408.4999999999998
 30
0.0
 11
1134.0
 21
-451.1319332953963
 31
0.0
  0
LINE
  5
239
  8
1
  6
CONTINUOUS
 62
     7
 10
1045.324893683272
 20
-396.5000000000001
 30
0.0
 11
1058.675106316733
 21
-396.5000000000001
 31
0.0
  0
ARC
  5
23A
  8
1
  6
CONTINUOUS
 62
     7
 10
1086.646694420917
 20
-359.9999999999992
 30
0.0
 40
1.999999999998892
 50
270.0
 51
349.9999999999993
  0
LINE
  5
23B
  8
1
  6
CONTINUOUS
 62
     7
 10
1064.646694420915
 20
-362.0000000000001
 30
0.0
 11
1061.353305579085
 21
-362.0000000000001
 31
0.0
  0
LINE
  5
23C
  8
1
  6
CONTINUOUS
 62
     7
 10
1429.482701106469
 20
-452.4999999999999
 30
0.0
 11
1422.517298893532
 21
-452.4999999999999
 31
0.0
  0
LINE
  5
23D
  8
1
  6
CONTINUOUS
 62
     7
 10
1035.999999999997
 20
-408.4999999999998
 30
0.0
 11
1035.999999999997
 21
-451.1319332953966
 31
0.0
  0
ARC
  5
23E
  8
1
  6
CONTINUOUS
 62
     7
 10
1174.646694420918
 20
-359.9999999999992
 30
0.0
 40
1.999999999998892
 50
270.0
 51
349.9999999999997
  0
LINE
  5
23F
  8
1
  6
CONTINUOUS
 62
     7
 10
1067.324893683267
 20
-408.5000000000003
 30
0.0
 11
1080.675106316727
 21
-408.5000000000003
 31
0.0
  0
LINE
  5
240
  8
1
  6
CONTINUOUS
 62
     7
 10
1475.999999999999
 20
-408.4999999999998
 30
0.0
 11
1475.999999999999
 21
-451.1319332953966
 31
0.0
  0
LINE
  5
241
  8
1
  6
CONTINUOUS
 62
     7
 10
1155.324893683268
 20
-396.5000000000001
 30
0.0
 11
1168.675106316728
 21
-396.5000000000001
 31
0.0
  0
LINE
  5
242
  8
1
  6
CONTINUOUS
 62
     7
 10
1168.000000000002
 20
-396.5000000000001
 30
0.0
 11
1168.000000000002
 21
-353.8680667046033
 31
0.0
  0
LINE
  5
243
  8
1
  6
CONTINUOUS
 62
     7
 10
815.3607340820712
 20
-443.0000000000003
 30
0.0
 11
800.2217464508618
 21
-442.6035716572526
 31
0.0
  0
LINE
  5
244
  8
1
  6
CONTINUOUS
 62
     7
 10
865.7363722697667
 20
-392.6243618123062
 30
0.0
 11
865.3399439270187
 21
-377.4853741810969
 31
0.0
  0
LINE
  5
245
  8
1
  6
CONTINUOUS
 62
     7
 10
1057.999999999999
 20
-396.5000000000001
 30
0.0
 11
1057.999999999999
 21
-353.8680667046033
 31
0.0
  0
ARC
  5
246
  8
1
  6
CONTINUOUS
 62
     7
 10
2300.240492726309
 20
-377.8904927263105
 30
0.0
 40
30.00000000000114
 50
91.0
 51
179.0
  0
LINE
  5
247
  8
1
  6
CONTINUOUS
 62
     7
 10
2269.849999999997
 20
-400.0000000000001
 30
0.0
 11
2270.245061871616
 21
-377.366920533192
 31
0.0
  0
LINE
  5
248
  8
1
  6
CONTINUOUS
 62
     7
 10
1080.000000000001
 20
-396.5000000000001
 30
0.0
 11
1080.000000000001
 21
-353.8680667046033
 31
0.0
  0
LINE
  5
249
  8
1
  6
CONTINUOUS
 62
     7
 10
1174.646694420918
 20
-362.0000000000001
 30
0.0
 11
1171.353305579088
 21
-362.0000000000001
 31
0.0
  0
ARC
  5
24A
  8
1
  6
CONTINUOUS
 62
     7
 10
1127.353305579084
 20
-444.9999999999954
 30
0.0
 40
1.999999999998892
 50
90.0
 51
169.9999999999991
  0
LINE
  5
24B
  8
1
  6
CONTINUOUS
 62
     7
 10
2349.983079466809
 20
-457.1049381283814
 30
0.0
 11
2327.35
 21
-457.5
 31
0.0
  0
ARC
  5
24C
  8
1
  6
CONTINUOUS
 62
     7
 10
1149.353305579087
 20
-444.9999999999954
 30
0.0
 40
1.999999999998892
 50
89.99999999999926
 51
169.9999999999997
  0
LINE
  5
24D
  8
1
  6
CONTINUOUS
 62
     7
 10
1067.999999999997
 20
-408.4999999999998
 30
0.0
 11
1067.999999999997
 21
-451.1319332953963
 31
0.0
  0
LINE
  5
24E
  8
1
  6
CONTINUOUS
 62
     7
 10
1080.000000000001
 20
-408.4999999999998
 30
0.0
 11
1080.000000000001
 21
-451.1319332953966
 31
0.0
  0
LINE
  5
24F
  8
1
  6
CONTINUOUS
 62
     7
 10
2299.849999999999
 20
-365.0
 30
0.0
 11
2349.849999999998
 21
-365.0000000000001
 31
0.0
  0
ARC
  5
250
  8
1
  6
CONTINUOUS
 62
     7
 10
2299.849999999999
 20
-427.5
 30
0.0
 40
25.30000000000143
 50
180.0
 51
270.0
  0
ARC
  5
251
  8
1
  6
CONTINUOUS
 62
     7
 10
2349.849999999999
 20
-377.5000000000002
 30
0.0
 40
25.30000000000143
 50
359.9999999999998
 51
90.0
  0
LINE
  5
252
  8
1
  6
CONTINUOUS
 62
     7
 10
1067.324893683267
 20
-396.5000000000001
 30
0.0
 11
1080.675106316727
 21
-396.5000000000001
 31
0.0
  0
LINE
  5
253
  8
1
  6
CONTINUOUS
 62
     7
 10
1433.67510631673
 20
-361.0879555302635
 30
0.0
 11
1433.67510631673
 21
-443.9120444697364
 31
0.0
  0
LINE
  5
254
  8
1
  6
CONTINUOUS
 62
     7
 10
785.13280061251
 20
-427.5146258189035
 30
0.0
 11
784.7363722697622
 21
-412.3756381876942
 31
0.0
  0
LINE
  5
255
  8
1
  6
CONTINUOUS
 62
     7
 10
835.0792836647485
 20
-440.4999999999999
 30
0.0
 11
850.1855557178989
 21
-440.1044283448134
 31
0.0
  0
ARC
  5
256
  8
1
  6
CONTINUOUS
 62
     7
 10
2349.849999999999
 20
-427.5000000000004
 30
0.0
 40
25.30000000000143
 50
270.0
 51
0.0
  0
ARC
  5
257
  8
1
  6
CONTINUOUS
 62
     7
 10
2349.458883120128
 20
-427.1088831201313
 30
0.0
 40
13.00000000000168
 50
290.2097088592246
 51
339.7902911333311
  0
ARC
  5
258
  8
1
  6
CONTINUOUS
 62
     7
 10
1517.482701106469
 20
-355.4999999999997
 30
0.0
 40
2.999999999996561
 50
9.999999999998574
 51
90.0
  0
LINE
  5
259
  8
1
  6
CONTINUOUS
 62
     7
 10
1057.999999999999
 20
-408.4999999999998
 30
0.0
 11
1057.999999999999
 21
-451.1319332953966
 31
0.0
  0
LINE
  5
25A
  8
1
  6
CONTINUOUS
 62
     7
 10
1089.999999999999
 20
-408.4999999999998
 30
0.0
 11
1089.999999999999
 21
-451.1319332953963
 31
0.0
  0
LINE
  5
25B
  8
1
  6
CONTINUOUS
 62
     7
 10
1086.646694420917
 20
-362.0000000000001
 30
0.0
 11
1083.353305579087
 21
-362.0000000000001
 31
0.0
  0
LINE
  5
25C
  8
1
  6
CONTINUOUS
 62
     7
 10
2275.416504683928
 20
-369.8483873135794
 30
0.0
 11
2275.422815391581
 21
-369.8313502267275
 31
0.0
  0
LINE
  5
25D
  8
1
  6
CONTINUOUS
 62
     7
 10
979.9999999999999
 20
-408.4999999999998
 30
0.0
 11
979.9999999999999
 21
-451.1319332953963
 31
0.0
  0
ARC
  5
25E
  8
1
  6
CONTINUOUS
 62
     7
 10
2300.24111687987
 20
-427.1088831201313
 30
0.0
 40
12.99999999999812
 50
200.2097088830927
 51
249.7902911144889
  0
ARC
  5
25F
  8
1
  6
CONTINUOUS
 62
     7
 10
1020.646694420914
 20
-359.9999999999992
 30
0.0
 40
2.000000000002444
 50
270.0
 51
349.9999999999993
  0
LINE
  5
260
  8
1
  6
CONTINUOUS
 62
     7
 10
1001.324893683271
 20
-396.5000000000001
 30
0.0
 11
1014.675106316732
 21
-396.5000000000001
 31
0.0
  0
ARC
  5
261
  8
1
  6
CONTINUOUS
 62
     7
 10
1523.353305579085
 20
-444.9999999999954
 30
0.0
 40
2.000000000002444
 50
89.99999999999363
 51
169.9999999999998
  0
ARC
  5
262
  8
1
  6
CONTINUOUS
 62
     7
 10
800.627489149631
 20
-377.8911168798691
 30
0.0
 40
13.00000000000168
 50
91.50000000000006
 51
178.4999999999998
  0
ARC
  5
263
  8
1
  6
CONTINUOUS
 62
     7
 10
1108.646694420915
 20
-359.9999999999992
 30
0.0
 40
1.999999999998892
 50
270.0
 51
349.9999999999993
  0
LINE
  5
264
  8
1
  6
CONTINUOUS
 62
     7
 10
1013.999999999999
 20
-408.4999999999998
 30
0.0
 11
1013.999999999999
 21
-451.1319332953966
 31
0.0
  0
ARC
  5
265
  8
1
  6
CONTINUOUS
 62
     7
 10
2349.849999999999
 20
-427.5000000000004
 30
0.0
 40
12.49999999999929
 50
270.0
 51
0.0000000000000568
  0
ARC
  5
266
  8
1
  6
CONTINUOUS
 62
     7
 10
800.2363722697665
 20
-377.5000000000002
 30
0.0
 40
12.49999999999574
 50
89.99999999999994
 51
109.146589218586
  0
LINE
  5
267
  8
1
  6
CONTINUOUS
 62
     7
 10
2379.85
 20
-405.0
 30
0.0
 11
2379.454938128381
 21
-427.6330794668082
 31
0.0
  0
ARC
  5
268
  8
1
  6
CONTINUOUS
 62
     7
 10
1517.482701106469
 20
-449.5000000000005
 30
0.0
 40
2.999999999996561
 50
270.0
 51
350.0000000000875
  0
LINE
  5
269
  8
1
  6
CONTINUOUS
 62
     7
 10
2349.849999999999
 20
-452.8000000000001
 30
0.0
 11
2299.849999999999
 21
-452.8000000000001
 31
0.0
  0
ARC
  5
26A
  8
1
  6
CONTINUOUS
 62
     7
 10
2349.459507273688
 20
-377.8904927263105
 30
0.0
 40
30.00000000000114
 50
1.0
 51
89.00000000000001
  0
LINE
  5
26B
  8
1
  6
CONTINUOUS
 62
     7
 10
1023.32489368327
 20
-396.5000000000001
 30
0.0
 11
1036.675106316731
 21
-396.5000000000001
 31
0.0
  0
ARC
  5
26C
  8
1
  6
CONTINUOUS
 62
     7
 10
1174.646694420918
 20
-444.9999999999954
 30
0.0
 40
1.999999999998892
 50
10.00000000000034
 51
90.0
  0
LINE
  5
26D
  8
1
  6
CONTINUOUS
 62
     7
 10
1152.646694420912
 20
-443.0000000000003
 30
0.0
 11
1149.353305579082
 21
-443.0000000000003
 31
0.0
  0
ARC
  5
26E
  8
1
  6
CONTINUOUS
 62
     7
 10
1108.646694420915
 20
-444.9999999999954
 30
0.0
 40
1.999999999998892
 50
10.00000000000091
 51
90.0
  0
ARC
  5
26F
  8
1
  6
CONTINUOUS
 62
     7
 10
1495.482701106467
 20
-449.5000000000005
 30
0.0
 40
3.000000000000114
 50
270.0
 51
350.0000000000875
  0
LINE
  5
270
  8
1
  6
CONTINUOUS
 62
     7
 10
784.7363722697671
 20
-412.3756381876942
 30
0.0
 11
784.7363722697671
 21
-392.6243618123063
 31
0.0
  0
ARC
  5
271
  8
1
  6
CONTINUOUS
 62
     7
 10
1127.353305579084
 20
-359.9999999999992
 30
0.0
 40
1.999999999998892
 50
190.0000000000005
 51
270.0
  0
LINE
  5
272
  8
1
  6
CONTINUOUS
 62
     7
 10
992.4371243655047
 20
-354.9790554669993
 30
0.0
 11
993.3836900730605
 21
-360.3472963553341
 31
0.0
  0
LINE
  5
273
  8
1
  6
CONTINUOUS
 62
     7
 10
2379.454938128379
 20
-377.366920533192
 30
0.0
 11
2379.849999999997
 21
-400.0000000000006
 31
0.0
  0
LINE
  5
274
  8
1
  6
CONTINUOUS
 62
     7
 10
815.2363722697671
 20
-352.5
 30
0.0
 11
835.236372269767
 21
-352.5
 31
0.0
  0
LINE
  5
275
  8
1
  6
CONTINUOUS
 62
     7
 10
1454.0
 20
-408.4999999999998
 30
0.0
 11
1454.0
 21
-451.1319332953966
 31
0.0
  0
LINE
  5
276
  8
1
  6
CONTINUOUS
 62
     7
 10
979.3248936832691
 20
-408.5000000000003
 30
0.0
 11
992.6751063167301
 21
-408.5000000000003
 31
0.0
  0
LINE
  5
277
  8
1
  6
CONTINUOUS
 62
     7
 10
1035.999999999997
 20
-396.5000000000001
 30
0.0
 11
1035.999999999997
 21
-353.8680667046033
 31
0.0
  0
ARC
  5
278
  8
1
  6
CONTINUOUS
 62
     7
 10
1039.353305579087
 20
-444.9999999999954
 30
0.0
 40
1.999999999998892
 50
90.00000000000011
 51
169.9999999999998
  0
LINE
  5
279
  8
1
  6
CONTINUOUS
 62
     7
 10
1174.646694420918
 20
-443.0000000000003
 30
0.0
 11
1171.353305579088
 21
-443.0000000000003
 31
0.0
  0
LINE
  5
27A
  8
1
  6
CONTINUOUS
 62
     7
 10
835.2363722697631
 20
-352.5
 30
0.0
 11
850.4996790975912
 21
-352.8996837554799
 31
0.0
  0
ARC
  5
27B
  8
1
  6
CONTINUOUS
 62
     7
 10
1501.353305579083
 20
-359.9999999999992
 30
0.0
 40
1.999999999998892
 50
190.0000000000002
 51
270.0
  0
ARC
  5
27C
  8
1
  6
CONTINUOUS
 62
     7
 10
849.8452553898957
 20
-427.1088831201313
 30
0.0
 40
15.4999999999994
 50
271.5000000000003
 51
358.4999999999998
  0
ARC
  5
27D
  8
1
  6
CONTINUOUS
 62
     7
 10
873.2363722697669
 20
-394.29281979552
 30
0.0
 40
1.999999999998892
 50
280.0000000000006
 51
0.0
  0
ARC
  5
27E
  8
1
  6
CONTINUOUS
 62
     7
 10
2349.849999999999
 20
-377.5000000000002
 30
0.0
 40
12.49999999999929
 50
359.9999999999998
 51
90.00000000000006
  0
LINE
  5
27F
  8
1
  6
CONTINUOUS
 62
     7
 10
2299.716920533192
 20
-347.8950618716188
 30
0.0
 11
2322.35
 21
-347.5000000000001
 31
0.0
  0
LINE
  5
280
  8
1
  6
CONTINUOUS
 62
     7
 10
1102.0
 20
-396.5000000000001
 30
0.0
 11
1102.0
 21
-353.8680667046033
 31
0.0
  0
ARC
  5
281
  8
1
  6
CONTINUOUS
 62
     7
 10
777.2363722697668
 20
-394.29281979552
 30
0.0
 40
1.999999999998892
 50
180.0
 51
259.9999999999994
  0
LINE
  5
282
  8
1
  6
CONTINUOUS
 62
     7
 10
1086.646694420917
 20
-443.0000000000003
 30
0.0
 11
1083.353305579087
 21
-443.0000000000003
 31
0.0
  0
LINE
  5
283
  8
1
  6
CONTINUOUS
 62
     7
 10
863.2363722697653
 20
-412.3429113949819
 30
0.0
 11
863.2363722697653
 21
-392.6570886050187
 31
0.0
  0
ARC
  5
284
  8
1
  6
CONTINUOUS
 62
     7
 10
1306.646694420916
 20
-444.9999999999954
 30
0.0
 40
1.999999999998892
 50
10.00000000000023
 51
90.0
  0
ARC
  5
285
  8
1
  6
CONTINUOUS
 62
     7
 10
1149.353305579087
 20
-359.9999999999992
 30
0.0
 40
1.999999999998892
 50
190.0000000000003
 51
270.0
  0
LINE
  5
286
  8
1
  6
CONTINUOUS
 62
     7
 10
815.3934608747817
 20
-440.4999999999999
 30
0.0
 11
800.2871888216312
 21
-440.1044283448133
 31
0.0
  0
LINE
  5
287
  8
1
  6
CONTINUOUS
 62
     7
 10
815.3934608747817
 20
-440.4999999999999
 30
0.0
 11
835.0792836647479
 21
-440.4999999999998
 31
0.0
  0
ARC
  5
288
  8
1
  6
CONTINUOUS
 62
     7
 10
2349.459507273688
 20
-427.1095072736899
 30
0.0
 40
30.00000000000114
 50
271.0
 51
358.9999999999999
  0
ARC
  5
289
  8
1
  6
CONTINUOUS
 62
     7
 10
849.8452553898957
 20
-377.8911168798691
 30
0.0
 40
13.00000000000168
 50
1.500000000000333
 51
88.5
  0
ARC
  5
28A
  8
1
  6
CONTINUOUS
 62
     7
 10
2349.458883120128
 20
-377.8911168798691
 30
0.0
 40
13.00000000000168
 50
20.20970887183995
 51
69.79029113249726
  0
LINE
  5
28B
  8
1
  6
CONTINUOUS
 62
     7
 10
1042.646694420913
 20
-362.0000000000001
 30
0.0
 11
1039.353305579083
 21
-362.0000000000001
 31
0.0
  0
LINE
  5
28C
  8
1
  6
CONTINUOUS
 62
     7
 10
1042.646694420913
 20
-443.0000000000003
 30
0.0
 11
1039.353305579083
 21
-443.0000000000003
 31
0.0
  0
ARC
  5
28D
  8
1
  6
CONTINUOUS
 62
     7
 10
800.627489149631
 20
-427.1088831201313
 30
0.0
 40
25.00000000000568
 50
181.5000000000001
 51
268.5000000000001
  0
ARC
  5
28E
  8
1
  6
CONTINUOUS
 62
     7
 10
1394.646694420913
 20
-359.9999999999992
 30
0.0
 40
2.000000000002444
 50
269.9999999999984
 51
349.9999999999998
  0
LINE
  5
28F
  8
1
  6
CONTINUOUS
 62
     7
 10
835.2363722697631
 20
-452.5000000000001
 30
0.0
 11
815.236372269763
 21
-452.5000000000002
 31
0.0
  0
ARC
  5
290
  8
1
  6
CONTINUOUS
 62
     7
 10
1171.353305579085
 20
-359.9999999999992
 30
0.0
 40
1.999999999998892
 50
190.0000000000003
 51
270.0
  0
ARC
  5
291
  8
1
  6
CONTINUOUS
 62
     7
 10
777.2363722697668
 20
-410.7071802044799
 30
0.0
 40
1.999999999998892
 50
99.99999999999986
 51
180.0000000000004
  0
LINE
  5
292
  8
1
  6
CONTINUOUS
 62
     7
 10
2375.150000000001
 20
-377.5000000000002
 30
0.0
 11
2375.150000000001
 21
-427.5000000000002
 31
0.0
  0
LINE
  5
293
  8
1
  6
CONTINUOUS
 62
     7
 10
1046.000000000003
 20
-408.4999999999998
 30
0.0
 11
1046.000000000003
 21
-451.1319332953963
 31
0.0
  0
ARC
  5
294
  8
1
  6
CONTINUOUS
 62
     7
 10
1143.482701106467
 20
-449.5000000000005
 30
0.0
 40
3.000000000000114
 50
270.0
 51
350.0000000000875
  0
ARC
  5
295
  8
1
  6
CONTINUOUS
 62
     7
 10
2299.849999999999
 20
-377.4999999999999
 30
0.0
 40
12.49999999999929
 50
90.0
 51
180.0
  0
ARC
  5
296
  8
1
  6
CONTINUOUS
 62
     7
 10
1114.517298893531
 20
-449.5000000000002
 30
0.0
 40
2.999999999996561
 50
189.9999999999998
 51
270.0000000000015
  0
LINE
  5
297
  8
1
  6
CONTINUOUS
 62
     7
 10
2274.549999999997
 20
-427.5
 30
0.0
 11
2274.549999999997
 21
-377.5
 31
0.0
  0
ARC
  5
298
  8
1
  6
CONTINUOUS
 62
     7
 10
1510.517298893528
 20
-449.5000000000002
 30
0.0
 40
3.000000000003666
 50
189.9999999999998
 51
270.0000000000074
  0
LINE
  5
299
  8
1
  6
CONTINUOUS
 62
     7
 10
2327.349999999998
 20
-457.5
 30
0.0
 11
2322.349999999998
 21
-457.5
 31
0.0
  0
LINE
  5
29A
  8
1
  6
CONTINUOUS
 62
     7
 10
800.2217464508639
 20
-362.3964283427479
 30
0.0
 11
815.3607340820729
 21
-362.0000000000002
 31
0.0
  0
LINE
  5
29B
  8
1
  6
CONTINUOUS
 62
     7
 10
1108.646694420915
 20
-362.0000000000001
 30
0.0
 11
1105.353305579085
 21
-362.0000000000001
 31
0.0
  0
LINE
  5
29C
  8
1
  6
CONTINUOUS
 62
     7
 10
2270.245061871619
 20
-427.6330794668082
 30
0.0
 11
2269.85
 21
-404.9999999999996
 31
0.0
  0
LINE
  5
29D
  8
1
  6
CONTINUOUS
 62
     7
 10
865.3399439270166
 20
-427.5146258189033
 30
0.0
 11
865.7363722697643
 21
-412.3756381876941
 31
0.0
  0
ARC
  5
29E
  8
1
  6
CONTINUOUS
 62
     7
 10
1303.353305579083
 20
-444.9999999999954
 30
0.0
 40
1.999999999998892
 50
90.0
 51
169.9999999999998
  0
LINE
  5
29F
  8
1
  6
CONTINUOUS
 62
     7
 10
1130.646694420917
 20
-443.0000000000003
 30
0.0
 11
1127.353305579087
 21
-443.0000000000003
 31
0.0
  0
ARC
  5
2A0
  8
1
  6
CONTINUOUS
 62
     7
 10
1460.646694420916
 20
-359.9999999999992
 30
0.0
 40
2.000000000002444
 50
270.0
 51
349.9999999999998
  0
LINE
  5
2A1
  8
1
  6
CONTINUOUS
 62
     7
 10
2362.349999999999
 20
-377.5000000000002
 30
0.0
 11
2362.349999999999
 21
-427.5000000000002
 31
0.0
  0
LINE
  5
2A2
  8
1
  6
CONTINUOUS
 62
     7
 10
2327.349999999998
 20
-347.5000000000001
 30
0.0
 11
2349.983079466806
 21
-347.8950618716188
 31
0.0
  0
ARC
  5
2A3
  8
1
  6
CONTINUOUS
 62
     7
 10
1039.353305579087
 20
-359.9999999999992
 30
0.0
 40
1.999999999998892
 50
190.0000000000001
 51
269.9999999999999
  0
ARC
  5
2A4
  8
1
  6
CONTINUOUS
 62
     7
 10
1482.646694420914
 20
-444.9999999999954
 30
0.0
 40
1.999999999998892
 50
9.999999999998664
 51
90.0
  0
LINE
  5
2A5
  8
1
  6
CONTINUOUS
 62
     7
 10
815.2363722697671
 20
-352.5
 30
0.0
 11
799.973065441939
 21
-352.8996837554799
 31
0.0
  0
ARC
  5
2A6
  8
1
  6
CONTINUOUS
 62
     7
 10
1438.646694420913
 20
-359.9999999999992
 30
0.0
 40
1.999999999998892
 50
270.0
 51
349.9999999999998
  0
LINE
  5
2A7
  8
1
  6
CONTINUOUS
 62
     7
 10
787.2363722697648
 20
-412.3429113949821
 30
0.0
 11
787.2363722697648
 21
-392.6570886050189
 31
0.0
  0
LINE
  5
2A8
  8
1
  6
CONTINUOUS
 62
     7
 10
2299.849999999999
 20
-352.2
 30
0.0
 11
2349.849999999998
 21
-352.2
 31
0.0
  0
LINE
  5
2A9
  8
1
  6
CONTINUOUS
 62
     7
 10
1020.646694420914
 20
-362.0000000000001
 30
0.0
 11
1017.353305579084
 21
-362.0000000000001
 31
0.0
  0
LINE
  5
2AA
  8
1
  6
CONTINUOUS
 62
     7
 10
799.9730654419373
 20
-452.1003162445203
 30
0.0
 11
815.2363722697652
 21
-452.5000000000003
 31
0.0
  0
ARC
  5
2AB
  8
1
  6
CONTINUOUS
 62
     7
 10
2300.24111687987
 20
-377.8911168798691
 30
0.0
 40
12.99999999999812
 50
110.2097088911967
 51
159.7902911015292
  0
ARC
  5
2AC
  8
1
  6
CONTINUOUS
 62
     7
 10
1136.517298893529
 20
-449.5000000000002
 30
0.0
 40
3.000000000003666
 50
189.9999999999998
 51
270.0000000000015
  0
LINE
  5
2AD
  8
1
  6
CONTINUOUS
 62
     7
 10
2322.349999999999
 20
-457.5
 30
0.0
 11
2299.716920533191
 21
-457.1049381283813
 31
0.0
  0
ARC
  5
2AE
  8
1
  6
CONTINUOUS
 62
     7
 10
800.627489149631
 20
-377.8911168798691
 30
0.0
 40
25.00000000000568
 50
91.50000000000011
 51
178.5
  0
LINE
  5
2AF
  8
1
  6
CONTINUOUS
 62
     7
 10
1108.646694420915
 20
-443.0000000000003
 30
0.0
 11
1105.353305579085
 21
-443.0000000000003
 31
0.0
  0
LINE
  5
2B0
  8
1
  6
CONTINUOUS
 62
     7
 10
850.1855557178976
 20
-364.8955716551867
 30
0.0
 11
835.0792836647458
 21
-364.5000000000002
 31
0.0
  0
LINE
  5
2B1
  8
1
  6
CONTINUOUS
 62
   253
 10
998.6466944209121
 20
-362.0000000000001
 30
0.0
 11
995.3533055790822
 21
-362.0000000000001
 31
0.0
  0
LINE
  5
2B2
  8
1
  6
CONTINUOUS
 62
     7
 10
850.4996790975894
 20
-452.1003162445203
 30
0.0
 11
835.2363722697613
 21
-452.5000000000002
 31
0.0
  0
ARC
  5
2B3
  8
1
  6
CONTINUOUS
 62
     7
 10
800.627489149631
 20
-427.1088831201313
 30
0.0
 40
13.00000000000168
 50
181.5
 51
268.4999999999997
  0
ARC
  5
2B4
  8
1
  6
CONTINUOUS
 62
     7
 10
849.8452553898957
 20
-427.1088831201313
 30
0.0
 40
13.00000000000168
 50
271.5000000000003
 51
358.5
  0
LINE
  5
2B5
  8
1
  6
CONTINUOUS
 62
     7
 10
875.2363722697658
 20
-392.5000000000001
 30
0.0
 11
875.2363722697658
 21
-394.2928197955201
 31
0.0
  0
ARC
  5
2B6
  8
1
  6
CONTINUOUS
 62
     7
 10
1444.517298893533
 20
-449.5000000000002
 30
0.0
 40
2.999999999996561
 50
189.9999999999998
 51
270.0000000000032
  0
ARC
  5
2B7
  8
1
  6
CONTINUOUS
 62
     7
 10
1158.517298893531
 20
-355.5000000000001
 30
0.0
 40
3.000000000000114
 50
89.99999999999841
 51
170.0000000000003
  0
LINE
  5
2B8
  8
1
  6
CONTINUOUS
 62
     7
 10
2349.849999999999
 20
-440.0000000000002
 30
0.0
 11
2299.849999999999
 21
-440.0000000000002
 31
0.0
  0
LINE
  5
2B9
  8
1
  6
CONTINUOUS
 62
     7
 10
2322.349999999999
 20
-347.5000000000001
 30
0.0
 11
2327.349999999999
 21
-347.5000000000001
 31
0.0
  0
ARC
  5
2BA
  8
1
  6
CONTINUOUS
 62
     7
 10
2299.849999999999
 20
-377.4999999999999
 30
0.0
 40
25.30000000000143
 50
89.99999999999994
 51
180.0
  0
LINE
  5
2BB
  8
1
  6
CONTINUOUS
 62
     7
 10
1102.0
 20
-408.4999999999998
 30
0.0
 11
1102.0
 21
-451.1319332953966
 31
0.0
  0
LINE
  5
2BC
  8
1
  6
CONTINUOUS
 62
     7
 10
1089.324893683272
 20
-396.5000000000001
 30
0.0
 11
1102.675106316733
 21
-396.5000000000001
 31
0.0
  0
LINE
  5
2BD
  8
1
  6
CONTINUOUS
 62
     7
 10
2379.85
 20
-400.0000000000006
 30
0.0
 11
2379.85
 21
-405.0000000000001
 31
0.0
  0
LINE
  5
2BE
  8
1
  6
CONTINUOUS
 62
     7
 10
862.8408006145789
 20
-427.4491834481335
 30
0.0
 11
863.2363722697655
 21
-412.342911394982
 31
0.0
  0
ARC
  5
2BF
  8
1
  6
CONTINUOUS
 62
     7
 10
1325.353305579085
 20
-359.9999999999992
 30
0.0
 40
2.000000000002444
 50
190.0000000000002
 51
270.0
  0
ARC
  5
2C0
  8
1
  6
CONTINUOUS
 62
     7
 10
1413.353305579086
 20
-359.9999999999992
 30
0.0
 40
1.999999999998892
 50
190.0000000000002
 51
270.0
  0
ARC
  5
2C1
  8
1
  6
CONTINUOUS
 62
     7
 10
1363.48270110647
 20
-449.5000000000005
 30
0.0
 40
3.000000000000114
 50
270.0
 51
350.0000000000874
  0
ARC
  5
2C2
  8
1
  6
CONTINUOUS
 62
     7
 10
1413.353305579086
 20
-444.9999999999954
 30
0.0
 40
1.999999999998892
 50
89.99999999999841
 51
169.9999999999998
  0
ARC
  5
2C3
  8
1
  6
CONTINUOUS
 62
     7
 10
1466.517298893528
 20
-449.5000000000002
 30
0.0
 40
3.000000000003666
 50
189.9999999999998
 51
270.0000000000021
  0
ARC
  5
2C4
  8
1
  6
CONTINUOUS
 62
     7
 10
1130.646694420917
 20
-359.9999999999992
 30
0.0
 40
1.999999999998892
 50
270.0
 51
349.9999999999997
  0
LINE
  5
2C5
  8
1
  6
CONTINUOUS
 62
     7
 10
777.823196358598
 20
-408.5728540609177
 30
0.0
 11
776.8890759144307
 21
-408.7375646984558
 31
0.0
  0
ARC
  5
2C6
  8
1
  6
CONTINUOUS
 62
     7
 10
1356.517298893532
 20
-355.5000000000001
 30
0.0
 40
2.999999999996561
 50
89.9999999999979
 51
170.0000000000003
  0
ARC
  5
2C7
  8
1
  6
CONTINUOUS
 62
     7
 10
849.8452553898957
 20
-427.1088831201313
 30
0.0
 40
24.99999999999858
 50
271.5
 51
358.5
  0
ARC
  5
2C8
  8
1
  6
CONTINUOUS
 62
     7
 10
1165.482701106466
 20
-355.4999999999997
 30
0.0
 40
3.000000000003666
 50
9.999999999999732
 51
90.0
  0
ARC
  5
2C9
  8
1
  6
CONTINUOUS
 62
     7
 10
1334.51729889353
 20
-355.5000000000001
 30
0.0
 40
3.000000000003666
 50
89.99999999999841
 51
170.0000000000003
  0
LINE
  5
2CA
  8
1
  6
CONTINUOUS
 62
     7
 10
800.287188821629
 20
-364.8955716551867
 30
0.0
 11
815.3934608747808
 21
-364.5000000000002
 31
0.0
  0
LINE
  5
2CB
  8
1
  6
CONTINUOUS
 62
     7
 10
787.6319439249513
 20
-427.4491834481335
 30
0.0
 11
787.2363722697646
 21
-412.3429113949821
 31
0.0
  0
ARC
  5
2CC
  8
1
  6
CONTINUOUS
 62
     7
 10
1488.517298893533
 20
-449.5000000000002
 30
0.0
 40
3.000000000000114
 50
189.9999999999998
 51
270.0000000000043
  0
ARC
  5
2CD
  8
1
  6
CONTINUOUS
 62
     7
 10
1378.51729889353
 20
-449.5000000000002
 30
0.0
 40
3.000000000003666
 50
189.9999999999997
 51
270.0000000000021
  0
ARC
  5
2CE
  8
1
  6
CONTINUOUS
 62
     7
 10
2300.240492726309
 20
-427.1095072736896
 30
0.0
 40
30.00000000000114
 50
181.0
 51
269.0
  0
ARC
  5
2CF
  8
1
  6
CONTINUOUS
 62
     7
 10
1444.517298893533
 20
-355.5000000000001
 30
0.0
 40
2.999999999996561
 50
89.99999999999682
 51
170.0000000000002
  0
LINE
  5
2D0
  8
1
  6
CONTINUOUS
 62
     7
 10
835.112010457459
 20
-362.0000000000001
 30
0.0
 11
815.3607340820708
 21
-362.0000000000001
 31
0.0
  0
ARC
  5
2D1
  8
1
  6
CONTINUOUS
 62
     7
 10
1363.48270110647
 20
-355.4999999999997
 30
0.0
 40
3.000000000000114
 50
9.999999999999709
 51
90.0
  0
ARC
  5
2D2
  8
1
  6
CONTINUOUS
 62
     7
 10
1341.482701106464
 20
-355.4999999999997
 30
0.0
 40
3.000000000003666
 50
9.999999999999709
 51
90.0
  0
ARC
  5
2D3
  8
1
  6
CONTINUOUS
 62
     7
 10
1451.482701106467
 20
-449.5000000000005
 30
0.0
 40
3.000000000003666
 50
270.0
 51
350.0000000000875
  0
ARC
  5
2D4
  8
1
  6
CONTINUOUS
 62
     7
 10
1495.482701106467
 20
-355.4999999999997
 30
0.0
 40
3.000000000000114
 50
9.999999999999801
 51
90.0
  0
LINE
  5
2D5
  8
1
  6
CONTINUOUS
 62
     7
 10
2287.349999999995
 20
-427.5
 30
0.0
 11
2287.349999999995
 21
-377.5
 31
0.0
  0
LINE
  5
2D6
  8
1
  6
CONTINUOUS
 62
     7
 10
974.9999999999973
 20
-443.0000000000003
 30
0.0
 11
974.9999999999973
 21
-362.0000000000003
 31
0.0
  0
LINE
  5
2D7
  8
1
  6
CONTINUOUS
 62
     7
 10
875.2363722697658
 20
-410.7071802044799
 30
0.0
 11
875.2363722697658
 21
-412.4999999999999
 31
0.0
  0
ARC
  5
2D8
  8
1
  6
CONTINUOUS
 62
     7
 10
1152.646694420912
 20
-444.9999999999954
 30
0.0
 40
2.000000000002444
 50
10.00000000000017
 51
90.0
  0
ARC
  5
2D9
  8
1
  6
CONTINUOUS
 62
     7
 10
1121.482701106469
 20
-449.5000000000005
 30
0.0
 40
3.000000000000114
 50
270.0
 51
350.0000000000875
  0
LINE
  5
2DA
  8
1
  6
CONTINUOUS
 62
     7
 10
865.7363722697667
 20
-412.3756381876942
 30
0.0
 11
865.7363722697667
 21
-392.6243618123063
 31
0.0
  0
ARC
  5
2DB
  8
1
  6
CONTINUOUS
 62
     7
 10
800.627489149631
 20
-427.1088831201313
 30
0.0
 40
15.50000000000651
 50
181.5000000000001
 51
268.4999999999997
  0
ARC
  5
2DC
  8
1
  6
CONTINUOUS
 62
     7
 10
1372.646694420915
 20
-444.9999999999954
 30
0.0
 40
2.000000000002444
 50
9.99999999999983
 51
90.0
  0
ARC
  5
2DD
  8
1
  6
CONTINUOUS
 62
     7
 10
1328.646694420914
 20
-359.9999999999992
 30
0.0
 40
1.999999999998892
 50
270.0
 51
349.9999999999998
  0
ARC
  5
2DE
  8
1
  6
CONTINUOUS
 62
     7
 10
1341.482701106464
 20
-449.5000000000005
 30
0.0
 40
3.000000000003666
 50
270.0
 51
350.0000000000874
  0
ARC
  5
2DF
  8
1
  6
CONTINUOUS
 62
     7
 10
1319.482701106469
 20
-449.5000000000005
 30
0.0
 40
2.999999999996561
 50
270.0
 51
350.0000000000874
  0
ARC
  5
2E0
  8
1
  6
CONTINUOUS
 62
     7
 10
1422.517298893531
 20
-449.5000000000002
 30
0.0
 40
3.000000000000114
 50
189.9999999999998
 51
270.0000000000032
  0
ARC
  5
2E1
  8
1
  6
CONTINUOUS
 62
     7
 10
1429.482701106469
 20
-449.5000000000005
 30
0.0
 40
2.999999999996561
 50
270.0
 51
350.0000000000875
  0
LINE
  5
2E2
  8
1
  6
CONTINUOUS
 62
     7
 10
784.7363722697671
 20
-392.6243618123062
 30
0.0
 11
785.1328006125149
 21
-377.4853741810969
 31
0.0
  0
ARC
  5
2E3
  8
1
  6
CONTINUOUS
 62
     7
 10
1429.482701106469
 20
-355.4999999999997
 30
0.0
 40
2.999999999996561
 50
9.999999999999801
 51
90.0
  0
ARC
  5
2E4
  8
1
  6
CONTINUOUS
 62
     7
 10
1328.646694420914
 20
-444.9999999999954
 30
0.0
 40
1.999999999998892
 50
10.00000000000023
 51
90.0
  0
ARC
  5
2E5
  8
1
  6
CONTINUOUS
 62
     7
 10
1391.353305579084
 20
-444.9999999999954
 30
0.0
 40
1.999999999998892
 50
89.99999999999841
 51
169.9999999999998
  0
LINE
  5
2E6
  8
1
  6
CONTINUOUS
 62
     7
 10
775.2363722697679
 20
-392.5000000000003
 30
0.0
 11
775.2363722697679
 21
-394.2928197955202
 31
0.0
  0
ARC
  5
2E7
  8
1
  6
CONTINUOUS
 62
     7
 10
1171.353305579085
 20
-444.9999999999954
 30
0.0
 40
1.999999999998892
 50
89.99999999999851
 51
169.9999999999997
  0
ARC
  5
2E8
  8
1
  6
CONTINUOUS
 62
     7
 10
1391.353305579084
 20
-359.9999999999992
 30
0.0
 40
1.999999999998892
 50
190.0000000000002
 51
270.0
  0
LINE
  5
2E9
  8
1
  6
CONTINUOUS
 62
     7
 10
835.0792836647485
 20
-364.5000000000003
 30
0.0
 11
815.3934608747853
 21
-364.5000000000003
 31
0.0
  0
ARC
  5
2EA
  8
1
  6
CONTINUOUS
 62
     7
 10
1130.646694420917
 20
-444.9999999999954
 30
0.0
 40
1.999999999998892
 50
10.00000000000017
 51
90.0
  0
ARC
  5
2EB
  8
1
  6
CONTINUOUS
 62
     7
 10
1407.482701106466
 20
-355.4999999999997
 30
0.0
 40
3.000000000003666
 50
10.0
 51
90.0
  0
ARC
  5
2EC
  8
1
  6
CONTINUOUS
 62
     7
 10
1136.517298893529
 20
-355.5000000000001
 30
0.0
 40
3.000000000003666
 50
89.99999999999841
 51
170.0000000000003
  0
ARC
  5
2ED
  8
1
  6
CONTINUOUS
 62
     7
 10
873.2363722697669
 20
-410.7071802044799
 30
0.0
 40
1.999999999998892
 50
359.9999999999997
 51
80.00000000000017
  0
LINE
  5
2EE
  8
1
  6
CONTINUOUS
 62
     7
 10
2374.277184608416
 20
-369.8313502267239
 30
0.0
 11
2374.283495311636
 21
-369.8483873135794
 31
0.0
  0
LINE
  5
2EF
  8
1
  6
CONTINUOUS
 62
     7
 10
850.2509980886699
 20
-362.3964283427479
 30
0.0
 11
835.1120104574608
 21
-362.0000000000002
 31
0.0
  0
ARC
  5
2F0
  8
1
  6
CONTINUOUS
 62
     7
 10
1466.517298893528
 20
-355.5000000000001
 30
0.0
 40
3.000000000003666
 50
89.99999999999682
 51
170.0000000000002
  0
ARC
  5
2F1
  8
1
  6
CONTINUOUS
 62
     7
 10
1319.482701106469
 20
-355.4999999999997
 30
0.0
 40
2.999999999996561
 50
9.999999999999886
 51
90.0
  0
LINE
  5
2F2
  8
1
  6
CONTINUOUS
 62
     7
 10
775.2363722697679
 20
-412.5000000000003
 30
0.0
 11
775.6360560252479
 21
-427.7633068278282
 31
0.0
  0
ARC
  5
2F3
  8
1
  6
CONTINUOUS
 62
     7
 10
1510.517298893528
 20
-355.5000000000001
 30
0.0
 40
3.000000000003666
 50
89.99999999999258
 51
170.0000000000002
  0
ARC
  5
2F4
  8
1
  6
CONTINUOUS
 62
     7
 10
1435.353305579084
 20
-444.9999999999954
 30
0.0
 40
2.000000000002444
 50
90.0
 51
169.9999999999998
  0
ARC
  5
2F5
  8
1
  6
CONTINUOUS
 62
     7
 10
1435.353305579084
 20
-359.9999999999992
 30
0.0
 40
2.000000000002444
 50
190.0000000000002
 51
270.0
  0
ARC
  5
2F6
  8
1
  6
CONTINUOUS
 62
     7
 10
1152.646694420912
 20
-359.9999999999992
 30
0.0
 40
2.000000000002444
 50
269.9999999999984
 51
349.9999999999997
  0
ARC
  5
2F7
  8
1
  6
CONTINUOUS
 62
     7
 10
1438.646694420913
 20
-444.9999999999954
 30
0.0
 40
1.999999999998892
 50
9.999999999999945
 51
90.0
  0
LINE
  5
2F8
  8
1
  6
CONTINUOUS
 62
     7
 10
863.2363722697653
 20
-392.6570886050189
 30
0.0
 11
862.8408006145787
 21
-377.5508165518664
 31
0.0
  0
ARC
  5
2F9
  8
1
  6
CONTINUOUS
 62
     7
 10
1488.517298893533
 20
-355.5000000000001
 30
0.0
 40
3.000000000000114
 50
89.99999999999473
 51
170.0000000000002
  0
ARC
  5
2FA
  8
1
  6
CONTINUOUS
 62
     7
 10
1262.646694420915
 20
-359.9999999999992
 30
0.0
 40
2.000000000002444
 50
269.9999999999968
 51
349.9999999999998
  0
ARC
  5
2FB
  8
1
  6
CONTINUOUS
 62
     7
 10
1259.353305579082
 20
-445.000000000001
 30
0.0
 40
2.000000000002444
 50
90.0
 51
169.9999999999998
  0
LINE
  5
2FC
  8
1
  6
CONTINUOUS
 62
     7
 10
874.8366885142871
 20
-377.236693172172
 30
0.0
 11
875.2363722697671
 21
-392.5
 31
0.0
  0
ARC
  5
2FD
  8
1
  6
CONTINUOUS
 62
     7
 10
849.8452553898957
 20
-377.8911168798691
 30
0.0
 40
15.4999999999994
 50
1.500000000000289
 51
88.5
  0
LINE
  5
2FE
  8
1
  6
CONTINUOUS
 62
     7
 10
875.2363722697658
 20
-412.5000000000001
 30
0.0
 11
874.8366885142858
 21
-427.7633068278281
 31
0.0
  0
ARC
  5
2FF
  8
1
  6
CONTINUOUS
 62
     7
 10
1275.482701106469
 20
-449.5000000000005
 30
0.0
 40
2.999999999996561
 50
270.0
 51
350.0000000000874
  0
ARC
  5
300
  8
1
  6
CONTINUOUS
 62
     7
 10
1209.482701106466
 20
-449.5000000000005
 30
0.0
 40
3.000000000003666
 50
270.0
 51
350.0000000000875
  0
ARC
  5
301
  8
1
  6
CONTINUOUS
 62
     7
 10
1350.646694420916
 20
-359.9999999999992
 30
0.0
 40
1.999999999998892
 50
269.9999999999992
 51
349.9999999999998
  0
ARC
  5
302
  8
1
  6
CONTINUOUS
 62
     7
 10
1246.517298893532
 20
-449.5000000000002
 30
0.0
 40
3.000000000000114
 50
189.9999999999998
 51
270.0
  0
ARC
  5
303
  8
1
  6
CONTINUOUS
 62
     7
 10
1259.353305579082
 20
-359.9999999999992
 30
0.0
 40
2.000000000002444
 50
190.0000000000002
 51
270.0
  0
ARC
  5
304
  8
1
  6
CONTINUOUS
 62
     7
 10
1334.51729889353
 20
-449.5000000000002
 30
0.0
 40
3.000000000003666
 50
189.9999999999997
 51
270.0000000000015
  0
LINE
  5
305
  8
1
  6
CONTINUOUS
 62
     7
 10
872.6495481809322
 20
-408.5728540609177
 30
0.0
 11
873.5836686250994
 21
-408.7375646984558
 31
0.0
  0
LINE
  5
306
  8
1
  6
CONTINUOUS
 62
     7
 10
775.6360560252466
 20
-377.2366931721722
 30
0.0
 11
775.2363722697667
 21
-392.5000000000002
 31
0.0
  0
ARC
  5
307
  8
1
  6
CONTINUOUS
 62
     7
 10
1347.353305579083
 20
-359.9999999999992
 30
0.0
 40
1.999999999998892
 50
190.0000000000002
 51
270.0
  0
ARC
  5
308
  8
1
  6
CONTINUOUS
 62
     7
 10
1451.482701106467
 20
-355.4999999999997
 30
0.0
 40
3.000000000003666
 50
9.999999999999801
 51
90.0
  0
ARC
  5
309
  8
1
  6
CONTINUOUS
 62
     7
 10
1482.646694420914
 20
-359.9999999999992
 30
0.0
 40
1.999999999998892
 50
270.0
 51
349.9999999999998
  0
ARC
  5
30A
  8
1
  6
CONTINUOUS
 62
     7
 10
849.8452553898957
 20
-377.8911168798691
 30
0.0
 40
24.99999999999858
 50
1.500000000000057
 51
88.49999999999994
  0
ARC
  5
30B
  8
1
  6
CONTINUOUS
 62
     7
 10
1143.482701106467
 20
-355.4999999999997
 30
0.0
 40
3.000000000000114
 50
9.999999999999732
 51
90.0
  0
ARC
  5
30C
  8
1
  6
CONTINUOUS
 62
     7
 10
1523.353305579085
 20
-359.9999999999992
 30
0.0
 40
2.000000000002444
 50
190.0000000000002
 51
270.0
  0
ARC
  5
30D
  8
1
  6
CONTINUOUS
 62
     7
 10
1253.482701106467
 20
-449.5000000000005
 30
0.0
 40
3.000000000003666
 50
270.0
 51
350.0000000000874
  0
ARC
  5
30E
  8
1
  6
CONTINUOUS
 62
     7
 10
1312.517298893531
 20
-449.5000000000002
 30
0.0
 40
3.000000000000114
 50
189.9999999999997
 51
270.0000000000015
  0
ARC
  5
30F
  8
1
  6
CONTINUOUS
 62
     7
 10
1356.517298893532
 20
-449.5000000000002
 30
0.0
 40
2.999999999996561
 50
189.9999999999997
 51
270.0000000000015
  0
ARC
  5
310
  8
1
  6
CONTINUOUS
 62
     7
 10
1385.482701106468
 20
-449.5000000000005
 30
0.0
 40
3.000000000000114
 50
270.0
 51
350.0000000000875
  0
LINE
  5
311
  8
1
  6
CONTINUOUS
 62
     7
 10
787.2363722697648
 20
-392.6570886050189
 30
0.0
 11
787.6319439249515
 21
-377.5508165518665
 31
0.0
  0
ARC
  5
312
  8
1
  6
CONTINUOUS
 62
     7
 10
1297.482701106467
 20
-355.4999999999997
 30
0.0
 40
3.000000000000114
 50
9.999999999999886
 51
90.0
  0
LINE
  5
313
  8
1
  6
CONTINUOUS
 62
     7
 10
775.2363722697679
 20
-410.7071802044799
 30
0.0
 11
775.2363722697679
 21
-412.5000000000001
 31
0.0
  0
ARC
  5
314
  8
1
  6
CONTINUOUS
 62
     7
 10
1407.482701106466
 20
-449.5000000000005
 30
0.0
 40
3.000000000003666
 50
270.0
 51
350.0000000000875
  0
ARC
  5
315
  8
1
  6
CONTINUOUS
 62
     7
 10
800.627489149631
 20
-377.8911168798691
 30
0.0
 40
15.50000000000651
 50
91.5
 51
178.4999999999998
  0
ARC
  5
316
  8
1
  6
CONTINUOUS
 62
     7
 10
1473.482701106469
 20
-449.5000000000005
 30
0.0
 40
2.999999999996561
 50
270.0
 51
350.0000000000875
  0
ARC
  5
317
  8
1
  6
CONTINUOUS
 62
     7
 10
1394.646694420913
 20
-444.9999999999954
 30
0.0
 40
2.000000000002444
 50
10.00000000000023
 51
90.0
  0
ARC
  5
318
  8
1
  6
CONTINUOUS
 62
     7
 10
1290.517298893533
 20
-355.5000000000001
 30
0.0
 40
3.000000000000114
 50
89.99999999999898
 51
170.0000000000003
  0
LINE
  5
319
  8
1
  6
CONTINUOUS
 62
     7
 10
1387.999999999998
 20
-396.5000000000001
 30
0.0
 11
1387.999999999998
 21
-353.8680667046033
 31
0.0
  0
LINE
  5
31A
  8
1
  6
CONTINUOUS
 62
     7
 10
1696.675106316725
 20
-396.5000000000001
 30
0.0
 11
1696.675106316725
 21
-408.4999999999999
 31
0.0
  0
ARC
  5
31B
  8
1
  6
CONTINUOUS
 62
     7
 10
1598.517298893529
 20
-355.5000000000001
 30
0.0
 40
3.000000000000114
 50
89.99999999999973
 51
170.0000000000002
  0
ARC
  5
31C
  8
1
  6
CONTINUOUS
 62
     7
 10
1633.353305579081
 20
-444.9999999999954
 30
0.0
 40
2.000000000002444
 50
90.0
 51
169.9999999999997
  0
ARC
  5
31D
  8
1
  6
CONTINUOUS
 62
     7
 10
1627.482701106465
 20
-355.4999999999997
 30
0.0
 40
3.000000000000114
 50
9.999999999999755
 51
90.0
  0
ARC
  5
31E
  8
1
  6
CONTINUOUS
 62
     7
 10
1614.646694420912
 20
-444.9999999999954
 30
0.0
 40
1.999999999998892
 50
10.0000000000003
 51
90.0
  0
LINE
  5
31F
  8
1
  6
CONTINUOUS
 62
     7
 10
1750.0
 20
-408.4999999999998
 30
0.0
 11
1750.0
 21
-451.1319332953963
 31
0.0
  0
ARC
  5
320
  8
1
  6
CONTINUOUS
 62
     7
 10
1642.517298893526
 20
-449.5000000000002
 30
0.0
 40
3.000000000003666
 50
189.9999999999998
 51
270.0000000000015
  0
ARC
  5
321
  8
1
  6
CONTINUOUS
 62
     7
 10
1627.482701106465
 20
-449.5000000000005
 30
0.0
 40
3.000000000000114
 50
270.0
 51
350.0000000000869
  0
ARC
  5
322
  8
1
  6
CONTINUOUS
 62
     7
 10
1545.353305579084
 20
-445.000000000001
 30
0.0
 40
1.999999999998892
 50
90.0
 51
169.9999999999998
  0
LINE
  5
323
  8
1
  6
CONTINUOUS
 62
     7
 10
1671.482701106466
 20
-452.4999999999999
 30
0.0
 11
1664.517298893529
 21
-452.4999999999999
 31
0.0
  0
ARC
  5
324
  8
1
  6
CONTINUOUS
 62
     7
 10
1649.482701106467
 20
-355.4999999999997
 30
0.0
 40
2.999999999996561
 50
9.999999999999732
 51
90.0
  0
LINE
  5
325
  8
1
  6
CONTINUOUS
 62
     7
 10
1565.675106316728
 20
-361.0879555302635
 30
0.0
 11
1565.675106316728
 21
-443.9120444697364
 31
0.0
  0
LINE
  5
326
  8
1
  6
CONTINUOUS
 62
     7
 10
1543.675106316726
 20
-361.0879555302635
 30
0.0
 11
1543.675106316726
 21
-443.9120444697364
 31
0.0
  0
LINE
  5
327
  8
1
  6
CONTINUOUS
 62
     7
 10
1594.324893683268
 20
-361.0879555302635
 30
0.0
 11
1594.324893683268
 21
-443.9120444697369
 31
0.0
  0
ARC
  5
328
  8
1
  6
CONTINUOUS
 62
     7
 10
1598.517298893529
 20
-449.5000000000002
 30
0.0
 40
3.000000000000114
 50
189.9999999999998
 51
270.0000000000002
  0
LINE
  5
329
  8
1
  6
CONTINUOUS
 62
     7
 10
1564.4371243655
 20
-354.9790554669993
 30
0.0
 11
1565.383690073056
 21
-360.3472963553341
 31
0.0
  0
LINE
  5
32A
  8
1
  6
CONTINUOUS
 62
     7
 10
1749.324893683269
 20
-408.5000000000003
 30
0.0
 11
1762.67510631673
 21
-408.5000000000003
 31
0.0
  0
LINE
  5
32B
  8
1
  6
CONTINUOUS
 62
     7
 10
1784.437124365499
 20
-354.9790554669993
 30
0.0
 11
1785.383690073055
 21
-360.3472963553341
 31
0.0
  0
LINE
  5
32C
  8
1
  6
CONTINUOUS
 62
     7
 10
1573.56287563449
 20
-450.0209445330008
 30
0.0
 11
1572.616309926934
 21
-444.6527036446661
 31
0.0
  0
LINE
  5
32D
  8
1
  6
CONTINUOUS
 62
     7
 10
1693.482701106464
 20
-352.5
 30
0.0
 11
1686.517298893528
 21
-352.5
 31
0.0
  0
LINE
  5
32E
  8
1
  6
CONTINUOUS
 62
     7
 10
1631.675106316727
 20
-361.0879555302635
 30
0.0
 11
1631.675106316727
 21
-443.9120444697364
 31
0.0
  0
LINE
  5
32F
  8
1
  6
CONTINUOUS
 62
     7
 10
1551.324893683268
 20
-396.5000000000001
 30
0.0
 11
1551.324893683268
 21
-408.4999999999999
 31
0.0
  0
LINE
  5
330
  8
1
  6
CONTINUOUS
 62
     7
 10
1586.675106316729
 20
-396.5000000000001
 30
0.0
 11
1586.675106316729
 21
-408.4999999999999
 31
0.0
  0
ARC
  5
331
  8
1
  6
CONTINUOUS
 62
     7
 10
1567.353305579079
 20
-445.000000000001
 30
0.0
 40
2.000000000002444
 50
90.0
 51
169.9999999999998
  0
ARC
  5
332
  8
1
  6
CONTINUOUS
 62
     7
 10
1611.353305579079
 20
-444.9999999999954
 30
0.0
 40
1.999999999998892
 50
90.0
 51
169.9999999999997
  0
ARC
  5
333
  8
1
  6
CONTINUOUS
 62
     7
 10
1592.64669442091
 20
-359.9999999999992
 30
0.0
 40
2.000000000002444
 50
269.9999999999972
 51
349.9999999999997
  0
LINE
  5
334
  8
1
  6
CONTINUOUS
 62
     7
 10
1639.999999999997
 20
-396.5000000000001
 30
0.0
 11
1639.999999999997
 21
-353.8680667046037
 31
0.0
  0
LINE
  5
335
  8
1
  6
CONTINUOUS
 62
     7
 10
1563.999999999996
 20
-396.5000000000001
 30
0.0
 11
1563.999999999996
 21
-353.8680667046033
 31
0.0
  0
LINE
  5
336
  8
1
  6
CONTINUOUS
 62
     7
 10
1683.999999999997
 20
-396.5000000000001
 30
0.0
 11
1683.999999999997
 21
-353.8680667046037
 31
0.0
  0
LINE
  5
337
  8
1
  6
CONTINUOUS
 62
     7
 10
1605.482701106467
 20
-352.5
 30
0.0
 11
1598.517298893531
 21
-352.5
 31
0.0
  0
LINE
  5
338
  8
1
  6
CONTINUOUS
 62
     7
 10
1695.999999999994
 20
-396.5000000000001
 30
0.0
 11
1695.999999999994
 21
-353.8680667046033
 31
0.0
  0
LINE
  5
339
  8
1
  6
CONTINUOUS
 62
     7
 10
1696.437124365498
 20
-450.0209445330008
 30
0.0
 11
1697.383690073054
 21
-444.6527036446661
 31
0.0
  0
LINE
  5
33A
  8
1
  6
CONTINUOUS
 62
     7
 10
1550.324893683267
 20
-361.0879555302635
 30
0.0
 11
1550.324893683267
 21
-443.9120444697369
 31
0.0
  0
LINE
  5
33B
  8
1
  6
CONTINUOUS
 62
     7
 10
1630.437124365503
 20
-354.9790554669993
 30
0.0
 11
1631.383690073059
 21
-360.3472963553341
 31
0.0
  0
LINE
  5
33C
  8
1
  6
CONTINUOUS
 62
     7
 10
1564.675106316727
 20
-396.5000000000001
 30
0.0
 11
1564.675106316727
 21
-408.4999999999999
 31
0.0
  0
ARC
  5
33D
  8
1
  6
CONTINUOUS
 62
     7
 10
1605.482701106467
 20
-449.5000000000005
 30
0.0
 40
2.999999999996561
 50
270.0
 51
350.0000000000867
  0
LINE
  5
33E
  8
1
  6
CONTINUOUS
 62
     7
 10
1726.324893683266
 20
-361.0879555302635
 30
0.0
 11
1726.324893683266
 21
-443.9120444697369
 31
0.0
  0
LINE
  5
33F
  8
1
  6
CONTINUOUS
 62
     7
 10
1616.324893683266
 20
-361.0879555302635
 30
0.0
 11
1616.324893683266
 21
-443.9120444697369
 31
0.0
  0
ARC
  5
340
  8
1
  6
CONTINUOUS
 62
     7
 10
1633.353305579081
 20
-359.9999999999992
 30
0.0
 40
2.000000000002444
 50
190.0
 51
270.0
  0
LINE
  5
341
  8
1
  6
CONTINUOUS
 62
     7
 10
1570.646694420911
 20
-443.0000000000003
 30
0.0
 11
1567.353305579081
 21
-443.0000000000003
 31
0.0
  0
ARC
  5
342
  8
1
  6
CONTINUOUS
 62
     7
 10
1671.482701106466
 20
-355.4999999999997
 30
0.0
 40
3.000000000000114
 50
9.999999999999732
 51
90.0
  0
LINE
  5
343
  8
1
  6
CONTINUOUS
 62
     7
 10
1551.562875634495
 20
-450.0209445330008
 30
0.0
 11
1550.616309926939
 21
-444.6527036446661
 31
0.0
  0
LINE
  5
344
  8
1
  6
CONTINUOUS
 62
     7
 10
1586.437124365502
 20
-354.9790554669993
 30
0.0
 11
1587.383690073058
 21
-360.3472963553341
 31
0.0
  0
ARC
  5
345
  8
1
  6
CONTINUOUS
 62
     7
 10
1576.517298893531
 20
-449.5000000000002
 30
0.0
 40
2.999999999996561
 50
189.9999999999997
 51
270.0
  0
LINE
  5
346
  8
1
  6
CONTINUOUS
 62
     7
 10
1661.324893683264
 20
-396.5000000000001
 30
0.0
 11
1674.675106316725
 21
-396.5000000000001
 31
0.0
  0
LINE
  5
347
  8
1
  6
CONTINUOUS
 62
     7
 10
1759.482701106463
 20
-452.4999999999999
 30
0.0
 11
1752.517298893527
 21
-452.4999999999999
 31
0.0
  0
LINE
  5
348
  8
1
  6
CONTINUOUS
 62
     7
 10
1617.324893683264
 20
-396.5000000000001
 30
0.0
 11
1617.324893683264
 21
-408.4999999999999
 31
0.0
  0
ARC
  5
349
  8
1
  6
CONTINUOUS
 62
     7
 10
1614.646694420912
 20
-359.9999999999992
 30
0.0
 40
1.999999999998892
 50
269.9999999999968
 51
349.9999999999997
  0
LINE
  5
34A
  8
1
  6
CONTINUOUS
 62
     7
 10
1674.67510631673
 20
-396.5000000000001
 30
0.0
 11
1674.67510631673
 21
-408.4999999999999
 31
0.0
  0
LINE
  5
34B
  8
1
  6
CONTINUOUS
 62
     7
 10
1583.482701106465
 20
-452.4999999999999
 30
0.0
 11
1576.517298893529
 21
-452.4999999999999
 31
0.0
  0
LINE
  5
34C
  8
1
  6
CONTINUOUS
 62
     7
 10
1705.999999999999
 20
-408.4999999999998
 30
0.0
 11
1705.999999999999
 21
-451.1319332953963
 31
0.0
  0
ARC
  5
34D
  8
1
  6
CONTINUOUS
 62
     7
 10
1554.517298893529
 20
-449.5000000000002
 30
0.0
 40
3.000000000000114
 50
189.9999999999997
 51
270.0
  0
LINE
  5
34E
  8
1
  6
CONTINUOUS
 62
     7
 10
1718.675106316727
 20
-396.5000000000001
 30
0.0
 11
1718.675106316727
 21
-408.4999999999999
 31
0.0
  0
LINE
  5
34F
  8
1
  6
CONTINUOUS
 62
     7
 10
1586.437124365502
 20
-450.0209445330008
 30
0.0
 11
1587.383690073058
 21
-444.6527036446661
 31
0.0
  0
LINE
  5
350
  8
1
  6
CONTINUOUS
 62
     7
 10
1609.675106316728
 20
-361.0879555302635
 30
0.0
 11
1609.675106316728
 21
-443.9120444697364
 31
0.0
  0
ARC
  5
351
  8
1
  6
CONTINUOUS
 62
     7
 10
1583.482701106465
 20
-449.5000000000005
 30
0.0
 40
3.000000000000114
 50
270.0
 51
350.0000000000874
  0
LINE
  5
352
  8
1
  6
CONTINUOUS
 62
     7
 10
1595.324893683269
 20
-396.5000000000001
 30
0.0
 11
1595.324893683269
 21
-408.4999999999999
 31
0.0
  0
LINE
  5
353
  8
1
  6
CONTINUOUS
 62
     7
 10
1761.999999999996
 20
-408.4999999999998
 30
0.0
 11
1761.999999999996
 21
-451.1319332953966
 31
0.0
  0
LINE
  5
354
  8
1
  6
CONTINUOUS
 62
     7
 10
1696.437124365498
 20
-354.9790554669993
 30
0.0
 11
1697.383690073054
 21
-360.3472963553341
 31
0.0
  0
LINE
  5
355
  8
1
  6
CONTINUOUS
 62
     7
 10
1605.482701106467
 20
-452.4999999999999
 30
0.0
 11
1598.517298893531
 21
-452.4999999999999
 31
0.0
  0
ARC
  5
356
  8
1
  6
CONTINUOUS
 62
     7
 10
1655.35330557908
 20
-359.9999999999992
 30
0.0
 40
2.000000000002444
 50
190.0000000000003
 51
269.9999999999998
  0
LINE
  5
357
  8
1
  6
CONTINUOUS
 62
     7
 10
1727.324893683267
 20
-396.5000000000001
 30
0.0
 11
1740.675106316728
 21
-396.5000000000001
 31
0.0
  0
ARC
  5
358
  8
1
  6
CONTINUOUS
 62
     7
 10
1576.517298893531
 20
-355.5000000000001
 30
0.0
 40
2.999999999996561
 50
90.0
 51
170.0000000000003
  0
LINE
  5
359
  8
1
  6
CONTINUOUS
 62
     7
 10
1596.0
 20
-396.5000000000001
 30
0.0
 11
1596.0
 21
-353.8680667046037
 31
0.0
  0
LINE
  5
35A
  8
1
  6
CONTINUOUS
 62
     7
 10
1573.999999999994
 20
-408.4999999999998
 30
0.0
 11
1573.999999999994
 21
-451.1319332953963
 31
0.0
  0
LINE
  5
35B
  8
1
  6
CONTINUOUS
 62
     7
 10
1705.324893683265
 20
-396.5000000000001
 30
0.0
 11
1718.675106316726
 21
-396.5000000000001
 31
0.0
  0
LINE
  5
35C
  8
1
  6
CONTINUOUS
 62
     7
 10
1548.646694420909
 20
-362.0000000000001
 30
0.0
 11
1546.999999999994
 21
-362.0000000000001
 31
0.0
  0
LINE
  5
35D
  8
1
  6
CONTINUOUS
 62
     7
 10
1749.324893683269
 20
-396.5000000000001
 30
0.0
 11
1762.67510631673
 21
-396.5000000000001
 31
0.0
  0
LINE
  5
35E
  8
1
  6
CONTINUOUS
 62
     7
 10
1683.324893683266
 20
-408.5000000000003
 30
0.0
 11
1696.675106316727
 21
-408.5000000000003
 31
0.0
  0
ARC
  5
35F
  8
1
  6
CONTINUOUS
 62
     7
 10
1548.646694420909
 20
-445.000000000001
 30
0.0
 40
1.999999999998892
 50
10.00000000000023
 51
90.0
  0
LINE
  5
360
  8
1
  6
CONTINUOUS
 62
     7
 10
1661.999999999995
 20
-396.5000000000001
 30
0.0
 11
1661.999999999995
 21
-353.8680667046037
 31
0.0
  0
LINE
  5
361
  8
1
  6
CONTINUOUS
 62
     7
 10
1673.999999999999
 20
-396.5000000000001
 30
0.0
 11
1673.999999999999
 21
-353.8680667046033
 31
0.0
  0
LINE
  5
362
  8
1
  6
CONTINUOUS
 62
     7
 10
1727.324893683267
 20
-408.5000000000003
 30
0.0
 11
1740.675106316728
 21
-408.5000000000003
 31
0.0
  0
LINE
  5
363
  8
1
  6
CONTINUOUS
 62
     7
 10
1718.0
 20
-408.4999999999998
 30
0.0
 11
1718.0
 21
-451.1319332953966
 31
0.0
  0
LINE
  5
364
  8
1
  6
CONTINUOUS
 62
     7
 10
1718.0
 20
-396.5000000000001
 30
0.0
 11
1718.0
 21
-353.8680667046033
 31
0.0
  0
ARC
  5
365
  8
1
  6
CONTINUOUS
 62
     7
 10
1605.482701106467
 20
-355.4999999999997
 30
0.0
 40
2.999999999996561
 50
9.999999999999755
 51
90.0
  0
ARC
  5
366
  8
1
  6
CONTINUOUS
 62
     7
 10
1548.646694420909
 20
-359.9999999999992
 30
0.0
 40
1.999999999998892
 50
270.0
 51
349.9999999999998
  0
ARC
  5
367
  8
1
  6
CONTINUOUS
 62
     7
 10
1642.517298893526
 20
-355.5000000000001
 30
0.0
 40
3.000000000003666
 50
89.99999999999841
 51
170.0000000000002
  0
ARC
  5
368
  8
1
  6
CONTINUOUS
 62
     7
 10
1554.517298893529
 20
-355.5000000000001
 30
0.0
 40
3.000000000000114
 50
90.0
 51
170.0000000000003
  0
ARC
  5
369
  8
1
  6
CONTINUOUS
 62
     7
 10
1561.482701106463
 20
-355.4999999999997
 30
0.0
 40
3.000000000003666
 50
9.999999999999886
 51
90.0
  0
LINE
  5
36A
  8
1
  6
CONTINUOUS
 62
     7
 10
1750.0
 20
-396.5000000000001
 30
0.0
 11
1750.0
 21
-353.8680667046037
 31
0.0
  0
LINE
  5
36B
  8
1
  6
CONTINUOUS
 62
     7
 10
1771.999999999995
 20
-408.4999999999998
 30
0.0
 11
1771.999999999995
 21
-451.1319332953963
 31
0.0
  0
LINE
  5
36C
  8
1
  6
CONTINUOUS
 62
     7
 10
1683.999999999997
 20
-408.4999999999998
 30
0.0
 11
1683.999999999997
 21
-451.1319332953963
 31
0.0
  0
LINE
  5
36D
  8
1
  6
CONTINUOUS
 62
     7
 10
1639.324893683269
 20
-408.5000000000003
 30
0.0
 11
1652.67510631673
 21
-408.5000000000003
 31
0.0
  0
LINE
  5
36E
  8
1
  6
CONTINUOUS
 62
     7
 10
1705.999999999999
 20
-396.5000000000001
 30
0.0
 11
1705.999999999999
 21
-353.8680667046037
 31
0.0
  0
ARC
  5
36F
  8
1
  6
CONTINUOUS
 62
     7
 10
1561.482701106463
 20
-449.5000000000005
 30
0.0
 40
3.000000000003666
 50
270.0
 51
350.000000000087
  0
LINE
  5
370
  8
1
  6
CONTINUOUS
 62
     7
 10
1727.999999999997
 20
-396.5000000000001
 30
0.0
 11
1727.999999999997
 21
-353.8680667046037
 31
0.0
  0
ARC
  5
371
  8
1
  6
CONTINUOUS
 62
     7
 10
1570.646694420911
 20
-359.9999999999992
 30
0.0
 40
2.000000000002444
 50
270.0
 51
349.9999999999993
  0
LINE
  5
372
  8
1
  6
CONTINUOUS
 62
     7
 10
1573.324893683267
 20
-396.5000000000001
 30
0.0
 11
1586.675106316728
 21
-396.5000000000001
 31
0.0
  0
LINE
  5
373
  8
1
  6
CONTINUOUS
 62
     7
 10
1551.999999999999
 20
-408.4999999999998
 30
0.0
 11
1551.999999999999
 21
-451.1319332953963
 31
0.0
  0
LINE
  5
374
  8
1
  6
CONTINUOUS
 62
     7
 10
1695.999999999994
 20
-408.4999999999998
 30
0.0
 11
1695.999999999994
 21
-451.1319332953966
 31
0.0
  0
LINE
  5
375
  8
1
  6
CONTINUOUS
 62
     7
 10
1551.324893683268
 20
-408.5000000000003
 30
0.0
 11
1564.675106316729
 21
-408.5000000000003
 31
0.0
  0
LINE
  5
376
  8
1
  6
CONTINUOUS
 62
     7
 10
1661.324893683264
 20
-408.5000000000003
 30
0.0
 11
1674.675106316725
 21
-408.5000000000003
 31
0.0
  0
ARC
  5
377
  8
1
  6
CONTINUOUS
 62
     7
 10
1567.353305579079
 20
-359.9999999999992
 30
0.0
 40
2.000000000002444
 50
190.0000000000002
 51
270.0
  0
LINE
  5
378
  8
1
  6
CONTINUOUS
 62
     7
 10
1595.324893683269
 20
-396.5000000000001
 30
0.0
 11
1608.67510631673
 21
-396.5000000000001
 31
0.0
  0
LINE
  5
379
  8
1
  6
CONTINUOUS
 62
     7
 10
1595.324893683269
 20
-408.5000000000003
 30
0.0
 11
1608.67510631673
 21
-408.5000000000003
 31
0.0
  0
LINE
  5
37A
  8
1
  6
CONTINUOUS
 62
     7
 10
1771.999999999995
 20
-396.5000000000001
 30
0.0
 11
1771.999999999995
 21
-353.8680667046037
 31
0.0
  0
LINE
  5
37B
  8
1
  6
CONTINUOUS
 62
     7
 10
1551.999999999999
 20
-396.5000000000001
 30
0.0
 11
1551.999999999999
 21
-353.8680667046037
 31
0.0
  0
ARC
  5
37C
  8
1
  6
CONTINUOUS
 62
     7
 10
1545.353305579084
 20
-359.9999999999992
 30
0.0
 40
1.999999999998892
 50
190.0000000000005
 51
270.0
  0
LINE
  5
37D
  8
1
  6
CONTINUOUS
 62
     7
 10
1783.999999999995
 20
-408.4999999999998
 30
0.0
 11
1783.999999999995
 21
-451.1319332953966
 31
0.0
  0
LINE
  5
37E
  8
1
  6
CONTINUOUS
 62
     7
 10
1683.324893683266
 20
-396.5000000000001
 30
0.0
 11
1696.675106316727
 21
-396.5000000000001
 31
0.0
  0
LINE
  5
37F
  8
1
  6
CONTINUOUS
 62
     7
 10
1739.999999999994
 20
-396.5000000000001
 30
0.0
 11
1739.999999999994
 21
-353.8680667046033
 31
0.0
  0
ARC
  5
380
  8
1
  6
CONTINUOUS
 62
     7
 10
1583.482701106465
 20
-355.4999999999997
 30
0.0
 40
3.000000000000114
 50
9.999999999999886
 51
90.0
  0
LINE
  5
381
  8
1
  6
CONTINUOUS
 62
     7
 10
1673.999999999999
 20
-408.4999999999998
 30
0.0
 11
1673.999999999999
 21
-451.1319332953966
 31
0.0
  0
ARC
  5
382
  8
1
  6
CONTINUOUS
 62
     7
 10
1655.35330557908
 20
-444.9999999999954
 30
0.0
 40
2.000000000002444
 50
90.0000000000002
 51
169.9999999999997
  0
LINE
  5
383
  8
1
  6
CONTINUOUS
 62
     7
 10
1661.999999999995
 20
-408.4999999999998
 30
0.0
 11
1661.999999999995
 21
-451.1319332953963
 31
0.0
  0
ARC
  5
384
  8
1
  6
CONTINUOUS
 62
     7
 10
1664.517298893528
 20
-355.5000000000001
 30
0.0
 40
2.999999999996561
 50
89.99999999999841
 51
170.0000000000003
  0
ARC
  5
385
  8
1
  6
CONTINUOUS
 62
     7
 10
1636.646694420914
 20
-359.9999999999992
 30
0.0
 40
1.999999999998892
 50
270.0
 51
349.9999999999993
  0
ARC
  5
386
  8
1
  6
CONTINUOUS
 62
     7
 10
1570.646694420911
 20
-444.9999999999954
 30
0.0
 40
2.000000000002444
 50
10.00000000000091
 51
90.0
  0
ARC
  5
387
  8
1
  6
CONTINUOUS
 62
     7
 10
1649.482701106467
 20
-449.5000000000005
 30
0.0
 40
2.999999999996561
 50
270.0
 51
350.0000000000875
  0
LINE
  5
388
  8
1
  6
CONTINUOUS
 62
     7
 10
1746.64669442091
 20
-362.0000000000001
 30
0.0
 11
1743.35330557908
 21
-362.0000000000001
 31
0.0
  0
LINE
  5
389
  8
1
  6
CONTINUOUS
 62
     7
 10
1680.646694420914
 20
-362.0000000000001
 30
0.0
 11
1677.353305579084
 21
-362.0000000000001
 31
0.0
  0
LINE
  5
38A
  8
1
  6
CONTINUOUS
 62
     7
 10
1761.999999999996
 20
-396.5000000000001
 30
0.0
 11
1761.999999999996
 21
-353.8680667046033
 31
0.0
  0
LINE
  5
38B
  8
1
  6
CONTINUOUS
 62
   253
 10
1548.646694420909
 20
-443.0000000000001
 30
0.0
 11
1545.353305579079
 21
-443.0000000000001
 31
0.0
  0
LINE
  5
38C
  8
1
  6
CONTINUOUS
 62
   253
 10
1548.646694420909
 20
-362.0000000000001
 30
0.0
 11
1545.353305579079
 21
-362.0000000000001
 31
0.0
  0
ARC
  5
38D
  8
1
  6
CONTINUOUS
 62
     7
 10
1592.64669442091
 20
-444.9999999999954
 30
0.0
 40
2.000000000002444
 50
10.0000000000003
 51
90.0
  0
LINE
  5
38E
  8
1
  6
CONTINUOUS
 62
     7
 10
1787.353305579085
 20
-362.0000000000001
 30
0.0
 11
1789.0
 21
-362.0000000000001
 31
0.0
  0
LINE
  5
38F
  8
1
  6
CONTINUOUS
 62
     7
 10
1727.999999999997
 20
-408.4999999999998
 30
0.0
 11
1727.999999999997
 21
-451.1319332953963
 31
0.0
  0
LINE
  5
390
  8
1
  6
CONTINUOUS
 62
     7
 10
1639.324893683269
 20
-396.5000000000001
 30
0.0
 11
1652.67510631673
 21
-396.5000000000001
 31
0.0
  0
LINE
  5
391
  8
1
  6
CONTINUOUS
 62
     7
 10
1585.999999999995
 20
-396.5000000000001
 30
0.0
 11
1585.999999999995
 21
-353.8680667046033
 31
0.0
  0
ARC
  5
392
  8
1
  6
CONTINUOUS
 62
     7
 10
1702.646694420909
 20
-359.9999999999992
 30
0.0
 40
2.000000000002444
 50
269.9999999999984
 51
349.9999999999997
  0
LINE
  5
393
  8
1
  6
CONTINUOUS
 62
     7
 10
1724.646694420915
 20
-362.0000000000001
 30
0.0
 11
1721.353305579085
 21
-362.0000000000001
 31
0.0
  0
LINE
  5
394
  8
1
  6
CONTINUOUS
 62
     7
 10
1651.999999999997
 20
-396.5000000000001
 30
0.0
 11
1651.999999999997
 21
-353.8680667046033
 31
0.0
  0
LINE
  5
395
  8
1
  6
CONTINUOUS
 62
     7
 10
1551.324893683268
 20
-396.5000000000001
 30
0.0
 11
1564.675106316729
 21
-396.5000000000001
 31
0.0
  0
ARC
  5
396
  8
1
  6
CONTINUOUS
 62
     7
 10
1658.646694420912
 20
-444.9999999999954
 30
0.0
 40
1.999999999998892
 50
10.00000000000091
 51
90.0
  0
ARC
  5
397
  8
1
  6
CONTINUOUS
 62
     7
 10
1721.353305579082
 20
-359.9999999999992
 30
0.0
 40
1.999999999998892
 50
190.0000000000003
 51
270.0
  0
LINE
  5
398
  8
1
  6
CONTINUOUS
 62
     7
 10
1596.0
 20
-408.4999999999998
 30
0.0
 11
1596.0
 21
-451.1319332953963
 31
0.0
  0
ARC
  5
399
  8
1
  6
CONTINUOUS
 62
     7
 10
1693.482701106464
 20
-449.5000000000005
 30
0.0
 40
3.000000000000114
 50
270.0
 51
350.0000000000875
  0
LINE
  5
39A
  8
1
  6
CONTINUOUS
 62
     7
 10
1563.999999999996
 20
-408.4999999999998
 30
0.0
 11
1563.999999999996
 21
-451.1319332953966
 31
0.0
  0
ARC
  5
39B
  8
1
  6
CONTINUOUS
 62
     7
 10
1677.353305579082
 20
-444.9999999999954
 30
0.0
 40
1.999999999998892
 50
90.0
 51
169.9999999999991
  0
LINE
  5
39C
  8
1
  6
CONTINUOUS
 62
     7
 10
1573.324893683267
 20
-408.5000000000003
 30
0.0
 11
1586.675106316728
 21
-408.5000000000003
 31
0.0
  0
LINE
  5
39D
  8
1
  6
CONTINUOUS
 62
     7
 10
1658.646694420912
 20
-362.0000000000001
 30
0.0
 11
1655.353305579082
 21
-362.0000000000001
 31
0.0
  0
LINE
  5
39E
  8
1
  6
CONTINUOUS
 62
     7
 10
1592.64669442091
 20
-362.0000000000001
 30
0.0
 11
1589.35330557908
 21
-362.0000000000001
 31
0.0
  0
ARC
  5
39F
  8
1
  6
CONTINUOUS
 62
     7
 10
1664.517298893528
 20
-449.5000000000002
 30
0.0
 40
2.999999999996561
 50
189.9999999999998
 51
270.0000000000015
  0
LINE
  5
3A0
  8
1
  6
CONTINUOUS
 62
     7
 10
1787.353305579085
 20
-443.0000000000003
 30
0.0
 11
1789.0
 21
-443.0000000000003
 31
0.0
  0
ARC
  5
3A1
  8
1
  6
CONTINUOUS
 62
     7
 10
1686.517298893527
 20
-449.5000000000002
 30
0.0
 40
3.000000000003666
 50
189.9999999999998
 51
270.0000000000015
  0
ARC
  5
3A2
  8
1
  6
CONTINUOUS
 62
     7
 10
1702.646694420909
 20
-444.9999999999954
 30
0.0
 40
2.000000000002444
 50
10.00000000000017
 51
90.0
  0
LINE
  5
3A3
  8
1
  6
CONTINUOUS
 62
     7
 10
1617.999999999995
 20
-408.4999999999998
 30
0.0
 11
1617.999999999995
 21
-451.1319332953963
 31
0.0
  0
LINE
  5
3A4
  8
1
  6
CONTINUOUS
 62
     7
 10
1617.999999999995
 20
-396.5000000000001
 30
0.0
 11
1617.999999999995
 21
-353.8680667046037
 31
0.0
  0
LINE
  5
3A5
  8
1
  6
CONTINUOUS
 62
     7
 10
1629.999999999999
 20
-396.5000000000001
 30
0.0
 11
1629.999999999999
 21
-353.8680667046033
 31
0.0
  0
ARC
  5
3A6
  8
1
  6
CONTINUOUS
 62
     7
 10
1724.646694420915
 20
-359.9999999999992
 30
0.0
 40
1.999999999998892
 50
270.0
 51
349.9999999999997
  0
LINE
  5
3A7
  8
1
  6
CONTINUOUS
 62
     7
 10
1592.64669442091
 20
-443.0000000000003
 30
0.0
 11
1589.35330557908
 21
-443.0000000000003
 31
0.0
  0
LINE
  5
3A8
  8
1
  6
CONTINUOUS
 62
     7
 10
1629.999999999999
 20
-408.4999999999998
 30
0.0
 11
1629.999999999999
 21
-451.1319332953966
 31
0.0
  0
LINE
  5
3A9
  8
1
  6
CONTINUOUS
 62
     7
 10
1768.646694420912
 20
-443.0000000000003
 30
0.0
 11
1765.353305579082
 21
-443.0000000000003
 31
0.0
  0
ARC
  5
3AA
  8
1
  6
CONTINUOUS
 62
     7
 10
1677.353305579082
 20
-359.9999999999992
 30
0.0
 40
1.999999999998892
 50
190.0000000000005
 51
270.0
  0
LINE
  5
3AB
  8
1
  6
CONTINUOUS
 62
     7
 10
1570.646694420911
 20
-362.0000000000001
 30
0.0
 11
1567.353305579081
 21
-362.0000000000001
 31
0.0
  0
ARC
  5
3AC
  8
1
  6
CONTINUOUS
 62
     7
 10
1699.353305579084
 20
-359.9999999999992
 30
0.0
 40
1.999999999998892
 50
190.0000000000003
 51
270.0
  0
LINE
  5
3AD
  8
1
  6
CONTINUOUS
 62
     7
 10
1680.646694420914
 20
-443.0000000000003
 30
0.0
 11
1677.353305579084
 21
-443.0000000000003
 31
0.0
  0
LINE
  5
3AE
  8
1
  6
CONTINUOUS
 62
     7
 10
1783.999999999995
 20
-396.5000000000001
 30
0.0
 11
1783.999999999995
 21
-353.8680667046033
 31
0.0
  0
LINE
  5
3AF
  8
1
  6
CONTINUOUS
 62
     7
 10
1607.999999999997
 20
-408.4999999999998
 30
0.0
 11
1607.999999999997
 21
-451.1319332953966
 31
0.0
  0
LINE
  5
3B0
  8
1
  6
CONTINUOUS
 62
     7
 10
1771.324893683267
 20
-408.5000000000003
 30
0.0
 11
1784.675106316728
 21
-408.5000000000003
 31
0.0
  0
ARC
  5
3B1
  8
1
  6
CONTINUOUS
 62
     7
 10
1658.646694420912
 20
-359.9999999999992
 30
0.0
 40
1.999999999998892
 50
270.0
 51
349.9999999999993
  0
ARC
  5
3B2
  8
1
  6
CONTINUOUS
 62
     7
 10
1589.353305579084
 20
-359.9999999999992
 30
0.0
 40
1.999999999998892
 50
190.0000000000001
 51
269.9999999999999
  0
ARC
  5
3B3
  8
1
  6
CONTINUOUS
 62
     7
 10
1680.646694420914
 20
-444.9999999999954
 30
0.0
 40
1.999999999998892
 50
10.00000000000017
 51
90.0
  0
LINE
  5
3B4
  8
1
  6
CONTINUOUS
 62
     7
 10
1792.324893683268
 20
-396.5000000000001
 30
0.0
 11
1805.675106316729
 21
-396.5000000000001
 31
0.0
  0
LINE
  5
3B5
  8
1
  6
CONTINUOUS
 62
     7
 10
1651.999999999997
 20
-408.4999999999998
 30
0.0
 11
1651.999999999997
 21
-451.1319332953966
 31
0.0
  0
LINE
  5
3B6
  8
1
  6
CONTINUOUS
 62
     7
 10
1724.646694420915
 20
-443.0000000000003
 30
0.0
 11
1721.353305579085
 21
-443.0000000000003
 31
0.0
  0
LINE
  5
3B7
  8
1
  6
CONTINUOUS
 62
     7
 10
1658.646694420912
 20
-443.0000000000003
 30
0.0
 11
1655.353305579082
 21
-443.0000000000003
 31
0.0
  0
LINE
  5
3B8
  8
1
  6
CONTINUOUS
 62
     7
 10
1805.437124365507
 20
-354.9790554669993
 30
0.0
 11
1806.383690073063
 21
-360.3472963553341
 31
0.0
  0
LINE
  5
3B9
  8
1
  6
CONTINUOUS
 62
     7
 10
1702.646694420909
 20
-443.0000000000003
 30
0.0
 11
1699.353305579079
 21
-443.0000000000003
 31
0.0
  0
ARC
  5
3BA
  8
1
  6
CONTINUOUS
 62
     7
 10
1671.482701106466
 20
-449.5000000000005
 30
0.0
 40
3.000000000000114
 50
270.0
 51
350.0000000000875
  0
LINE
  5
3BB
  8
1
  6
CONTINUOUS
 62
     7
 10
1771.324893683267
 20
-396.5000000000001
 30
0.0
 11
1784.675106316728
 21
-396.5000000000001
 31
0.0
  0
LINE
  5
3BC
  8
1
  6
CONTINUOUS
 62
     7
 10
1636.646694420914
 20
-443.0000000000003
 30
0.0
 11
1633.353305579084
 21
-443.0000000000003
 31
0.0
  0
LINE
  5
3BD
  8
1
  6
CONTINUOUS
 62
     7
 10
1837.000000000003
 20
-396.5000000000001
 30
0.0
 11
1837.000000000003
 21
-353.8680667046037
 31
0.0
  0
LINE
  5
3BE
  8
1
  6
CONTINUOUS
 62
     7
 10
1614.646694420912
 20
-362.0000000000001
 30
0.0
 11
1611.353305579082
 21
-362.0000000000001
 31
0.0
  0
LINE
  5
3BF
  8
1
  6
CONTINUOUS
 62
     7
 10
1639.999999999997
 20
-408.4999999999998
 30
0.0
 11
1639.999999999997
 21
-451.1319332953963
 31
0.0
  0
ARC
  5
3C0
  8
1
  6
CONTINUOUS
 62
     7
 10
1693.482701106464
 20
-355.4999999999997
 30
0.0
 40
3.000000000000114
 50
9.999999999999732
 51
90.0
  0
LINE
  5
3C1
  8
1
  6
CONTINUOUS
 62
     7
 10
1617.324893683264
 20
-396.5000000000001
 30
0.0
 11
1630.675106316725
 21
-396.5000000000001
 31
0.0
  0
LINE
  5
3C2
  8
1
  6
CONTINUOUS
 62
     7
 10
1573.999999999994
 20
-396.5000000000001
 30
0.0
 11
1573.999999999994
 21
-353.8680667046037
 31
0.0
  0
LINE
  5
3C3
  8
1
  6
CONTINUOUS
 62
     7
 10
1585.999999999995
 20
-408.4999999999998
 30
0.0
 11
1585.999999999995
 21
-451.1319332953966
 31
0.0
  0
ARC
  5
3C4
  8
1
  6
CONTINUOUS
 62
     7
 10
1636.646694420914
 20
-444.9999999999954
 30
0.0
 40
1.999999999998892
 50
10.00000000000091
 51
90.0
  0
LINE
  5
3C5
  8
1
  6
CONTINUOUS
 62
     7
 10
1746.64669442091
 20
-443.0000000000003
 30
0.0
 11
1743.35330557908
 21
-443.0000000000003
 31
0.0
  0
ARC
  5
3C6
  8
1
  6
CONTINUOUS
 62
     7
 10
1589.353305579084
 20
-444.9999999999954
 30
0.0
 40
1.999999999998892
 50
90.00000000000011
 51
169.9999999999998
  0
LINE
  5
3C7
  8
1
  6
CONTINUOUS
 62
     7
 10
1614.646694420912
 20
-443.0000000000003
 30
0.0
 11
1611.353305579082
 21
-443.0000000000003
 31
0.0
  0
LINE
  5
3C8
  8
1
  6
CONTINUOUS
 62
     7
 10
1768.646694420912
 20
-362.0000000000001
 30
0.0
 11
1765.353305579082
 21
-362.0000000000001
 31
0.0
  0
ARC
  5
3C9
  8
1
  6
CONTINUOUS
 62
     7
 10
1699.353305579084
 20
-444.9999999999954
 30
0.0
 40
1.999999999998892
 50
89.99999999999926
 51
169.9999999999997
  0
ARC
  5
3CA
  8
1
  6
CONTINUOUS
 62
     7
 10
1686.517298893527
 20
-355.5000000000001
 30
0.0
 40
3.000000000003666
 50
89.99999999999841
 51
170.0000000000003
  0
ARC
  5
3CB
  8
1
  6
CONTINUOUS
 62
     7
 10
1680.646694420914
 20
-359.9999999999992
 30
0.0
 40
1.999999999998892
 50
270.0
 51
349.9999999999997
  0
ARC
  5
3CC
  8
1
  6
CONTINUOUS
 62
     7
 10
1708.517298893529
 20
-355.5000000000001
 30
0.0
 40
3.000000000000114
 50
89.99999999999841
 51
170.0000000000003
  0
LINE
  5
3CD
  8
1
  6
CONTINUOUS
 62
     7
 10
1702.646694420909
 20
-362.0000000000001
 30
0.0
 11
1699.353305579079
 21
-362.0000000000001
 31
0.0
  0
LINE
  5
3CE
  8
1
  6
CONTINUOUS
 62
     7
 10
1607.999999999997
 20
-396.5000000000001
 30
0.0
 11
1607.999999999997
 21
-353.8680667046033
 31
0.0
  0
ARC
  5
3CF
  8
1
  6
CONTINUOUS
 62
     7
 10
1724.646694420915
 20
-444.9999999999954
 30
0.0
 40
1.999999999998892
 50
10.00000000000034
 51
90.0
  0
LINE
  5
3D0
  8
1
  6
CONTINUOUS
 62
     7
 10
1617.324893683264
 20
-408.5000000000003
 30
0.0
 11
1630.675106316725
 21
-408.5000000000003
 31
0.0
  0
LINE
  5
3D1
  8
1
  6
CONTINUOUS
 62
     7
 10
1636.646694420914
 20
-362.0000000000001
 30
0.0
 11
1633.353305579084
 21
-362.0000000000001
 31
0.0
  0
LINE
  5
3D2
  8
1
  6
CONTINUOUS
 62
     7
 10
1815.000000000001
 20
-396.5000000000001
 30
0.0
 11
1815.000000000001
 21
-353.8680667046037
 31
0.0
  0
LINE
  5
3D3
  8
1
  6
CONTINUOUS
 62
     7
 10
1805.000000000003
 20
-396.5000000000001
 30
0.0
 11
1805.000000000003
 21
-353.8680667046033
 31
0.0
  0
LINE
  5
3D4
  8
1
  6
CONTINUOUS
 62
     7
 10
1827.437124365502
 20
-450.0209445330008
 30
0.0
 11
1828.383690073058
 21
-444.6527036446661
 31
0.0
  0
ARC
  5
3D5
  8
1
  6
CONTINUOUS
 62
     7
 10
1730.517298893531
 20
-449.5000000000002
 30
0.0
 40
2.999999999996561
 50
189.9999999999998
 51
270.0000000000021
  0
LINE
  5
3D6
  8
1
  6
CONTINUOUS
 62
     7
 10
1814.562875634497
 20
-450.0209445330008
 30
0.0
 11
1813.616309926941
 21
-444.6527036446661
 31
0.0
  0
LINE
  5
3D7
  8
1
  6
CONTINUOUS
 62
     7
 10
1828.67510631673
 20
-361.0879555302635
 30
0.0
 11
1828.67510631673
 21
-443.9120444697364
 31
0.0
  0
ARC
  5
3D8
  8
1
  6
CONTINUOUS
 62
     7
 10
1765.353305579079
 20
-359.9999999999992
 30
0.0
 40
2.000000000002444
 50
190.0000000000003
 51
270.0
  0
LINE
  5
3D9
  8
1
  6
CONTINUOUS
 62
     7
 10
1802.482701106466
 20
-452.4999999999999
 30
0.0
 11
1795.51729889353
 21
-452.4999999999999
 31
0.0
  0
LINE
  5
3DA
  8
1
  6
CONTINUOUS
 62
     7
 10
1805.67510631673
 20
-396.5000000000001
 30
0.0
 11
1805.67510631673
 21
-408.4999999999999
 31
0.0
  0
LINE
  5
3DB
  8
1
  6
CONTINUOUS
 62
     7
 10
1835.324893683271
 20
-361.0879555302635
 30
0.0
 11
1835.324893683271
 21
-443.9120444697369
 31
0.0
  0
ARC
  5
3DC
  8
1
  6
CONTINUOUS
 62
     7
 10
1752.517298893529
 20
-355.5000000000001
 30
0.0
 40
3.000000000000114
 50
89.99999999999736
 51
170.0000000000003
  0
LINE
  5
3DD
  8
1
  6
CONTINUOUS
 62
     7
 10
1836.562875634495
 20
-354.9790554669993
 30
0.0
 11
1835.616309926939
 21
-360.347296355334
 31
0.0
  0
ARC
  5
3DE
  8
1
  6
CONTINUOUS
 62
     7
 10
1759.482701106463
 20
-449.5000000000005
 30
0.0
 40
3.000000000003666
 50
270.0
 51
350.0000000000875
  0
ARC
  5
3DF
  8
1
  6
CONTINUOUS
 62
     7
 10
1774.517298893531
 20
-355.5000000000001
 30
0.0
 40
2.999999999996561
 50
89.99999999999736
 51
170.0000000000003
  0
ARC
  5
3E0
  8
1
  6
CONTINUOUS
 62
     7
 10
1737.482701106465
 20
-449.5000000000005
 30
0.0
 40
2.999999999996561
 50
270.0
 51
350.0000000000875
  0
ARC
  5
3E1
  8
1
  6
CONTINUOUS
 62
     7
 10
1708.517298893529
 20
-449.5000000000002
 30
0.0
 40
3.000000000000114
 50
189.9999999999998
 51
270.0000000000015
  0
ARC
  5
3E2
  8
1
  6
CONTINUOUS
 62
     7
 10
1743.353305579084
 20
-444.9999999999954
 30
0.0
 40
1.999999999998892
 50
89.99999999999861
 51
169.9999999999997
  0
ARC
  5
3E3
  8
1
  6
CONTINUOUS
 62
     7
 10
1737.482701106465
 20
-355.4999999999997
 30
0.0
 40
2.999999999996561
 50
9.999999999999945
 51
90.0
  0
ARC
  5
3E4
  8
1
  6
CONTINUOUS
 62
     7
 10
1746.64669442091
 20
-444.9999999999954
 30
0.0
 40
1.999999999998892
 50
10.00000000000011
 51
90.0
  0
LINE
  5
3E5
  8
1
  6
CONTINUOUS
 62
     7
 10
1806.675106316735
 20
-361.0879555302635
 30
0.0
 11
1806.675106316735
 21
-443.9120444697364
 31
0.0
  0
ARC
  5
3E6
  8
1
  6
CONTINUOUS
 62
     7
 10
1752.517298893529
 20
-449.5000000000002
 30
0.0
 40
3.000000000000114
 50
189.9999999999998
 51
270.0000000000028
  0
LINE
  5
3E7
  8
1
  6
CONTINUOUS
 62
     7
 10
1805.437124365507
 20
-450.0209445330008
 30
0.0
 11
1806.383690073063
 21
-444.6527036446661
 31
0.0
  0
LINE
  5
3E8
  8
1
  6
CONTINUOUS
 62
     7
 10
1827.437124365502
 20
-354.9790554669993
 30
0.0
 11
1828.383690073058
 21
-360.3472963553341
 31
0.0
  0
LINE
  5
3E9
  8
1
  6
CONTINUOUS
 62
     7
 10
1846.482701106466
 20
-452.4999999999999
 30
0.0
 11
1839.51729889353
 21
-452.4999999999999
 31
0.0
  0
ARC
  5
3EA
  8
1
  6
CONTINUOUS
 62
     7
 10
1768.646694420912
 20
-444.9999999999954
 30
0.0
 40
2.000000000002444
 50
10.00000000000011
 51
90.0
  0
ARC
  5
3EB
  8
1
  6
CONTINUOUS
 62
     7
 10
1787.353305579085
 20
-359.9999999999992
 30
0.0
 40
1.999999999998892
 50
190.0000000000003
 51
270.0
  0
ARC
  5
3EC
  8
1
  6
CONTINUOUS
 62
     7
 10
1746.64669442091
 20
-359.9999999999992
 30
0.0
 40
1.999999999998892
 50
270.0
 51
349.9999999999997
  0
LINE
  5
3ED
  8
1
  6
CONTINUOUS
 62
     7
 10
1793.000000000002
 20
-396.5000000000001
 30
0.0
 11
1793.000000000002
 21
-353.8680667046037
 31
0.0
  0
LINE
  5
3EE
  8
1
  6
CONTINUOUS
 62
     7
 10
1792.562875634495
 20
-354.9790554669993
 30
0.0
 11
1791.616309926939
 21
-360.347296355334
 31
0.0
  0
LINE
  5
3EF
  8
1
  6
CONTINUOUS
 62
     7
 10
1814.32489368327
 20
-408.5000000000003
 30
0.0
 11
1827.675106316731
 21
-408.5000000000003
 31
0.0
  0
ARC
  5
3F0
  8
1
  6
CONTINUOUS
 62
     7
 10
1715.482701106463
 20
-355.4999999999997
 30
0.0
 40
3.000000000003666
 50
9.999999999999732
 51
90.0
  0
LINE
  5
3F1
  8
1
  6
CONTINUOUS
 62
     7
 10
1792.324893683268
 20
-396.5000000000001
 30
0.0
 11
1792.324893683268
 21
-408.4999999999999
 31
0.0
  0
ARC
  5
3F2
  8
1
  6
CONTINUOUS
 62
     7
 10
1730.517298893531
 20
-355.5000000000001
 30
0.0
 40
2.999999999996561
 50
89.99999999999781
 51
170.0000000000003
  0
LINE
  5
3F3
  8
1
  6
CONTINUOUS
 62
     7
 10
1813.324893683269
 20
-361.0879555302635
 30
0.0
 11
1813.324893683269
 21
-443.9120444697369
 31
0.0
  0
ARC
  5
3F4
  8
1
  6
CONTINUOUS
 62
     7
 10
1774.517298893531
 20
-449.5000000000002
 30
0.0
 40
2.999999999996561
 50
189.9999999999998
 51
270.0000000000026
  0
LINE
  5
3F5
  8
1
  6
CONTINUOUS
 62
     7
 10
1792.562875634495
 20
-450.0209445330008
 30
0.0
 11
1791.616309926939
 21
-444.6527036446661
 31
0.0
  0
LINE
  5
3F6
  8
1
  6
CONTINUOUS
 62
     7
 10
1814.562875634497
 20
-354.9790554669993
 30
0.0
 11
1813.616309926941
 21
-360.347296355334
 31
0.0
  0
ARC
  5
3F7
  8
1
  6
CONTINUOUS
 62
     7
 10
1765.353305579079
 20
-444.9999999999954
 30
0.0
 40
2.000000000002444
 50
89.99999999999861
 51
169.9999999999997
  0
ARC
  5
3F8
  8
1
  6
CONTINUOUS
 62
     7
 10
1759.482701106463
 20
-355.4999999999997
 30
0.0
 40
3.000000000003666
 50
9.999999999999732
 51
90.0
  0
LINE
  5
3F9
  8
1
  6
CONTINUOUS
 62
     7
 10
1826.999999999998
 20
-396.5000000000001
 30
0.0
 11
1826.999999999998
 21
-353.8680667046033
 31
0.0
  0
LINE
  5
3FA
  8
1
  6
CONTINUOUS
 62
     7
 10
1826.999999999998
 20
-408.4999999999998
 30
0.0
 11
1826.999999999998
 21
-451.1319332953966
 31
0.0
  0
ARC
  5
3FB
  8
1
  6
CONTINUOUS
 62
     7
 10
1715.482701106463
 20
-449.5000000000005
 30
0.0
 40
3.000000000003666
 50
270.0
 51
350.0000000000875
  0
LINE
  5
3FC
  8
1
  6
CONTINUOUS
 62
     7
 10
1814.32489368327
 20
-396.5000000000001
 30
0.0
 11
1814.32489368327
 21
-408.4999999999999
 31
0.0
  0
LINE
  5
3FD
  8
1
  6
CONTINUOUS
 62
     7
 10
1805.000000000003
 20
-408.4999999999998
 30
0.0
 11
1805.000000000003
 21
-451.1319332953966
 31
0.0
  0
LINE
  5
3FE
  8
1
  6
CONTINUOUS
 62
     7
 10
1836.324893683272
 20
-396.5000000000001
 30
0.0
 11
1836.324893683272
 21
-408.4999999999999
 31
0.0
  0
LINE
  5
3FF
  8
1
  6
CONTINUOUS
 62
     7
 10
1802.482701106466
 20
-352.5
 30
0.0
 11
1795.51729889353
 21
-352.5
 31
0.0
  0
ARC
  5
400
  8
1
  6
CONTINUOUS
 62
     7
 10
1787.353305579085
 20
-444.9999999999954
 30
0.0
 40
1.999999999998892
 50
89.99999999999841
 51
169.9999999999997
  0
LINE
  5
401
  8
1
  6
CONTINUOUS
 62
     7
 10
1824.482701106468
 20
-452.4999999999999
 30
0.0
 11
1817.517298893532
 21
-452.4999999999999
 31
0.0
  0
ARC
  5
402
  8
1
  6
CONTINUOUS
 62
     7
 10
1781.482701106465
 20
-355.4999999999997
 30
0.0
 40
3.000000000000114
 50
9.999999999999755
 51
90.0
  0
LINE
  5
403
  8
1
  6
CONTINUOUS
 62
     7
 10
1836.562875634495
 20
-450.0209445330008
 30
0.0
 11
1835.616309926939
 21
-444.6527036446661
 31
0.0
  0
LINE
  5
404
  8
1
  6
CONTINUOUS
 62
     7
 10
1793.000000000002
 20
-408.4999999999998
 30
0.0
 11
1793.000000000002
 21
-451.1319332953963
 31
0.0
  0
LINE
  5
405
  8
1
  6
CONTINUOUS
 62
     7
 10
1837.000000000003
 20
-408.4999999999998
 30
0.0
 11
1837.000000000003
 21
-451.1319332953963
 31
0.0
  0
LINE
  5
406
  8
1
  6
CONTINUOUS
 62
     7
 10
1914.437124365505
 20
-450.0209445330008
 30
0.0
 11
1915.383690073061
 21
-444.6527036446661
 31
0.0
  0
ARC
  5
407
  8
1
  6
CONTINUOUS
 62
     7
 10
1781.482701106465
 20
-449.5000000000005
 30
0.0
 40
3.000000000000114
 50
270.0
 51
350.0000000000875
  0
LINE
  5
408
  8
1
  6
CONTINUOUS
 62
     7
 10
1792.324893683268
 20
-408.5000000000003
 30
0.0
 11
1805.675106316729
 21
-408.5000000000003
 31
0.0
  0
LINE
  5
409
  8
1
  6
CONTINUOUS
 62
     7
 10
1914.437124365505
 20
-354.9790554669993
 30
0.0
 11
1915.383690073061
 21
-360.3472963553341
 31
0.0
  0
ARC
  5
40A
  8
1
  6
CONTINUOUS
 62
     7
 10
1721.353305579082
 20
-444.9999999999954
 30
0.0
 40
1.999999999998892
 50
89.99999999999851
 51
169.9999999999997
  0
LINE
  5
40B
  8
1
  6
CONTINUOUS
 62
     7
 10
1791.32489368327
 20
-361.0879555302635
 30
0.0
 11
1791.32489368327
 21
-443.9120444697369
 31
0.0
  0
ARC
  5
40C
  8
1
  6
CONTINUOUS
 62
     7
 10
1876.646694420916
 20
-359.9999999999992
 30
0.0
 40
2.000000000002444
 50
269.9999999999984
 51
349.9999999999997
  0
LINE
  5
40D
  8
1
  6
CONTINUOUS
 62
     7
 10
1827.675106316728
 20
-396.5000000000001
 30
0.0
 11
1827.675106316728
 21
-408.4999999999999
 31
0.0
  0
ARC
  5
40E
  8
1
  6
CONTINUOUS
 62
     7
 10
1743.353305579084
 20
-359.9999999999992
 30
0.0
 40
1.999999999998892
 50
190.0000000000003
 51
270.0
  0
LINE
  5
40F
  8
1
  6
CONTINUOUS
 62
     7
 10
1824.482701106468
 20
-352.5
 30
0.0
 11
1817.517298893532
 21
-352.5
 31
0.0
  0
ARC
  5
410
  8
1
  6
CONTINUOUS
 62
     7
 10
1768.646694420912
 20
-359.9999999999992
 30
0.0
 40
2.000000000002444
 50
270.0
 51
349.9999999999997
  0
LINE
  5
411
  8
1
  6
CONTINUOUS
 62
     7
 10
1846.482701106466
 20
-352.5
 30
0.0
 11
1839.51729889353
 21
-352.5
 31
0.0
  0
LINE
  5
412
  8
1
  6
CONTINUOUS
 62
     7
 10
1923.324893683275
 20
-396.5000000000001
 30
0.0
 11
1923.324893683275
 21
-408.4999999999999
 31
0.0
  0
LINE
  5
413
  8
1
  6
CONTINUOUS
 62
     7
 10
1923.562875634498
 20
-354.9790554669993
 30
0.0
 11
1922.616309926942
 21
-360.347296355334
 31
0.0
  0
ARC
  5
414
  8
1
  6
CONTINUOUS
 62
     7
 10
1833.646694420913
 20
-444.9999999999954
 30
0.0
 40
1.999999999998892
 50
10.00000000000011
 51
90.0
  0
ARC
  5
415
  8
1
  6
CONTINUOUS
 62
     7
 10
1839.517298893532
 20
-355.5000000000001
 30
0.0
 40
3.000000000000114
 50
89.99999999999736
 51
170.0000000000003
  0
ARC
  5
416
  8
1
  6
CONTINUOUS
 62
     7
 10
1889.482701106469
 20
-449.5000000000005
 30
0.0
 40
2.999999999996561
 50
270.0
 51
350.0000000000875
  0
ARC
  5
417
  8
1
  6
CONTINUOUS
 62
     7
 10
1824.482701106468
 20
-355.4999999999997
 30
0.0
 40
2.999999999996561
 50
9.999999999999945
 51
90.0
  0
LINE
  5
418
  8
1
  6
CONTINUOUS
 62
     7
 10
1898.646694420914
 20
-443.0000000000003
 30
0.0
 11
1895.353305579084
 21
-443.0000000000003
 31
0.0
  0
ARC
  5
419
  8
1
  6
CONTINUOUS
 62
     7
 10
1808.353305579085
 20
-444.9999999999954
 30
0.0
 40
1.999999999998892
 50
89.99999999999851
 51
169.9999999999997
  0
ARC
  5
41A
  8
1
  6
CONTINUOUS
 62
     7
 10
1839.517298893532
 20
-449.5000000000002
 30
0.0
 40
3.000000000000114
 50
189.9999999999998
 51
270.0000000000028
  0
LINE
  5
41B
  8
1
  6
CONTINUOUS
 62
     7
 10
1815.000000000001
 20
-408.4999999999998
 30
0.0
 11
1815.000000000001
 21
-451.1319332953963
 31
0.0
  0
LINE
  5
41C
  8
1
  6
CONTINUOUS
 62
     7
 10
1892.437124365503
 20
-450.0209445330008
 30
0.0
 11
1893.383690073059
 21
-444.6527036446661
 31
0.0
  0
ARC
  5
41D
  8
1
  6
CONTINUOUS
 62
     7
 10
1833.646694420913
 20
-359.9999999999992
 30
0.0
 40
1.999999999998892
 50
270.0
 51
349.9999999999997
  0
LINE
  5
41E
  8
1
  6
CONTINUOUS
 62
     7
 10
1892.437124365503
 20
-354.9790554669993
 30
0.0
 11
1893.383690073059
 21
-360.3472963553341
 31
0.0
  0
LINE
  5
41F
  8
1
  6
CONTINUOUS
 62
     7
 10
1892.67510631673
 20
-396.5000000000001
 30
0.0
 11
1892.67510631673
 21
-408.4999999999999
 31
0.0
  0
LINE
  5
420
  8
1
  6
CONTINUOUS
 62
     7
 10
1898.646694420914
 20
-362.0000000000001
 30
0.0
 11
1895.353305579084
 21
-362.0000000000001
 31
0.0
  0
ARC
  5
421
  8
1
  6
CONTINUOUS
 62
     7
 10
1889.482701106469
 20
-355.4999999999997
 30
0.0
 40
2.999999999996561
 50
9.999999999999945
 51
90.0
  0
LINE
  5
422
  8
1
  6
CONTINUOUS
 62
     7
 10
1811.646694420918
 20
-362.0000000000001
 30
0.0
 11
1808.353305579088
 21
-362.0000000000001
 31
0.0
  0
ARC
  5
423
  8
1
  6
CONTINUOUS
 62
     7
 10
1898.646694420914
 20
-444.9999999999954
 30
0.0
 40
1.999999999998892
 50
10.00000000000011
 51
90.0
  0
LINE
  5
424
  8
1
  6
CONTINUOUS
 62
     7
 10
1923.562875634498
 20
-450.0209445330008
 30
0.0
 11
1922.616309926942
 21
-444.6527036446661
 31
0.0
  0
LINE
  5
425
  8
1
  6
CONTINUOUS
 62
     7
 10
1811.646694420918
 20
-443.0000000000003
 30
0.0
 11
1808.353305579088
 21
-443.0000000000003
 31
0.0
  0
LINE
  5
426
  8
1
  6
CONTINUOUS
 62
     7
 10
1922.324893683274
 20
-361.0879555302635
 30
0.0
 11
1922.324893683274
 21
-443.9120444697369
 31
0.0
  0
LINE
  5
427
  8
1
  6
CONTINUOUS
 62
     7
 10
1915.675106316733
 20
-361.0879555302635
 30
0.0
 11
1915.675106316733
 21
-443.9120444697364
 31
0.0
  0
LINE
  5
428
  8
1
  6
CONTINUOUS
 62
     7
 10
1893.675106316731
 20
-361.0879555302635
 30
0.0
 11
1893.675106316731
 21
-443.9120444697364
 31
0.0
  0
ARC
  5
429
  8
1
  6
CONTINUOUS
 62
     7
 10
1802.482701106466
 20
-449.5000000000005
 30
0.0
 40
3.000000000003666
 50
270.0
 51
350.0000000000875
  0
LINE
  5
42A
  8
1
  6
CONTINUOUS
 62
     7
 10
1833.646694420913
 20
-362.0000000000001
 30
0.0
 11
1830.353305579083
 21
-362.0000000000001
 31
0.0
  0
ARC
  5
42B
  8
1
  6
CONTINUOUS
 62
     7
 10
1811.646694420918
 20
-444.9999999999954
 30
0.0
 40
1.999999999998892
 50
10.00000000000034
 51
90.0
  0
LINE
  5
42C
  8
1
  6
CONTINUOUS
 62
     7
 10
1879.324893683271
 20
-408.5000000000003
 30
0.0
 11
1892.675106316732
 21
-408.5000000000003
 31
0.0
  0
LINE
  5
42D
  8
1
  6
CONTINUOUS
 62
     7
 10
1528.324893683265
 20
-361.0879555302635
 30
0.0
 11
1528.324893683265
 21
-443.9120444697369
 31
0.0
  0
LINE
  5
42E
  8
1
  6
CONTINUOUS
 62
     7
 10
1880.000000000002
 20
-408.4999999999998
 30
0.0
 11
1880.000000000002
 21
-451.1319332953963
 31
0.0
  0
LINE
  5
42F
  8
1
  6
CONTINUOUS
 62
     7
 10
1889.482701106469
 20
-352.5
 30
0.0
 11
1882.517298893533
 21
-352.5
 31
0.0
  0
ARC
  5
430
  8
1
  6
CONTINUOUS
 62
     7
 10
1824.482701106468
 20
-449.5000000000005
 30
0.0
 40
2.999999999996561
 50
270.0
 51
350.0000000000875
  0
ARC
  5
431
  8
1
  6
CONTINUOUS
 62
     7
 10
1795.517298893532
 20
-355.5000000000001
 30
0.0
 40
3.000000000000114
 50
89.99999999999841
 51
170.0000000000003
  0
LINE
  5
432
  8
1
  6
CONTINUOUS
 62
     7
 10
1920.646694420916
 20
-443.0000000000003
 30
0.0
 11
1917.353305579086
 21
-443.0000000000003
 31
0.0
  0
LINE
  5
433
  8
1
  6
CONTINUOUS
 62
     7
 10
1914.675106316732
 20
-396.5000000000001
 30
0.0
 11
1914.675106316732
 21
-408.4999999999999
 31
0.0
  0
LINE
  5
434
  8
1
  6
CONTINUOUS
 62
     7
 10
1879.324893683271
 20
-396.5000000000001
 30
0.0
 11
1892.675106316732
 21
-396.5000000000001
 31
0.0
  0
ARC
  5
435
  8
1
  6
CONTINUOUS
 62
     7
 10
1876.646694420916
 20
-444.9999999999954
 30
0.0
 40
2.000000000002444
 50
10.00000000000017
 51
90.0
  0
LINE
  5
436
  8
1
  6
CONTINUOUS
 62
     7
 10
1891.999999999999
 20
-396.5000000000001
 30
0.0
 11
1891.999999999999
 21
-353.8680667046033
 31
0.0
  0
ARC
  5
437
  8
1
  6
CONTINUOUS
 62
     7
 10
1817.517298893534
 20
-355.5000000000001
 30
0.0
 40
2.999999999996561
 50
89.99999999999781
 51
170.0000000000003
  0
ARC
  5
438
  8
1
  6
CONTINUOUS
 62
     7
 10
1808.353305579085
 20
-359.9999999999992
 30
0.0
 40
1.999999999998892
 50
190.0000000000003
 51
270.0
  0
ARC
  5
439
  8
1
  6
CONTINUOUS
 62
     7
 10
1811.646694420918
 20
-359.9999999999992
 30
0.0
 40
1.999999999998892
 50
270.0
 51
349.9999999999997
  0
ARC
  5
43A
  8
1
  6
CONTINUOUS
 62
     7
 10
1895.353305579089
 20
-359.9999999999992
 30
0.0
 40
1.999999999998892
 50
190.0000000000003
 51
270.0
  0
LINE
  5
43B
  8
1
  6
CONTINUOUS
 62
     7
 10
1833.646694420913
 20
-443.0000000000003
 30
0.0
 11
1830.353305579083
 21
-443.0000000000003
 31
0.0
  0
ARC
  5
43C
  8
1
  6
CONTINUOUS
 62
     7
 10
1817.517298893534
 20
-449.5000000000002
 30
0.0
 40
2.999999999996561
 50
189.9999999999998
 51
270.0000000000021
  0
LINE
  5
43D
  8
1
  6
CONTINUOUS
 62
     7
 10
1871.675106316733
 20
-396.5000000000001
 30
0.0
 11
1871.675106316733
 21
-408.4999999999999
 31
0.0
  0
LINE
  5
43E
  8
1
  6
CONTINUOUS
 62
     7
 10
1870.999999999998
 20
-396.5000000000001
 30
0.0
 11
1870.999999999998
 21
-353.8680667046033
 31
0.0
  0
ARC
  5
43F
  8
1
  6
CONTINUOUS
 62
     7
 10
1789.646694420913
 20
-444.9999999999954
 30
0.0
 40
2.000000000002444
 50
10.00000000000017
 51
90.0
  0
LINE
  5
440
  8
1
  6
CONTINUOUS
 62
     7
 10
1814.32489368327
 20
-396.5000000000001
 30
0.0
 11
1827.675106316731
 21
-396.5000000000001
 31
0.0
  0
ARC
  5
441
  8
1
  6
CONTINUOUS
 62
     7
 10
1789.646694420913
 20
-359.9999999999992
 30
0.0
 40
2.000000000002444
 50
269.9999999999984
 51
349.9999999999997
  0
LINE
  5
442
  8
1
  6
CONTINUOUS
 62
     7
 10
1914.000000000001
 20
-408.4999999999998
 30
0.0
 11
1914.000000000001
 21
-451.1319332953966
 31
0.0
  0
LINE
  5
443
  8
1
  6
CONTINUOUS
 62
     7
 10
1901.324893683273
 20
-396.5000000000001
 30
0.0
 11
1914.675106316734
 21
-396.5000000000001
 31
0.0
  0
ARC
  5
444
  8
1
  6
CONTINUOUS
 62
     7
 10
1830.353305579087
 20
-359.9999999999992
 30
0.0
 40
1.999999999998892
 50
190.0000000000003
 51
270.0
  0
ARC
  5
445
  8
1
  6
CONTINUOUS
 62
     7
 10
1895.353305579089
 20
-444.9999999999954
 30
0.0
 40
1.999999999998892
 50
89.99999999999861
 51
169.9999999999997
  0
ARC
  5
446
  8
1
  6
CONTINUOUS
 62
     7
 10
1802.482701106466
 20
-355.4999999999997
 30
0.0
 40
3.000000000003666
 50
9.999999999999732
 51
90.0
  0
LINE
  5
447
  8
1
  6
CONTINUOUS
 62
     7
 10
1868.482701106469
 20
-452.4999999999999
 30
0.0
 11
1861.517298893532
 21
-452.4999999999999
 31
0.0
  0
LINE
  5
448
  8
1
  6
CONTINUOUS
 62
     7
 10
1911.482701106471
 20
-352.5
 30
0.0
 11
1904.517298893531
 21
-352.5
 31
0.0
  0
LINE
  5
449
  8
1
  6
CONTINUOUS
 62
     7
 10
1529.324893683266
 20
-396.5000000000001
 30
0.0
 11
1542.675106316727
 21
-396.5000000000001
 31
0.0
  0
ARC
  5
44A
  8
1
  6
CONTINUOUS
 62
     7
 10
1830.353305579087
 20
-444.9999999999954
 30
0.0
 40
1.999999999998892
 50
89.99999999999861
 51
169.9999999999997
  0
LINE
  5
44B
  8
1
  6
CONTINUOUS
 62
     7
 10
1529.562875634493
 20
-450.0209445330008
 30
0.0
 11
1528.616309926937
 21
-444.6527036446661
 31
0.0
  0
ARC
  5
44C
  8
1
  6
CONTINUOUS
 62
     7
 10
1898.646694420914
 20
-359.9999999999992
 30
0.0
 40
1.999999999998892
 50
270.0
 51
349.9999999999997
  0
LINE
  5
44D
  8
1
  6
CONTINUOUS
 62
     7
 10
1880.000000000002
 20
-396.5000000000001
 30
0.0
 11
1880.000000000002
 21
-353.8680667046037
 31
0.0
  0
ARC
  5
44E
  8
1
  6
CONTINUOUS
 62
     7
 10
1911.482701106471
 20
-355.4999999999997
 30
0.0
 40
2.999999999996561
 50
9.999999999999945
 51
90.0
  0
LINE
  5
44F
  8
1
  6
CONTINUOUS
 62
     7
 10
1542.675106316728
 20
-396.5000000000001
 30
0.0
 11
1542.675106316728
 21
-408.4999999999999
 31
0.0
  0
LINE
  5
450
  8
1
  6
CONTINUOUS
 62
     7
 10
1891.999999999999
 20
-408.4999999999998
 30
0.0
 11
1891.999999999999
 21
-451.1319332953966
 31
0.0
  0
ARC
  5
451
  8
1
  6
CONTINUOUS
 62
     7
 10
1795.517298893532
 20
-449.5000000000002
 30
0.0
 40
3.000000000000114
 50
189.9999999999998
 51
270.0000000000015
  0
LINE
  5
452
  8
1
  6
CONTINUOUS
 62
     7
 10
1901.324893683273
 20
-396.5000000000001
 30
0.0
 11
1901.324893683273
 21
-408.4999999999999
 31
0.0
  0
LINE
  5
453
  8
1
  6
CONTINUOUS
 62
     7
 10
1539.482701106464
 20
-452.4999999999999
 30
0.0
 11
1532.517298893528
 21
-452.4999999999999
 31
0.0
  0
ARC
  5
454
  8
1
  6
CONTINUOUS
 62
     7
 10
1868.482701106469
 20
-449.5000000000005
 30
0.0
 40
3.000000000000114
 50
270.0
 51
350.0000000000877
  0
ARC
  5
455
  8
1
  6
CONTINUOUS
 62
     7
 10
1868.482701106469
 20
-355.4999999999997
 30
0.0
 40
3.000000000000114
 50
9.999999999999062
 51
90.0
  0
LINE
  5
456
  8
1
  6
CONTINUOUS
 62
     7
 10
1914.000000000001
 20
-396.5000000000001
 30
0.0
 11
1914.000000000001
 21
-353.8680667046033
 31
0.0
  0
LINE
  5
457
  8
1
  6
CONTINUOUS
 62
     7
 10
1542.437124365502
 20
-450.0209445330008
 30
0.0
 11
1543.383690073058
 21
-444.6527036446655
 31
0.0
  0
LINE
  5
458
  8
1
  6
CONTINUOUS
 62
     7
 10
1872.67510631673
 20
-361.0879555302635
 30
0.0
 11
1872.67510631673
 21
-443.9120444697364
 31
0.0
  0
ARC
  5
459
  8
1
  6
CONTINUOUS
 62
     7
 10
1882.517298893535
 20
-355.5000000000001
 30
0.0
 40
2.999999999996561
 50
89.99999999999577
 51
170.0000000000007
  0
LINE
  5
45A
  8
1
  6
CONTINUOUS
 62
     7
 10
1233.999999999998
 20
-396.5000000000001
 30
0.0
 11
1233.999999999998
 21
-353.8680667046033
 31
0.0
  0
LINE
  5
45B
  8
1
  6
CONTINUOUS
 62
     7
 10
1235.67510631673
 20
-361.0879555302635
 30
0.0
 11
1235.67510631673
 21
-443.9120444697364
 31
0.0
  0
LINE
  5
45C
  8
1
  6
CONTINUOUS
 62
     7
 10
1874.353305579088
 20
-362.0000000000001
 30
0.0
 11
1876.000000000003
 21
-362.0000000000001
 31
0.0
  0
LINE
  5
45D
  8
1
  6
CONTINUOUS
 62
     7
 10
1901.5628756345
 20
-354.9790554669993
 30
0.0
 11
1900.616309926944
 21
-360.3472963553346
 31
0.0
  0
LINE
  5
45E
  8
1
  6
CONTINUOUS
 62
     7
 10
1234.675106316728
 20
-396.5000000000001
 30
0.0
 11
1234.675106316728
 21
-408.4999999999999
 31
0.0
  0
LINE
  5
45F
  8
1
  6
CONTINUOUS
 62
     7
 10
1237.353305579083
 20
-362.0000000000001
 30
0.0
 11
1240.646694420913
 21
-362.0000000000001
 31
0.0
  0
LINE
  5
460
  8
1
  6
CONTINUOUS
 62
     7
 10
1879.324893683271
 20
-396.5000000000001
 30
0.0
 11
1879.324893683271
 21
-408.4999999999999
 31
0.0
  0
LINE
  5
461
  8
1
  6
CONTINUOUS
 62
     7
 10
1889.482701106469
 20
-452.4999999999999
 30
0.0
 11
1882.517298893533
 21
-452.4999999999999
 31
0.0
  0
ARC
  5
462
  8
1
  6
CONTINUOUS
 62
     7
 10
1920.646694420916
 20
-444.9999999999954
 30
0.0
 40
1.999999999998892
 50
10.00000000000011
 51
90.0
  0
ARC
  5
463
  8
1
  6
CONTINUOUS
 62
     7
 10
1231.482701106468
 20
-449.5000000000005
 30
0.0
 40
3.000000000000114
 50
270.0
 51
350.0000000000877
  0
LINE
  5
464
  8
1
  6
CONTINUOUS
 62
     7
 10
1221.999999999997
 20
-396.5000000000001
 30
0.0
 11
1221.999999999997
 21
-353.8680667046037
 31
0.0
  0
ARC
  5
465
  8
1
  6
CONTINUOUS
 62
     7
 10
1224.517298893534
 20
-355.5000000000001
 30
0.0
 40
2.999999999996561
 50
89.99999999999577
 51
170.0000000000007
  0
LINE
  5
466
  8
1
  6
CONTINUOUS
 62
     7
 10
1878.32489368327
 20
-361.0879555302635
 30
0.0
 11
1878.32489368327
 21
-443.9120444697369
 31
0.0
  0
LINE
  5
467
  8
1
  6
CONTINUOUS
 62
     7
 10
1871.437124365503
 20
-450.0209445330008
 30
0.0
 11
1872.383690073058
 21
-444.6527036446661
 31
0.0
  0
LINE
  5
468
  8
1
  6
CONTINUOUS
 62
     7
 10
1870.999999999998
 20
-408.4999999999998
 30
0.0
 11
1870.999999999998
 21
-451.1319332953966
 31
0.0
  0
LINE
  5
469
  8
1
  6
CONTINUOUS
 62
     7
 10
1541.999999999994
 20
-396.5000000000001
 30
0.0
 11
1541.999999999994
 21
-353.8680667046033
 31
0.0
  0
ARC
  5
46A
  8
1
  6
CONTINUOUS
 62
     7
 10
1532.51729889353
 20
-449.5000000000002
 30
0.0
 40
2.999999999996561
 50
189.9999999999994
 51
270.0
  0
LINE
  5
46B
  8
1
  6
CONTINUOUS
 62
     7
 10
1237.353305579083
 20
-443.0000000000003
 30
0.0
 11
1240.646694420913
 21
-443.0000000000003
 31
0.0
  0
LINE
  5
46C
  8
1
  6
CONTINUOUS
 62
     7
 10
1529.999999999997
 20
-408.4999999999998
 30
0.0
 11
1529.999999999997
 21
-451.1319332953963
 31
0.0
  0
LINE
  5
46D
  8
1
  6
CONTINUOUS
 62
     7
 10
1221.32489368327
 20
-396.5000000000001
 30
0.0
 11
1234.675106316731
 21
-396.5000000000001
 31
0.0
  0
ARC
  5
46E
  8
1
  6
CONTINUOUS
 62
     7
 10
1224.517298893534
 20
-449.5000000000002
 30
0.0
 40
2.999999999996561
 50
189.9999999999994
 51
270.0000000000043
  0
LINE
  5
46F
  8
1
  6
CONTINUOUS
 62
     7
 10
1529.562875634493
 20
-354.9790554669993
 30
0.0
 11
1528.616309926937
 21
-360.3472963553341
 31
0.0
  0
LINE
  5
470
  8
1
  6
CONTINUOUS
 62
     7
 10
1218.646694420918
 20
-362.0000000000001
 30
0.0
 11
1215.353305579085
 21
-362.0000000000001
 31
0.0
  0
ARC
  5
471
  8
1
  6
CONTINUOUS
 62
     7
 10
1539.482701106464
 20
-449.5000000000005
 30
0.0
 40
2.999999999996561
 50
270.0
 51
350.0000000000863
  0
LINE
  5
472
  8
1
  6
CONTINUOUS
 62
     7
 10
1874.353305579088
 20
-443.0000000000003
 30
0.0
 11
1876.000000000003
 21
-443.0000000000003
 31
0.0
  0
ARC
  5
473
  8
1
  6
CONTINUOUS
 62
     7
 10
1911.482701106471
 20
-449.5000000000005
 30
0.0
 40
2.999999999996561
 50
270.0
 51
350.0000000000875
  0
LINE
  5
474
  8
1
  6
CONTINUOUS
 62
     7
 10
1542.437124365502
 20
-354.9790554669993
 30
0.0
 11
1543.383690073058
 21
-360.3472963553347
 31
0.0
  0
LINE
  5
475
  8
1
  6
CONTINUOUS
 62
     7
 10
1868.482701106469
 20
-352.5
 30
0.0
 11
1861.517298893532
 21
-352.5
 31
0.0
  0
LINE
  5
476
  8
1
  6
CONTINUOUS
 62
     7
 10
1218.646694420918
 20
-443.0000000000003
 30
0.0
 11
1215.353305579085
 21
-443.0000000000003
 31
0.0
  0
ARC
  5
477
  8
1
  6
CONTINUOUS
 62
     7
 10
1904.517298893537
 20
-449.5000000000002
 30
0.0
 40
2.999999999996561
 50
189.9999999999879
 51
270.0
  0
LINE
  5
478
  8
1
  6
CONTINUOUS
 62
     7
 10
1234.437124365502
 20
-450.0209445330008
 30
0.0
 11
1235.383690073058
 21
-444.6527036446661
 31
0.0
  0
LINE
  5
479
  8
1
  6
CONTINUOUS
 62
     7
 10
1920.646694420916
 20
-362.0000000000001
 30
0.0
 11
1917.353305579086
 21
-362.0000000000001
 31
0.0
  0
LINE
  5
47A
  8
1
  6
CONTINUOUS
 62
     7
 10
1879.562875634498
 20
-450.0209445330008
 30
0.0
 11
1878.616309926942
 21
-444.6527036446661
 31
0.0
  0
LINE
  5
47B
  8
1
  6
CONTINUOUS
 62
     7
 10
1879.562875634498
 20
-354.9790554669993
 30
0.0
 11
1878.616309926942
 21
-360.347296355334
 31
0.0
  0
LINE
  5
47C
  8
1
  6
CONTINUOUS
 62
     7
 10
1526.646694420914
 20
-443.0000000000003
 30
0.0
 11
1523.353305579084
 21
-443.0000000000003
 31
0.0
  0
ARC
  5
47D
  8
1
  6
CONTINUOUS
 62
     7
 10
1539.482701106464
 20
-355.4999999999997
 30
0.0
 40
2.999999999996561
 50
9.999999999998465
 51
90.0
  0
LINE
  5
47E
  8
1
  6
CONTINUOUS
 62
     7
 10
1529.324893683266
 20
-408.5000000000003
 30
0.0
 11
1542.675106316727
 21
-408.5000000000003
 31
0.0
  0
LINE
  5
47F
  8
1
  6
CONTINUOUS
 62
     7
 10
1539.482701106464
 20
-352.5
 30
0.0
 11
1532.517298893528
 21
-352.5
 31
0.0
  0
ARC
  5
480
  8
1
  6
CONTINUOUS
 62
     7
 10
1920.646694420916
 20
-359.9999999999992
 30
0.0
 40
1.999999999998892
 50
270.0
 51
349.9999999999997
  0
LINE
  5
481
  8
1
  6
CONTINUOUS
 62
     7
 10
1900.324893683272
 20
-361.0879555302635
 30
0.0
 11
1900.324893683272
 21
-443.9120444697369
 31
0.0
  0
LINE
  5
482
  8
1
  6
CONTINUOUS
 62
     7
 10
1541.999999999994
 20
-408.4999999999998
 30
0.0
 11
1541.999999999994
 21
-451.1319332953966
 31
0.0
  0
LINE
  5
483
  8
1
  6
CONTINUOUS
 62
     7
 10
1901.5628756345
 20
-450.0209445330008
 30
0.0
 11
1900.616309926944
 21
-444.6527036446655
 31
0.0
  0
LINE
  5
484
  8
1
  6
CONTINUOUS
 62
     7
 10
1902.000000000004
 20
-408.4999999999998
 30
0.0
 11
1902.000000000004
 21
-451.1319332953963
 31
0.0
  0
LINE
  5
485
  8
1
  6
CONTINUOUS
 62
     7
 10
1911.482701106471
 20
-452.4999999999999
 30
0.0
 11
1904.517298893531
 21
-452.4999999999999
 31
0.0
  0
ARC
  5
486
  8
1
  6
CONTINUOUS
 62
     7
 10
1917.353305579091
 20
-359.9999999999992
 30
0.0
 40
1.999999999998892
 50
190.0000000000003
 51
270.0
  0
LINE
  5
487
  8
1
  6
CONTINUOUS
 62
     7
 10
1849.0
 20
-462.5
 30
0.0
 11
1849.0
 21
-347.5
 31
0.0
  0
LINE
  5
488
  8
1
  6
CONTINUOUS
 62
     7
 10
1871.437124365503
 20
-354.9790554669993
 30
0.0
 11
1872.383690073058
 21
-360.3472963553341
 31
0.0
  0
LINE
  5
489
  8
1
  6
CONTINUOUS
 62
     7
 10
1221.32489368327
 20
-396.5000000000001
 30
0.0
 11
1221.32489368327
 21
-408.4999999999999
 31
0.0
  0
LINE
  5
48A
  8
1
  6
CONTINUOUS
 62
     7
 10
1529.324893683266
 20
-396.5000000000001
 30
0.0
 11
1529.324893683266
 21
-408.4999999999999
 31
0.0
  0
ARC
  5
48B
  8
1
  6
CONTINUOUS
 62
     7
 10
1917.353305579091
 20
-444.9999999999954
 30
0.0
 40
1.999999999998892
 50
89.99999999999861
 51
169.9999999999997
  0
LINE
  5
48C
  8
1
  6
CONTINUOUS
 62
     7
 10
1858.999999999998
 20
-462.5
 30
0.0
 11
1858.999999999998
 21
-347.5
 31
0.0
  0
LINE
  5
48D
  8
1
  6
CONTINUOUS
 62
     7
 10
1529.999999999997
 20
-396.5000000000001
 30
0.0
 11
1529.999999999997
 21
-353.8680667046037
 31
0.0
  0
LINE
  5
48E
  8
1
  6
CENTER
 62
     1
 10
1059.000000000004
 20
-402.5000000000002
 30
0.0
 11
2150.000000000001
 21
-402.5000000000002
 31
0.0
  0
LINE
  5
48F
  8
1
  6
CONTINUOUS
 62
     7
 10
1902.000000000004
 20
-396.5000000000001
 30
0.0
 11
1902.000000000004
 21
-353.8680667046037
 31
0.0
  0
LINE
  5
490
  8
1
  6
CONTINUOUS
 62
     7
 10
1901.324893683273
 20
-408.5000000000003
 30
0.0
 11
1914.675106316734
 21
-408.5000000000003
 31
0.0
  0
LINE
  5
491
  8
1
  6
CONTINUOUS
 62
     7
 10
1526.646694420914
 20
-362.0000000000001
 30
0.0
 11
1523.353305579084
 21
-362.0000000000001
 31
0.0
  0
ARC
  5
492
  8
1
  6
CONTINUOUS
 62
     7
 10
2042.240247454301
 20
-353.483026147652
 30
0.0
 40
4.158993780883691
 50
91.9514636027775
 51
118.5001901601505
  0
LINE
  5
493
  8
1
  6
CONTINUOUS
 62
     7
 10
1944.34320973994
 20
-435.1526293616186
 30
0.0
 11
1944.320105260067
 21
-435.1546558342625
 31
0.0
  0
LINE
  5
494
  8
1
  6
CONTINUOUS
 62
     7
 10
1243.324893683269
 20
-396.5000000000001
 30
0.0
 11
1256.675106316729
 21
-396.5000000000001
 31
0.0
  0
LINE
  5
495
  8
1
  6
CONTINUOUS
 62
     7
 10
1300.0
 20
-408.4999999999998
 30
0.0
 11
1300.0
 21
-451.1319332953966
 31
0.0
  0
LINE
  5
496
  8
1
  6
CONTINUOUS
 62
     7
 10
1375.562875634496
 20
-354.9790554669993
 30
0.0
 11
1374.616309926941
 21
-360.347296355334
 31
0.0
  0
ARC
  5
497
  8
1
  6
CONTINUOUS
 62
     7
 10
2042.294783316413
 20
-447.7350678326577
 30
0.0
 40
3.788629445534042
 50
237.2733523355421
 51
267.0321039475966
  0
LINE
  5
498
  8
1
  6
CONTINUOUS
 62
     7
 10
1243.999999999999
 20
-408.4999999999998
 30
0.0
 11
1243.999999999999
 21
-451.1319332953963
 31
0.0
  0
ARC
  5
499
  8
1
  6
CONTINUOUS
 62
     7
 10
1944.366115806271
 20
-354.474610111631
 30
0.0
 40
1.408607614028057
 50
84.3625379902563
 51
102.8810204642733
  0
LINE
  5
49A
  8
1
  6
CONTINUOUS
 62
     7
 10
1234.437124365502
 20
-354.9790554669993
 30
0.0
 11
1235.383690073058
 21
-360.3472963553341
 31
0.0
  0
ARC
  5
49B
  8
1
  6
CONTINUOUS
 62
     7
 10
1882.517298893535
 20
-449.5000000000002
 30
0.0
 40
2.999999999996561
 50
189.9999999999991
 51
270.0
  0
LINE
  5
49C
  8
1
  6
CONTINUOUS
 62
     7
 10
1221.562875634493
 20
-450.0209445330014
 30
0.0
 11
1220.616309926937
 21
-444.6527036446661
 31
0.0
  0
LINE
  5
49D
  8
1
  6
CONTINUOUS
 62
     7
 10
1388.437124365502
 20
-450.0209445330008
 30
0.0
 11
1389.383690073058
 21
-444.6527036446661
 31
0.0
  0
LINE
  5
49E
  8
1
  6
CONTINUOUS
 62
     7
 10
2046.846430634658
 20
-435.4849222692714
 30
0.0
 11
2046.853874915108
 21
-435.50764987331
 31
0.0
  0
LINE
  5
49F
  8
1
  6
CONTINUOUS
 62
     7
 10
1944.320105260071
 20
-435.1546558342625
 30
0.0
 11
1944.297064798288
 21
-435.1577696289381
 31
0.0
  0
LINE
  5
4A0
  8
1
  6
CONTINUOUS
 62
     7
 10
1948.651536007168
 20
-353.4813843996844
 30
0.0
 11
1944.504488394412
 21
-353.072815391585
 31
0.0
  0
LINE
  5
4A1
  8
1
  6
CONTINUOUS
 62
     7
 10
1231.482701106468
 20
-352.5
 30
0.0
 11
1224.517298893532
 21
-352.5
 31
0.0
  0
ARC
  5
4A2
  8
1
  6
CONTINUOUS
 62
     7
 10
1218.646694420918
 20
-359.9999999999992
 30
0.0
 40
1.999999999998892
 50
269.9999999998983
 51
349.9999999999992
  0
ARC
  5
4A3
  8
1
  6
CONTINUOUS
 62
     7
 10
1874.353305579088
 20
-444.9999999999954
 30
0.0
 40
1.999999999998892
 50
90.0
 51
169.9999999999993
  0
LINE
  5
4A4
  8
1
  6
CONTINUOUS
 62
     7
 10
1388.675106316728
 20
-396.5000000000001
 30
0.0
 11
1388.675106316728
 21
-408.4999999999999
 31
0.0
  0
ARC
  5
4A5
  8
1
  6
CONTINUOUS
 62
     7
 10
1944.376572045985
 20
-350.5648461691197
 30
0.0
 40
1.576786142862829
 50
85.34678189155129
 51
102.0141612692952
  0
LINE
  5
4A6
  8
1
  6
CONTINUOUS
 62
     7
 10
1366.437124365507
 20
-354.9790554669993
 30
0.0
 11
1367.383690073063
 21
-360.3472963553341
 31
0.0
  0
LINE
  5
4A7
  8
1
  6
CONTINUOUS
 62
     7
 10
2046.872656835233
 20
-435.6025086125401
 30
0.0
 11
2046.874472392129
 21
-435.6270500884994
 31
0.0
  0
ARC
  5
4A8
  8
1
  6
CONTINUOUS
 62
     7
 10
1231.482701106468
 20
-355.4999999999997
 30
0.0
 40
3.000000000000114
 50
9.999999999999062
 51
90.0
  0
LINE
  5
4A9
  8
1
  6
CONTINUOUS
 62
     7
 10
1277.999999999998
 20
-408.4999999999998
 30
0.0
 11
1277.999999999998
 21
-451.1319332953966
 31
0.0
  0
LINE
  5
4AA
  8
1
  6
CONTINUOUS
 62
     7
 10
1375.32489368327
 20
-396.5000000000001
 30
0.0
 11
1375.32489368327
 21
-408.4999999999999
 31
0.0
  0
LINE
  5
4AB
  8
1
  6
CONTINUOUS
 62
     7
 10
1331.324893683273
 20
-396.5000000000001
 30
0.0
 11
1331.324893683273
 21
-408.4999999999999
 31
0.0
  0
ARC
  5
4AC
  8
1
  6
CONTINUOUS
 62
     7
 10
1947.875078871863
 20
-365.8223746890454
 30
0.0
 40
3.000000000003666
 50
284.9999999999991
 51
0.0000000000012506
  0
LINE
  5
4AD
  8
1
  6
CONTINUOUS
 62
     7
 10
1950.875078871866
 20
-365.8223746890454
 30
0.0
 11
1950.875078871866
 21
-350.4248682652021
 31
0.0
  0
LINE
  5
4AE
  8
1
  6
CONTINUOUS
 62
     7
 10
1943.947484618302
 20
-353.140023684688
 30
0.0
 11
1943.875781121117
 21
-353.2161208099994
 31
0.0
  0
LINE
  5
4AF
  8
1
  6
CONTINUOUS
 62
     7
 10
1221.562875634493
 20
-354.9790554669988
 30
0.0
 11
1220.616309926937
 21
-360.347296355334
 31
0.0
  0
ARC
  5
4B0
  8
1
  6
CONTINUOUS
 62
     7
 10
1944.365674151505
 20
-450.5408234815924
 30
0.0
 40
1.393293424943209
 50
256.7958904001911
 51
275.7178819535078
  0
ARC
  5
4B1
  8
1
  6
CONTINUOUS
 62
     7
 10
1904.517298893537
 20
-355.5000000000001
 30
0.0
 40
2.999999999996561
 50
89.99999999999577
 51
170.0000000000007
  0
LINE
  5
4B2
  8
1
  6
CONTINUOUS
 62
     7
 10
2039.875078871865
 20
-454.5751317347981
 30
0.0
 11
2039.875078871865
 21
-439.1776253109549
 31
0.0
  0
LINE
  5
4B3
  8
1
  6
CONTINUOUS
 62
     7
 10
1950.875078871866
 20
-454.5751317347981
 30
0.0
 11
1950.875078871866
 21
-439.1776253109549
 31
0.0
  0
LINE
  5
4B4
  8
1
  6
CONTINUOUS
 62
     7
 10
1233.999999999998
 20
-408.4999999999998
 30
0.0
 11
1233.999999999998
 21
-451.1319332953966
 31
0.0
  0
LINE
  5
4B5
  8
1
  6
CONTINUOUS
 62
     7
 10
1222.000000000001
 20
-408.4999999999998
 30
0.0
 11
1222.000000000001
 21
-451.1319332953963
 31
0.0
  0
ARC
  5
4B6
  8
1
  6
CONTINUOUS
 62
     7
 10
1218.646694420915
 20
-444.9999999999954
 30
0.0
 40
2.000000000002444
 50
9.999999999826514
 51
90.0
  0
LINE
  5
4B7
  8
1
  6
CONTINUOUS
 62
     7
 10
1948.651536007168
 20
-368.7201521679124
 30
0.0
 11
1944.504488394412
 21
-369.8313502267239
 31
0.0
  0
ARC
  5
4B8
  8
1
  6
CONTINUOUS
 62
     7
 10
1874.353305579088
 20
-359.9999999999992
 30
0.0
 40
1.999999999998892
 50
190.0000000000008
 51
270.0
  0
LINE
  5
4B9
  8
1
  6
CONTINUOUS
 62
     7
 10
1287.562875634499
 20
-450.0209445330008
 30
0.0
 11
1286.616309926943
 21
-444.6527036446661
 31
0.0
  0
ARC
  5
4BA
  8
1
  6
CONTINUOUS
 62
     7
 10
1526.646694420914
 20
-359.9999999999992
 30
0.0
 40
1.999999999998892
 50
270.0
 51
349.9999999999992
  0
LINE
  5
4BB
  8
1
  6
CONTINUOUS
 62
     7
 10
1221.32489368327
 20
-408.5000000000003
 30
0.0
 11
1234.675106316731
 21
-408.5000000000003
 31
0.0
  0
LINE
  5
4BC
  8
1
  6
CONTINUOUS
 62
     7
 10
1344.437124365505
 20
-354.9790554669993
 30
0.0
 11
1345.383690073061
 21
-360.3472963553341
 31
0.0
  0
LINE
  5
4BD
  8
1
  6
CONTINUOUS
 62
     7
 10
1288.000000000003
 20
-396.5000000000001
 30
0.0
 11
1288.000000000003
 21
-353.8680667046037
 31
0.0
  0
LINE
  5
4BE
  8
1
  6
CONTINUOUS
 62
     7
 10
1231.482701106468
 20
-452.4999999999999
 30
0.0
 11
1224.517298893532
 21
-452.4999999999999
 31
0.0
  0
LINE
  5
4BF
  8
1
  6
CONTINUOUS
 62
     7
 10
2046.521059027237
 20
-435.1734318700704
 30
0.0
 11
2046.543072221644
 21
-435.1806918777882
 31
0.0
  0
LINE
  5
4C0
  8
1
  6
CONTINUOUS
 62
     7
 10
2046.585826308703
 20
-435.1982092380229
 30
0.0
 11
2046.606588432832
 21
-435.208472607357
 31
0.0
  0
LINE
  5
4C1
  8
1
  6
CONTINUOUS
 62
     7
 10
2046.245669349314
 20
-353.072815391585
 30
0.0
 11
2042.098621736557
 21
-353.4813843996843
 31
0.0
  0
LINE
  5
4C2
  8
1
  6
CONTINUOUS
 62
     7
 10
1944.481990071146
 20
-435.1631887171572
 30
0.0
 11
1944.459177849128
 21
-435.1587700080939
 31
0.0
  0
ARC
  5
4C3
  8
1
  6
CONTINUOUS
 62
     7
 10
1526.646694420914
 20
-445.000000000001
 30
0.0
 40
1.999999999998892
 50
10.00000000000078
 51
90.0
  0
LINE
  5
4C4
  8
1
  6
CONTINUOUS
 62
     7
 10
1407.482701106466
 20
-452.4999999999999
 30
0.0
 11
1400.51729889353
 21
-452.4999999999999
 31
0.0
  0
ARC
  5
4C5
  8
1
  6
CONTINUOUS
 62
     7
 10
1532.51729889353
 20
-355.5000000000001
 30
0.0
 40
2.999999999996561
 50
89.99999999999153
 51
169.9999999999996
  0
ARC
  5
4C6
  8
1
  6
CONTINUOUS
 62
     7
 10
1237.353305579087
 20
-445.000000000001
 30
0.0
 40
1.999999999998892
 50
90.0
 51
169.9999999999993
  0
ARC
  5
4C7
  8
1
  6
CONTINUOUS
 62
     7
 10
1237.353305579087
 20
-359.9999999999992
 30
0.0
 40
1.999999999998892
 50
190.0000000000008
 51
270.0
  0
LINE
  5
4C8
  8
1
  6
CONTINUOUS
 62
     7
 10
1429.482701106469
 20
-352.5
 30
0.0
 11
1422.517298893532
 21
-352.5
 31
0.0
  0
ARC
  5
4C9
  8
1
  6
CONTINUOUS
 62
     7
 10
1948.509910289426
 20
-353.483026147652
 30
0.0
 40
4.158993780880138
 50
61.49980983984935
 51
88.04853639722327
  0
LINE
  5
4CA
  8
1
  6
CONTINUOUS
 62
     7
 10
1344.675106316728
 20
-396.5000000000001
 30
0.0
 11
1344.675106316728
 21
-408.4999999999999
 31
0.0
  0
LINE
  5
4CB
  8
1
  6
CONTINUOUS
 62
     7
 10
2046.793839153088
 20
-435.3784288702769
 30
0.0
 11
2046.806050289649
 21
-435.3981099506362
 31
0.0
  0
LINE
  5
4CC
  8
1
  6
CONTINUOUS
 62
     7
 10
2039.875078871865
 20
-365.8223746890454
 30
0.0
 11
2039.875078871865
 21
-350.4248682652021
 31
0.0
  0
LINE
  5
4CD
  8
1
  6
CONTINUOUS
 62
     7
 10
1948.651536007168
 20
-349.3264444480464
 30
0.0
 11
1944.504488394412
 21
-348.9932571808234
 31
0.0
  0
LINE
  5
4CE
  8
1
  6
CONTINUOUS
 62
     7
 10
1220.324893683269
 20
-361.0879555302635
 30
0.0
 11
1220.324893683269
 21
-443.9120444697369
 31
0.0
  0
ARC
  5
4CF
  8
1
  6
CONTINUOUS
 62
     7
 10
2042.400019616379
 20
-357.7227348853735
 30
0.0
 40
4.252045933949233
 50
94.0647068388219
 51
118.2367675173596
  0
ARC
  5
4D0
  8
1
  6
CONTINUOUS
 62
     7
 10
2046.384483592226
 20
-450.5408234815922
 30
0.0
 40
1.393293424946762
 50
264.2821180464932
 51
283.2041095998076
  0
LINE
  5
4D1
  8
1
  6
CONTINUOUS
 62
     7
 10
2046.245669349314
 20
-348.9932571808234
 30
0.0
 11
2042.098621736558
 21
-349.3264444480464
 31
0.0
  0
LINE
  5
4D2
  8
1
  6
CONTINUOUS
 62
     7
 10
1432.437124365503
 20
-450.0209445330008
 30
0.0
 11
1433.383690073058
 21
-444.6527036446661
 31
0.0
  0
LINE
  5
4D3
  8
1
  6
CONTINUOUS
 62
     7
 10
1265.324893683271
 20
-408.5000000000003
 30
0.0
 11
1278.675106316731
 21
-408.5000000000003
 31
0.0
  0
LINE
  5
4D4
  8
1
  6
CONTINUOUS
 62
     7
 10
1264.324893683266
 20
-361.0879555302635
 30
0.0
 11
1264.324893683266
 21
-443.9120444697369
 31
0.0
  0
LINE
  5
4D5
  8
1
  6
CONTINUOUS
 62
     7
 10
1363.48270110647
 20
-452.4999999999999
 30
0.0
 11
1356.517298893533
 21
-452.4999999999999
 31
0.0
  0
LINE
  5
4D6
  8
1
  6
CONTINUOUS
 62
     7
 10
1331.562875634496
 20
-354.9790554669993
 30
0.0
 11
1330.61630992694
 21
-360.347296355334
 31
0.0
  0
LINE
  5
4D7
  8
1
  6
CONTINUOUS
 62
     7
 10
1944.504488394414
 20
-451.9271846084152
 30
0.0
 11
1948.65153600717
 21
-451.5186156003157
 31
0.0
  0
LINE
  5
4D8
  8
1
  6
CONTINUOUS
 62
     7
 10
1923.875078871865
 20
-457.5
 30
0.0
 11
2066.875078871865
 21
-457.5
 31
0.0
  0
LINE
  5
4D9
  8
1
  6
CONTINUOUS
 62
     7
 10
1341.482701106464
 20
-352.5
 30
0.0
 11
1334.517298893528
 21
-352.5
 31
0.0
  0
LINE
  5
4DA
  8
1
  6
CONTINUOUS
 62
     7
 10
1300.437124365505
 20
-354.9790554669993
 30
0.0
 11
1301.383690073061
 21
-360.3472963553341
 31
0.0
  0
LINE
  5
4DB
  8
1
  6
CONTINUOUS
 62
     7
 10
1265.999999999998
 20
-408.4999999999998
 30
0.0
 11
1265.999999999998
 21
-451.1319332953963
 31
0.0
  0
LINE
  5
4DC
  8
1
  6
CONTINUOUS
 62
     7
 10
1319.482701106469
 20
-452.4999999999999
 30
0.0
 11
1312.517298893533
 21
-452.4999999999999
 31
0.0
  0
LINE
  5
4DD
  8
1
  6
CONTINUOUS
 62
     7
 10
1288.000000000003
 20
-408.4999999999998
 30
0.0
 11
1288.000000000003
 21
-451.1319332953963
 31
0.0
  0
LINE
  5
4DE
  8
1
  6
CONTINUOUS
 62
     7
 10
1322.675106316733
 20
-396.5000000000001
 30
0.0
 11
1322.675106316733
 21
-408.4999999999999
 31
0.0
  0
LINE
  5
4DF
  8
1
  6
CONTINUOUS
 62
     7
 10
1375.562875634496
 20
-450.0209445330008
 30
0.0
 11
1374.616309926941
 21
-444.6527036446661
 31
0.0
  0
LINE
  5
4E0
  8
1
  6
CONTINUOUS
 62
     7
 10
1256.437124365504
 20
-354.9790554669993
 30
0.0
 11
1257.38369007306
 21
-360.3472963553341
 31
0.0
  0
LINE
  5
4E1
  8
1
  6
CONTINUOUS
 62
     7
 10
2042.098621736556
 20
-455.673555551954
 30
0.0
 11
2046.245669349312
 21
-456.006742819177
 31
0.0
  0
LINE
  5
4E2
  8
1
  6
CONTINUOUS
 62
     7
 10
1265.562875634493
 20
-450.0209445330008
 30
0.0
 11
1264.616309926938
 21
-444.6527036446661
 31
0.0
  0
LINE
  5
4E3
  8
1
  6
CONTINUOUS
 62
     7
 10
1397.324893683269
 20
-396.5000000000001
 30
0.0
 11
1397.324893683269
 21
-408.4999999999999
 31
0.0
  0
LINE
  5
4E4
  8
1
  6
CONTINUOUS
 62
     7
 10
1286.324893683271
 20
-361.0879555302635
 30
0.0
 11
1286.324893683271
 21
-443.9120444697369
 31
0.0
  0
LINE
  5
4E5
  8
1
  6
CONTINUOUS
 62
     7
 10
1407.482701106466
 20
-352.5
 30
0.0
 11
1400.51729889353
 21
-352.5
 31
0.0
  0
LINE
  5
4E6
  8
1
  6
CONTINUOUS
 62
     7
 10
1300.675106316731
 20
-396.5000000000001
 30
0.0
 11
1300.675106316731
 21
-408.4999999999999
 31
0.0
  0
LINE
  5
4E7
  8
1
  6
CONTINUOUS
 62
     7
 10
1243.324893683269
 20
-396.5000000000001
 30
0.0
 11
1243.324893683269
 21
-408.4999999999999
 31
0.0
  0
LINE
  5
4E8
  8
1
  6
CONTINUOUS
 62
     7
 10
1309.562875634494
 20
-354.9790554669993
 30
0.0
 11
1308.616309926938
 21
-360.347296355334
 31
0.0
  0
LINE
  5
4E9
  8
1
  6
CONTINUOUS
 62
     7
 10
1341.482701106464
 20
-452.4999999999999
 30
0.0
 11
1334.517298893528
 21
-452.4999999999999
 31
0.0
  0
LINE
  5
4EA
  8
1
  6
CONTINUOUS
 62
     7
 10
1432.437124365503
 20
-354.9790554669993
 30
0.0
 11
1433.383690073058
 21
-360.3472963553341
 31
0.0
  0
LINE
  5
4EB
  8
1
  6
CONTINUOUS
 62
     7
 10
1287.562875634499
 20
-354.9790554669993
 30
0.0
 11
1286.616309926943
 21
-360.347296355334
 31
0.0
  0
LINE
  5
4EC
  8
1
  6
CONTINUOUS
 62
     7
 10
1344.437124365505
 20
-450.0209445330008
 30
0.0
 11
1345.383690073061
 21
-444.6527036446661
 31
0.0
  0
LINE
  5
4ED
  8
1
  6
CONTINUOUS
 62
     7
 10
1256.0
 20
-408.4999999999998
 30
0.0
 11
1256.0
 21
-451.1319332953966
 31
0.0
  0
LINE
  5
4EE
  8
1
  6
CONTINUOUS
 62
     7
 10
1410.67510631673
 20
-396.5000000000001
 30
0.0
 11
1410.67510631673
 21
-408.4999999999999
 31
0.0
  0
LINE
  5
4EF
  8
1
  6
CONTINUOUS
 62
     7
 10
1397.562875634495
 20
-354.9790554669993
 30
0.0
 11
1396.616309926939
 21
-360.347296355334
 31
0.0
  0
LINE
  5
4F0
  8
1
  6
CONTINUOUS
 62
     7
 10
1394.646694420913
 20
-362.0000000000001
 30
0.0
 11
1391.353305579083
 21
-362.0000000000001
 31
0.0
  0
LINE
  5
4F1
  8
1
  6
CONTINUOUS
 62
     7
 10
1256.437124365504
 20
-450.0209445330008
 30
0.0
 11
1257.38369007306
 21
-444.6527036446661
 31
0.0
  0
LINE
  5
4F2
  8
1
  6
CONTINUOUS
 62
     7
 10
1265.324893683271
 20
-396.5000000000001
 30
0.0
 11
1278.675106316731
 21
-396.5000000000001
 31
0.0
  0
LINE
  5
4F3
  8
1
  6
CONTINUOUS
 62
     7
 10
1410.437124365508
 20
-450.0209445330008
 30
0.0
 11
1411.383690073063
 21
-444.6527036446661
 31
0.0
  0
LINE
  5
4F4
  8
1
  6
CONTINUOUS
 62
     7
 10
1389.67510631673
 20
-361.0879555302635
 30
0.0
 11
1389.67510631673
 21
-443.9120444697364
 31
0.0
  0
LINE
  5
4F5
  8
1
  6
CONTINUOUS
 62
     7
 10
1353.562875634494
 20
-450.0209445330008
 30
0.0
 11
1352.616309926939
 21
-444.6527036446661
 31
0.0
  0
LINE
  5
4F6
  8
1
  6
CONTINUOUS
 62
     7
 10
1265.999999999998
 20
-396.5000000000001
 30
0.0
 11
1265.999999999998
 21
-353.8680667046037
 31
0.0
  0
LINE
  5
4F7
  8
1
  6
CONTINUOUS
 62
     7
 10
1262.646694420915
 20
-362.0000000000001
 30
0.0
 11
1259.353305579085
 21
-362.0000000000001
 31
0.0
  0
LINE
  5
4F8
  8
1
  6
CONTINUOUS
 62
     7
 10
1277.999999999998
 20
-396.5000000000001
 30
0.0
 11
1277.999999999998
 21
-353.8680667046033
 31
0.0
  0
LINE
  5
4F9
  8
1
  6
CONTINUOUS
 62
     7
 10
1275.482701106469
 20
-452.4999999999999
 30
0.0
 11
1268.517298893532
 21
-452.4999999999999
 31
0.0
  0
LINE
  5
4FA
  8
1
  6
CONTINUOUS
 62
     7
 10
1331.562875634496
 20
-450.0209445330008
 30
0.0
 11
1330.61630992694
 21
-444.6527036446661
 31
0.0
  0
LINE
  5
4FB
  8
1
  6
CONTINUOUS
 62
     7
 10
1366.437124365507
 20
-450.0209445330008
 30
0.0
 11
1367.383690073063
 21
-444.6527036446661
 31
0.0
  0
LINE
  5
4FC
  8
1
  6
CONTINUOUS
 62
     7
 10
1278.437124365503
 20
-450.0209445330008
 30
0.0
 11
1279.383690073058
 21
-444.6527036446661
 31
0.0
  0
LINE
  5
4FD
  8
1
  6
CONTINUOUS
 62
     7
 10
1309.324893683267
 20
-396.5000000000001
 30
0.0
 11
1322.675106316728
 21
-396.5000000000001
 31
0.0
  0
LINE
  5
4FE
  8
1
  6
CONTINUOUS
 62
     7
 10
1275.482701106469
 20
-352.5
 30
0.0
 11
1268.517298893532
 21
-352.5
 31
0.0
  0
ARC
  5
4FF
  8
1
  6
CONTINUOUS
 62
     7
 10
2042.875078871865
 20
-365.822374689045
 30
0.0
 40
3.000000000000114
 50
180.0000000000014
 51
254.9999999999985
  0
LINE
  5
500
  8
1
  6
CONTINUOUS
 62
     7
 10
1438.646694420913
 20
-362.0000000000001
 30
0.0
 11
1435.353305579084
 21
-362.0000000000001
 31
0.0
  0
LINE
  5
501
  8
1
  6
CONTINUOUS
 62
     7
 10
1367.675106316731
 20
-361.0879555302635
 30
0.0
 11
1367.675106316731
 21
-443.9120444697364
 31
0.0
  0
LINE
  5
502
  8
1
  6
CONTINUOUS
 62
     7
 10
1301.675106316732
 20
-361.0879555302635
 30
0.0
 11
1301.675106316732
 21
-443.9120444697364
 31
0.0
  0
LINE
  5
503
  8
1
  6
CONTINUOUS
 62
     7
 10
1366.675106316733
 20
-396.5000000000001
 30
0.0
 11
1366.675106316733
 21
-408.4999999999999
 31
0.0
  0
LINE
  5
504
  8
1
  6
CONTINUOUS
 62
     7
 10
1322.437124365507
 20
-450.0209445330008
 30
0.0
 11
1323.383690073062
 21
-444.6527036446661
 31
0.0
  0
ARC
  5
505
  8
1
  6
CONTINUOUS
 62
     7
 10
1947.874713473211
 20
-439.1779056912044
 30
0.0
 40
3.000365411754302
 50
0.0053542161682411
 51
74.99464578383248
  0
LINE
  5
506
  8
1
  6
CONTINUOUS
 62
     7
 10
1345.675106316733
 20
-361.0879555302635
 30
0.0
 11
1345.675106316733
 21
-443.9120444697364
 31
0.0
  0
ARC
  5
507
  8
1
  6
CONTINUOUS
 62
     7
 10
1948.479992908445
 20
-451.465540702858
 30
0.0
 40
4.211509943587544
 50
272.3344158061337
 51
299.3746730810739
  0
LINE
  5
508
  8
1
  6
CONTINUOUS
 62
     7
 10
1279.67510631673
 20
-361.0879555302635
 30
0.0
 11
1279.67510631673
 21
-443.9120444697364
 31
0.0
  0
LINE
  5
509
  8
1
  6
CONTINUOUS
 62
     7
 10
1256.0
 20
-396.5000000000001
 30
0.0
 11
1256.0
 21
-353.8680667046033
 31
0.0
  0
LINE
  5
50A
  8
1
  6
CONTINUOUS
 62
     7
 10
1385.482701106468
 20
-452.4999999999999
 30
0.0
 11
1378.517298893531
 21
-452.4999999999999
 31
0.0
  0
LINE
  5
50B
  8
1
  6
CONTINUOUS
 62
     7
 10
1330.324893683268
 20
-361.0879555302635
 30
0.0
 11
1330.324893683268
 21
-443.9120444697369
 31
0.0
  0
LINE
  5
50C
  8
1
  6
CONTINUOUS
 62
     7
 10
1438.646694420913
 20
-443.0000000000003
 30
0.0
 11
1435.353305579084
 21
-443.0000000000003
 31
0.0
  0
LINE
  5
50D
  8
1
  6
CONTINUOUS
 62
     7
 10
1419.562875634497
 20
-354.9790554669993
 30
0.0
 11
1418.616309926941
 21
-360.347296355334
 31
0.0
  0
LINE
  5
50E
  8
1
  6
CONTINUOUS
 62
     7
 10
1323.675106316731
 20
-361.0879555302635
 30
0.0
 11
1323.675106316731
 21
-443.9120444697364
 31
0.0
  0
LINE
  5
50F
  8
1
  6
CONTINUOUS
 62
     7
 10
1243.999999999999
 20
-396.5000000000001
 30
0.0
 11
1243.999999999999
 21
-353.8680667046037
 31
0.0
  0
LINE
  5
510
  8
1
  6
CONTINUOUS
 62
     7
 10
1300.0
 20
-396.5000000000001
 30
0.0
 11
1300.0
 21
-353.8680667046033
 31
0.0
  0
LINE
  5
511
  8
1
  6
CONTINUOUS
 62
     7
 10
2046.853874915107
 20
-435.5076498733099
 30
0.0
 11
2046.860212951741
 21
-435.5306396717181
 31
0.0
  0
ARC
  5
512
  8
1
  6
CONTINUOUS
 62
     7
 10
2042.87544427052
 20
-439.1779056912048
 30
0.0
 40
3.000365411757855
 50
105.00535421617
 51
179.9946457838292
  0
LINE
  5
513
  8
1
  6
CONTINUOUS
 62
     7
 10
1374.324893683269
 20
-361.0879555302635
 30
0.0
 11
1374.324893683269
 21
-443.9120444697369
 31
0.0
  0
LINE
  5
514
  8
1
  6
CONTINUOUS
 62
     7
 10
1328.646694420914
 20
-443.0000000000003
 30
0.0
 11
1325.353305579084
 21
-443.0000000000003
 31
0.0
  0
LINE
  5
515
  8
1
  6
CONTINUOUS
 62
     7
 10
1242.324893683271
 20
-361.0879555302635
 30
0.0
 11
1242.324893683271
 21
-443.9120444697369
 31
0.0
  0
LINE
  5
516
  8
1
  6
CONTINUOUS
 62
     7
 10
1089.324893683272
 20
-396.5000000000001
 30
0.0
 11
1089.324893683272
 21
-408.4999999999999
 31
0.0
  0
LINE
  5
517
  8
1
  6
CONTINUOUS
 62
     7
 10
1265.562875634493
 20
-354.9790554669993
 30
0.0
 11
1264.616309926938
 21
-360.347296355334
 31
0.0
  0
LINE
  5
518
  8
1
  6
CONTINUOUS
 62
     7
 10
1353.562875634494
 20
-354.9790554669993
 30
0.0
 11
1352.616309926939
 21
-360.347296355334
 31
0.0
  0
LINE
  5
519
  8
1
  6
CONTINUOUS
 62
     7
 10
1177.32489368327
 20
-396.5000000000001
 30
0.0
 11
1177.32489368327
 21
-408.4999999999999
 31
0.0
  0
LINE
  5
51A
  8
1
  6
CONTINUOUS
 62
     7
 10
1284.646694420913
 20
-362.0000000000001
 30
0.0
 11
1281.353305579084
 21
-362.0000000000001
 31
0.0
  0
LINE
  5
51B
  8
1
  6
CONTINUOUS
 62
     7
 10
1353.324893683268
 20
-396.5000000000001
 30
0.0
 11
1353.324893683268
 21
-408.4999999999999
 31
0.0
  0
LINE
  5
51C
  8
1
  6
CONTINUOUS
 62
     7
 10
1287.324893683269
 20
-396.5000000000001
 30
0.0
 11
1287.324893683269
 21
-408.4999999999999
 31
0.0
  0
LINE
  5
51D
  8
1
  6
CONTINUOUS
 62
     7
 10
1278.675106316733
 20
-396.5000000000001
 30
0.0
 11
1278.675106316733
 21
-408.4999999999999
 31
0.0
  0
LINE
  5
51E
  8
1
  6
CONTINUOUS
 62
     7
 10
1319.482701106469
 20
-352.5
 30
0.0
 11
1312.517298893533
 21
-352.5
 31
0.0
  0
LINE
  5
51F
  8
1
  6
CONTINUOUS
 62
     7
 10
1133.562875634495
 20
-450.0209445330008
 30
0.0
 11
1132.61630992694
 21
-444.6527036446661
 31
0.0
  0
LINE
  5
520
  8
1
  6
CONTINUOUS
 62
     7
 10
1385.482701106468
 20
-352.5
 30
0.0
 11
1378.517298893531
 21
-352.5
 31
0.0
  0
LINE
  5
521
  8
1
  6
CONTINUOUS
 62
     7
 10
1297.482701106467
 20
-452.4999999999999
 30
0.0
 11
1290.517298893531
 21
-452.4999999999999
 31
0.0
  0
LINE
  5
522
  8
1
  6
CONTINUOUS
 62
     7
 10
1067.562875634493
 20
-354.9790554669993
 30
0.0
 11
1066.616309926937
 21
-360.347296355334
 31
0.0
  0
LINE
  5
523
  8
1
  6
CONTINUOUS
 62
     7
 10
1352.32489368327
 20
-361.0879555302635
 30
0.0
 11
1352.32489368327
 21
-443.9120444697369
 31
0.0
  0
LINE
  5
524
  8
1
  6
CONTINUOUS
 62
     7
 10
1177.562875634496
 20
-450.0209445330008
 30
0.0
 11
1176.61630992694
 21
-444.6527036446661
 31
0.0
  0
LINE
  5
525
  8
1
  6
CONTINUOUS
 62
     7
 10
1460.646694420916
 20
-443.0000000000003
 30
0.0
 11
1457.353305579085
 21
-443.0000000000003
 31
0.0
  0
LINE
  5
526
  8
1
  6
CONTINUOUS
 62
     7
 10
1460.646694420916
 20
-362.0000000000001
 30
0.0
 11
1457.353305579085
 21
-362.0000000000001
 31
0.0
  0
LINE
  5
527
  8
1
  6
CONTINUOUS
 62
     7
 10
1168.437124365507
 20
-450.0209445330008
 30
0.0
 11
1169.383690073063
 21
-444.6527036446661
 31
0.0
  0
LINE
  5
528
  8
1
  6
CONTINUOUS
 62
     7
 10
1411.675106316728
 20
-361.0879555302635
 30
0.0
 11
1411.675106316728
 21
-443.9120444697364
 31
0.0
  0
LINE
  5
529
  8
1
  6
CONTINUOUS
 62
     7
 10
1479.353305579088
 20
-362.0000000000001
 30
0.0
 11
1482.646694420918
 21
-362.0000000000001
 31
0.0
  0
LINE
  5
52A
  8
1
  6
CONTINUOUS
 62
     7
 10
1287.324893683269
 20
-408.5000000000003
 30
0.0
 11
1300.67510631673
 21
-408.5000000000003
 31
0.0
  0
LINE
  5
52B
  8
1
  6
CONTINUOUS
 62
     7
 10
1287.324893683269
 20
-396.5000000000001
 30
0.0
 11
1300.67510631673
 21
-396.5000000000001
 31
0.0
  0
LINE
  5
52C
  8
1
  6
CONTINUOUS
 62
     7
 10
1300.437124365505
 20
-450.0209445330008
 30
0.0
 11
1301.383690073061
 21
-444.6527036446661
 31
0.0
  0
LINE
  5
52D
  8
1
  6
CONTINUOUS
 62
     7
 10
1132.324893683268
 20
-361.0879555302635
 30
0.0
 11
1132.324893683268
 21
-443.9120444697369
 31
0.0
  0
LINE
  5
52E
  8
1
  6
CONTINUOUS
 62
     7
 10
1321.999999999999
 20
-396.5000000000001
 30
0.0
 11
1321.999999999999
 21
-353.8680667046033
 31
0.0
  0
LINE
  5
52F
  8
1
  6
CONTINUOUS
 62
     7
 10
1169.675106316734
 20
-361.0879555302635
 30
0.0
 11
1169.675106316734
 21
-443.9120444697364
 31
0.0
  0
LINE
  5
530
  8
1
  6
CONTINUOUS
 62
     7
 10
1397.562875634495
 20
-450.0209445330008
 30
0.0
 11
1396.616309926939
 21
-444.6527036446661
 31
0.0
  0
LINE
  5
531
  8
1
  6
CONTINUOUS
 62
     7
 10
1309.324893683267
 20
-396.5000000000001
 30
0.0
 11
1309.324893683267
 21
-408.4999999999999
 31
0.0
  0
LINE
  5
532
  8
1
  6
CONTINUOUS
 62
     7
 10
1199.562875634495
 20
-354.9790554669993
 30
0.0
 11
1198.616309926939
 21
-360.347296355334
 31
0.0
  0
LINE
  5
533
  8
1
  6
CONTINUOUS
 62
     7
 10
1198.32489368327
 20
-361.0879555302635
 30
0.0
 11
1198.32489368327
 21
-443.9120444697369
 31
0.0
  0
LINE
  5
534
  8
1
  6
CONTINUOUS
 62
     7
 10
1309.999999999998
 20
-396.5000000000001
 30
0.0
 11
1309.999999999998
 21
-353.8680667046037
 31
0.0
  0
LINE
  5
535
  8
1
  6
CONTINUOUS
 62
     7
 10
1147.675106316729
 20
-361.0879555302635
 30
0.0
 11
1147.675106316729
 21
-443.9120444697364
 31
0.0
  0
LINE
  5
536
  8
1
  6
CONTINUOUS
 62
     7
 10
1199.562875634495
 20
-450.0209445330008
 30
0.0
 11
1198.616309926939
 21
-444.6527036446661
 31
0.0
  0
LINE
  5
537
  8
1
  6
CONTINUOUS
 62
     7
 10
1154.32489368327
 20
-361.0879555302635
 30
0.0
 11
1154.32489368327
 21
-443.9120444697369
 31
0.0
  0
LINE
  5
538
  8
1
  6
CONTINUOUS
 62
     7
 10
1297.482701106467
 20
-352.5
 30
0.0
 11
1290.517298893531
 21
-352.5
 31
0.0
  0
LINE
  5
539
  8
1
  6
CONTINUOUS
 62
     7
 10
1243.562875634495
 20
-450.0209445330008
 30
0.0
 11
1242.616309926939
 21
-444.6527036446661
 31
0.0
  0
LINE
  5
53A
  8
1
  6
CONTINUOUS
 62
     7
 10
1155.562875634494
 20
-450.0209445330008
 30
0.0
 11
1154.616309926938
 21
-444.6527036446661
 31
0.0
  0
LINE
  5
53B
  8
1
  6
CONTINUOUS
 62
     7
 10
1257.675106316728
 20
-361.0879555302635
 30
0.0
 11
1257.675106316728
 21
-443.9120444697364
 31
0.0
  0
LINE
  5
53C
  8
1
  6
CONTINUOUS
 62
     7
 10
1190.437124365502
 20
-450.0209445330008
 30
0.0
 11
1191.383690073057
 21
-444.6527036446661
 31
0.0
  0
LINE
  5
53D
  8
1
  6
CONTINUOUS
 62
     7
 10
1350.646694420916
 20
-362.0000000000001
 30
0.0
 11
1347.353305579086
 21
-362.0000000000001
 31
0.0
  0
LINE
  5
53E
  8
1
  6
CONTINUOUS
 62
     7
 10
1388.437124365502
 20
-354.9790554669993
 30
0.0
 11
1389.383690073058
 21
-360.3472963553341
 31
0.0
  0
LINE
  5
53F
  8
1
  6
CONTINUOUS
 62
     7
 10
1328.646694420914
 20
-362.0000000000001
 30
0.0
 11
1325.353305579084
 21
-362.0000000000001
 31
0.0
  0
LINE
  5
540
  8
1
  6
CONTINUOUS
 62
     7
 10
1253.482701106467
 20
-352.5
 30
0.0
 11
1246.51729889353
 21
-352.5
 31
0.0
  0
LINE
  5
541
  8
1
  6
CONTINUOUS
 62
     7
 10
1363.48270110647
 20
-352.5
 30
0.0
 11
1356.517298893533
 21
-352.5
 31
0.0
  0
LINE
  5
542
  8
1
  6
CONTINUOUS
 62
     7
 10
1308.32489368327
 20
-361.0879555302635
 30
0.0
 11
1308.32489368327
 21
-443.9120444697369
 31
0.0
  0
LINE
  5
543
  8
1
  6
CONTINUOUS
 62
     7
 10
1143.482701106467
 20
-452.4999999999999
 30
0.0
 11
1136.517298893531
 21
-452.4999999999999
 31
0.0
  0
LINE
  5
544
  8
1
  6
CONTINUOUS
 62
     7
 10
1309.562875634494
 20
-450.0209445330008
 30
0.0
 11
1308.616309926938
 21
-444.6527036446661
 31
0.0
  0
LINE
  5
545
  8
1
  6
CONTINUOUS
 62
     7
 10
1253.482701106467
 20
-452.4999999999999
 30
0.0
 11
1246.51729889353
 21
-452.4999999999999
 31
0.0
  0
LINE
  5
546
  8
1
  6
CONTINUOUS
 62
     7
 10
1410.437124365508
 20
-354.9790554669993
 30
0.0
 11
1411.383690073063
 21
-360.3472963553341
 31
0.0
  0
LINE
  5
547
  8
1
  6
CONTINUOUS
 62
     7
 10
1394.646694420913
 20
-443.0000000000003
 30
0.0
 11
1391.353305579083
 21
-443.0000000000003
 31
0.0
  0
LINE
  5
548
  8
1
  6
CONTINUOUS
 62
     7
 10
1168.437124365507
 20
-354.9790554669993
 30
0.0
 11
1169.383690073063
 21
-360.3472963553341
 31
0.0
  0
LINE
  5
549
  8
1
  6
CONTINUOUS
 62
     7
 10
1372.646694420915
 20
-443.0000000000003
 30
0.0
 11
1369.353305579084
 21
-443.0000000000003
 31
0.0
  0
LINE
  5
54A
  8
1
  6
CONTINUOUS
 62
     7
 10
1243.562875634495
 20
-354.9790554669993
 30
0.0
 11
1242.616309926939
 21
-360.347296355334
 31
0.0
  0
LINE
  5
54B
  8
1
  6
CONTINUOUS
 62
     7
 10
1322.437124365507
 20
-354.9790554669993
 30
0.0
 11
1323.383690073062
 21
-360.3472963553341
 31
0.0
  0
LINE
  5
54C
  8
1
  6
CONTINUOUS
 62
     7
 10
1155.562875634494
 20
-354.9790554669993
 30
0.0
 11
1154.616309926938
 21
-360.347296355334
 31
0.0
  0
LINE
  5
54D
  8
1
  6
CONTINUOUS
 62
     7
 10
1110.324893683269
 20
-361.0879555302635
 30
0.0
 11
1110.324893683269
 21
-443.9120444697369
 31
0.0
  0
LINE
  5
54E
  8
1
  6
CONTINUOUS
 62
     7
 10
1191.675106316729
 20
-361.0879555302635
 30
0.0
 11
1191.675106316729
 21
-443.9120444697364
 31
0.0
  0
ARC
  5
54F
  8
1
  6
CONTINUOUS
 62
     7
 10
1948.455374427311
 20
-447.7350678326566
 30
0.0
 40
3.788629445537595
 50
272.967896052406
 51
302.7266476644536
  0
LINE
  5
550
  8
1
  6
CONTINUOUS
 62
     7
 10
1265.324893683271
 20
-396.5000000000001
 30
0.0
 11
1265.324893683271
 21
-408.4999999999999
 31
0.0
  0
LINE
  5
551
  8
1
  6
CONTINUOUS
 62
     7
 10
1213.675106316728
 20
-361.0879555302635
 30
0.0
 11
1213.675106316728
 21
-443.9120444697364
 31
0.0
  0
LINE
  5
552
  8
1
  6
CONTINUOUS
 62
     7
 10
1187.482701106468
 20
-352.5
 30
0.0
 11
1180.517298893531
 21
-352.5
 31
0.0
  0
LINE
  5
553
  8
1
  6
CONTINUOUS
 62
     7
 10
1099.48270110647
 20
-452.4999999999999
 30
0.0
 11
1092.517298893534
 21
-452.4999999999999
 31
0.0
  0
LINE
  5
554
  8
1
  6
CONTINUOUS
 62
     7
 10
1146.675106316728
 20
-396.5000000000001
 30
0.0
 11
1146.675106316728
 21
-408.4999999999999
 31
0.0
  0
LINE
  5
555
  8
1
  6
CONTINUOUS
 62
     7
 10
1190.437124365502
 20
-354.9790554669993
 30
0.0
 11
1191.383690073057
 21
-360.3472963553341
 31
0.0
  0
LINE
  5
556
  8
1
  6
CONTINUOUS
 62
     7
 10
1479.353305579088
 20
-443.0000000000003
 30
0.0
 11
1482.646694420918
 21
-443.0000000000003
 31
0.0
  0
LINE
  5
557
  8
1
  6
CONTINUOUS
 62
     7
 10
998.6466944209121
 20
-443.0000000000003
 30
0.0
 11
995.3533055790822
 21
-443.0000000000003
 31
0.0
  0
LINE
  5
558
  8
1
  6
CONTINUOUS
 62
     7
 10
1199.324893683272
 20
-396.5000000000001
 30
0.0
 11
1199.324893683272
 21
-408.4999999999999
 31
0.0
  0
LINE
  5
559
  8
1
  6
CONTINUOUS
 62
     7
 10
1306.646694420916
 20
-443.0000000000003
 30
0.0
 11
1303.353305579086
 21
-443.0000000000003
 31
0.0
  0
LINE
  5
55A
  8
1
  6
CONTINUOUS
 62
     7
 10
1014.437124365503
 20
-354.9790554669993
 30
0.0
 11
1015.383690073059
 21
-360.3472963553341
 31
0.0
  0
LINE
  5
55B
  8
1
  6
CONTINUOUS
 62
     7
 10
1033.482701106468
 20
-352.5
 30
0.0
 11
1026.517298893531
 21
-352.5
 31
0.0
  0
LINE
  5
55C
  8
1
  6
CONTINUOUS
 62
     7
 10
1111.562875634494
 20
-354.9790554669993
 30
0.0
 11
1110.616309926938
 21
-360.347296355334
 31
0.0
  0
LINE
  5
55D
  8
1
  6
CONTINUOUS
 62
     7
 10
1146.437124365501
 20
-354.9790554669993
 30
0.0
 11
1147.383690073057
 21
-360.3472963553341
 31
0.0
  0
LINE
  5
55E
  8
1
  6
CONTINUOUS
 62
     7
 10
1059.675106316731
 20
-361.0879555302635
 30
0.0
 11
1059.675106316731
 21
-443.9120444697364
 31
0.0
  0
LINE
  5
55F
  8
1
  6
CONTINUOUS
 62
     7
 10
1036.675106316732
 20
-396.5000000000001
 30
0.0
 11
1036.675106316732
 21
-408.4999999999999
 31
0.0
  0
LINE
  5
560
  8
1
  6
CONTINUOUS
 62
     7
 10
1121.482701106469
 20
-452.4999999999999
 30
0.0
 11
1114.517298893532
 21
-452.4999999999999
 31
0.0
  0
LINE
  5
561
  8
1
  6
CONTINUOUS
 62
     7
 10
1372.646694420915
 20
-362.0000000000001
 30
0.0
 11
1369.353305579084
 21
-362.0000000000001
 31
0.0
  0
LINE
  5
562
  8
1
  6
CONTINUOUS
 62
     7
 10
1121.482701106469
 20
-352.5
 30
0.0
 11
1114.517298893532
 21
-352.5
 31
0.0
  0
LINE
  5
563
  8
1
  6
CONTINUOUS
 62
     7
 10
992.4371243655047
 20
-450.0209445330008
 30
0.0
 11
993.3836900730605
 21
-444.6527036446661
 31
0.0
  0
LINE
  5
564
  8
1
  6
CONTINUOUS
 62
     7
 10
1089.562875634495
 20
-450.0209445330008
 30
0.0
 11
1088.616309926939
 21
-444.6527036446661
 31
0.0
  0
LINE
  5
565
  8
1
  6
CONTINUOUS
 62
     7
 10
1023.32489368327
 20
-396.5000000000001
 30
0.0
 11
1023.32489368327
 21
-408.4999999999999
 31
0.0
  0
LINE
  5
566
  8
1
  6
CONTINUOUS
 62
     7
 10
1080.437124365506
 20
-354.9790554669993
 30
0.0
 11
1081.383690073062
 21
-360.3472963553341
 31
0.0
  0
LINE
  5
567
  8
1
  6
CONTINUOUS
 62
     7
 10
1089.562875634495
 20
-354.9790554669993
 30
0.0
 11
1088.616309926939
 21
-360.347296355334
 31
0.0
  0
LINE
  5
568
  8
1
  6
CONTINUOUS
 62
     7
 10
1256.675106316731
 20
-396.5000000000001
 30
0.0
 11
1256.675106316731
 21
-408.4999999999999
 31
0.0
  0
LINE
  5
569
  8
1
  6
CONTINUOUS
 62
     7
 10
1209.482701106466
 20
-352.5
 30
0.0
 11
1202.51729889353
 21
-352.5
 31
0.0
  0
LINE
  5
56A
  8
1
  6
CONTINUOUS
 62
     7
 10
1124.675106316733
 20
-396.5000000000001
 30
0.0
 11
1124.675106316733
 21
-408.4999999999999
 31
0.0
  0
LINE
  5
56B
  8
1
  6
CONTINUOUS
 62
     7
 10
1212.437124365504
 20
-450.0209445330008
 30
0.0
 11
1213.383690073059
 21
-444.6527036446661
 31
0.0
  0
LINE
  5
56C
  8
1
  6
CONTINUOUS
 62
     7
 10
1102.437124365504
 20
-450.0209445330008
 30
0.0
 11
1103.38369007306
 21
-444.6527036446661
 31
0.0
  0
LINE
  5
56D
  8
1
  6
CONTINUOUS
 62
     7
 10
1099.48270110647
 20
-352.5
 30
0.0
 11
1092.517298893534
 21
-352.5
 31
0.0
  0
LINE
  5
56E
  8
1
  6
CONTINUOUS
 62
     7
 10
1058.67510631673
 20
-396.5000000000001
 30
0.0
 11
1058.67510631673
 21
-408.4999999999999
 31
0.0
  0
LINE
  5
56F
  8
1
  6
CONTINUOUS
 62
     7
 10
1103.675106316732
 20
-361.0879555302635
 30
0.0
 11
1103.675106316732
 21
-443.9120444697364
 31
0.0
  0
LINE
  5
570
  8
1
  6
CONTINUOUS
 62
     7
 10
996.9999999999993
 20
-443.0000000000003
 30
0.0
 11
996.9999999999993
 21
-362.0000000000003
 31
0.0
  0
LINE
  5
571
  8
1
  6
CONTINUOUS
 62
     7
 10
1165.482701106466
 20
-352.5
 30
0.0
 11
1158.517298893529
 21
-352.5
 31
0.0
  0
LINE
  5
572
  8
1
  6
CONTINUOUS
 62
     7
 10
979.5628756344955
 20
-450.0209445330008
 30
0.0
 11
978.6163099269398
 21
-444.6527036446661
 31
0.0
  0
LINE
  5
573
  8
1
  6
CONTINUOUS
 62
     7
 10
1111.562875634494
 20
-450.0209445330008
 30
0.0
 11
1110.616309926938
 21
-444.6527036446661
 31
0.0
  0
LINE
  5
574
  8
1
  6
CONTINUOUS
 62
     7
 10
1011.482701106466
 20
-352.5
 30
0.0
 11
1004.517298893529
 21
-352.5
 31
0.0
  0
LINE
  5
575
  8
1
  6
CONTINUOUS
 62
     7
 10
992.675106316731
 20
-396.5000000000001
 30
0.0
 11
992.675106316731
 21
-408.4999999999999
 31
0.0
  0
LINE
  5
576
  8
1
  6
CONTINUOUS
 62
     7
 10
1396.324893683271
 20
-361.0879555302635
 30
0.0
 11
1396.324893683271
 21
-443.9120444697369
 31
0.0
  0
LINE
  5
577
  8
1
  6
CONTINUOUS
 62
     7
 10
1212.437124365504
 20
-354.9790554669993
 30
0.0
 11
1213.383690073059
 21
-360.3472963553341
 31
0.0
  0
LINE
  5
578
  8
1
  6
CONTINUOUS
 62
     7
 10
1416.646694420918
 20
-362.0000000000001
 30
0.0
 11
1413.353305579089
 21
-362.0000000000001
 31
0.0
  0
LINE
  5
579
  8
1
  6
CONTINUOUS
 62
     7
 10
1067.562875634493
 20
-450.0209445330008
 30
0.0
 11
1066.616309926937
 21
-444.6527036446661
 31
0.0
  0
LINE
  5
57A
  8
1
  6
CONTINUOUS
 62
     7
 10
1102.675106316727
 20
-396.5000000000001
 30
0.0
 11
1102.675106316727
 21
-408.4999999999999
 31
0.0
  0
LINE
  5
57B
  8
1
  6
CONTINUOUS
 62
     7
 10
1133.562875634495
 20
-354.9790554669993
 30
0.0
 11
1132.61630992694
 21
-360.347296355334
 31
0.0
  0
LINE
  5
57C
  8
1
  6
CONTINUOUS
 62
     7
 10
1306.646694420916
 20
-362.0000000000001
 30
0.0
 11
1303.353305579086
 21
-362.0000000000001
 31
0.0
  0
LINE
  5
57D
  8
1
  6
CONTINUOUS
 62
     7
 10
1044.324893683271
 20
-361.0879555302635
 30
0.0
 11
1044.324893683271
 21
-443.9120444697369
 31
0.0
  0
LINE
  5
57E
  8
1
  6
CONTINUOUS
 62
     7
 10
1102.437124365504
 20
-354.9790554669993
 30
0.0
 11
1103.38369007306
 21
-360.3472963553341
 31
0.0
  0
LINE
  5
57F
  8
1
  6
CONTINUOUS
 62
     7
 10
979.3248936832691
 20
-396.5000000000001
 30
0.0
 11
979.3248936832691
 21
-408.4999999999999
 31
0.0
  0
LINE
  5
580
  8
1
  6
CONTINUOUS
 62
     7
 10
1187.482701106468
 20
-452.4999999999999
 30
0.0
 11
1180.517298893531
 21
-452.4999999999999
 31
0.0
  0
LINE
  5
581
  8
1
  6
CONTINUOUS
 62
     7
 10
1023.562875634493
 20
-354.9790554669993
 30
0.0
 11
1022.616309926937
 21
-360.347296355334
 31
0.0
  0
LINE
  5
582
  8
1
  6
CONTINUOUS
 62
     7
 10
1077.482701106468
 20
-352.5
 30
0.0
 11
1070.517298893532
 21
-352.5
 31
0.0
  0
LINE
  5
583
  8
1
  6
CONTINUOUS
 62
     7
 10
1077.482701106468
 20
-452.4999999999999
 30
0.0
 11
1070.517298893532
 21
-452.4999999999999
 31
0.0
  0
LINE
  5
584
  8
1
  6
CONTINUOUS
 62
     7
 10
1045.562875634498
 20
-450.0209445330008
 30
0.0
 11
1044.616309926942
 21
-444.6527036446661
 31
0.0
  0
LINE
  5
585
  8
1
  6
CONTINUOUS
 62
     7
 10
1124.437124365506
 20
-354.9790554669993
 30
0.0
 11
1125.383690073062
 21
-360.3472963553341
 31
0.0
  0
LINE
  5
586
  8
1
  6
CONTINUOUS
 62
     7
 10
1088.324893683267
 20
-361.0879555302635
 30
0.0
 11
1088.324893683267
 21
-443.9120444697369
 31
0.0
  0
LINE
  5
587
  8
1
  6
CONTINUOUS
 62
     7
 10
1262.646694420915
 20
-443.0000000000003
 30
0.0
 11
1259.353305579085
 21
-443.0000000000003
 31
0.0
  0
LINE
  5
588
  8
1
  6
CONTINUOUS
 62
     7
 10
1155.324893683268
 20
-396.5000000000001
 30
0.0
 11
1155.324893683268
 21
-408.4999999999999
 31
0.0
  0
LINE
  5
589
  8
1
  6
CONTINUOUS
 62
     7
 10
1212.67510631673
 20
-396.5000000000001
 30
0.0
 11
1212.67510631673
 21
-408.4999999999999
 31
0.0
  0
LINE
  5
58A
  8
1
  6
CONTINUOUS
 62
     7
 10
1125.67510631673
 20
-361.0879555302635
 30
0.0
 11
1125.67510631673
 21
-443.9120444697364
 31
0.0
  0
LINE
  5
58B
  8
1
  6
CONTINUOUS
 62
     7
 10
1416.646694420918
 20
-443.0000000000003
 30
0.0
 11
1413.353305579089
 21
-443.0000000000003
 31
0.0
  0
LINE
  5
58C
  8
1
  6
CONTINUOUS
 62
     7
 10
1177.562875634496
 20
-354.9790554669993
 30
0.0
 11
1176.61630992694
 21
-360.347296355334
 31
0.0
  0
LINE
  5
58D
  8
1
  6
CONTINUOUS
 62
     7
 10
1278.437124365503
 20
-354.9790554669993
 30
0.0
 11
1279.383690073058
 21
-360.3472963553341
 31
0.0
  0
ARC
  5
58E
  8
1
  6
CONTINUOUS
 62
     7
 10
1846.482701106466
 20
-449.5000000000005
 30
0.0
 40
3.000000000003666
 50
270.0
 51
350.0000000000875
  0
ARC
  5
58F
  8
1
  6
CONTINUOUS
 62
     7
 10
1193.353305579087
 20
-444.9999999999954
 30
0.0
 40
1.999999999998892
 50
89.99999999999861
 51
169.9999999999997
  0
LINE
  5
590
  8
1
  6
CONTINUOUS
 62
     7
 10
1950.660109283933
 20
-455.0385043842367
 30
0.0
 11
1950.752315960758
 21
-454.9327990096461
 31
0.0
  0
ARC
  5
591
  8
1
  6
CONTINUOUS
 62
     7
 10
1846.482701106466
 20
-355.4999999999997
 30
0.0
 40
3.000000000003666
 50
9.999999999999732
 51
90.0
  0
LINE
  5
592
  8
1
  6
CONTINUOUS
 62
     7
 10
1950.820471480042
 20
-454.8179608275238
 30
0.0
 11
1950.861415499408
 21
-454.6982915251311
 31
0.0
  0
ARC
  5
593
  8
1
  6
CONTINUOUS
 62
     7
 10
1861.517298893534
 20
-449.5000000000002
 30
0.0
 40
2.999999999996561
 50
189.9999999999998
 51
270.0000000000026
  0
LINE
  5
594
  8
1
  6
CONTINUOUS
 62
     7
 10
1943.969496154685
 20
-435.3592538641158
 30
0.0
 11
1943.956318590635
 21
-435.3784288702773
 31
0.0
  0
LINE
  5
595
  8
1
  6
CONTINUOUS
 62
     7
 10
1944.354438820659
 20
-369.8479102936938
 30
0.0
 11
1944.378041897317
 21
-369.8483277524442
 31
0.0
  0
LINE
  5
596
  8
1
  6
CONTINUOUS
 62
     7
 10
1858.324893683271
 20
-396.5000000000001
 30
0.0
 11
1871.675106316731
 21
-396.5000000000001
 31
0.0
  0
ARC
  5
597
  8
1
  6
CONTINUOUS
 62
     7
 10
1281.353305579088
 20
-444.9999999999954
 30
0.0
 40
1.999999999998892
 50
90.0
 51
169.9999999999998
  0
LINE
  5
598
  8
1
  6
CONTINUOUS
 62
     7
 10
872.2756341638287
 20
-408.2746675825488
 30
0.0
 11
872.2858878358126
 21
-408.2973920539703
 31
0.0
  0
LINE
  5
599
  8
1
  6
CONTINUOUS
 62
     7
 10
1943.88051971909
 20
-435.5780704661167
 30
0.0
 11
1943.877500908497
 21
-435.6025086125397
 31
0.0
  0
ARC
  5
59A
  8
1
  6
CONTINUOUS
 62
     7
 10
1246.517298893532
 20
-355.5000000000001
 30
0.0
 40
3.000000000000114
 50
90.0
 51
170.0000000000002
  0
ARC
  5
59B
  8
1
  6
CONTINUOUS
 62
     7
 10
1158.517298893531
 20
-449.5000000000002
 30
0.0
 40
3.000000000000114
 50
189.9999999999998
 51
270.0000000000015
  0
LINE
  5
59C
  8
1
  6
CONTINUOUS
 62
     7
 10
1944.22909871649
 20
-435.1734318700704
 30
0.0
 11
1944.207085522083
 21
-435.1806918777882
 31
0.0
  0
LINE
  5
59D
  8
1
  6
CONTINUOUS
 62
     7
 10
872.2419568566528
 20
-408.1549713174994
 30
0.0
 11
872.2462860258412
 21
-408.1795232560111
 31
0.0
  0
ARC
  5
59E
  8
1
  6
CONTINUOUS
 62
     7
 10
1268.517298893534
 20
-449.5000000000002
 30
0.0
 40
2.999999999996561
 50
189.9999999999997
 51
270.0
  0
LINE
  5
59F
  8
1
  6
CONTINUOUS
 62
     7
 10
1353.324893683268
 20
-408.5000000000003
 30
0.0
 11
1366.675106316729
 21
-408.5000000000003
 31
0.0
  0
LINE
  5
5A0
  8
1
  6
CONTINUOUS
 62
     7
 10
1944.164331435025
 20
-435.1982092380229
 30
0.0
 11
1944.143569310895
 21
-435.208472607357
 31
0.0
  0
LINE
  5
5A1
  8
1
  6
CONTINUOUS
 62
     7
 10
2039.890307631935
 20
-350.2950607153732
 30
0.0
 11
2039.935916527969
 21
-350.169168289636
 31
0.0
  0
LINE
  5
5A2
  8
1
  6
CONTINUOUS
 62
     7
 10
1944.251484406997
 20
-435.1671779543502
 30
0.0
 11
1944.229098716493
 21
-435.17343187007
 31
0.0
  0
ARC
  5
5A3
  8
1
  6
CONTINUOUS
 62
     7
 10
1180.517298893534
 20
-449.5000000000002
 30
0.0
 40
2.999999999996561
 50
189.9999999999998
 51
270.0000000000021
  0
LINE
  5
5A4
  8
1
  6
CONTINUOUS
 62
     7
 10
2040.118169646624
 20
-349.935035896802
 30
0.0
 11
2040.255735007262
 21
-349.8280378279769
 31
0.0
  0
LINE
  5
5A5
  8
1
  6
CONTINUOUS
 62
     7
 10
1944.213969464104
 20
-369.8216617539532
 30
0.0
 11
1944.237150709765
 21
-369.8289470572
 31
0.0
  0
ARC
  5
5A6
  8
1
  6
CONTINUOUS
 62
     7
 10
1350.646694420916
 20
-444.9999999999954
 30
0.0
 40
1.999999999998892
 50
10.00000000000023
 51
90.0
  0
LINE
  5
5A7
  8
1
  6
CENTER
 62
     1
 10
2260.0
 20
-402.4999999999999
 30
0.0
 11
2385.0
 21
-402.5000000000002
 31
0.0
  0
LINE
  5
5A8
  8
1
  6
CONTINUOUS
 62
     7
 10
1943.875702864236
 20
-369.3731231151534
 30
0.0
 11
1943.877567177128
 21
-369.3978792276558
 31
0.0
  0
LINE
  5
5A9
  8
1
  6
CONTINUOUS
 62
     7
 10
1943.956318590636
 20
-435.3784288702769
 30
0.0
 11
1943.944107454075
 21
-435.3981099506362
 31
0.0
  0
LINE
  5
5AA
  8
1
  6
CONTINUOUS
 62
     7
 10
2046.701799164125
 20
-349.0225976609935
 30
0.0
 11
2046.806050289653
 21
-349.0582353456663
 31
0.0
  0
LINE
  5
5AB
  8
1
  6
CONTINUOUS
 62
     7
 10
1943.944107454079
 20
-435.3981099506361
 30
0.0
 11
1943.93246780584
 21
-435.4190507002847
 31
0.0
  0
LINE
  5
5AC
  8
1
  6
CONTINUOUS
 62
     7
 10
1943.983596666008
 20
-435.3406464703211
 30
0.0
 11
1943.969496154687
 21
-435.3592538641158
 31
0.0
  0
LINE
  5
5AD
  8
1
  6
CONTINUOUS
 62
     7
 10
872.5082669410873
 20
-408.5253860888172
 30
0.0
 11
872.5307287181986
 21
-408.5362031105673
 31
0.0
  0
LINE
  5
5AE
  8
1
  6
CONTINUOUS
 62
     7
 10
2039.888742244318
 20
-454.698291525131
 30
0.0
 11
2039.875078871864
 21
-454.5751317347979
 31
0.0
  0
LINE
  5
5AF
  8
1
  6
CONTINUOUS
 62
     7
 10
872.2858878358167
 20
-408.2973920539703
 30
0.0
 11
872.2972614830828
 21
-408.3195771737221
 31
0.0
  0
ARC
  5
5B0
  8
1
  6
CONTINUOUS
 62
     7
 10
1196.646694420913
 20
-444.9999999999954
 30
0.0
 40
1.999999999998892
 50
10.00000000000011
 51
90.0
  0
LINE
  5
5B1
  8
1
  6
CONTINUOUS
 62
     7
 10
2040.011789483691
 20
-350.0487585721621
 30
0.0
 11
2040.118169646621
 21
-349.9350358968019
 31
0.0
  0
LINE
  5
5B2
  8
1
  6
CONTINUOUS
 62
     7
 10
1944.185521943278
 20
-435.1889376699951
 30
0.0
 11
1944.164331435028
 21
-435.1982092380228
 31
0.0
  0
LINE
  5
5B3
  8
1
  6
CONTINUOUS
 62
     7
 10
1944.048358579606
 20
-349.0225976609935
 30
0.0
 11
1943.944107454078
 21
-349.0582353456663
 31
0.0
  0
LINE
  5
5B4
  8
1
  6
CONTINUOUS
 62
     7
 10
1836.324893683272
 20
-408.5000000000003
 30
0.0
 11
1849.675106316733
 21
-408.5000000000003
 31
0.0
  0
ARC
  5
5B5
  8
1
  6
CONTINUOUS
 62
     7
 10
1416.646694420918
 20
-444.9999999999954
 30
0.0
 40
1.999999999998892
 50
9.999999999999659
 51
90.0
  0
ARC
  5
5B6
  8
1
  6
CONTINUOUS
 62
     7
 10
1926.517298893536
 20
-355.5000000000001
 30
0.0
 40
3.000000000000114
 50
151.731759279978
 51
170.0000000000003
  0
ARC
  5
5B7
  8
1
  6
CONTINUOUS
 62
     7
 10
1926.517298893536
 20
-449.5000000000002
 30
0.0
 40
3.000000000000114
 50
189.9999999999998
 51
208.268240720022
  0
LINE
  5
5B8
  8
1
  6
CONTINUOUS
 62
     7
 10
872.2369938091546
 20
-408.1053731272417
 30
0.0
 11
872.2388568820813
 21
-408.1302341077092
 31
0.0
  0
ARC
  5
5B9
  8
1
  6
CONTINUOUS
 62
     7
 10
1275.482701106469
 20
-355.4999999999997
 30
0.0
 40
2.999999999996561
 50
9.999999999999709
 51
90.0
  0
ARC
  5
5BA
  8
1
  6
CONTINUOUS
 62
     7
 10
1861.517298893534
 20
-355.5000000000001
 30
0.0
 40
2.999999999996561
 50
89.99999999999736
 51
170.0000000000003
  0
LINE
  5
5BB
  8
1
  6
CONTINUOUS
 62
     7
 10
2046.800470954433
 20
-451.8610900048479
 30
0.0
 11
2046.70274065234
 21
-451.8972817418011
 31
0.0
  0
LINE
  5
5BC
  8
1
  6
CONTINUOUS
 62
     7
 10
1944.274165474094
 20
-435.1619504381368
 30
0.0
 11
1944.251484406995
 21
-435.1671779543502
 31
0.0
  0
ARC
  5
5BD
  8
1
  6
CONTINUOUS
 62
     7
 10
1215.353305579082
 20
-359.9999999999992
 30
0.0
 40
2.000000000002444
 50
190.0000000000003
 51
270.0
  0
LINE
  5
5BE
  8
1
  6
CONTINUOUS
 62
     7
 10
1836.324893683272
 20
-396.5000000000001
 30
0.0
 11
1849.675106316733
 21
-396.5000000000001
 31
0.0
  0
LINE
  5
5BF
  8
1
  6
CONTINUOUS
 62
     7
 10
1943.880660314206
 20
-369.42257119342
 30
0.0
 11
1943.884970779137
 21
-369.4471145547794
 31
0.0
  0
LINE
  5
5C0
  8
1
  6
CONTINUOUS
 62
     7
 10
1943.889944791983
 20
-435.530639671718
 30
0.0
 11
1943.884735959911
 21
-435.5538178568045
 31
0.0
  0
LINE
  5
5C1
  8
1
  6
CONTINUOUS
 62
     7
 10
1858.324893683271
 20
-408.5000000000003
 30
0.0
 11
1871.675106316731
 21
-408.5000000000003
 31
0.0
  0
ARC
  5
5C2
  8
1
  6
CONTINUOUS
 62
     7
 10
1196.646694420913
 20
-359.9999999999992
 30
0.0
 40
1.999999999998892
 50
270.0
 51
349.9999999999997
  0
LINE
  5
5C3
  8
1
  6
CONTINUOUS
 62
     7
 10
2046.806050289653
 20
-349.0582353456662
 30
0.0
 11
2046.875078871865
 21
-349.1323211029649
 31
0.0
  0
LINE
  5
5C4
  8
1
  6
CONTINUOUS
 62
     7
 10
1944.103578686721
 20
-435.2317984423519
 30
0.0
 11
1944.084474422532
 21
-435.2447727542166
 31
0.0
  0
LINE
  5
5C5
  8
1
  6
CONTINUOUS
 62
     7
 10
2046.875078871863
 20
-451.775027825251
 30
0.0
 11
2046.80047095443
 21
-451.8610900048476
 31
0.0
  0
ARC
  5
5C6
  8
1
  6
CONTINUOUS
 62
     7
 10
1180.517298893534
 20
-355.5000000000001
 30
0.0
 40
2.999999999996561
 50
89.99999999999781
 51
170.0000000000003
  0
LINE
  5
5C7
  8
1
  6
CONTINUOUS
 62
     7
 10
1943.875685351599
 20
-435.6270500884991
 30
0.0
 11
1943.875078871863
 21
-435.6516126864205
 31
0.0
  0
LINE
  5
5C8
  8
1
  6
CONTINUOUS
 62
     7
 10
872.2585858668714
 20
-408.2278277716169
 30
0.0
 11
872.2665259593716
 21
-408.2514602560743
 31
0.0
  0
LINE
  5
5C9
  8
1
  6
CONTINUOUS
 62
     7
 10
1944.084474422531
 20
-435.2447727542166
 30
0.0
 11
1944.066047014183
 21
-435.2585625597952
 31
0.0
  0
LINE
  5
5CA
  8
1
  6
CONTINUOUS
 62
     7
 10
1944.378041897319
 20
-369.8483277524442
 30
0.0
 11
1944.40162399046
 21
-369.8476469001879
 31
0.0
  0
LINE
  5
5CB
  8
1
  6
CONTINUOUS
 62
     7
 10
1944.048358579606
 20
-435.2731237821896
 30
0.0
 11
1944.0310010814
 21
-435.2888453448273
 31
0.0
  0
LINE
  5
5CC
  8
1
  6
CONTINUOUS
 62
     7
 10
1944.168847543909
 20
-369.803832556276
 30
0.0
 11
1944.191174187167
 21
-369.8132786436252
 31
0.0
  0
LINE
  5
5CD
  8
1
  6
CONTINUOUS
 62
     7
 10
2046.874454879492
 20
-369.3731231151534
 30
0.0
 11
2046.8725905666
 21
-369.3978792276558
 31
0.0
  0
LINE
  5
5CE
  8
1
  6
CONTINUOUS
 62
     7
 10
872.323252882603
 20
-408.3621102134431
 30
0.0
 11
872.3378060161496
 21
-408.3823523895741
 31
0.0
  0
LINE
  5
5CF
  8
1
  6
CONTINUOUS
 62
     7
 10
1944.260635259197
 20
-369.8350997233055
 30
0.0
 11
1944.284340447439
 21
-369.8400849222095
 31
0.0
  0
LINE
  5
5D0
  8
1
  6
CONTINUOUS
 62
     7
 10
1943.977017912274
 20
-369.6509336352054
 30
0.0
 11
1943.992763842032
 21
-369.6706220385295
 31
0.0
  0
LINE
  5
5D1
  8
1
  6
CONTINUOUS
 62
     7
 10
778.08549067881
 20
-408.4383836090413
 30
0.0
 11
778.0672151885653
 21
-408.4553407858953
 31
0.0
  0
LINE
  5
5D2
  8
1
  6
CONTINUOUS
 62
     7
 10
1943.949686789298
 20
-451.8610900048479
 30
0.0
 11
1944.047417091391
 21
-451.8972817418011
 31
0.0
  0
LINE
  5
5D3
  8
1
  6
CONTINUOUS
 62
     7
 10
778.2264585136907
 20
-408.1795232560112
 30
0.0
 11
778.2209109128808
 21
-408.2038288832567
 31
0.0
  0
LINE
  5
5D4
  8
1
  6
CONTINUOUS
 62
     7
 10
1943.896282828617
 20
-435.5076498733099
 30
0.0
 11
1943.889944791983
 21
-435.5306396717181
 31
0.0
  0
LINE
  5
5D5
  8
1
  6
CONTINUOUS
 62
     7
 10
1944.125930818255
 20
-369.7818907707555
 30
0.0
 11
1944.147072199287
 21
-369.793358321966
 31
0.0
  0
LINE
  5
5D6
  8
1
  6
CONTINUOUS
 62
     7
 10
1943.890487075591
 20
-369.4714248540676
 30
0.0
 11
1943.897197707223
 21
-369.4954176336179
 31
0.0
  0
LINE
  5
5D7
  8
1
  6
CONTINUOUS
 62
     7
 10
1944.104602886266
 20
-369.7688973018527
 30
0.0
 11
1944.125930818254
 21
-369.7818907707557
 31
0.0
  0
LINE
  5
5D8
  8
1
  6
CONTINUOUS
 62
     7
 10
778.1494916569236
 20
-408.3621102134431
 30
0.0
 11
778.1349385233771
 21
-408.3823523895741
 31
0.0
  0
LINE
  5
5D9
  8
1
  6
CONTINUOUS
 62
     7
 10
2046.835962315973
 20
-369.5422251856733
 30
0.0
 11
2046.825651542877
 21
-369.5650603873112
 31
0.0
  0
LINE
  5
5DA
  8
1
  6
CONTINUOUS
 62
     7
 10
778.1868567037171
 20
-408.2973920539703
 30
0.0
 11
778.175483056451
 21
-408.3195771737222
 31
0.0
  0
LINE
  5
5DB
  8
1
  6
CONTINUOUS
 62
     7
 10
777.8717925038356
 20
-408.5617623078865
 30
0.0
 11
777.8476327367423
 21
-408.5679141405024
 31
0.0
  0
LINE
  5
5DC
  8
1
  6
CONTINUOUS
 62
     7
 10
872.6251118027845
 20
-408.5679141405021
 30
0.0
 11
872.6495481809293
 21
-408.5728540609174
 31
0.0
  0
LINE
  5
5DD
  8
1
  6
CONTINUOUS
 62
     7
 10
1943.9050911777
 20
-369.5190084357638
 30
0.0
 11
1943.91419542775
 21
-369.5422251856734
 31
0.0
  0
LINE
  5
5DE
  8
1
  6
CONTINUOUS
 62
     7
 10
778.2307876828773
 20
-408.1549713174994
 30
0.0
 11
778.2264585136891
 21
-408.1795232560111
 31
0.0
  0
LINE
  5
5DF
  8
1
  6
CONTINUOUS
 62
     7
 10
2046.465817296293
 20
-369.8400849222094
 30
0.0
 11
2046.442653323794
 21
-369.8437871914957
 31
0.0
  0
LINE
  5
5E0
  8
1
  6
CONTINUOUS
 62
     7
 10
1943.921842558427
 20
-435.4405488750676
 30
0.0
 11
1943.912254672588
 21
-435.4625306672936
 31
0.0
  0
LINE
  5
5E1
  8
1
  6
CONTINUOUS
 62
     7
 10
1944.307504419935
 20
-369.8437871914957
 30
0.0
 11
1944.330898436271
 21
-369.8463962110173
 31
0.0
  0
LINE
  5
5E2
  8
1
  6
CONTINUOUS
 62
     7
 10
1944.207085522083
 20
-435.180691877788
 30
0.0
 11
1944.185521943276
 21
-435.1889376699953
 31
0.0
  0
LINE
  5
5E3
  8
1
  6
CONTINUOUS
 62
     7
 10
2046.53618827962
 20
-369.8216617539532
 30
0.0
 11
2046.51300703396
 21
-369.8289470572
 31
0.0
  0
LINE
  5
5E4
  8
1
  6
CONTINUOUS
 62
     7
 10
2046.442653323793
 20
-369.8437871914957
 30
0.0
 11
2046.419259307456
 21
-369.8463962110173
 31
0.0
  0
LINE
  5
5E5
  8
1
  6
CONTINUOUS
 62
     7
 10
778.2338876574477
 20
-408.1302341077093
 30
0.0
 11
778.2307876828776
 21
-408.1549713174995
 31
0.0
  0
LINE
  5
5E6
  8
1
  6
CONTINUOUS
 62
     7
 10
778.2357507303757
 20
-408.1053731272417
 30
0.0
 11
778.2338876574488
 21
-408.1302341077092
 31
0.0
  0
LINE
  5
5E7
  8
1
  6
CONTINUOUS
 62
     7
 10
1950.86141549941
 20
-454.698291525131
 30
0.0
 11
1950.875078871863
 21
-454.5751317347979
 31
0.0
  0
LINE
  5
5E8
  8
1
  6
CONTINUOUS
 62
     7
 10
778.1349385233738
 20
-408.3823523895742
 30
0.0
 11
778.1193944913218
 21
-408.4018439892546
 31
0.0
  0
LINE
  5
5E9
  8
1
  6
CONTINUOUS
 62
     7
 10
1943.932467805836
 20
-435.4190507002851
 30
0.0
 11
1943.921842558424
 21
-435.4405488750677
 31
0.0
  0
LINE
  5
5EA
  8
1
  6
CONTINUOUS
 62
     7
 10
1943.998576644382
 20
-435.3226682270619
 30
0.0
 11
1943.98359666601
 21
-435.3406464703209
 31
0.0
  0
LINE
  5
5EB
  8
1
  6
CONTINUOUS
 62
     7
 10
2046.395718923065
 20
-369.8479102936938
 30
0.0
 11
2046.372115846407
 21
-369.8483277524442
 31
0.0
  0
LINE
  5
5EC
  8
1
  6
CONTINUOUS
 62
     7
 10
872.4445004336494
 20
-408.4864191872695
 30
0.0
 11
872.4650991378338
 21
-408.500463145987
 31
0.0
  0
LINE
  5
5ED
  8
1
  6
CONTINUOUS
 62
     7
 10
777.9644775984393
 20
-408.5253860888172
 30
0.0
 11
777.942015821328
 21
-408.5362031105674
 31
0.0
  0
LINE
  5
5EE
  8
1
  6
CONTINUOUS
 62
     7
 10
2046.666226782349
 20
-369.7548274477633
 30
0.0
 11
2046.645554857463
 21
-369.7688973018529
 31
0.0
  0
LINE
  5
5EF
  8
1
  6
CONTINUOUS
 62
     7
 10
1943.948587993897
 20
-369.6092557305836
 30
0.0
 11
1943.962279352705
 21
-369.6304506646242
 31
0.0
  0
LINE
  5
5F0
  8
1
  6
CONTINUOUS
 62
     7
 10
1943.884970779137
 20
-369.4471145547795
 30
0.0
 11
1943.890487075586
 21
-369.4714248540675
 31
0.0
  0
LINE
  5
5F1
  8
1
  6
CONTINUOUS
 62
     7
 10
2046.85967066814
 20
-369.4714248540676
 30
0.0
 11
2046.852960036508
 21
-369.4954176336179
 31
0.0
  0
LINE
  5
5F2
  8
1
  6
CONTINUOUS
 62
     7
 10
872.3097268289499
 20
-408.3411677861013
 30
0.0
 11
872.323252882608
 21
-408.3621102134433
 31
0.0
  0
LINE
  5
5F3
  8
1
  6
CONTINUOUS
 62
     7
 10
872.3378060161529
 20
-408.3823523895742
 30
0.0
 11
872.3533500482048
 21
-408.4018439892546
 31
0.0
  0
LINE
  5
5F4
  8
1
  6
CONTINUOUS
 62
     7
 10
1950.752315960755
 20
-454.9327990096461
 30
0.0
 11
1950.820471480042
 21
-454.8179608275238
 31
0.0
  0
LINE
  5
5F5
  8
1
  6
CONTINUOUS
 62
     7
 10
872.5771289446391
 20
-408.554413857495
 30
0.0
 11
872.6009520356936
 21
-408.5617623078865
 31
0.0
  0
LINE
  5
5F6
  8
1
  6
CONTINUOUS
 62
     7
 10
1943.935983666416
 20
-369.5874314368803
 30
0.0
 11
1943.948587993892
 21
-369.6092557305838
 31
0.0
  0
LINE
  5
5F7
  8
1
  6
CONTINUOUS
 62
     7
 10
2039.875078871865
 20
-350.424868265202
 30
0.0
 11
2039.890307631938
 21
-350.2950607153731
 31
0.0
  0
LINE
  5
5F8
  8
1
  6
CONTINUOUS
 62
     7
 10
1943.884735959911
 20
-435.5538178568046
 30
0.0
 11
1943.880519719087
 21
-435.5780704661169
 31
0.0
  0
LINE
  5
5F9
  8
1
  6
CONTINUOUS
 62
     7
 10
1944.026523343211
 20
-369.7068137569499
 30
0.0
 11
1944.044823978468
 21
-369.7237202570542
 31
0.0
  0
LINE
  5
5FA
  8
1
  6
CONTINUOUS
 62
     7
 10
2046.513007033961
 20
-369.8289470572
 30
0.0
 11
2046.489522484532
 21
-369.8350997233055
 31
0.0
  0
LINE
  5
5FB
  8
1
  6
CONTINUOUS
 62
     7
 10
1943.992763842032
 20
-369.6706220385295
 30
0.0
 11
1944.009147560603
 21
-369.6890925446893
 31
0.0
  0
LINE
  5
5FC
  8
1
  6
CONTINUOUS
 62
     7
 10
778.2141586726552
 20
-408.2278277716169
 30
0.0
 11
778.206218580155
 21
-408.2514602560744
 31
0.0
  0
LINE
  5
5FD
  8
1
  6
CONTINUOUS
 62
     7
 10
777.9420158213326
 20
-408.5362031105675
 30
0.0
 11
777.9190427819506
 21
-408.5458870587337
 31
0.0
  0
LINE
  5
5FE
  8
1
  6
CONTINUOUS
 62
     7
 10
1944.083930961383
 20
-369.7548274477633
 30
0.0
 11
1944.104602886268
 21
-369.7688973018529
 31
0.0
  0
LINE
  5
5FF
  8
1
  6
CONTINUOUS
 62
     7
 10
1944.01439260958
 20
-435.3053806725076
 30
0.0
 11
1943.998576644378
 21
-435.3226682270617
 31
0.0
  0
LINE
  5
600
  8
1
  6
CONTINUOUS
 62
     7
 10
872.6009520356945
 20
-408.5617623078865
 30
0.0
 11
872.6251118027878
 21
-408.5679141405024
 31
0.0
  0
LINE
  5
601
  8
1
  6
CONTINUOUS
 62
     7
 10
1944.143569310895
 20
-435.2084726073571
 30
0.0
 11
1944.123297688815
 21
-435.2196837010995
 31
0.0
  0
LINE
  5
602
  8
1
  6
CONTINUOUS
 62
     7
 10
1944.123297688818
 20
-435.2196837010993
 30
0.0
 11
1944.103578686719
 21
-435.2317984423519
 31
0.0
  0
ARC
  5
603
  8
1
  6
CONTINUOUS
 62
     7
 10
1187.482701106468
 20
-449.5000000000005
 30
0.0
 40
2.999999999996561
 50
270.0
 51
350.0000000000875
  0
LINE
  5
604
  8
1
  6
CONTINUOUS
 62
     7
 10
872.3533500482055
 20
-408.4018439892547
 30
0.0
 11
872.3698463338501
 21
-408.420536553297
 31
0.0
  0
LINE
  5
605
  8
1
  6
CONTINUOUS
 62
     7
 10
777.8476327367421
 20
-408.5679141405023
 30
0.0
 11
777.8231963585973
 21
-408.5728540609175
 31
0.0
  0
LINE
  5
606
  8
1
  6
CONTINUOUS
 62
     7
 10
776.8890759144305
 20
-396.2624353015445
 30
0.0
 11
777.8477406659252
 21
-396.4314737626873
 31
0.0
  0
LINE
  5
607
  8
1
  6
CONTINUOUS
 62
     7
 10
872.2388568820825
 20
-408.1302341077093
 30
0.0
 11
872.2419568566525
 21
-408.1549713174995
 31
0.0
  0
LINE
  5
608
  8
1
  6
CONTINUOUS
 62
     7
 10
2046.624226925469
 20
-369.7818907707555
 30
0.0
 11
2046.603085544437
 21
-369.793358321966
 31
0.0
  0
LINE
  5
609
  8
1
  6
CONTINUOUS
 62
     7
 10
2046.48952248453
 20
-369.8350997233055
 30
0.0
 11
2046.465817296289
 21
-369.8400849222095
 31
0.0
  0
LINE
  5
60A
  8
1
  6
CONTINUOUS
 62
     7
 10
1944.284340447434
 20
-369.8400849222094
 30
0.0
 11
1944.307504419934
 21
-369.8437871914957
 31
0.0
  0
LINE
  5
60B
  8
1
  6
CONTINUOUS
 62
     7
 10
2046.814174077308
 20
-369.5874314368803
 30
0.0
 11
2046.801569749832
 21
-369.6092557305838
 31
0.0
  0
LINE
  5
60C
  8
1
  6
CONTINUOUS
 62
     7
 10
778.0282441058844
 20
-408.4864191872695
 30
0.0
 11
778.0076454016998
 21
-408.500463145987
 31
0.0
  0
LINE
  5
60D
  8
1
  6
CONTINUOUS
 62
     7
 10
1781.482701106465
 20
-452.4999999999999
 30
0.0
 11
1774.517298893529
 21
-452.4999999999999
 31
0.0
  0
LINE
  5
60E
  8
1
  6
CONTINUOUS
 62
     7
 10
1440.324893683271
 20
-361.0879555302635
 30
0.0
 11
1440.324893683271
 21
-443.9120444697369
 31
0.0
  0
LINE
  5
60F
  8
1
  6
CONTINUOUS
 62
     7
 10
778.22091091288
 20
-408.2038288832568
 30
0.0
 11
778.2141586726584
 21
-408.227827771617
 31
0.0
  0
LINE
  5
610
  8
1
  6
CONTINUOUS
 62
     7
 10
1718.437124365504
 20
-354.9790554669993
 30
0.0
 11
1719.38369007306
 21
-360.3472963553341
 31
0.0
  0
LINE
  5
611
  8
1
  6
CONTINUOUS
 62
     7
 10
2046.845066566028
 20
-369.5190084357638
 30
0.0
 11
2046.835962315978
 21
-369.5422251856734
 31
0.0
  0
LINE
  5
612
  8
1
  6
CONTINUOUS
 62
     7
 10
1944.237150709767
 20
-369.8289470572
 30
0.0
 11
1944.260635259195
 21
-369.8350997233055
 31
0.0
  0
LINE
  5
613
  8
1
  6
CONTINUOUS
 62
     7
 10
1943.948587993897
 20
-455.9438797414122
 30
0.0
 11
1944.044823978468
 21
-455.9765092948433
 31
0.0
  0
LINE
  5
614
  8
1
  6
CONTINUOUS
 62
     7
 10
778.206218580157
 20
-408.2514602560743
 30
0.0
 11
778.1971103756993
 21
-408.2746675825487
 31
0.0
  0
LINE
  5
615
  8
1
  6
CONTINUOUS
 62
     7
 10
1944.063982254987
 20
-369.7397466267447
 30
0.0
 11
1944.083930961383
 21
-369.7548274477633
 31
0.0
  0
LINE
  5
616
  8
1
  6
CONTINUOUS
 62
     7
 10
1944.4251014243
 20
-369.8458660498442
 30
0.0
 11
1944.467342921379
 21
-369.8406377403817
 31
0.0
  0
LINE
  5
617
  8
1
  6
CONTINUOUS
 62
     7
 10
872.2363722697621
 20
-396.8946268727585
 30
0.0
 11
872.2363722697621
 21
-408.1053731272419
 31
0.0
  0
LINE
  5
618
  8
1
  6
CONTINUOUS
 62
     7
 10
1943.897197707218
 20
-369.4954176336178
 30
0.0
 11
1943.9050911777
 21
-369.5190084357636
 31
0.0
  0
LINE
  5
619
  8
1
  6
CONTINUOUS
 62
     7
 10
2046.705333765259
 20
-369.7237202570543
 30
0.0
 11
2046.686175488739
 21
-369.7397466267444
 31
0.0
  0
LINE
  5
61A
  8
1
  6
CONTINUOUS
 62
     7
 10
1784.437124365499
 20
-450.0209445330008
 30
0.0
 11
1785.383690073055
 21
-444.6527036446661
 31
0.0
  0
LINE
  5
61B
  8
1
  6
CONTINUOUS
 62
     7
 10
1617.56287563449
 20
-354.9790554669993
 30
0.0
 11
1616.616309926934
 21
-360.347296355334
 31
0.0
  0
LINE
  5
61C
  8
1
  6
CONTINUOUS
 62
     7
 10
778.0481171706958
 20
-408.4713659256452
 30
0.0
 11
778.0282441058839
 21
-408.4864191872691
 31
0.0
  0
LINE
  5
61D
  8
1
  6
CONTINUOUS
 62
     7
 10
2046.645554857458
 20
-369.7688973018527
 30
0.0
 11
2046.62422692547
 21
-369.7818907707557
 31
0.0
  0
LINE
  5
61E
  8
1
  6
CONTINUOUS
 62
     7
 10
1473.482701106469
 20
-352.5
 30
0.0
 11
1466.517298893532
 21
-352.5
 31
0.0
  0
LINE
  5
61F
  8
1
  6
CONTINUOUS
 62
     7
 10
2046.325056319424
 20
-369.8458660498442
 30
0.0
 11
2046.282814822352
 21
-369.8406377403825
 31
0.0
  0
LINE
  5
620
  8
1
  6
CONTINUOUS
 62
     7
 10
1749.562875634492
 20
-354.9790554669993
 30
0.0
 11
1748.616309926936
 21
-360.347296355334
 31
0.0
  0
LINE
  5
621
  8
1
  6
CONTINUOUS
 62
     7
 10
2046.603085544439
 20
-369.7933583219661
 30
0.0
 11
2046.581310199817
 21
-369.8038325562759
 31
0.0
  0
LINE
  5
622
  8
1
  6
CONTINUOUS
 62
     7
 10
872.2972614830779
 20
-408.319577173722
 30
0.0
 11
872.3097268289469
 21
-408.3411677861012
 31
0.0
  0
LINE
  5
623
  8
1
  6
CONTINUOUS
 62
     7
 10
2046.875078871863
 20
-455.867678897035
 30
0.0
 11
2046.875078871863
 21
-435.6270500884991
 31
0.0
  0
LINE
  5
624
  8
1
  6
CONTINUOUS
 62
     7
 10
2046.865186964587
 20
-369.4471145547795
 30
0.0
 11
2046.859670668138
 21
-369.4714248540675
 31
0.0
  0
LINE
  5
625
  8
1
  6
CONTINUOUS
 62
     7
 10
1943.944107454079
 20
-349.0582353456662
 30
0.0
 11
1943.875078871866
 21
-349.1323211029649
 31
0.0
  0
LINE
  5
626
  8
1
  6
CONTINUOUS
 62
     7
 10
873.5836686250962
 20
-396.2624353015445
 30
0.0
 11
872.6250038736049
 21
-396.4314737626866
 31
0.0
  0
LINE
  5
627
  8
1
  6
CONTINUOUS
 62
     7
 10
2046.757393901699
 20
-369.6706220385295
 30
0.0
 11
2046.741010183128
 21
-369.6890925446893
 31
0.0
  0
LINE
  5
628
  8
1
  6
CONTINUOUS
 62
     7
 10
1943.92450620085
 20
-369.5650603873113
 30
0.0
 11
1943.935983666422
 21
-369.5874314368805
 31
0.0
  0
LINE
  5
629
  8
1
  6
CONTINUOUS
 62
     7
 10
2046.372115846409
 20
-369.8483277524442
 30
0.0
 11
2046.348533753268
 21
-369.8476469001879
 31
0.0
  0
LINE
  5
62A
  8
1
  6
CONTINUOUS
 62
     7
 10
2046.348533753267
 20
-369.8476469001879
 30
0.0
 11
2046.325056319426
 21
-369.8458660498443
 31
0.0
  0
LINE
  5
62B
  8
1
  6
CONTINUOUS
 62
     7
 10
2046.581310199819
 20
-369.803832556276
 30
0.0
 11
2046.558983556561
 21
-369.8132786436252
 31
0.0
  0
LINE
  5
62C
  8
1
  6
CONTINUOUS
 62
     7
 10
1944.044823978465
 20
-369.7237202570543
 30
0.0
 11
1944.063982254985
 21
-369.7397466267444
 31
0.0
  0
LINE
  5
62D
  8
1
  6
CONTINUOUS
 62
     7
 10
1944.191174187167
 20
-369.813278643625
 30
0.0
 11
1944.213969464104
 21
-369.821661753953
 31
0.0
  0
LINE
  5
62E
  8
1
  6
CONTINUOUS
 62
     7
 10
1950.545816852794
 20
-455.1355798628516
 30
0.0
 11
1950.660109283933
 21
-455.0385043842363
 31
0.0
  0
LINE
  5
62F
  8
1
  6
CONTINUOUS
 62
     7
 10
1943.912254672585
 20
-435.4625306672934
 30
0.0
 11
1943.903727109068
 21
-435.4849222692712
 31
0.0
  0
LINE
  5
630
  8
1
  6
CONTINUOUS
 62
     7
 10
1944.330898436273
 20
-369.8463962110175
 30
0.0
 11
1944.354438820662
 21
-369.8479102936939
 31
0.0
  0
LINE
  5
631
  8
1
  6
CONTINUOUS
 62
     7
 10
1683.562875634493
 20
-450.0209445330008
 30
0.0
 11
1682.616309926937
 21
-444.6527036446661
 31
0.0
  0
LINE
  5
632
  8
1
  6
CONTINUOUS
 62
     7
 10
1944.009147560599
 20
-369.6890925446894
 30
0.0
 11
1944.026523343206
 21
-369.7068137569501
 31
0.0
  0
LINE
  5
633
  8
1
  6
CONTINUOUS
 62
     7
 10
778.2363722697645
 20
-396.8946268727585
 30
0.0
 11
778.2363722697645
 21
-408.105373127242
 31
0.0
  0
LINE
  5
634
  8
1
  6
CONTINUOUS
 62
     7
 10
2046.875078871863
 20
-369.3731231151535
 30
0.0
 11
2046.875078871863
 21
-349.132321102965
 31
0.0
  0
LINE
  5
635
  8
1
  6
CONTINUOUS
 62
     7
 10
1944.401623990457
 20
-369.8476469001879
 30
0.0
 11
1944.425101424298
 21
-369.8458660498443
 31
0.0
  0
LINE
  5
636
  8
1
  6
CONTINUOUS
 62
     7
 10
2046.773139831454
 20
-369.6509336352054
 30
0.0
 11
2046.757393901696
 21
-369.6706220385295
 31
0.0
  0
LINE
  5
637
  8
1
  6
CONTINUOUS
 62
     7
 10
1943.877567177128
 20
-369.397879227656
 30
0.0
 11
1943.880660314207
 21
-369.4225711934202
 31
0.0
  0
LINE
  5
638
  8
1
  6
CONTINUOUS
 62
     7
 10
1727.562875634493
 20
-354.9790554669993
 30
0.0
 11
1726.616309926937
 21
-360.347296355334
 31
0.0
  0
LINE
  5
639
  8
1
  6
CONTINUOUS
 62
     7
 10
872.2665259593696
 20
-408.2514602560743
 30
0.0
 11
872.2756341638274
 21
-408.2746675825488
 31
0.0
  0
LINE
  5
63A
  8
1
  6
CONTINUOUS
 62
     7
 10
2046.282740839561
 20
-369.8405273731662
 30
0.0
 11
2046.245669349312
 21
-369.8313502267241
 31
0.0
  0
LINE
  5
63B
  8
1
  6
CONTINUOUS
 62
     7
 10
1770.324893683262
 20
-361.0879555302635
 30
0.0
 11
1770.324893683262
 21
-443.9120444697369
 31
0.0
  0
LINE
  5
63C
  8
1
  6
CONTINUOUS
 62
     7
 10
778.1193944913211
 20
-408.4018439892547
 30
0.0
 11
778.1028982056765
 21
-408.420536553297
 31
0.0
  0
LINE
  5
63D
  8
1
  6
CONTINUOUS
 62
     7
 10
1943.875078871861
 20
-369.3731231151535
 30
0.0
 11
1943.875078871861
 21
-349.132321102965
 31
0.0
  0
LINE
  5
63E
  8
1
  6
CONTINUOUS
 62
     7
 10
777.8956155948911
 20
-408.554413857495
 30
0.0
 11
777.8717925038368
 21
-408.5617623078865
 31
0.0
  0
LINE
  5
63F
  8
1
  6
CONTINUOUS
 62
     7
 10
2040.204340890933
 20
-455.1355798628516
 30
0.0
 11
2040.090048459795
 21
-455.0385043842363
 31
0.0
  0
LINE
  5
640
  8
1
  6
CONTINUOUS
 62
     7
 10
2046.852960036509
 20
-369.4954176336178
 30
0.0
 11
2046.845066566028
 21
-369.5190084357636
 31
0.0
  0
LINE
  5
641
  8
1
  6
CONTINUOUS
 62
     7
 10
1784.675106316729
 20
-396.5000000000001
 30
0.0
 11
1784.675106316729
 21
-408.4999999999999
 31
0.0
  0
LINE
  5
642
  8
1
  6
CONTINUOUS
 62
     7
 10
872.3698463338478
 20
-408.4205365532969
 30
0.0
 11
872.3872538607196
 21
-408.4383836090412
 31
0.0
  0
LINE
  5
643
  8
1
  6
CONTINUOUS
 62
     7
 10
2046.723634400517
 20
-369.7068137569499
 30
0.0
 11
2046.70533376526
 21
-369.7237202570542
 31
0.0
  0
LINE
  5
644
  8
1
  6
CONTINUOUS
 62
     7
 10
1943.914195427751
 20
-369.5422251856733
 30
0.0
 11
1943.924506200847
 21
-369.5650603873112
 31
0.0
  0
LINE
  5
645
  8
1
  6
CONTINUOUS
 62
     7
 10
1944.482131909002
 20
-435.1626593710645
 30
0.0
 11
1948.65153600717
 21
-436.2798478320878
 31
0.0
  0
LINE
  5
646
  8
1
  6
CONTINUOUS
 62
     7
 10
1682.324893683265
 20
-361.0879555302635
 30
0.0
 11
1682.324893683265
 21
-443.9120444697369
 31
0.0
  0
LINE
  5
647
  8
1
  6
CONTINUOUS
 62
     7
 10
1740.675106316725
 20
-396.5000000000001
 30
0.0
 11
1740.675106316725
 21
-408.4999999999999
 31
0.0
  0
LINE
  5
648
  8
1
  6
CONTINUOUS
 62
     7
 10
1595.562875634495
 20
-450.0209445330008
 30
0.0
 11
1594.616309926939
 21
-444.6527036446661
 31
0.0
  0
LINE
  5
649
  8
1
  6
CONTINUOUS
 62
     7
 10
1583.482701106465
 20
-352.5
 30
0.0
 11
1576.517298893529
 21
-352.5
 31
0.0
  0
LINE
  5
64A
  8
1
  6
CONTINUOUS
 62
     7
 10
777.9863722697669
 20
-408.5134628863038
 30
0.0
 11
777.9644775984434
 21
-408.5253860888172
 31
0.0
  0
LINE
  5
64B
  8
1
  6
CONTINUOUS
 62
     7
 10
1548.646694420909
 20
-443.0000000000003
 30
0.0
 11
1545.353305579079
 21
-443.0000000000003
 31
0.0
  0
LINE
  5
64C
  8
1
  6
CONTINUOUS
 62
     7
 10
1771.56287563449
 20
-354.9790554669993
 30
0.0
 11
1770.616309926934
 21
-360.347296355334
 31
0.0
  0
LINE
  5
64D
  8
1
  6
CONTINUOUS
 62
     7
 10
1719.675106316731
 20
-361.0879555302635
 30
0.0
 11
1719.675106316731
 21
-443.9120444697364
 31
0.0
  0
LINE
  5
64E
  8
1
  6
CONTINUOUS
 62
     7
 10
1630.437124365503
 20
-450.0209445330008
 30
0.0
 11
1631.383690073059
 21
-444.6527036446661
 31
0.0
  0
LINE
  5
64F
  8
1
  6
CONTINUOUS
 62
     7
 10
1652.675106316724
 20
-396.5000000000001
 30
0.0
 11
1652.675106316724
 21
-408.4999999999999
 31
0.0
  0
LINE
  5
650
  8
1
  6
CONTINUOUS
 62
     7
 10
1661.562875634491
 20
-354.9790554669993
 30
0.0
 11
1660.616309926935
 21
-360.347296355334
 31
0.0
  0
LINE
  5
651
  8
1
  6
CONTINUOUS
 62
     7
 10
2046.787878391021
 20
-369.6304506646244
 30
0.0
 11
2046.773139831452
 21
-369.6509336352053
 31
0.0
  0
LINE
  5
652
  8
1
  6
CONTINUOUS
 62
     7
 10
1737.482701106465
 20
-452.4999999999999
 30
0.0
 11
1730.517298893529
 21
-452.4999999999999
 31
0.0
  0
LINE
  5
653
  8
1
  6
CONTINUOUS
 62
     7
 10
1741.675106316726
 20
-361.0879555302635
 30
0.0
 11
1741.675106316726
 21
-443.9120444697364
 31
0.0
  0
LINE
  5
654
  8
1
  6
CONTINUOUS
 62
     7
 10
1715.482701106463
 20
-352.5
 30
0.0
 11
1708.517298893526
 21
-352.5
 31
0.0
  0
LINE
  5
655
  8
1
  6
CONTINUOUS
 62
     7
 10
1944.147072199288
 20
-369.7933583219661
 30
0.0
 11
1944.168847543911
 21
-369.8038325562759
 31
0.0
  0
LINE
  5
656
  8
1
  6
CONTINUOUS
 62
     7
 10
778.1971103757015
 20
-408.2746675825488
 30
0.0
 11
778.1868567037176
 21
-408.2973920539703
 31
0.0
  0
LINE
  5
657
  8
1
  6
CONTINUOUS
 62
     7
 10
1718.437124365504
 20
-450.0209445330008
 30
0.0
 11
1719.38369007306
 21
-444.6527036446661
 31
0.0
  0
LINE
  5
658
  8
1
  6
CONTINUOUS
 62
     7
 10
1572.324893683269
 20
-361.0879555302635
 30
0.0
 11
1572.324893683269
 21
-443.9120444697369
 31
0.0
  0
LINE
  5
659
  8
1
  6
CONTINUOUS
 62
     7
 10
1748.324893683268
 20
-361.0879555302635
 30
0.0
 11
1748.324893683268
 21
-443.9120444697369
 31
0.0
  0
LINE
  5
65A
  8
1
  6
CONTINUOUS
 62
     7
 10
2046.741010183125
 20
-369.6890925446894
 30
0.0
 11
2046.723634400518
 21
-369.7068137569501
 31
0.0
  0
LINE
  5
65B
  8
1
  6
CONTINUOUS
 62
     7
 10
1653.675106316729
 20
-361.0879555302635
 30
0.0
 11
1653.675106316729
 21
-443.9120444697364
 31
0.0
  0
LINE
  5
65C
  8
1
  6
CONTINUOUS
 62
     7
 10
1661.562875634491
 20
-450.0209445330008
 30
0.0
 11
1660.616309926935
 21
-444.6527036446661
 31
0.0
  0
LINE
  5
65D
  8
1
  6
CONTINUOUS
 62
     7
 10
1705.324893683265
 20
-396.5000000000001
 30
0.0
 11
1705.324893683265
 21
-408.4999999999999
 31
0.0
  0
LINE
  5
65E
  8
1
  6
CONTINUOUS
 62
     7
 10
1705.562875634491
 20
-354.9790554669993
 30
0.0
 11
1704.616309926935
 21
-360.347296355334
 31
0.0
  0
LINE
  5
65F
  8
1
  6
CONTINUOUS
 62
     7
 10
1630.675106316729
 20
-396.5000000000001
 30
0.0
 11
1630.675106316729
 21
-408.4999999999999
 31
0.0
  0
LINE
  5
660
  8
1
  6
CONTINUOUS
 62
     7
 10
1944.467416904163
 20
-369.840527373167
 30
0.0
 11
1944.504488394415
 21
-369.8313502267241
 31
0.0
  0
LINE
  5
661
  8
1
  6
CONTINUOUS
 62
     7
 10
1649.482701106467
 20
-452.4999999999999
 30
0.0
 11
1642.517298893531
 21
-452.4999999999999
 31
0.0
  0
LINE
  5
662
  8
1
  6
CONTINUOUS
 62
     7
 10
1697.675106316726
 20
-361.0879555302635
 30
0.0
 11
1697.675106316726
 21
-443.9120444697364
 31
0.0
  0
LINE
  5
663
  8
1
  6
CONTINUOUS
 62
     7
 10
1660.324893683267
 20
-361.0879555302635
 30
0.0
 11
1660.324893683267
 21
-443.9120444697369
 31
0.0
  0
LINE
  5
664
  8
1
  6
CONTINUOUS
 62
     7
 10
1649.482701106467
 20
-352.5
 30
0.0
 11
1642.517298893531
 21
-352.5
 31
0.0
  0
LINE
  5
665
  8
1
  6
CONTINUOUS
 62
     7
 10
1727.324893683267
 20
-396.5000000000001
 30
0.0
 11
1727.324893683267
 21
-408.4999999999999
 31
0.0
  0
LINE
  5
666
  8
1
  6
CONTINUOUS
 62
     7
 10
1683.324893683266
 20
-396.5000000000001
 30
0.0
 11
1683.324893683266
 21
-408.4999999999999
 31
0.0
  0
LINE
  5
667
  8
1
  6
CONTINUOUS
 62
     7
 10
2046.558983556557
 20
-369.813278643625
 30
0.0
 11
2046.53618827962
 21
-369.821661753953
 31
0.0
  0
LINE
  5
668
  8
1
  6
CONTINUOUS
 62
     7
 10
1771.56287563449
 20
-450.0209445330008
 30
0.0
 11
1770.616309926934
 21
-444.6527036446661
 31
0.0
  0
LINE
  5
669
  8
1
  6
CONTINUOUS
 62
     7
 10
1671.482701106466
 20
-352.5
 30
0.0
 11
1664.517298893529
 21
-352.5
 31
0.0
  0
LINE
  5
66A
  8
1
  6
CONTINUOUS
 62
     7
 10
1740.437124365499
 20
-354.9790554669993
 30
0.0
 11
1741.383690073055
 21
-360.3472963553341
 31
0.0
  0
LINE
  5
66B
  8
1
  6
CONTINUOUS
 62
     7
 10
1573.324893683267
 20
-396.5000000000001
 30
0.0
 11
1573.324893683267
 21
-408.4999999999999
 31
0.0
  0
LINE
  5
66C
  8
1
  6
CONTINUOUS
 62
     7
 10
1704.324893683267
 20
-361.0879555302635
 30
0.0
 11
1704.324893683267
 21
-443.9120444697369
 31
0.0
  0
LINE
  5
66D
  8
1
  6
CONTINUOUS
 62
     7
 10
1627.482701106465
 20
-352.5
 30
0.0
 11
1620.517298893529
 21
-352.5
 31
0.0
  0
LINE
  5
66E
  8
1
  6
CONTINUOUS
 62
     7
 10
1674.437124365503
 20
-354.9790554669993
 30
0.0
 11
1675.383690073059
 21
-360.3472963553341
 31
0.0
  0
LINE
  5
66F
  8
1
  6
CONTINUOUS
 62
     7
 10
1561.482701106463
 20
-452.4999999999999
 30
0.0
 11
1554.517298893526
 21
-452.4999999999999
 31
0.0
  0
LINE
  5
670
  8
1
  6
CONTINUOUS
 62
     7
 10
1639.324893683269
 20
-396.5000000000001
 30
0.0
 11
1639.324893683269
 21
-408.4999999999999
 31
0.0
  0
LINE
  5
671
  8
1
  6
CONTINUOUS
 62
     7
 10
1652.437124365501
 20
-354.9790554669993
 30
0.0
 11
1653.383690073057
 21
-360.3472963553341
 31
0.0
  0
LINE
  5
672
  8
1
  6
CONTINUOUS
 62
     7
 10
1638.324893683265
 20
-361.0879555302635
 30
0.0
 11
1638.324893683265
 21
-443.9120444697369
 31
0.0
  0
LINE
  5
673
  8
1
  6
CONTINUOUS
 62
     7
 10
1943.962279352703
 20
-369.6304506646244
 30
0.0
 11
1943.977017912272
 21
-369.6509336352053
 31
0.0
  0
LINE
  5
674
  8
1
  6
CONTINUOUS
 62
     7
 10
2039.935916527969
 20
-350.1691682896359
 30
0.0
 11
2040.011789483691
 21
-350.0487585721622
 31
0.0
  0
LINE
  5
675
  8
1
  6
CONTINUOUS
 62
     7
 10
1608.675106316727
 20
-396.5000000000001
 30
0.0
 11
1608.675106316727
 21
-408.4999999999999
 31
0.0
  0
LINE
  5
676
  8
1
  6
CONTINUOUS
 62
     7
 10
2046.825651542881
 20
-369.5650603873113
 30
0.0
 11
2046.814174077309
 21
-369.5874314368805
 31
0.0
  0
LINE
  5
677
  8
1
  6
CONTINUOUS
 62
     7
 10
1639.562875634492
 20
-450.0209445330008
 30
0.0
 11
1638.616309926936
 21
-444.6527036446661
 31
0.0
  0
LINE
  5
678
  8
1
  6
CONTINUOUS
 62
     7
 10
1749.562875634492
 20
-450.0209445330008
 30
0.0
 11
1748.616309926936
 21
-444.6527036446661
 31
0.0
  0
LINE
  5
679
  8
1
  6
CONTINUOUS
 62
     7
 10
1705.562875634491
 20
-450.0209445330008
 30
0.0
 11
1704.616309926935
 21
-444.6527036446661
 31
0.0
  0
LINE
  5
67A
  8
1
  6
CONTINUOUS
 62
     7
 10
1762.437124365501
 20
-354.9790554669993
 30
0.0
 11
1763.383690073057
 21
-360.3472963553341
 31
0.0
  0
LINE
  5
67B
  8
1
  6
CONTINUOUS
 62
     7
 10
1943.875078871861
 20
-455.867678897035
 30
0.0
 11
1943.948587993892
 21
-455.9438797414123
 31
0.0
  0
LINE
  5
67C
  8
1
  6
CONTINUOUS
 62
     7
 10
1573.56287563449
 20
-354.9790554669993
 30
0.0
 11
1572.616309926934
 21
-360.347296355334
 31
0.0
  0
LINE
  5
67D
  8
1
  6
CONTINUOUS
 62
     7
 10
1683.562875634493
 20
-354.9790554669993
 30
0.0
 11
1682.616309926937
 21
-360.347296355334
 31
0.0
  0
LINE
  5
67E
  8
1
  6
CONTINUOUS
 62
     7
 10
1781.482701106465
 20
-352.5
 30
0.0
 11
1774.517298893529
 21
-352.5
 31
0.0
  0
LINE
  5
67F
  8
1
  6
CONTINUOUS
 62
     7
 10
1674.437124365503
 20
-450.0209445330008
 30
0.0
 11
1675.383690073059
 21
-444.6527036446661
 31
0.0
  0
LINE
  5
680
  8
1
  6
CONTINUOUS
 62
     7
 10
1759.482701106463
 20
-352.5
 30
0.0
 11
1752.517298893527
 21
-352.5
 31
0.0
  0
LINE
  5
681
  8
1
  6
CONTINUOUS
 62
     7
 10
1551.562875634495
 20
-354.9790554669993
 30
0.0
 11
1550.616309926939
 21
-360.347296355334
 31
0.0
  0
LINE
  5
682
  8
1
  6
CONTINUOUS
 62
     7
 10
2046.419259307455
 20
-369.8463962110175
 30
0.0
 11
2046.395718923065
 21
-369.8479102936939
 31
0.0
  0
LINE
  5
683
  8
1
  6
CONTINUOUS
 62
     7
 10
1587.675106316726
 20
-361.0879555302635
 30
0.0
 11
1587.675106316726
 21
-443.9120444697364
 31
0.0
  0
LINE
  5
684
  8
1
  6
CONTINUOUS
 62
     7
 10
2046.8725905666
 20
-369.397879227656
 30
0.0
 11
2046.869497429521
 21
-369.4225711934202
 31
0.0
  0
LINE
  5
685
  8
1
  6
CONTINUOUS
 62
     7
 10
1771.324893683267
 20
-396.5000000000001
 30
0.0
 11
1771.324893683267
 21
-408.4999999999999
 31
0.0
  0
LINE
  5
686
  8
1
  6
CONTINUOUS
 62
     7
 10
1617.56287563449
 20
-450.0209445330008
 30
0.0
 11
1616.616309926934
 21
-444.6527036446661
 31
0.0
  0
LINE
  5
687
  8
1
  6
CONTINUOUS
 62
     7
 10
1749.324893683269
 20
-396.5000000000001
 30
0.0
 11
1749.324893683269
 21
-408.4999999999999
 31
0.0
  0
LINE
  5
688
  8
1
  6
CONTINUOUS
 62
     7
 10
1705.324893683265
 20
-408.5000000000003
 30
0.0
 11
1718.675106316726
 21
-408.5000000000003
 31
0.0
  0
LINE
  5
689
  8
1
  6
CONTINUOUS
 62
     7
 10
1608.437124365501
 20
-354.9790554669993
 30
0.0
 11
1609.383690073057
 21
-360.3472963553341
 31
0.0
  0
LINE
  5
68A
  8
1
  6
CONTINUOUS
 62
     7
 10
1740.437124365499
 20
-450.0209445330008
 30
0.0
 11
1741.383690073055
 21
-444.6527036446661
 31
0.0
  0
LINE
  5
68B
  8
1
  6
CONTINUOUS
 62
     7
 10
1763.675106316725
 20
-361.0879555302635
 30
0.0
 11
1763.675106316725
 21
-443.9120444697364
 31
0.0
  0
LINE
  5
68C
  8
1
  6
CONTINUOUS
 62
     7
 10
1762.437124365501
 20
-450.0209445330008
 30
0.0
 11
1763.383690073057
 21
-444.6527036446661
 31
0.0
  0
LINE
  5
68D
  8
1
  6
CONTINUOUS
 62
     7
 10
1652.437124365501
 20
-450.0209445330008
 30
0.0
 11
1653.383690073057
 21
-444.6527036446661
 31
0.0
  0
LINE
  5
68E
  8
1
  6
CONTINUOUS
 62
     7
 10
1627.482701106465
 20
-452.4999999999999
 30
0.0
 11
1620.517298893529
 21
-452.4999999999999
 31
0.0
  0
ARC
  5
68F
  8
1
  6
CONTINUOUS
 62
     7
 10
1611.353305579079
 20
-359.9999999999992
 30
0.0
 40
1.999999999998892
 50
190.0000000000003
 51
270.0
  0
ARC
  5
690
  8
1
  6
CONTINUOUS
 62
     7
 10
1620.517298893528
 20
-355.5000000000001
 30
0.0
 40
3.000000000000114
 50
89.99999999999841
 51
170.0000000000002
  0
LINE
  5
691
  8
1
  6
CONTINUOUS
 62
     7
 10
1564.4371243655
 20
-450.0209445330008
 30
0.0
 11
1565.383690073056
 21
-444.6527036446661
 31
0.0
  0
LINE
  5
692
  8
1
  6
CONTINUOUS
 62
     7
 10
1608.437124365501
 20
-450.0209445330008
 30
0.0
 11
1609.383690073057
 21
-444.6527036446661
 31
0.0
  0
LINE
  5
693
  8
1
  6
CONTINUOUS
 62
     7
 10
1739.999999999994
 20
-408.4999999999998
 30
0.0
 11
1739.999999999994
 21
-451.1319332953966
 31
0.0
  0
LINE
  5
694
  8
1
  6
CONTINUOUS
 62
     7
 10
1561.482701106463
 20
-352.5
 30
0.0
 11
1554.517298893526
 21
-352.5
 31
0.0
  0
LINE
  5
695
  8
1
  6
CONTINUOUS
 62
     7
 10
1675.675106316727
 20
-361.0879555302635
 30
0.0
 11
1675.675106316727
 21
-443.9120444697364
 31
0.0
  0
LINE
  5
696
  8
1
  6
CONTINUOUS
 62
     7
 10
1727.562875634493
 20
-450.0209445330008
 30
0.0
 11
1726.616309926937
 21
-444.6527036446661
 31
0.0
  0
LINE
  5
697
  8
1
  6
CONTINUOUS
 62
     7
 10
1693.482701106464
 20
-452.4999999999999
 30
0.0
 11
1686.517298893528
 21
-452.4999999999999
 31
0.0
  0
LINE
  5
698
  8
1
  6
CONTINUOUS
 62
     7
 10
1661.324893683264
 20
-396.5000000000001
 30
0.0
 11
1661.324893683264
 21
-408.4999999999999
 31
0.0
  0
LINE
  5
699
  8
1
  6
CONTINUOUS
 62
     7
 10
1595.562875634495
 20
-354.9790554669993
 30
0.0
 11
1594.616309926939
 21
-360.347296355334
 31
0.0
  0
LINE
  5
69A
  8
1
  6
CONTINUOUS
 62
     7
 10
1715.482701106463
 20
-452.4999999999999
 30
0.0
 11
1708.517298893526
 21
-452.4999999999999
 31
0.0
  0
LINE
  5
69B
  8
1
  6
CONTINUOUS
 62
     7
 10
1639.562875634492
 20
-354.9790554669993
 30
0.0
 11
1638.616309926936
 21
-360.347296355334
 31
0.0
  0
LINE
  5
69C
  8
1
  6
CONTINUOUS
 62
     7
 10
1762.675106316727
 20
-396.5000000000001
 30
0.0
 11
1762.675106316727
 21
-408.4999999999999
 31
0.0
  0
ARC
  5
69D
  8
1
  6
CONTINUOUS
 62
     7
 10
1620.517298893528
 20
-449.5000000000002
 30
0.0
 40
3.000000000000114
 50
189.9999999999998
 51
270.0000000000015
  0
LINE
  5
69E
  8
1
  6
CONTINUOUS
 62
     7
 10
1785.675106316727
 20
-361.0879555302635
 30
0.0
 11
1785.675106316727
 21
-443.9120444697364
 31
0.0
  0
LINE
  5
69F
  8
1
  6
CONTINUOUS
 62
     7
 10
1737.482701106465
 20
-352.5
 30
0.0
 11
1730.517298893529
 21
-352.5
 31
0.0
  0
ENDSEC
  0
EOF
