  0
SECTION
  2
HEADER
  9
$ACADVER
  1
AC1006
  9
$DWGCODEPAGE
  3
ansi_932
  9
$INSBASE
 10
0.0
 20
0.0
 30
0.0
  9
$EXTMIN
 10
0.0
 20
-775.0
  9
$EXTMAX
 10
2395.0
 20
10.0
  9
$LIMMIN
 10
0.0
 20
0.0
  9
$LIMMAX
 10
12.0
 20
9.0
  9
$ORTHOMODE
 70
     0
  9
$REGENMODE
 70
     1
  9
$FILLMODE
 70
     1
  9
$QTEXTMODE
 70
     0
  9
$MIRRTEXT
 70
     1
  9
$DRAGMODE
 70
     2
  9
$LTSCALE
 40
1.0
  9
$OSMODE
 70
    37
  9
$ATTMODE
 70
     1
  9
$TEXTSIZE
 40
0.2
  9
$TRACEWID
 40
0.05
  9
$TEXTSTYLE
  7
STANDARD
  9
$CLAYER
  8
0
  9
$CELTYPE
  6
BYLAYER
  9
$CECOLOR
 62
   256
  9
$DIMSCALE
 40
1.0
  9
$DIMASZ
 40
3.0
  9
$DIMEXO
 40
0.0625
  9
$DIMDLI
 40
0.38
  9
$DIMRND
 40
0.0
  9
$DIMDLE
 40
0.0
  9
$DIMEXE
 40
1.5
  9
$DIMTP
 40
0.0
  9
$DIMTM
 40
0.0
  9
$DIMTXT
 40
3.0
  9
$DIMCEN
 40
0.09
  9
$DIMTSZ
 40
0.0
  9
$DIMTOL
 70
     0
  9
$DIMLIM
 70
     0
  9
$DIMTIH
 70
     1
  9
$DIMTOH
 70
     1
  9
$DIMSE1
 70
     0
  9
$DIMSE2
 70
     0
  9
$DIMTAD
 70
     1
  9
$DIMZIN
 70
     0
  9
$DIMBLK
  1

  9
$DIMASO
 70
     1
  9
$DIMSHO
 70
     1
  9
$DIMPOST
  1

  9
$DIMAPOST
  1

  9
$DIMALT
 70
     0
  9
$DIMALTD
 70
     2
  9
$DIMALTF
 40
25.4
  9
$DIMLFAC
 40
1.0
  9
$DIMTOFL
 70
     0
  9
$DIMTVP
 40
0.0
  9
$DIMTIX
 70
     0
  9
$DIMSOXD
 70
     0
  9
$DIMSAH
 70
     0
  9
$DIMBLK1
  1

  9
$DIMBLK2
  1

  9
$LUNITS
 70
     2
  9
$LUPREC
 70
     4
  9
$SKETCHINC
 40
0.1
  9
$FILLETRAD
 40
0.5
  9
$AUNITS
 70
     0
  9
$AUPREC
 70
     0
  9
$MENU
  1
.
  9
$ELEVATION
 40
0.0
  9
$THICKNESS
 40
0.0
  9
$LIMCHECK
 70
     0
  9
$CHAMFERA
 40
0.0
  9
$CHAMFERB
 40
0.0
  9
$SKPOLY
 70
     0
  9
$TDCREATE
 40
2460119.720153831
  9
$TDUPDATE
 40
2460119.720154317
  9
$TDINDWG
 40
0.0000000116
  9
$TDUSRTIMER
 40
0.0000000116
  9
$USRTIMER
 70
     1
  9
$ANGBASE
 50
0.0
  9
$ANGDIR
 70
     0
  9
$PDMODE
 70
     0
  9
$PDSIZE
 40
0.0
  9
$PLINEWID
 40
0.0
  9
$COORDS
 70
     1
  9
$SPLFRAME
 70
     0
  9
$SPLINETYPE
 70
     6
  9
$SPLINESEGS
 70
     8
  9
$ATTDIA
 70
     0
  9
$ATTREQ
 70
     1
  9
$HANDLING
 70
     1
  9
$HANDSEED
  5
55D
  9
$SURFTAB1
 70
     6
  9
$SURFTAB2
 70
     6
  9
$SURFTYPE
 70
     6
  9
$SURFU
 70
     6
  9
$SURFV
 70
     6
  9
$UCSNAME
  2

  9
$UCSORG
 10
0.0
 20
0.0
 30
0.0
  9
$UCSXDIR
 10
1.0
 20
0.0
 30
0.0
  9
$UCSYDIR
 10
0.0
 20
1.0
 30
0.0
  9
$USERI1
 70
     0
  9
$USERI2
 70
     0
  9
$USERI3
 70
     0
  9
$USERI4
 70
     0
  9
$USERI5
 70
     0
  9
$USERR1
 40
0.0
  9
$USERR2
 40
0.0
  9
$USERR3
 40
0.0
  9
$USERR4
 40
0.0
  9
$USERR5
 40
0.0
  9
$WORLDVIEW
 70
     1
  0
ENDSEC
  0
SECTION
  2
TABLES
  0
TABLE
  2
VPORT
 70
     1
  0
VPORT
  2
*ACTIVE
 70
     0
 10
0.0
 20
0.0
 11
1.0
 21
1.0
 12
1197.5
 22
-382.5
 13
0.0
 23
0.0
 14
0.5
 24
0.5
 15
0.5
 25
0.5
 16
0.0
 26
0.0
 36
1.0
 17
0.0
 27
0.0
 37
0.0
 40
785.0
 41
1.6
 42
50.0
 43
0.0
 44
0.0
 50
0.0
 51
0.0
 71
     0
 72
   100
 73
     1
 74
     3
 75
     0
 76
     0
 77
     0
 78
     0
  0
ENDTAB
  0
TABLE
  2
LTYPE
 70
     2
  0
LTYPE
  2
CONTINUOUS
 70
     0
  3
Solid line
 72
    65
 73
     0
 40
0.0
  0
LTYPE
  2
CENTER
 70
     0
  3

 72
    65
 73
     0
 40
0.0
  0
ENDTAB
  0
TABLE
  2
LAYER
 70
     2
  0
LAYER
  2
0
 70
     0
 62
     7
  6
CONTINUOUS
  0
LAYER
  2
1
 70
     0
 62
     7
  6
CONTINUOUS
  0
ENDTAB
  0
TABLE
  2
STYLE
 70
     2
  0
STYLE
  2
STANDARD
 70
     0
 40
0.0
 41
1.0
 50
0.0
 71
     0
 42
0.2
  3
txt
  4

  0
STYLE
  2
ＭＳ_ゴシック
 70
     0
 40
0.0
 41
1.0
 50
0.0
 71
     0
 42
0.2
  3
ＭＳ ゴシック.shx
  4

  0
ENDTAB
  0
TABLE
  2
VIEW
 70
     0
  0
ENDTAB
  0
TABLE
  2
UCS
 70
     0
  0
ENDTAB
  0
ENDSEC
  0
SECTION
  2
BLOCKS
  0
ENDSEC
  0
SECTION
  2
ENTITIES
  0
TEXT
  5
70
  8
0
  6
CONTINUOUS
 62
     7
 10
815.0608040515193
 20
-775.5246029761161
 30
0.0
 40
5.0
  1
N-KFEP-81CK
  0
TEXT
  5
71
  8
1
  6
CONTINUOUS
 62
     7
 10
778.2442965042657
 20
-785.3284813365387
 30
0.0
 40
10.0
  1
Ｎ－ＫＦＥＰ－８１ＣＫ
 41
0.771692
 51
15.0
  0
LINE
  5
72
  8
1
  6
CONTINUOUS
 62
     7
 10
1255.999999999999
 20
-648.8680670000001
 30
0.0
 11
1255.999999999999
 21
-696.5
 31
0.0
  0
LINE
  5
73
  8
1
  6
CONTINUOUS
 62
     7
 10
1234.528980999999
 20
-708.5
 30
0.0
 11
1234.528980999999
 21
-696.5
 31
0.0
  0
LINE
  5
74
  8
1
  6
CONTINUOUS
 62
     7
 10
1278.000000000001
 20
-756.1319329999999
 30
0.0
 11
1278.000000000001
 21
-708.4999999999998
 31
0.0
  0
LINE
  5
75
  8
1
  6
CONTINUOUS
 62
     7
 10
1234.000000000004
 20
-756.1319329999999
 30
0.0
 11
1234.000000000004
 21
-708.4999999999998
 31
0.0
  0
ARC
  5
76
  8
1
  6
CONTINUOUS
 62
     7
 10
1262.205877000002
 20
-657.4999999999999
 30
0.0
 40
2.000000000002444
 50
270.0
 51
349.9999999999999
  0
ARC
  5
77
  8
1
  6
CONTINUOUS
 62
     7
 10
1268.517298999998
 20
-650.5000000000002
 30
0.0
 40
3.000000000003666
 50
90.0
 51
170.0
  0
ARC
  5
78
  8
1
  6
CONTINUOUS
 62
     7
 10
1114.517298999998
 20
-650.5000000000002
 30
0.0
 40
3.000000000003666
 50
90.0
 51
170.0
  0
LINE
  5
79
  8
1
  6
CONTINUOUS
 62
     7
 10
1242.175493
 20
-657.8472960000005
 30
0.0
 11
1243.562876
 21
-649.9790550000002
 31
0.0
  0
LINE
  5
7A
  8
1
  6
CONTINUOUS
 62
     7
 10
1103.824508000002
 20
-747.1527030000003
 30
0.0
 11
1102.437125000002
 21
-755.0209440000003
 31
0.0
  0
ARC
  5
7B
  8
1
  6
CONTINUOUS
 62
     7
 10
1303.794122999999
 20
-657.4999999999999
 30
0.0
 40
2.000000000002444
 50
190.0
 51
270.0
  0
LINE
  5
7C
  8
1
  6
CONTINUOUS
 62
     7
 10
1301.824508000002
 20
-747.1527030000003
 30
0.0
 11
1300.437125000002
 21
-755.0209440000003
 31
0.0
  0
LINE
  5
7D
  8
1
  6
CONTINUOUS
 62
     7
 10
1286.175493000001
 20
-657.8472960000005
 30
0.0
 11
1287.562876000001
 21
-649.9790550000002
 31
0.0
  0
ARC
  5
7E
  8
1
  6
CONTINUOUS
 62
     7
 10
1209.482702000002
 20
-754.5000000000002
 30
0.0
 40
3.000000000000114
 50
270.0
 51
349.9999999999999
  0
LINE
  5
7F
  8
1
  6
CONTINUOUS
 62
     7
 10
1125.824507999997
 20
-657.8472960000005
 30
0.0
 11
1124.437124999997
 21
-649.9790550000002
 31
0.0
  0
LINE
  5
80
  8
1
  6
CONTINUOUS
 62
     7
 10
1213.824508000001
 20
-747.1527030000003
 30
0.0
 11
1212.437125000002
 21
-755.0209440000003
 31
0.0
  0
LINE
  5
81
  8
1
  6
CONTINUOUS
 62
     7
 10
1127.794123000004
 20
-659.5000000000001
 30
0.0
 11
1130.205877000005
 21
-659.5000000000001
 31
0.0
  0
LINE
  5
82
  8
1
  6
CONTINUOUS
 62
     7
 10
1242.175493
 20
-747.1527030000003
 30
0.0
 11
1243.562876
 21
-755.0209440000003
 31
0.0
  0
LINE
  5
83
  8
1
  6
CONTINUOUS
 62
     7
 10
1243.471019
 20
-708.5
 30
0.0
 11
1256.528981000002
 21
-708.5
 31
0.0
  0
LINE
  5
84
  8
1
  6
CONTINUOUS
 62
     7
 10
1279.824508
 20
-657.8472960000005
 30
0.0
 11
1278.437125000001
 21
-649.9790550000002
 31
0.0
  0
LINE
  5
85
  8
1
  6
CONTINUOUS
 62
     7
 10
1275.482702
 20
-757.4999999999999
 30
0.0
 11
1268.517298999999
 21
-757.4999999999999
 31
0.0
  0
LINE
  5
86
  8
1
  6
CONTINUOUS
 62
     7
 10
1278.528981
 20
-696.5
 30
0.0
 11
1265.471019
 21
-696.5
 31
0.0
  0
ARC
  5
87
  8
1
  6
CONTINUOUS
 62
     7
 10
1284.205877000001
 20
-747.5000000000001
 30
0.0
 40
1.999999999998892
 50
10.0
 51
90.0
  0
LINE
  5
88
  8
1
  6
CONTINUOUS
 62
     7
 10
1278.528981
 20
-708.5
 30
0.0
 11
1278.528981
 21
-696.5
 31
0.0
  0
ARC
  5
89
  8
1
  6
CONTINUOUS
 62
     7
 10
1196.205877
 20
-657.4999999999999
 30
0.0
 40
2.000000000002444
 50
270.0
 51
349.9999999999999
  0
ARC
  5
8A
  8
1
  6
CONTINUOUS
 62
     7
 10
1240.205877
 20
-747.5000000000001
 30
0.0
 40
1.999999999998892
 50
10.0
 51
90.0
  0
ARC
  5
8B
  8
1
  6
CONTINUOUS
 62
     7
 10
1281.794123000004
 20
-657.4999999999999
 30
0.0
 40
1.999999999998892
 50
190.0
 51
270.0
  0
ARC
  5
8C
  8
1
  6
CONTINUOUS
 62
     7
 10
1268.517298999998
 20
-754.5000000000002
 30
0.0
 40
3.000000000003666
 50
190.0
 51
270.0
  0
LINE
  5
8D
  8
1
  6
CONTINUOUS
 62
     7
 10
1213.824508000001
 20
-657.8472960000005
 30
0.0
 11
1212.437125000002
 21
-649.9790550000002
 31
0.0
  0
LINE
  5
8E
  8
1
  6
CONTINUOUS
 62
     7
 10
1209.482702000002
 20
-647.5000000000001
 30
0.0
 11
1202.517299000001
 21
-647.5000000000001
 31
0.0
  0
LINE
  5
8F
  8
1
  6
CONTINUOUS
 62
     7
 10
1264.175493000002
 20
-747.1527030000003
 30
0.0
 11
1265.562876000003
 21
-755.0209440000003
 31
0.0
  0
ARC
  5
90
  8
1
  6
CONTINUOUS
 62
     7
 10
1281.794123000004
 20
-747.5000000000001
 30
0.0
 40
1.999999999998892
 50
90.0
 51
170.0
  0
LINE
  5
91
  8
1
  6
CONTINUOUS
 62
     7
 10
1101.999999999999
 20
-648.8680670000001
 30
0.0
 11
1101.999999999999
 21
-696.5
 31
0.0
  0
LINE
  5
92
  8
1
  6
CONTINUOUS
 62
     7
 10
1121.482702000001
 20
-757.4999999999999
 30
0.0
 11
1114.517299
 21
-757.4999999999999
 31
0.0
  0
ARC
  5
93
  8
1
  6
CONTINUOUS
 62
     7
 10
1259.794123000001
 20
-747.5000000000001
 30
0.0
 40
1.999999999998892
 50
90.0
 51
170.0
  0
LINE
  5
94
  8
1
  6
CONTINUOUS
 62
     7
 10
1222.0
 20
-756.1319329999999
 30
0.0
 11
1222.0
 21
-708.4999999999998
 31
0.0
  0
ARC
  5
95
  8
1
  6
CONTINUOUS
 62
     7
 10
1218.205877000005
 20
-747.5000000000001
 30
0.0
 40
1.999999999995339
 50
10.0
 51
90.0
  0
LINE
  5
96
  8
1
  6
CONTINUOUS
 62
     7
 10
1220.175493000002
 20
-657.8472960000005
 30
0.0
 11
1221.562876000002
 21
-649.9790550000002
 31
0.0
  0
ARC
  5
97
  8
1
  6
CONTINUOUS
 62
     7
 10
1290.517299
 20
-754.5000000000002
 30
0.0
 40
2.999999999996561
 50
190.0
 51
270.0
  0
LINE
  5
98
  8
1
  6
CONTINUOUS
 62
     7
 10
1279.824508
 20
-747.1527030000003
 30
0.0
 11
1278.437125000001
 21
-755.0209440000003
 31
0.0
  0
LINE
  5
99
  8
1
  6
CONTINUOUS
 62
     7
 10
1301.824508000002
 20
-657.8472960000005
 30
0.0
 11
1300.437125000002
 21
-649.9790550000002
 31
0.0
  0
LINE
  5
9A
  8
1
  6
CONTINUOUS
 62
     7
 10
1221.471019000002
 20
-708.5
 30
0.0
 11
1234.528981000002
 21
-708.5
 31
0.0
  0
LINE
  5
9B
  8
1
  6
CONTINUOUS
 62
     7
 10
1212.528981000001
 20
-696.5
 30
0.0
 11
1199.471019
 21
-696.5
 31
0.0
  0
LINE
  5
9C
  8
1
  6
CONTINUOUS
 62
     7
 10
1244.000000000003
 20
-756.1319329999999
 30
0.0
 11
1244.000000000003
 21
-708.4999999999998
 31
0.0
  0
ARC
  5
9D
  8
1
  6
CONTINUOUS
 62
     7
 10
1224.517299000001
 20
-754.5000000000002
 30
0.0
 40
3.000000000000114
 50
190.0
 51
270.0
  0
LINE
  5
9E
  8
1
  6
CONTINUOUS
 62
     7
 10
1265.471018999999
 20
-696.5
 30
0.0
 11
1265.471018999999
 21
-708.5
 31
0.0
  0
LINE
  5
9F
  8
1
  6
CONTINUOUS
 62
     7
 10
1253.482702000002
 20
-647.5000000000001
 30
0.0
 11
1246.517299000001
 21
-647.5000000000001
 31
0.0
  0
LINE
  5
A0
  8
1
  6
CONTINUOUS
 62
     7
 10
1255.999999999999
 20
-756.1319329999999
 30
0.0
 11
1255.999999999999
 21
-708.4999999999998
 31
0.0
  0
ARC
  5
A1
  8
1
  6
CONTINUOUS
 62
     7
 10
1215.794123000001
 20
-657.4999999999999
 30
0.0
 40
1.999999999998892
 50
190.0
 51
270.0
  0
LINE
  5
A2
  8
1
  6
CONTINUOUS
 62
     7
 10
1220.175493000002
 20
-747.1527030000003
 30
0.0
 11
1221.562876000002
 21
-755.0209440000003
 31
0.0
  0
LINE
  5
A3
  8
1
  6
CONTINUOUS
 62
     7
 10
1211.999999999999
 20
-648.8680670000001
 30
0.0
 11
1211.999999999999
 21
-696.5
 31
0.0
  0
LINE
  5
A4
  8
1
  6
CONTINUOUS
 62
     7
 10
1105.794122999998
 20
-745.5000000000003
 30
0.0
 11
1108.205876999998
 21
-745.5000000000003
 31
0.0
  0
LINE
  5
A5
  8
1
  6
CONTINUOUS
 62
     7
 10
1287.471019000004
 20
-696.5
 30
0.0
 11
1287.471019000004
 21
-708.5
 31
0.0
  0
ARC
  5
A6
  8
1
  6
CONTINUOUS
 62
     7
 10
1231.482702000004
 20
-650.5000000000002
 30
0.0
 40
2.999999999996561
 50
10.0
 51
90.0
  0
LINE
  5
A7
  8
1
  6
CONTINUOUS
 62
     7
 10
1215.794123000001
 20
-745.5000000000003
 30
0.0
 11
1218.205877000002
 21
-745.5000000000003
 31
0.0
  0
LINE
  5
A8
  8
1
  6
CONTINUOUS
 62
     7
 10
1198.175493
 20
-657.8472960000005
 30
0.0
 11
1199.562876
 21
-649.9790550000002
 31
0.0
  0
ARC
  5
A9
  8
1
  6
CONTINUOUS
 62
     7
 10
1215.794123000001
 20
-747.5000000000001
 30
0.0
 40
1.999999999998892
 50
90.0
 51
170.0
  0
LINE
  5
AA
  8
1
  6
CONTINUOUS
 62
     7
 10
1199.471019
 20
-708.5
 30
0.0
 11
1212.528981000001
 21
-708.5
 31
0.0
  0
LINE
  5
AB
  8
1
  6
CONTINUOUS
 62
     7
 10
1234.528980999999
 20
-696.5
 30
0.0
 11
1221.471018999999
 21
-696.5
 31
0.0
  0
ARC
  5
AC
  8
1
  6
CONTINUOUS
 62
     7
 10
1108.205877000002
 20
-747.5000000000001
 30
0.0
 40
1.999999999998892
 50
10.0
 51
90.0
  0
ARC
  5
AD
  8
1
  6
CONTINUOUS
 62
     7
 10
1218.205877000005
 20
-657.4999999999999
 30
0.0
 40
1.999999999995339
 50
270.0
 51
349.9999999999999
  0
LINE
  5
AE
  8
1
  6
CONTINUOUS
 62
     7
 10
1385.482702000003
 20
-757.4999999999999
 30
0.0
 11
1378.517299000003
 21
-757.4999999999999
 31
0.0
  0
ARC
  5
AF
  8
1
  6
CONTINUOUS
 62
     7
 10
1372.205877000002
 20
-657.4999999999999
 30
0.0
 40
1.999999999998892
 50
270.0
 51
349.9999999999999
  0
ARC
  5
B0
  8
1
  6
CONTINUOUS
 62
     7
 10
1391.794122999999
 20
-747.5000000000001
 30
0.0
 40
1.999999999998892
 50
90.0
 51
170.0
  0
ARC
  5
B1
  8
1
  6
CONTINUOUS
 62
     7
 10
1413.794123000001
 20
-657.4999999999999
 30
0.0
 40
1.999999999998892
 50
190.0
 51
270.0
  0
ARC
  5
B2
  8
1
  6
CONTINUOUS
 62
     7
 10
1240.205877
 20
-657.4999999999999
 30
0.0
 40
1.999999999998892
 50
270.0
 51
349.9999999999999
  0
ARC
  5
B3
  8
1
  6
CONTINUOUS
 62
     7
 10
1297.482701999999
 20
-754.5000000000002
 30
0.0
 40
3.000000000003666
 50
270.0
 51
349.9999999999999
  0
LINE
  5
B4
  8
1
  6
CONTINUOUS
 62
     7
 10
1209.482702000002
 20
-757.4999999999999
 30
0.0
 11
1202.517299000001
 21
-757.4999999999999
 31
0.0
  0
LINE
  5
B5
  8
1
  6
CONTINUOUS
 62
     7
 10
1243.471019
 20
-696.5
 30
0.0
 11
1243.471019
 21
-708.5
 31
0.0
  0
LINE
  5
B6
  8
1
  6
CONTINUOUS
 62
     7
 10
1266.000000000001
 20
-756.1319329999999
 30
0.0
 11
1266.000000000001
 21
-708.4999999999998
 31
0.0
  0
LINE
  5
B7
  8
1
  6
CONTINUOUS
 62
     7
 10
1410.528981000002
 20
-708.5
 30
0.0
 11
1410.528981000002
 21
-696.5
 31
0.0
  0
ARC
  5
B8
  8
1
  6
CONTINUOUS
 62
     7
 10
1400.517299000003
 20
-650.5000000000002
 30
0.0
 40
2.999999999996561
 50
90.0
 51
170.0
  0
ARC
  5
B9
  8
1
  6
CONTINUOUS
 62
     7
 10
1290.517299
 20
-650.5000000000002
 30
0.0
 40
2.999999999996561
 50
90.0
 51
170.0
  0
LINE
  5
BA
  8
1
  6
CONTINUOUS
 62
     7
 10
1396.175493
 20
-747.1527030000003
 30
0.0
 11
1397.562876000001
 21
-755.0209440000003
 31
0.0
  0
LINE
  5
BB
  8
1
  6
CONTINUOUS
 62
     7
 10
1329.884077000002
 20
-658.5879549999999
 30
0.0
 11
1329.884077000002
 21
-746.412044
 31
0.0
  0
ARC
  5
BC
  8
1
  6
CONTINUOUS
 62
     7
 10
1385.482702000003
 20
-754.5000000000002
 30
0.0
 40
2.999999999996561
 50
270.0
 51
349.9999999999999
  0
LINE
  5
BD
  8
1
  6
CONTINUOUS
 62
     7
 10
1266.000000000001
 20
-648.8680670000001
 30
0.0
 11
1266.000000000001
 21
-696.5
 31
0.0
  0
ARC
  5
BE
  8
1
  6
CONTINUOUS
 62
     7
 10
1253.482702000002
 20
-650.5000000000002
 30
0.0
 40
3.000000000000114
 50
10.0
 51
90.0
  0
ARC
  5
BF
  8
1
  6
CONTINUOUS
 62
     7
 10
1196.205877
 20
-747.5000000000001
 30
0.0
 40
2.000000000002444
 50
10.0
 51
90.0
  0
LINE
  5
C0
  8
1
  6
CONTINUOUS
 62
     7
 10
1388.528981000003
 20
-696.5
 30
0.0
 11
1375.471019000003
 21
-696.5
 31
0.0
  0
ARC
  5
C1
  8
1
  6
CONTINUOUS
 62
     7
 10
1385.482702000003
 20
-650.5000000000002
 30
0.0
 40
2.999999999996561
 50
10.0
 51
90.0
  0
LINE
  5
C2
  8
1
  6
CONTINUOUS
 62
     7
 10
1256.528981000005
 20
-708.5
 30
0.0
 11
1256.528981000005
 21
-696.5
 31
0.0
  0
LINE
  5
C3
  8
1
  6
CONTINUOUS
 62
     7
 10
1257.824508000002
 20
-657.8472960000005
 30
0.0
 11
1256.437125000002
 21
-649.9790550000002
 31
0.0
  0
LINE
  5
C4
  8
1
  6
CONTINUOUS
 62
     7
 10
1264.175493000002
 20
-657.8472960000005
 30
0.0
 11
1265.562876000003
 21
-649.9790550000002
 31
0.0
  0
ARC
  5
C5
  8
1
  6
CONTINUOUS
 62
     7
 10
1407.482702000002
 20
-754.5000000000002
 30
0.0
 40
3.000000000000114
 50
270.0
 51
349.9999999999999
  0
LINE
  5
C6
  8
1
  6
CONTINUOUS
 62
     7
 10
1385.482702000003
 20
-647.5000000000001
 30
0.0
 11
1378.517299000003
 21
-647.5000000000001
 31
0.0
  0
LINE
  5
C7
  8
1
  6
CONTINUOUS
 62
     7
 10
1388.000000000001
 20
-648.8680670000001
 30
0.0
 11
1388.000000000001
 21
-696.5
 31
0.0
  0
LINE
  5
C8
  8
1
  6
CONTINUOUS
 62
     7
 10
1375.471019000002
 20
-708.5
 30
0.0
 11
1388.528981000002
 21
-708.5
 31
0.0
  0
LINE
  5
C9
  8
1
  6
CONTINUOUS
 62
     7
 10
1300.528981000002
 20
-708.5
 30
0.0
 11
1300.528981000002
 21
-696.5
 31
0.0
  0
LINE
  5
CA
  8
1
  6
CONTINUOUS
 62
     7
 10
1410.528981000002
 20
-696.5
 30
0.0
 11
1397.471019000001
 21
-696.5
 31
0.0
  0
LINE
  5
CB
  8
1
  6
CONTINUOUS
 62
     7
 10
1297.482701999999
 20
-757.4999999999999
 30
0.0
 11
1290.517298999998
 21
-757.4999999999999
 31
0.0
  0
LINE
  5
CC
  8
1
  6
CONTINUOUS
 62
     7
 10
1259.794123000001
 20
-659.5000000000001
 30
0.0
 11
1262.205877000003
 21
-659.5000000000001
 31
0.0
  0
ARC
  5
CD
  8
1
  6
CONTINUOUS
 62
     7
 10
1275.482702
 20
-650.5000000000002
 30
0.0
 40
3.000000000000114
 50
10.0
 51
90.0
  0
LINE
  5
CE
  8
1
  6
CONTINUOUS
 62
     7
 10
1374.175493000005
 20
-747.1527030000003
 30
0.0
 11
1375.562876000005
 21
-755.0209440000003
 31
0.0
  0
LINE
  5
CF
  8
1
  6
CONTINUOUS
 62
     7
 10
1409.999999999999
 20
-756.1319329999999
 30
0.0
 11
1409.999999999999
 21
-708.4999999999998
 31
0.0
  0
LINE
  5
D0
  8
1
  6
CONTINUOUS
 62
     7
 10
1235.824507999999
 20
-657.8472960000005
 30
0.0
 11
1234.437125
 21
-649.9790550000002
 31
0.0
  0
ARC
  5
D1
  8
1
  6
CONTINUOUS
 62
     7
 10
1284.205877000001
 20
-657.4999999999999
 30
0.0
 40
1.999999999998892
 50
270.0
 51
349.9999999999999
  0
LINE
  5
D2
  8
1
  6
CONTINUOUS
 62
     7
 10
1395.884077000001
 20
-658.5879549999999
 30
0.0
 11
1395.884077000001
 21
-746.412044
 31
0.0
  0
LINE
  5
D3
  8
1
  6
CONTINUOUS
 62
     7
 10
1257.824508000002
 20
-747.1527030000003
 30
0.0
 11
1256.437125000002
 21
-755.0209440000003
 31
0.0
  0
LINE
  5
D4
  8
1
  6
CONTINUOUS
 62
     7
 10
1237.794122999999
 20
-659.5000000000001
 30
0.0
 11
1240.205877000001
 21
-659.5000000000001
 31
0.0
  0
LINE
  5
D5
  8
1
  6
CONTINUOUS
 62
     7
 10
1376.0
 20
-756.1319329999999
 30
0.0
 11
1376.0
 21
-708.4999999999998
 31
0.0
  0
LINE
  5
D6
  8
1
  6
CONTINUOUS
 62
     7
 10
1407.482702000002
 20
-757.4999999999999
 30
0.0
 11
1400.517299000002
 21
-757.4999999999999
 31
0.0
  0
ARC
  5
D7
  8
1
  6
CONTINUOUS
 62
     7
 10
1400.517299000003
 20
-754.5000000000002
 30
0.0
 40
2.999999999996561
 50
190.0
 51
270.0
  0
LINE
  5
D8
  8
1
  6
CONTINUOUS
 62
     7
 10
1221.471019000002
 20
-696.5
 30
0.0
 11
1221.471019000002
 21
-708.5
 31
0.0
  0
ARC
  5
D9
  8
1
  6
CONTINUOUS
 62
     7
 10
1303.794122999999
 20
-747.5000000000001
 30
0.0
 40
2.000000000002444
 50
90.0
 51
170.0
  0
ARC
  5
DA
  8
1
  6
CONTINUOUS
 62
     7
 10
1246.517299
 20
-650.5000000000002
 30
0.0
 40
3.000000000000114
 50
90.0
 51
170.0
  0
LINE
  5
DB
  8
1
  6
CONTINUOUS
 62
     7
 10
1222.0
 20
-648.8680670000001
 30
0.0
 11
1222.0
 21
-696.5
 31
0.0
  0
LINE
  5
DC
  8
1
  6
CONTINUOUS
 62
     7
 10
1275.482702
 20
-647.5000000000001
 30
0.0
 11
1268.517298999999
 21
-647.5000000000001
 31
0.0
  0
LINE
  5
DD
  8
1
  6
CONTINUOUS
 62
     7
 10
1278.000000000001
 20
-648.8680670000001
 30
0.0
 11
1278.000000000001
 21
-696.5
 31
0.0
  0
LINE
  5
DE
  8
1
  6
CONTINUOUS
 62
     7
 10
1259.794123000001
 20
-745.5000000000003
 30
0.0
 11
1262.205877000003
 21
-745.5000000000003
 31
0.0
  0
LINE
  5
DF
  8
1
  6
CONTINUOUS
 62
     7
 10
1300.0
 20
-756.1319329999999
 30
0.0
 11
1300.0
 21
-708.4999999999998
 31
0.0
  0
ARC
  5
E0
  8
1
  6
CONTINUOUS
 62
     7
 10
1246.517299
 20
-754.5000000000002
 30
0.0
 40
3.000000000000114
 50
190.0
 51
270.0
  0
ARC
  5
E1
  8
1
  6
CONTINUOUS
 62
     7
 10
1378.517299000001
 20
-650.5000000000002
 30
0.0
 40
3.000000000000114
 50
90.0
 51
170.0
  0
ARC
  5
E2
  8
1
  6
CONTINUOUS
 62
     7
 10
1259.794123000001
 20
-657.4999999999999
 30
0.0
 40
1.999999999998892
 50
190.0
 51
270.0
  0
LINE
  5
E3
  8
1
  6
CONTINUOUS
 62
     7
 10
1297.482701999999
 20
-647.5000000000001
 30
0.0
 11
1290.517298999998
 21
-647.5000000000001
 31
0.0
  0
LINE
  5
E4
  8
1
  6
CONTINUOUS
 62
     7
 10
1397.471019
 20
-696.5
 30
0.0
 11
1397.471019
 21
-708.5
 31
0.0
  0
ARC
  5
E5
  8
1
  6
CONTINUOUS
 62
     7
 10
1378.517299000001
 20
-754.5000000000002
 30
0.0
 40
3.000000000000114
 50
190.0
 51
270.0
  0
ARC
  5
E6
  8
1
  6
CONTINUOUS
 62
     7
 10
1262.205877000002
 20
-747.5000000000001
 30
0.0
 40
2.000000000002444
 50
10.0
 51
90.0
  0
LINE
  5
E7
  8
1
  6
CONTINUOUS
 62
     7
 10
1396.175493
 20
-657.8472960000005
 30
0.0
 11
1397.562876000001
 21
-649.9790550000002
 31
0.0
  0
LINE
  5
E8
  8
1
  6
CONTINUOUS
 62
     7
 10
1398.000000000002
 20
-756.1319329999999
 30
0.0
 11
1398.000000000002
 21
-708.4999999999998
 31
0.0
  0
LINE
  5
E9
  8
1
  6
CONTINUOUS
 62
     7
 10
1389.824507999999
 20
-657.8472960000005
 30
0.0
 11
1388.437125
 21
-649.9790550000002
 31
0.0
  0
LINE
  5
EA
  8
1
  6
CONTINUOUS
 62
     7
 10
1256.528981000005
 20
-696.5
 30
0.0
 11
1243.471019000004
 21
-696.5
 31
0.0
  0
ARC
  5
EB
  8
1
  6
CONTINUOUS
 62
     7
 10
1253.482702000002
 20
-754.5000000000002
 30
0.0
 40
3.000000000000114
 50
270.0
 51
349.9999999999999
  0
LINE
  5
EC
  8
1
  6
CONTINUOUS
 62
     7
 10
1244.000000000003
 20
-648.8680670000001
 30
0.0
 11
1244.000000000003
 21
-696.5
 31
0.0
  0
ARC
  5
ED
  8
1
  6
CONTINUOUS
 62
     7
 10
1209.482702000002
 20
-650.5000000000002
 30
0.0
 40
3.000000000000114
 50
10.0
 51
90.0
  0
ARC
  5
EE
  8
1
  6
CONTINUOUS
 62
     7
 10
1765.794123000002
 20
-747.5000000000001
 30
0.0
 40
1.999999999998892
 50
90.0
 51
170.0
  0
ARC
  5
EF
  8
1
  6
CONTINUOUS
 62
     7
 10
1862.517298999999
 20
-650.5000000000002
 30
0.0
 40
2.999999999996561
 50
90.0
 51
170.0
  0
LINE
  5
F0
  8
1
  6
CONTINUOUS
 62
     7
 10
1564.528980999998
 20
-708.5
 30
0.0
 11
1564.528980999998
 21
-696.5
 31
0.0
  0
LINE
  5
F1
  8
1
  6
CONTINUOUS
 62
     7
 10
1703.884076999997
 20
-658.5879549999999
 30
0.0
 11
1703.884076999997
 21
-746.412044
 31
0.0
  0
LINE
  5
F2
  8
1
  6
CONTINUOUS
 62
     7
 10
1748.175493000001
 20
-747.1527030000003
 30
0.0
 11
1749.562876000001
 21
-755.0209440000003
 31
0.0
  0
LINE
  5
F3
  8
1
  6
CONTINUOUS
 62
     7
 10
1763.824508000002
 20
-657.8472960000005
 30
0.0
 11
1762.437125000002
 21
-649.9790550000002
 31
0.0
  0
LINE
  5
F4
  8
1
  6
CONTINUOUS
 62
     7
 10
1727.471019000002
 20
-696.5
 30
0.0
 11
1727.471019000002
 21
-708.5
 31
0.0
  0
LINE
  5
F5
  8
1
  6
CONTINUOUS
 62
     7
 10
1749.471018999997
 20
-696.5
 30
0.0
 11
1749.471018999997
 21
-708.5
 31
0.0
  0
LINE
  5
F6
  8
1
  6
CONTINUOUS
 62
     7
 10
1659.884076999997
 20
-658.5879549999999
 30
0.0
 11
1659.884076999997
 21
-746.412044
 31
0.0
  0
ARC
  5
F7
  8
1
  6
CONTINUOUS
 62
     7
 10
1862.517298999999
 20
-754.5000000000002
 30
0.0
 40
2.999999999996561
 50
190.0
 51
270.0
  0
LINE
  5
F8
  8
1
  6
CONTINUOUS
 62
     7
 10
1528.175492999998
 20
-747.1527030000003
 30
0.0
 11
1529.562875999999
 21
-755.0209440000003
 31
0.0
  0
LINE
  5
F9
  8
1
  6
CONTINUOUS
 62
     7
 10
1565.824507999994
 20
-657.8472960000005
 30
0.0
 11
1564.437124999995
 21
-649.9790550000002
 31
0.0
  0
LINE
  5
FA
  8
1
  6
CENTER
 62
     1
 10
2255.0
 20
-702.5000000000001
 30
0.0
 11
2395.0
 21
-702.5000000000001
 31
0.0
  0
LINE
  5
FC
  8
1
  6
CONTINUOUS
 62
     7
 10
1859.471018999996
 20
-708.5
 30
0.0
 11
1872.528980999996
 21
-708.5
 31
0.0
  0
LINE
  5
FD
  8
1
  6
CONTINUOUS
 62
     7
 10
1520.528980999997
 20
-696.5
 30
0.0
 11
1507.471018999997
 21
-696.5
 31
0.0
  0
ARC
  5
FE
  8
1
  6
CONTINUOUS
 62
     7
 10
1504.205876999996
 20
-747.5000000000001
 30
0.0
 40
2.000000000005997
 50
10.0
 51
90.0
  0
ARC
  5
FF
  8
1
  6
CONTINUOUS
 62
     7
 10
1746.205877
 20
-657.4999999999999
 30
0.0
 40
1.999999999998892
 50
270.0
 51
349.9999999999999
  0
LINE
  5
100
  8
1
  6
CONTINUOUS
 62
     7
 10
1528.175492999998
 20
-657.8472960000005
 30
0.0
 11
1529.562875999999
 21
-649.9790550000002
 31
0.0
  0
ARC
  5
101
  8
1
  6
CONTINUOUS
 62
     7
 10
1532.517298999998
 20
-650.5000000000002
 30
0.0
 40
2.999999999996561
 50
90.0
 51
170.0
  0
ARC
  5
102
  8
1
  6
CONTINUOUS
 62
     7
 10
1759.482701999999
 20
-754.5000000000002
 30
0.0
 40
2.999999999996561
 50
270.0
 51
349.9999999999999
  0
ARC
  5
103
  8
1
  6
CONTINUOUS
 62
     7
 10
1759.482701999999
 20
-650.5000000000002
 30
0.0
 40
2.999999999996561
 50
10.0
 51
90.0
  0
LINE
  5
104
  8
1
  6
CONTINUOUS
 62
     7
 10
1759.482701999999
 20
-757.4999999999999
 30
0.0
 11
1752.517298999999
 21
-757.4999999999999
 31
0.0
  0
LINE
  5
105
  8
1
  6
CONTINUOUS
 62
     7
 10
1461.884076999996
 20
-658.5879549999999
 30
0.0
 11
1461.884076999996
 21
-746.412044
 31
0.0
  0
LINE
  5
106
  8
1
  6
CONTINUOUS
 62
     7
 10
1762.528980999998
 20
-708.5
 30
0.0
 11
1762.528980999998
 21
-696.5
 31
0.0
  0
LINE
  5
107
  8
1
  6
CONTINUOUS
 62
     7
 10
1726.175492999999
 20
-747.1527030000003
 30
0.0
 11
1727.562875999999
 21
-755.0209440000003
 31
0.0
  0
LINE
  5
108
  8
1
  6
CONTINUOUS
 62
     7
 10
1763.824508000002
 20
-747.1527030000003
 30
0.0
 11
1762.437125000002
 21
-755.0209440000003
 31
0.0
  0
LINE
  5
109
  8
1
  6
CONTINUOUS
 62
     7
 10
1872.528980999998
 20
-696.5
 30
0.0
 11
1859.471018999998
 21
-696.5
 31
0.0
  0
LINE
  5
10A
  8
1
  6
CONTINUOUS
 62
     7
 10
1720.115924000001
 20
-658.5879549999999
 30
0.0
 11
1720.115924000001
 21
-746.412044
 31
0.0
  0
LINE
  5
10B
  8
1
  6
CONTINUOUS
 62
     7
 10
1565.824507999994
 20
-747.1527030000003
 30
0.0
 11
1564.437124999995
 21
-755.0209440000003
 31
0.0
  0
LINE
  5
10C
  8
1
  6
CONTINUOUS
 62
     7
 10
1676.115924
 20
-658.5879549999999
 30
0.0
 11
1676.115924
 21
-746.412044
 31
0.0
  0
LINE
  5
10D
  8
1
  6
CONTINUOUS
 62
     7
 10
1550.175493
 20
-657.8472960000005
 30
0.0
 11
1551.562875999999
 21
-649.9790550000002
 31
0.0
  0
LINE
  5
10E
  8
1
  6
CONTINUOUS
 62
     7
 10
1765.794123000002
 20
-659.5000000000001
 30
0.0
 11
1768.205877000002
 21
-659.5000000000001
 31
0.0
  0
LINE
  5
10F
  8
1
  6
CONTINUOUS
 62
     7
 10
1721.794123000001
 20
-659.5000000000001
 30
0.0
 11
1724.205877000002
 21
-659.5000000000001
 31
0.0
  0
LINE
  5
110
  8
1
  6
CONTINUOUS
 62
     7
 10
1561.482701999998
 20
-647.5000000000001
 30
0.0
 11
1554.517298999997
 21
-647.5000000000001
 31
0.0
  0
ARC
  5
111
  8
1
  6
CONTINUOUS
 62
     7
 10
1765.794123000002
 20
-657.4999999999999
 30
0.0
 40
1.999999999998892
 50
190.0
 51
270.0
  0
LINE
  5
112
  8
1
  6
CONTINUOUS
 62
     7
 10
1762.0
 20
-756.1319329999999
 30
0.0
 11
1762.0
 21
-708.4999999999998
 31
0.0
  0
LINE
  5
113
  8
1
  6
CONTINUOUS
 62
     7
 10
1434.115923999999
 20
-658.5879549999999
 30
0.0
 11
1434.115923999999
 21
-746.412044
 31
0.0
  0
ARC
  5
114
  8
1
  6
CONTINUOUS
 62
     7
 10
1561.482701999998
 20
-754.5000000000002
 30
0.0
 40
2.999999999996561
 50
270.0
 51
349.9999999999999
  0
LINE
  5
115
  8
1
  6
CONTINUOUS
 62
     7
 10
1750.000000000003
 20
-756.1319329999999
 30
0.0
 11
1750.000000000003
 21
-708.4999999999998
 31
0.0
  0
ARC
  5
116
  8
1
  6
CONTINUOUS
 62
     7
 10
1752.517298999996
 20
-754.5000000000002
 30
0.0
 40
3.000000000003666
 50
190.0
 51
270.0
  0
LINE
  5
117
  8
1
  6
CONTINUOUS
 62
     7
 10
1740.528981
 20
-696.5
 30
0.0
 11
1727.471018999998
 21
-696.5
 31
0.0
  0
ARC
  5
118
  8
1
  6
CONTINUOUS
 62
     7
 10
1746.205877
 20
-747.5000000000001
 30
0.0
 40
1.999999999998892
 50
10.0
 51
90.0
  0
LINE
  5
119
  8
1
  6
CONTINUOUS
 62
     7
 10
1517.482701999998
 20
-757.4999999999999
 30
0.0
 11
1510.517298999998
 21
-757.4999999999999
 31
0.0
  0
LINE
  5
11A
  8
1
  6
CONTINUOUS
 62
     7
 10
1765.794123000002
 20
-745.5000000000003
 30
0.0
 11
1768.205877000002
 21
-745.5000000000003
 31
0.0
  0
ARC
  5
11B
  8
1
  6
CONTINUOUS
 62
     7
 10
1847.482701999996
 20
-650.5000000000002
 30
0.0
 40
3.000000000000114
 50
10.0
 51
90.0
  0
ARC
  5
11C
  8
1
  6
CONTINUOUS
 62
     7
 10
1545.794122999996
 20
-747.5000000000001
 30
0.0
 40
2.000000000002444
 50
90.0
 51
170.0
  0
LINE
  5
11D
  8
1
  6
CONTINUOUS
 62
     7
 10
1748.175493000001
 20
-657.8472960000005
 30
0.0
 11
1749.562876000001
 21
-649.9790550000002
 31
0.0
  0
ARC
  5
11E
  8
1
  6
CONTINUOUS
 62
     7
 10
1589.794122999996
 20
-747.5000000000001
 30
0.0
 40
1.999999999998892
 50
90.0
 51
170.0
  0
ARC
  5
11F
  8
1
  6
CONTINUOUS
 62
     7
 10
1548.205877
 20
-747.5000000000001
 30
0.0
 40
1.999999999998892
 50
10.0
 51
90.0
  0
ARC
  5
120
  8
1
  6
CONTINUOUS
 62
     7
 10
1548.205877
 20
-657.4999999999999
 30
0.0
 40
1.999999999998892
 50
270.0
 51
349.9999999999999
  0
ARC
  5
121
  8
1
  6
CONTINUOUS
 62
     7
 10
1752.517298999996
 20
-650.5000000000002
 30
0.0
 40
3.000000000003666
 50
90.0
 51
170.0
  0
LINE
  5
122
  8
1
  6
CONTINUOUS
 62
     7
 10
1784.528981
 20
-696.5
 30
0.0
 11
1771.471019
 21
-696.5
 31
0.0
  0
ARC
  5
123
  8
1
  6
CONTINUOUS
 62
     7
 10
1847.482702000003
 20
-754.5000000000002
 30
0.0
 40
2.999999999996561
 50
270.0
 51
349.9999999999999
  0
LINE
  5
124
  8
1
  6
CONTINUOUS
 62
     7
 10
1705.999999999999
 20
-756.1319329999999
 30
0.0
 11
1705.999999999999
 21
-708.4999999999998
 31
0.0
  0
LINE
  5
125
  8
1
  6
CONTINUOUS
 62
     7
 10
1681.884077000002
 20
-658.5879549999999
 30
0.0
 11
1681.884077000002
 21
-746.412044
 31
0.0
  0
ARC
  5
126
  8
1
  6
CONTINUOUS
 62
     7
 10
1532.517298999998
 20
-754.5000000000002
 30
0.0
 40
2.999999999996561
 50
190.0
 51
270.0
  0
LINE
  5
127
  8
1
  6
CONTINUOUS
 62
     7
 10
1529.471019000002
 20
-708.5
 30
0.0
 11
1542.528981000002
 21
-708.5
 31
0.0
  0
LINE
  5
128
  8
1
  6
CONTINUOUS
 62
     7
 10
1677.794122999997
 20
-745.5000000000003
 30
0.0
 11
1680.205876999999
 21
-745.5000000000003
 31
0.0
  0
LINE
  5
129
  8
1
  6
CONTINUOUS
 62
     7
 10
1638.175492999998
 20
-747.1527030000003
 30
0.0
 11
1639.562875999998
 21
-755.0209440000003
 31
0.0
  0
LINE
  5
12A
  8
1
  6
CONTINUOUS
 62
     7
 10
1640.0
 20
-756.1319329999999
 30
0.0
 11
1640.0
 21
-708.4999999999998
 31
0.0
  0
ARC
  5
12B
  8
1
  6
CONTINUOUS
 62
     7
 10
1658.205877000003
 20
-747.5000000000001
 30
0.0
 40
1.999999999995339
 50
10.0
 51
90.0
  0
LINE
  5
12C
  8
1
  6
CONTINUOUS
 62
     7
 10
1520.528980999997
 20
-708.5
 30
0.0
 11
1520.528980999997
 21
-696.5
 31
0.0
  0
LINE
  5
12D
  8
1
  6
CONTINUOUS
 62
     7
 10
1718.528980999998
 20
-696.5
 30
0.0
 11
1705.471018999997
 21
-696.5
 31
0.0
  0
LINE
  5
12E
  8
1
  6
CONTINUOUS
 62
     7
 10
1543.824507999999
 20
-747.1527030000003
 30
0.0
 11
1542.437124999999
 21
-755.0209440000003
 31
0.0
  0
LINE
  5
12F
  8
1
  6
CONTINUOUS
 62
     7
 10
1567.794123000001
 20
-745.5000000000003
 30
0.0
 11
1570.205877000002
 21
-745.5000000000003
 31
0.0
  0
LINE
  5
130
  8
1
  6
CONTINUOUS
 62
     7
 10
1671.482702000001
 20
-647.5000000000001
 30
0.0
 11
1664.517299
 21
-647.5000000000001
 31
0.0
  0
LINE
  5
131
  8
1
  6
CONTINUOUS
 62
     7
 10
1741.824508
 20
-657.8472960000005
 30
0.0
 11
1740.437125
 21
-649.9790550000002
 31
0.0
  0
LINE
  5
132
  8
1
  6
CONTINUOUS
 62
     7
 10
1742.115923999999
 20
-658.5879549999999
 30
0.0
 11
1742.115923999999
 21
-746.412044
 31
0.0
  0
LINE
  5
133
  8
1
  6
CONTINUOUS
 62
     7
 10
1726.175492999999
 20
-657.8472960000005
 30
0.0
 11
1727.562875999999
 21
-649.9790550000002
 31
0.0
  0
LINE
  5
134
  8
1
  6
CONTINUOUS
 62
     7
 10
1542.528980999999
 20
-708.5
 30
0.0
 11
1542.528980999999
 21
-696.5
 31
0.0
  0
LINE
  5
135
  8
1
  6
CONTINUOUS
 62
     7
 10
1727.999999999997
 20
-756.1319329999999
 30
0.0
 11
1727.999999999997
 21
-708.4999999999998
 31
0.0
  0
LINE
  5
136
  8
1
  6
CONTINUOUS
 62
     7
 10
1519.999999999999
 20
-756.1319329999999
 30
0.0
 11
1519.999999999999
 21
-708.4999999999998
 31
0.0
  0
ARC
  5
137
  8
1
  6
CONTINUOUS
 62
     7
 10
1677.794122999997
 20
-657.4999999999999
 30
0.0
 40
1.999999999998892
 50
190.0
 51
270.0
  0
ARC
  5
138
  8
1
  6
CONTINUOUS
 62
     7
 10
1699.794122999999
 20
-747.5000000000001
 30
0.0
 40
1.999999999998892
 50
90.0
 51
170.0
  0
ARC
  5
139
  8
1
  6
CONTINUOUS
 62
     7
 10
1545.794122999996
 20
-657.4999999999999
 30
0.0
 40
2.000000000002444
 50
190.0
 51
270.0
  0
LINE
  5
13A
  8
1
  6
CONTINUOUS
 62
     7
 10
1675.824507999997
 20
-747.1527030000003
 30
0.0
 11
1674.437124999998
 21
-755.0209440000003
 31
0.0
  0
LINE
  5
13B
  8
1
  6
CONTINUOUS
 62
     7
 10
1573.999999999997
 20
-756.1319329999999
 30
0.0
 11
1573.999999999997
 21
-708.4999999999998
 31
0.0
  0
LINE
  5
13C
  8
1
  6
CONTINUOUS
 62
     7
 10
1705.999999999999
 20
-648.8680670000001
 30
0.0
 11
1705.999999999999
 21
-696.5
 31
0.0
  0
LINE
  5
13D
  8
1
  6
CONTINUOUS
 62
     7
 10
1725.884076999999
 20
-658.5879549999999
 30
0.0
 11
1725.884076999999
 21
-746.412044
 31
0.0
  0
ARC
  5
13E
  8
1
  6
CONTINUOUS
 62
     7
 10
1554.517298999996
 20
-650.5000000000002
 30
0.0
 40
3.000000000003666
 50
90.0
 51
170.0
  0
LINE
  5
13F
  8
1
  6
CONTINUOUS
 62
     7
 10
1655.794122999999
 20
-659.5000000000001
 30
0.0
 11
1658.205877
 21
-659.5000000000001
 31
0.0
  0
LINE
  5
140
  8
1
  6
CONTINUOUS
 62
     7
 10
1545.794122999996
 20
-745.5000000000003
 30
0.0
 11
1548.205876999996
 21
-745.5000000000003
 31
0.0
  0
LINE
  5
141
  8
1
  6
CONTINUOUS
 62
     7
 10
1715.482701999998
 20
-757.4999999999999
 30
0.0
 11
1708.517298999997
 21
-757.4999999999999
 31
0.0
  0
LINE
  5
142
  8
1
  6
CONTINUOUS
 62
     7
 10
1529.999999999997
 20
-756.1319329999999
 30
0.0
 11
1529.999999999997
 21
-708.4999999999998
 31
0.0
  0
LINE
  5
143
  8
1
  6
CONTINUOUS
 62
     7
 10
1671.482702000001
 20
-757.4999999999999
 30
0.0
 11
1664.517299
 21
-757.4999999999999
 31
0.0
  0
LINE
  5
144
  8
1
  6
CONTINUOUS
 62
     7
 10
1727.471019000002
 20
-708.5
 30
0.0
 11
1740.528981000003
 21
-708.5
 31
0.0
  0
LINE
  5
145
  8
1
  6
CONTINUOUS
 62
     7
 10
1699.794122999999
 20
-745.5000000000003
 30
0.0
 11
1702.205877
 21
-745.5000000000003
 31
0.0
  0
LINE
  5
146
  8
1
  6
CONTINUOUS
 62
     7
 10
1543.824507999999
 20
-657.8472960000005
 30
0.0
 11
1542.437124999999
 21
-649.9790550000002
 31
0.0
  0
LINE
  5
147
  8
1
  6
CONTINUOUS
 62
     7
 10
1651.999999999997
 20
-756.1319329999999
 30
0.0
 11
1651.999999999997
 21
-708.4999999999998
 31
0.0
  0
ARC
  5
148
  8
1
  6
CONTINUOUS
 62
     7
 10
1539.482701999996
 20
-650.5000000000002
 30
0.0
 40
3.000000000003666
 50
10.0
 51
90.0
  0
LINE
  5
149
  8
1
  6
CONTINUOUS
 62
     7
 10
1739.999999999997
 20
-648.8680670000001
 30
0.0
 11
1739.999999999997
 21
-696.5
 31
0.0
  0
ARC
  5
14A
  8
1
  6
CONTINUOUS
 62
     7
 10
1664.517298999999
 20
-754.5000000000002
 30
0.0
 40
3.000000000000114
 50
190.0
 51
270.0
  0
LINE
  5
14B
  8
1
  6
CONTINUOUS
 62
     7
 10
1759.482701999999
 20
-647.5000000000001
 30
0.0
 11
1752.517298999999
 21
-647.5000000000001
 31
0.0
  0
LINE
  5
14C
  8
1
  6
CONTINUOUS
 62
     7
 10
1541.999999999997
 20
-648.8680670000001
 30
0.0
 11
1541.999999999997
 21
-696.5
 31
0.0
  0
LINE
  5
14D
  8
1
  6
CONTINUOUS
 62
     7
 10
1698.115923999995
 20
-658.5879549999999
 30
0.0
 11
1698.115923999995
 21
-746.412044
 31
0.0
  0
LINE
  5
14E
  8
1
  6
CONTINUOUS
 62
     7
 10
1567.794123000001
 20
-659.5000000000001
 30
0.0
 11
1570.205877000002
 21
-659.5000000000001
 31
0.0
  0
LINE
  5
14F
  8
1
  6
CONTINUOUS
 62
     7
 10
1637.884076999998
 20
-658.5879549999999
 30
0.0
 11
1637.884076999998
 21
-746.412044
 31
0.0
  0
LINE
  5
150
  8
1
  6
CONTINUOUS
 62
     7
 10
1595.999999999996
 20
-756.1319329999999
 30
0.0
 11
1595.999999999996
 21
-708.4999999999998
 31
0.0
  0
LINE
  5
151
  8
1
  6
CONTINUOUS
 62
     7
 10
1693.482702
 20
-647.5000000000001
 30
0.0
 11
1686.517298999999
 21
-647.5000000000001
 31
0.0
  0
LINE
  5
152
  8
1
  6
CONTINUOUS
 62
     7
 10
1541.999999999997
 20
-756.1319329999999
 30
0.0
 11
1541.999999999997
 21
-708.4999999999998
 31
0.0
  0
ARC
  5
153
  8
1
  6
CONTINUOUS
 62
     7
 10
1642.517299000001
 20
-650.5000000000002
 30
0.0
 40
2.999999999996561
 50
90.0
 51
170.0
  0
LINE
  5
154
  8
1
  6
CONTINUOUS
 62
     7
 10
1550.175493
 20
-747.1527030000003
 30
0.0
 11
1551.562875999999
 21
-755.0209440000003
 31
0.0
  0
LINE
  5
155
  8
1
  6
CONTINUOUS
 62
     7
 10
1693.482702
 20
-757.4999999999999
 30
0.0
 11
1686.517298999999
 21
-757.4999999999999
 31
0.0
  0
LINE
  5
156
  8
1
  6
CONTINUOUS
 62
     7
 10
1718.528980999998
 20
-708.5
 30
0.0
 11
1718.528980999998
 21
-696.5
 31
0.0
  0
LINE
  5
157
  8
1
  6
CONTINUOUS
 62
     7
 10
1551.999999999995
 20
-756.1319329999999
 30
0.0
 11
1551.999999999995
 21
-708.4999999999998
 31
0.0
  0
LINE
  5
158
  8
1
  6
CONTINUOUS
 62
     7
 10
1684.0
 20
-756.1319329999999
 30
0.0
 11
1684.0
 21
-708.4999999999998
 31
0.0
  0
ARC
  5
159
  8
1
  6
CONTINUOUS
 62
     7
 10
1567.794123000001
 20
-657.4999999999999
 30
0.0
 40
1.999999999998892
 50
190.0
 51
270.0
  0
ARC
  5
15A
  8
1
  6
CONTINUOUS
 62
     7
 10
1539.482701999996
 20
-754.5000000000002
 30
0.0
 40
3.000000000003666
 50
270.0
 51
349.9999999999999
  0
LINE
  5
15B
  8
1
  6
CONTINUOUS
 62
     7
 10
1674.528980999997
 20
-696.5
 30
0.0
 11
1661.471018999997
 21
-696.5
 31
0.0
  0
ARC
  5
15C
  8
1
  6
CONTINUOUS
 62
     7
 10
1561.482701999998
 20
-650.5000000000002
 30
0.0
 40
2.999999999996561
 50
10.0
 51
90.0
  0
LINE
  5
15D
  8
1
  6
CONTINUOUS
 62
     7
 10
1545.794122999996
 20
-659.5000000000001
 30
0.0
 11
1548.205876999996
 21
-659.5000000000001
 31
0.0
  0
LINE
  5
15E
  8
1
  6
CONTINUOUS
 62
     7
 10
1563.999999999999
 20
-756.1319329999999
 30
0.0
 11
1563.999999999999
 21
-708.4999999999998
 31
0.0
  0
LINE
  5
15F
  8
1
  6
CONTINUOUS
 62
     7
 10
1674.000000000002
 20
-648.8680670000001
 30
0.0
 11
1674.000000000002
 21
-696.5
 31
0.0
  0
LINE
  5
160
  8
1
  6
CONTINUOUS
 62
     7
 10
1640.0
 20
-648.8680670000001
 30
0.0
 11
1640.0
 21
-696.5
 31
0.0
  0
ARC
  5
161
  8
1
  6
CONTINUOUS
 62
     7
 10
1567.794123000001
 20
-747.5000000000001
 30
0.0
 40
1.999999999998892
 50
90.0
 51
170.0
  0
LINE
  5
162
  8
1
  6
CONTINUOUS
 62
     7
 10
1727.999999999997
 20
-648.8680670000001
 30
0.0
 11
1727.999999999997
 21
-696.5
 31
0.0
  0
ARC
  5
163
  8
1
  6
CONTINUOUS
 62
     7
 10
1664.517298999999
 20
-650.5000000000002
 30
0.0
 40
3.000000000000114
 50
90.0
 51
170.0
  0
ARC
  5
164
  8
1
  6
CONTINUOUS
 62
     7
 10
1724.205876999998
 20
-747.5000000000001
 30
0.0
 40
1.999999999998892
 50
10.0
 51
90.0
  0
LINE
  5
165
  8
1
  6
CONTINUOUS
 62
     7
 10
1683.471018999998
 20
-708.5
 30
0.0
 11
1696.528980999999
 21
-708.5
 31
0.0
  0
ARC
  5
166
  8
1
  6
CONTINUOUS
 62
     7
 10
1671.482702000001
 20
-754.5000000000002
 30
0.0
 40
2.999999999996561
 50
270.0
 51
349.9999999999999
  0
LINE
  5
167
  8
1
  6
CONTINUOUS
 62
     7
 10
1682.175492999998
 20
-747.1527030000003
 30
0.0
 11
1683.562875999998
 21
-755.0209440000003
 31
0.0
  0
LINE
  5
168
  8
1
  6
CONTINUOUS
 62
     7
 10
1719.824507999998
 20
-747.1527030000003
 30
0.0
 11
1718.437124999999
 21
-755.0209440000003
 31
0.0
  0
LINE
  5
169
  8
1
  6
CONTINUOUS
 62
     7
 10
1704.175493
 20
-657.8472960000005
 30
0.0
 11
1705.562876
 21
-649.9790550000002
 31
0.0
  0
LINE
  5
16A
  8
1
  6
CONTINUOUS
 62
     7
 10
1652.528980999999
 20
-696.5
 30
0.0
 11
1639.471018999997
 21
-696.5
 31
0.0
  0
LINE
  5
16B
  8
1
  6
CONTINUOUS
 62
     7
 10
1741.824508
 20
-747.1527030000003
 30
0.0
 11
1740.437125
 21
-755.0209440000003
 31
0.0
  0
ARC
  5
16C
  8
1
  6
CONTINUOUS
 62
     7
 10
1642.517299000001
 20
-754.5000000000002
 30
0.0
 40
2.999999999996561
 50
190.0
 51
270.0
  0
ARC
  5
16D
  8
1
  6
CONTINUOUS
 62
     7
 10
1636.205876999997
 20
-657.4999999999999
 30
0.0
 40
2.000000000002444
 50
270.0
 51
349.9999999999999
  0
ARC
  5
16E
  8
1
  6
CONTINUOUS
 62
     7
 10
1658.205877000003
 20
-657.4999999999999
 30
0.0
 40
1.999999999995339
 50
270.0
 51
349.9999999999999
  0
LINE
  5
16F
  8
1
  6
CONTINUOUS
 62
     7
 10
1638.175492999998
 20
-657.8472960000005
 30
0.0
 11
1639.562875999998
 21
-649.9790550000002
 31
0.0
  0
LINE
  5
170
  8
1
  6
CONTINUOUS
 62
     7
 10
1696.528981000003
 20
-708.5
 30
0.0
 11
1696.528981000003
 21
-696.5
 31
0.0
  0
ARC
  5
171
  8
1
  6
CONTINUOUS
 62
     7
 10
1671.482702000001
 20
-650.5000000000002
 30
0.0
 40
2.999999999996561
 50
10.0
 51
90.0
  0
LINE
  5
172
  8
1
  6
CONTINUOUS
 62
     7
 10
1661.999999999998
 20
-756.1319329999999
 30
0.0
 11
1661.999999999998
 21
-708.4999999999998
 31
0.0
  0
LINE
  5
173
  8
1
  6
CONTINUOUS
 62
     7
 10
1654.115923999998
 20
-658.5879549999999
 30
0.0
 11
1654.115923999998
 21
-746.412044
 31
0.0
  0
LINE
  5
174
  8
1
  6
CONTINUOUS
 62
     7
 10
1639.471018999997
 20
-696.5
 30
0.0
 11
1639.471018999997
 21
-708.5
 31
0.0
  0
LINE
  5
175
  8
1
  6
CONTINUOUS
 62
     7
 10
1661.471018999999
 20
-708.5
 30
0.0
 11
1674.528981
 21
-708.5
 31
0.0
  0
LINE
  5
176
  8
1
  6
CONTINUOUS
 62
     7
 10
1639.471018999997
 20
-708.5
 30
0.0
 11
1652.528980999999
 21
-708.5
 31
0.0
  0
ARC
  5
177
  8
1
  6
CONTINUOUS
 62
     7
 10
1655.794122999999
 20
-657.4999999999999
 30
0.0
 40
1.999999999998892
 50
190.0
 51
270.0
  0
LINE
  5
178
  8
1
  6
CONTINUOUS
 62
     7
 10
1542.528980999999
 20
-696.5
 30
0.0
 11
1529.471018999998
 21
-696.5
 31
0.0
  0
LINE
  5
179
  8
1
  6
CONTINUOUS
 62
     7
 10
1695.999999999997
 20
-648.8680670000001
 30
0.0
 11
1695.999999999997
 21
-696.5
 31
0.0
  0
LINE
  5
17A
  8
1
  6
CONTINUOUS
 62
     7
 10
1717.999999999999
 20
-756.1319329999999
 30
0.0
 11
1717.999999999999
 21
-708.4999999999998
 31
0.0
  0
ARC
  5
17B
  8
1
  6
CONTINUOUS
 62
     7
 10
1680.205876999998
 20
-747.5000000000001
 30
0.0
 40
1.999999999998892
 50
10.0
 51
90.0
  0
ARC
  5
17C
  8
1
  6
CONTINUOUS
 62
     7
 10
1686.517298999997
 20
-650.5000000000002
 30
0.0
 40
3.000000000000114
 50
90.0
 51
170.0
  0
LINE
  5
17D
  8
1
  6
CONTINUOUS
 62
     7
 10
1539.482701999996
 20
-647.5000000000001
 30
0.0
 11
1532.517298999996
 21
-647.5000000000001
 31
0.0
  0
ARC
  5
17E
  8
1
  6
CONTINUOUS
 62
     7
 10
1743.794122999996
 20
-747.5000000000001
 30
0.0
 40
2.000000000002444
 50
90.0
 51
170.0
  0
ARC
  5
17F
  8
1
  6
CONTINUOUS
 62
     7
 10
1686.517298999997
 20
-754.5000000000002
 30
0.0
 40
3.000000000000114
 50
190.0
 51
270.0
  0
LINE
  5
180
  8
1
  6
CONTINUOUS
 62
     7
 10
1737.482701999997
 20
-757.4999999999999
 30
0.0
 11
1730.517298999996
 21
-757.4999999999999
 31
0.0
  0
ARC
  5
181
  8
1
  6
CONTINUOUS
 62
     7
 10
1743.794122999996
 20
-657.4999999999999
 30
0.0
 40
2.000000000002444
 50
190.0
 51
270.0
  0
ARC
  5
182
  8
1
  6
CONTINUOUS
 62
     7
 10
1554.517298999996
 20
-754.5000000000002
 30
0.0
 40
3.000000000003666
 50
190.0
 51
270.0
  0
ARC
  5
183
  8
1
  6
CONTINUOUS
 62
     7
 10
1699.794122999999
 20
-657.4999999999999
 30
0.0
 40
1.999999999998892
 50
190.0
 51
270.0
  0
LINE
  5
184
  8
1
  6
CONTINUOUS
 62
     7
 10
1719.824507999998
 20
-657.8472960000005
 30
0.0
 11
1718.437124999999
 21
-649.9790550000002
 31
0.0
  0
LINE
  5
185
  8
1
  6
CONTINUOUS
 62
     7
 10
1704.175493
 20
-747.1527030000003
 30
0.0
 11
1705.562876
 21
-755.0209440000003
 31
0.0
  0
LINE
  5
186
  8
1
  6
CONTINUOUS
 62
     7
 10
1539.482701999996
 20
-757.4999999999999
 30
0.0
 11
1532.517298999996
 21
-757.4999999999999
 31
0.0
  0
LINE
  5
187
  8
1
  6
CONTINUOUS
 62
     7
 10
1675.824507999997
 20
-657.8472960000005
 30
0.0
 11
1674.437124999998
 21
-649.9790550000002
 31
0.0
  0
ARC
  5
188
  8
1
  6
CONTINUOUS
 62
     7
 10
1655.794122999999
 20
-747.5000000000001
 30
0.0
 40
1.999999999998892
 50
90.0
 51
170.0
  0
LINE
  5
189
  8
1
  6
CONTINUOUS
 62
     7
 10
1649.482701999999
 20
-647.5000000000001
 30
0.0
 11
1642.517298999998
 21
-647.5000000000001
 31
0.0
  0
ARC
  5
18A
  8
1
  6
CONTINUOUS
 62
     7
 10
1649.482701999999
 20
-754.5000000000002
 30
0.0
 40
3.000000000000114
 50
270.0
 51
349.9999999999999
  0
ARC
  5
18B
  8
1
  6
CONTINUOUS
 62
     7
 10
1715.482701999998
 20
-650.5000000000002
 30
0.0
 40
3.000000000000114
 50
10.0
 51
90.0
  0
LINE
  5
18C
  8
1
  6
CONTINUOUS
 62
     7
 10
1683.471018999998
 20
-696.5
 30
0.0
 11
1683.471018999998
 21
-708.5
 31
0.0
  0
ARC
  5
18D
  8
1
  6
CONTINUOUS
 62
     7
 10
1708.517298999996
 20
-754.5000000000002
 30
0.0
 40
3.000000000003666
 50
190.0
 51
270.0
  0
LINE
  5
18E
  8
1
  6
CONTINUOUS
 62
     7
 10
1655.794122999999
 20
-745.5000000000003
 30
0.0
 11
1658.205877
 21
-745.5000000000003
 31
0.0
  0
LINE
  5
18F
  8
1
  6
CONTINUOUS
 62
     7
 10
1653.824507999999
 20
-747.1527030000003
 30
0.0
 11
1652.437124999999
 21
-755.0209440000003
 31
0.0
  0
ARC
  5
190
  8
1
  6
CONTINUOUS
 62
     7
 10
1737.482701999997
 20
-650.5000000000002
 30
0.0
 40
3.000000000003666
 50
10.0
 51
90.0
  0
LINE
  5
191
  8
1
  6
CONTINUOUS
 62
     7
 10
1651.999999999997
 20
-648.8680670000001
 30
0.0
 11
1651.999999999997
 21
-696.5
 31
0.0
  0
ARC
  5
192
  8
1
  6
CONTINUOUS
 62
     7
 10
1721.794123000001
 20
-747.5000000000001
 30
0.0
 40
1.999999999998892
 50
90.0
 51
170.0
  0
LINE
  5
193
  8
1
  6
CONTINUOUS
 62
     7
 10
1695.999999999997
 20
-756.1319329999999
 30
0.0
 11
1695.999999999997
 21
-708.4999999999998
 31
0.0
  0
ARC
  5
194
  8
1
  6
CONTINUOUS
 62
     7
 10
1677.794122999997
 20
-747.5000000000001
 30
0.0
 40
1.999999999998892
 50
90.0
 51
170.0
  0
LINE
  5
195
  8
1
  6
CONTINUOUS
 62
     7
 10
1652.528980999999
 20
-708.5
 30
0.0
 11
1652.528980999999
 21
-696.5
 31
0.0
  0
LINE
  5
196
  8
1
  6
CONTINUOUS
 62
     7
 10
1660.175493
 20
-747.1527030000003
 30
0.0
 11
1661.562876
 21
-755.0209440000003
 31
0.0
  0
LINE
  5
197
  8
1
  6
CONTINUOUS
 62
     7
 10
1674.000000000002
 20
-756.1319329999999
 30
0.0
 11
1674.000000000002
 21
-708.4999999999998
 31
0.0
  0
ARC
  5
198
  8
1
  6
CONTINUOUS
 62
     7
 10
1636.205876999997
 20
-747.5000000000001
 30
0.0
 40
2.000000000002444
 50
10.0
 51
90.0
  0
LINE
  5
199
  8
1
  6
CONTINUOUS
 62
     7
 10
1739.999999999997
 20
-756.1319329999999
 30
0.0
 11
1739.999999999997
 21
-708.4999999999998
 31
0.0
  0
LINE
  5
19A
  8
1
  6
CONTINUOUS
 62
     7
 10
1561.482701999998
 20
-757.4999999999999
 30
0.0
 11
1554.517298999997
 21
-757.4999999999999
 31
0.0
  0
LINE
  5
19B
  8
1
  6
CONTINUOUS
 62
     7
 10
1740.528981
 20
-708.5
 30
0.0
 11
1740.528981
 21
-696.5
 31
0.0
  0
LINE
  5
19C
  8
1
  6
CONTINUOUS
 62
     7
 10
1717.999999999999
 20
-648.8680670000001
 30
0.0
 11
1717.999999999999
 21
-696.5
 31
0.0
  0
LINE
  5
19D
  8
1
  6
CONTINUOUS
 62
     7
 10
1529.999999999997
 20
-648.8680670000001
 30
0.0
 11
1529.999999999997
 21
-696.5
 31
0.0
  0
ARC
  5
19E
  8
1
  6
CONTINUOUS
 62
     7
 10
1724.205876999998
 20
-657.4999999999999
 30
0.0
 40
1.999999999998892
 50
270.0
 51
349.9999999999999
  0
LINE
  5
19F
  8
1
  6
CONTINUOUS
 62
     7
 10
1661.471018999999
 20
-696.5
 30
0.0
 11
1661.471018999999
 21
-708.5
 31
0.0
  0
LINE
  5
1A0
  8
1
  6
CONTINUOUS
 62
     7
 10
1661.999999999998
 20
-648.8680670000001
 30
0.0
 11
1661.999999999998
 21
-696.5
 31
0.0
  0
LINE
  5
1A1
  8
1
  6
CONTINUOUS
 62
     7
 10
1825.482702000001
 20
-757.4999999999999
 30
0.0
 11
1818.517299000001
 21
-757.4999999999999
 31
0.0
  0
ARC
  5
1A2
  8
1
  6
CONTINUOUS
 62
     7
 10
1693.482702
 20
-650.5000000000002
 30
0.0
 40
3.000000000000114
 50
10.0
 51
90.0
  0
ARC
  5
1A3
  8
1
  6
CONTINUOUS
 62
     7
 10
1708.517298999996
 20
-650.5000000000002
 30
0.0
 40
3.000000000003666
 50
90.0
 51
170.0
  0
LINE
  5
1A4
  8
1
  6
CONTINUOUS
 62
     7
 10
1869.482701999998
 20
-757.4999999999999
 30
0.0
 11
1862.517298999998
 21
-757.4999999999999
 31
0.0
  0
LINE
  5
1A5
  8
1
  6
CONTINUOUS
 62
     7
 10
1827.999999999998
 20
-648.8680670000001
 30
0.0
 11
1827.999999999998
 21
-696.5
 31
0.0
  0
LINE
  5
1A6
  8
1
  6
CONTINUOUS
 62
     7
 10
1653.824507999999
 20
-657.8472960000005
 30
0.0
 11
1652.437124999999
 21
-649.9790550000002
 31
0.0
  0
ARC
  5
1A7
  8
1
  6
CONTINUOUS
 62
     7
 10
1680.205876999998
 20
-657.4999999999999
 30
0.0
 40
1.999999999998892
 50
270.0
 51
349.9999999999999
  0
ARC
  5
1A8
  8
1
  6
CONTINUOUS
 62
     7
 10
1922.205876999995
 20
-747.5000000000001
 30
0.0
 40
1.999999999998892
 50
10.0
 51
90.0
  0
LINE
  5
1A9
  8
1
  6
CONTINUOUS
 62
     7
 10
1747.884076999997
 20
-658.5879549999999
 30
0.0
 11
1747.884076999997
 21
-746.412044
 31
0.0
  0
LINE
  5
1AA
  8
1
  6
CONTINUOUS
 62
     7
 10
1916.0
 20
-648.8680670000001
 30
0.0
 11
1916.0
 21
-696.5
 31
0.0
  0
LINE
  5
1AB
  8
1
  6
CONTINUOUS
 62
     7
 10
1830.115924
 20
-658.5879549999999
 30
0.0
 11
1830.115924
 21
-746.412044
 31
0.0
  0
LINE
  5
1AC
  8
1
  6
CONTINUOUS
 62
     7
 10
1829.824507999997
 20
-657.8472960000005
 30
0.0
 11
1828.437124999997
 21
-649.9790550000002
 31
0.0
  0
LINE
  5
1AD
  8
1
  6
CONTINUOUS
 62
     7
 10
1684.0
 20
-648.8680670000001
 30
0.0
 11
1684.0
 21
-696.5
 31
0.0
  0
ARC
  5
1AE
  8
1
  6
CONTINUOUS
 62
     7
 10
1834.205876999998
 20
-657.4999999999999
 30
0.0
 40
2.000000000002444
 50
270.0
 51
349.9999999999999
  0
ARC
  5
1AF
  8
1
  6
CONTINUOUS
 62
     7
 10
1721.794123000001
 20
-657.4999999999999
 30
0.0
 40
1.999999999998892
 50
190.0
 51
270.0
  0
LINE
  5
1B0
  8
1
  6
CONTINUOUS
 62
     7
 10
1918.115923999998
 20
-658.5879549999999
 30
0.0
 11
1918.115923999998
 21
-746.412044
 31
0.0
  0
LINE
  5
1B1
  8
1
  6
CONTINUOUS
 62
     7
 10
1649.482701999999
 20
-757.4999999999999
 30
0.0
 11
1642.517298999998
 21
-757.4999999999999
 31
0.0
  0
LINE
  5
1B2
  8
1
  6
CONTINUOUS
 62
     7
 10
1836.175492999998
 20
-657.8472960000005
 30
0.0
 11
1837.562875999998
 21
-649.9790550000002
 31
0.0
  0
LINE
  5
1B3
  8
1
  6
CONTINUOUS
 62
     7
 10
1828.528981000001
 20
-708.5
 30
0.0
 11
1828.528981000001
 21
-696.5
 31
0.0
  0
ARC
  5
1B4
  8
1
  6
CONTINUOUS
 62
     7
 10
1649.482701999999
 20
-650.5000000000002
 30
0.0
 40
3.000000000000114
 50
10.0
 51
90.0
  0
ARC
  5
1B5
  8
1
  6
CONTINUOUS
 62
     7
 10
1730.517298999998
 20
-754.5000000000002
 30
0.0
 40
2.999999999996561
 50
190.0
 51
270.0
  0
ARC
  5
1B6
  8
1
  6
CONTINUOUS
 62
     7
 10
1693.482702
 20
-754.5000000000002
 30
0.0
 40
3.000000000000114
 50
270.0
 51
349.9999999999999
  0
ARC
  5
1B7
  8
1
  6
CONTINUOUS
 62
     7
 10
1730.517298999998
 20
-650.5000000000002
 30
0.0
 40
2.999999999996561
 50
90.0
 51
170.0
  0
ARC
  5
1B8
  8
1
  6
CONTINUOUS
 62
     7
 10
1831.794122999997
 20
-657.4999999999999
 30
0.0
 40
1.999999999998892
 50
190.0
 51
270.0
  0
LINE
  5
1B9
  8
1
  6
CONTINUOUS
 62
     7
 10
1808.115923999998
 20
-658.5879549999999
 30
0.0
 11
1808.115923999998
 21
-746.412044
 31
0.0
  0
LINE
  5
1BA
  8
1
  6
CONTINUOUS
 62
     7
 10
1917.824507999994
 20
-657.8472960000005
 30
0.0
 11
1916.437124999994
 21
-649.9790550000002
 31
0.0
  0
ARC
  5
1BB
  8
1
  6
CONTINUOUS
 62
     7
 10
1702.205877
 20
-747.5000000000001
 30
0.0
 40
2.000000000002444
 50
10.0
 51
90.0
  0
LINE
  5
1BC
  8
1
  6
CONTINUOUS
 62
     7
 10
1696.528981000003
 20
-696.5
 30
0.0
 11
1683.471019000001
 21
-696.5
 31
0.0
  0
LINE
  5
1BD
  8
1
  6
CONTINUOUS
 62
     7
 10
1737.482701999997
 20
-647.5000000000001
 30
0.0
 11
1730.517298999996
 21
-647.5000000000001
 31
0.0
  0
ARC
  5
1BE
  8
1
  6
CONTINUOUS
 62
     7
 10
1840.517299000001
 20
-754.5000000000002
 30
0.0
 40
2.999999999996561
 50
190.0
 51
270.0
  0
LINE
  5
1BF
  8
1
  6
CONTINUOUS
 62
     7
 10
1705.471018999996
 20
-708.5
 30
0.0
 11
1718.528980999997
 21
-708.5
 31
0.0
  0
LINE
  5
1C0
  8
1
  6
CONTINUOUS
 62
     7
 10
1836.175492999998
 20
-747.1527030000003
 30
0.0
 11
1837.562875999998
 21
-755.0209440000003
 31
0.0
  0
LINE
  5
1C1
  8
1
  6
CONTINUOUS
 62
     7
 10
1697.824507999999
 20
-657.8472960000005
 30
0.0
 11
1696.437125
 21
-649.9790550000002
 31
0.0
  0
LINE
  5
1C2
  8
1
  6
CONTINUOUS
 62
     7
 10
1705.471018999996
 20
-696.5
 30
0.0
 11
1705.471018999996
 21
-708.5
 31
0.0
  0
ARC
  5
1C3
  8
1
  6
CONTINUOUS
 62
     7
 10
1702.205877
 20
-657.4999999999999
 30
0.0
 40
2.000000000002444
 50
270.0
 51
349.9999999999999
  0
LINE
  5
1C4
  8
1
  6
CONTINUOUS
 62
     7
 10
1715.482701999998
 20
-647.5000000000001
 30
0.0
 11
1708.517298999997
 21
-647.5000000000001
 31
0.0
  0
LINE
  5
1C5
  8
1
  6
CONTINUOUS
 62
     7
 10
1814.175493000003
 20
-747.1527030000003
 30
0.0
 11
1815.562876000003
 21
-755.0209440000003
 31
0.0
  0
LINE
  5
1C6
  8
1
  6
CONTINUOUS
 62
     7
 10
1813.884077
 20
-658.5879549999999
 30
0.0
 11
1813.884077
 21
-746.412044
 31
0.0
  0
LINE
  5
1C7
  8
1
  6
CONTINUOUS
 62
     7
 10
1815.999999999998
 20
-756.1319329999999
 30
0.0
 11
1815.999999999998
 21
-708.4999999999998
 31
0.0
  0
ARC
  5
1C8
  8
1
  6
CONTINUOUS
 62
     7
 10
1737.482701999997
 20
-754.5000000000002
 30
0.0
 40
3.000000000003666
 50
270.0
 51
349.9999999999999
  0
ARC
  5
1C9
  8
1
  6
CONTINUOUS
 62
     7
 10
1825.482702000001
 20
-754.5000000000002
 30
0.0
 40
2.999999999996561
 50
270.0
 51
349.9999999999999
  0
ARC
  5
1CA
  8
1
  6
CONTINUOUS
 62
     7
 10
1812.205876999999
 20
-747.5000000000001
 30
0.0
 40
1.999999999998892
 50
10.0
 51
90.0
  0
ARC
  5
1CB
  8
1
  6
CONTINUOUS
 62
     7
 10
1715.482701999998
 20
-754.5000000000002
 30
0.0
 40
3.000000000000114
 50
270.0
 51
349.9999999999999
  0
LINE
  5
1CC
  8
1
  6
CONTINUOUS
 62
     7
 10
1815.471018999999
 20
-696.5
 30
0.0
 11
1815.471018999999
 21
-708.5
 31
0.0
  0
ARC
  5
1CD
  8
1
  6
CONTINUOUS
 62
     7
 10
1812.205876999999
 20
-657.4999999999999
 30
0.0
 40
1.999999999998892
 50
270.0
 51
349.9999999999999
  0
ARC
  5
1CE
  8
1
  6
CONTINUOUS
 62
     7
 10
1818.517298999999
 20
-650.5000000000002
 30
0.0
 40
3.000000000000114
 50
90.0
 51
170.0
  0
LINE
  5
1CF
  8
1
  6
CONTINUOUS
 62
     7
 10
1825.482702000001
 20
-647.5000000000001
 30
0.0
 11
1818.517299000001
 21
-647.5000000000001
 31
0.0
  0
LINE
  5
1D0
  8
1
  6
CONTINUOUS
 62
     7
 10
1682.175492999998
 20
-657.8472960000005
 30
0.0
 11
1683.562875999998
 21
-649.9790550000002
 31
0.0
  0
LINE
  5
1D1
  8
1
  6
CONTINUOUS
 62
     7
 10
1828.528981000001
 20
-696.5
 30
0.0
 11
1815.471019000001
 21
-696.5
 31
0.0
  0
ARC
  5
1D2
  8
1
  6
CONTINUOUS
 62
     7
 10
1840.517299000001
 20
-650.5000000000002
 30
0.0
 40
2.999999999996561
 50
90.0
 51
170.0
  0
LINE
  5
1D3
  8
1
  6
CONTINUOUS
 62
     7
 10
1697.824507999999
 20
-747.1527030000003
 30
0.0
 11
1696.437125
 21
-755.0209440000003
 31
0.0
  0
LINE
  5
1D4
  8
1
  6
CONTINUOUS
 62
     7
 10
1764.115923999998
 20
-658.5879549999999
 30
0.0
 11
1764.115923999998
 21
-746.412044
 31
0.0
  0
LINE
  5
1D5
  8
1
  6
CONTINUOUS
 62
     7
 10
1838.0
 20
-648.8680670000001
 30
0.0
 11
1838.0
 21
-696.5
 31
0.0
  0
LINE
  5
1D6
  8
1
  6
CONTINUOUS
 62
     7
 10
1791.884076999998
 20
-658.5879549999999
 30
0.0
 11
1791.884076999998
 21
-746.412044
 31
0.0
  0
LINE
  5
1D7
  8
1
  6
CONTINUOUS
 62
     7
 10
1919.794122999995
 20
-659.5000000000001
 30
0.0
 11
1922.205876999995
 21
-659.5000000000001
 31
0.0
  0
LINE
  5
1D8
  8
1
  6
CONTINUOUS
 62
     7
 10
1919.794122999995
 20
-745.5000000000003
 30
0.0
 11
1922.205876999995
 21
-745.5000000000003
 31
0.0
  0
LINE
  5
1D9
  8
1
  6
CONTINUOUS
 62
     7
 10
1916.528980999994
 20
-708.5
 30
0.0
 11
1916.528980999994
 21
-696.5
 31
0.0
  0
LINE
  5
1DA
  8
1
  6
CONTINUOUS
 62
     7
 10
1660.175493
 20
-657.8472960000005
 30
0.0
 11
1661.562876
 21
-649.9790550000002
 31
0.0
  0
LINE
  5
1DB
  8
1
  6
CONTINUOUS
 62
     7
 10
1769.884076999999
 20
-658.5879549999999
 30
0.0
 11
1769.884076999999
 21
-746.412044
 31
0.0
  0
LINE
  5
1DC
  8
1
  6
CONTINUOUS
 62
     7
 10
1916.0
 20
-756.1319329999999
 30
0.0
 11
1916.0
 21
-708.4999999999998
 31
0.0
  0
LINE
  5
1DD
  8
1
  6
CONTINUOUS
 62
     7
 10
1674.528980999997
 20
-708.5
 30
0.0
 11
1674.528980999997
 21
-696.5
 31
0.0
  0
LINE
  5
1DE
  8
1
  6
CONTINUOUS
 62
     7
 10
1699.794122999999
 20
-659.5000000000001
 30
0.0
 11
1702.205877
 21
-659.5000000000001
 31
0.0
  0
LINE
  5
1DF
  8
1
  6
CONTINUOUS
 62
     7
 10
1869.482701999998
 20
-647.5000000000001
 30
0.0
 11
1862.517298999998
 21
-647.5000000000001
 31
0.0
  0
LINE
  5
1E0
  8
1
  6
CONTINUOUS
 62
     7
 10
1917.824507999994
 20
-747.1527030000003
 30
0.0
 11
1916.437124999994
 21
-755.0209440000003
 31
0.0
  0
LINE
  5
1E1
  8
1
  6
CONTINUOUS
 62
     7
 10
1827.999999999998
 20
-756.1319329999999
 30
0.0
 11
1827.999999999998
 21
-708.4999999999998
 31
0.0
  0
LINE
  5
1E2
  8
1
  6
CONTINUOUS
 62
     7
 10
1815.471018999999
 20
-708.5
 30
0.0
 11
1828.528980999999
 21
-708.5
 31
0.0
  0
LINE
  5
1E3
  8
1
  6
CONTINUOUS
 62
     7
 10
1913.482701999992
 20
-757.4999999999999
 30
0.0
 11
1906.517298999991
 21
-757.4999999999999
 31
0.0
  0
LINE
  5
1E4
  8
1
  6
CONTINUOUS
 62
     7
 10
1894.528981000003
 20
-696.5
 30
0.0
 11
1881.471019000003
 21
-696.5
 31
0.0
  0
ARC
  5
1E5
  8
1
  6
CONTINUOUS
 62
     7
 10
1878.205877000002
 20
-657.4999999999999
 30
0.0
 40
1.999999999998892
 50
270.0
 51
349.9999999999999
  0
LINE
  5
1E6
  8
1
  6
CONTINUOUS
 62
     7
 10
1849.999999999997
 20
-767.5
 30
0.0
 11
1849.999999999997
 21
-637.4999999999999
 31
0.0
  0
LINE
  5
1E7
  8
1
  6
CONTINUOUS
 62
     7
 10
1902.175493
 20
-657.8472960000017
 30
0.0
 11
1903.562876000001
 21
-649.9790550000002
 31
0.0
  0
LINE
  5
1E8
  8
1
  6
CONTINUOUS
 62
     7
 10
1847.482702000003
 20
-757.4999999999999
 30
0.0
 11
1840.517298999996
 21
-757.4999999999999
 31
0.0
  0
LINE
  5
1E9
  8
1
  6
CONTINUOUS
 62
     7
 10
1872.000000000003
 20
-648.8680670000001
 30
0.0
 11
1872.000000000003
 21
-696.5
 31
0.0
  0
LINE
  5
1EA
  8
1
  6
CONTINUOUS
 62
     7
 10
1419.471018999998
 20
-696.5
 30
0.0
 11
1419.471018999998
 21
-708.5
 31
0.0
  0
ARC
  5
1EB
  8
1
  6
CONTINUOUS
 62
     7
 10
1922.205876999995
 20
-657.4999999999999
 30
0.0
 40
1.999999999998892
 50
270.0
 51
349.9999999999999
  0
LINE
  5
1EC
  8
1
  6
CONTINUOUS
 62
     7
 10
1894.000000000001
 20
-648.8680670000001
 30
0.0
 11
1894.000000000001
 21
-696.5
 31
0.0
  0
LINE
  5
1ED
  8
1
  6
CONTINUOUS
 62
     7
 10
1881.471019000002
 20
-708.5
 30
0.0
 11
1894.528981000002
 21
-708.5
 31
0.0
  0
ARC
  5
1EE
  8
1
  6
CONTINUOUS
 62
     7
 10
1884.517299000001
 20
-650.5000000000002
 30
0.0
 40
3.000000000000114
 50
90.0
 51
170.0
  0
LINE
  5
1EF
  8
1
  6
CONTINUOUS
 62
     7
 10
1895.824507999999
 20
-657.8472960000005
 30
0.0
 11
1894.437125
 21
-649.9790550000002
 31
0.0
  0
LINE
  5
1F0
  8
1
  6
CONTINUOUS
 62
     7
 10
1891.482702000004
 20
-757.4999999999999
 30
0.0
 11
1884.517299000004
 21
-757.4999999999999
 31
0.0
  0
LINE
  5
1F1
  8
1
  6
CONTINUOUS
 62
     7
 10
1872.000000000003
 20
-756.1319329999999
 30
0.0
 11
1872.000000000003
 21
-708.4999999999998
 31
0.0
  0
LINE
  5
1F2
  8
1
  6
CONTINUOUS
 62
     7
 10
1897.794122999996
 20
-745.5000000000003
 30
0.0
 11
1900.205877
 21
-745.5000000000003
 31
0.0
  0
LINE
  5
1F3
  8
1
  6
CONTINUOUS
 62
     7
 10
1875.794123000001
 20
-659.5000000000001
 30
0.0
 11
1878.205877000001
 21
-659.5000000000001
 31
0.0
  0
LINE
  5
1F4
  8
1
  6
CONTINUOUS
 62
     7
 10
1815.999999999998
 20
-648.8680670000001
 30
0.0
 11
1815.999999999998
 21
-696.5
 31
0.0
  0
LINE
  5
1F5
  8
1
  6
CONTINUOUS
 62
     7
 10
1895.824507999999
 20
-747.1527030000003
 30
0.0
 11
1894.437125
 21
-755.0209440000003
 31
0.0
  0
LINE
  5
1F6
  8
1
  6
CONTINUOUS
 62
     7
 10
1880.175493000006
 20
-747.1527030000003
 30
0.0
 11
1881.562876000006
 21
-755.0209440000003
 31
0.0
  0
LINE
  5
1F7
  8
1
  6
CONTINUOUS
 62
     7
 10
1721.794123000001
 20
-745.5000000000003
 30
0.0
 11
1724.205877000002
 21
-745.5000000000003
 31
0.0
  0
ARC
  5
1F8
  8
1
  6
CONTINUOUS
 62
     7
 10
1891.482702000004
 20
-650.5000000000002
 30
0.0
 40
2.999999999996561
 50
10.0
 51
90.0
  0
LINE
  5
1F9
  8
1
  6
CONTINUOUS
 62
     7
 10
1882.0
 20
-756.1319329999999
 30
0.0
 11
1882.0
 21
-708.4999999999998
 31
0.0
  0
LINE
  5
1FA
  8
1
  6
CONTINUOUS
 62
     7
 10
1882.0
 20
-648.8680670000001
 30
0.0
 11
1882.0
 21
-696.5
 31
0.0
  0
ARC
  5
1FB
  8
1
  6
CONTINUOUS
 62
     7
 10
1825.482702000001
 20
-650.5000000000002
 30
0.0
 40
2.999999999996561
 50
10.0
 51
90.0
  0
LINE
  5
1FC
  8
1
  6
CONTINUOUS
 62
     7
 10
1903.471019
 20
-696.5
 30
0.0
 11
1903.471019
 21
-708.5
 31
0.0
  0
LINE
  5
1FD
  8
1
  6
CONTINUOUS
 62
     7
 10
1894.000000000001
 20
-756.1319329999999
 30
0.0
 11
1894.000000000001
 21
-708.4999999999998
 31
0.0
  0
ARC
  5
1FE
  8
1
  6
CONTINUOUS
 62
     7
 10
1897.794123
 20
-657.4999999999999
 30
0.0
 40
1.999999999998892
 50
190.0
 51
270.0
  0
LINE
  5
1FF
  8
1
  6
CONTINUOUS
 62
     7
 10
1786.115924
 20
-658.5879549999999
 30
0.0
 11
1786.115924
 21
-746.412044
 31
0.0
  0
LINE
  5
200
  8
1
  6
CONTINUOUS
 62
     7
 10
1837.471018999998
 20
-696.5
 30
0.0
 11
1837.471018999998
 21
-708.5
 31
0.0
  0
LINE
  5
201
  8
1
  6
CONTINUOUS
 62
     7
 10
1835.884076999998
 20
-658.5879549999999
 30
0.0
 11
1835.884076999998
 21
-746.412044
 31
0.0
  0
LINE
  5
202
  8
1
  6
CONTINUOUS
 62
     7
 10
1837.471018999998
 20
-708.5
 30
0.0
 11
1850.528980999998
 21
-708.5
 31
0.0
  0
LINE
  5
203
  8
1
  6
CONTINUOUS
 62
     7
 10
1880.175493000006
 20
-657.8472960000005
 30
0.0
 11
1881.562876000006
 21
-649.9790550000002
 31
0.0
  0
ARC
  5
204
  8
1
  6
CONTINUOUS
 62
     7
 10
1913.482701999992
 20
-650.5000000000002
 30
0.0
 40
3.000000000003666
 50
10.0
 51
90.0
  0
LINE
  5
205
  8
1
  6
CENTER
 62
     1
 10
2129.000000000004
 20
-702.4999999999999
 30
0.0
 11
975.0000000000006
 21
-702.4999999999999
 31
0.0
  0
LINE
  5
206
  8
1
  6
CONTINUOUS
 62
     7
 10
1916.528980999994
 20
-696.5
 30
0.0
 11
1903.471018999995
 21
-696.5
 31
0.0
  0
LINE
  5
207
  8
1
  6
CONTINUOUS
 62
     7
 10
1923.884076999999
 20
-658.5879549999999
 30
0.0
 11
1923.884076999999
 21
-746.412044
 31
0.0
  0
ARC
  5
208
  8
1
  6
CONTINUOUS
 62
     7
 10
1878.205877000002
 20
-747.5000000000001
 30
0.0
 40
1.999999999998892
 50
10.0
 51
90.0
  0
LINE
  5
209
  8
1
  6
CONTINUOUS
 62
     7
 10
1901.884077000001
 20
-658.5879549999999
 30
0.0
 11
1901.884077000001
 21
-746.412044
 31
0.0
  0
LINE
  5
20A
  8
1
  6
CONTINUOUS
 62
     7
 10
1904.000000000003
 20
-648.8680670000001
 30
0.0
 11
1904.000000000003
 21
-696.5
 31
0.0
  0
LINE
  5
20B
  8
1
  6
CONTINUOUS
 62
     7
 10
1872.528981000001
 20
-708.5
 30
0.0
 11
1872.528981000001
 21
-696.5
 31
0.0
  0
LINE
  5
20C
  8
1
  6
CONTINUOUS
 62
     7
 10
1859.999999999998
 20
-637.4999999999999
 30
0.0
 11
1859.999999999998
 21
-767.5
 31
0.0
  0
LINE
  5
20D
  8
1
  6
CONTINUOUS
 62
     7
 10
1875.794123000001
 20
-745.5000000000003
 30
0.0
 11
1878.205877000001
 21
-745.5000000000003
 31
0.0
  0
ARC
  5
20E
  8
1
  6
CONTINUOUS
 62
     7
 10
1891.482702000004
 20
-754.5000000000002
 30
0.0
 40
2.999999999996561
 50
270.0
 51
349.9999999999999
  0
ARC
  5
20F
  8
1
  6
CONTINUOUS
 62
     7
 10
1897.794123
 20
-747.5000000000001
 30
0.0
 40
1.999999999998892
 50
90.0
 51
170.0
  0
LINE
  5
210
  8
1
  6
CONTINUOUS
 62
     7
 10
1896.115924000003
 20
-658.5879549999999
 30
0.0
 11
1896.115924000003
 21
-746.412044
 31
0.0
  0
ARC
  5
211
  8
1
  6
CONTINUOUS
 62
     7
 10
1919.794122999995
 20
-747.5000000000001
 30
0.0
 40
1.999999999998892
 50
90.0
 51
170.0
  0
LINE
  5
212
  8
1
  6
CONTINUOUS
 62
     7
 10
1847.482702000003
 20
-647.5000000000001
 30
0.0
 11
1840.517298999996
 21
-647.5000000000001
 31
0.0
  0
ARC
  5
213
  8
1
  6
CONTINUOUS
 62
     7
 10
1831.794122999997
 20
-747.5000000000001
 30
0.0
 40
1.999999999998892
 50
90.0
 51
170.0
  0
LINE
  5
214
  8
1
  6
CONTINUOUS
 62
     7
 10
1873.824508000001
 20
-747.1527030000003
 30
0.0
 11
1872.437125000001
 21
-755.0209440000009
 31
0.0
  0
ARC
  5
215
  8
1
  6
CONTINUOUS
 62
     7
 10
1919.794122999995
 20
-657.4999999999999
 30
0.0
 40
1.999999999998892
 50
190.0
 51
270.0
  0
LINE
  5
216
  8
1
  6
CONTINUOUS
 62
     7
 10
1891.482702000004
 20
-647.5000000000001
 30
0.0
 11
1884.517299000004
 21
-647.5000000000001
 31
0.0
  0
ARC
  5
217
  8
1
  6
CONTINUOUS
 62
     7
 10
1834.205876999998
 20
-747.5000000000001
 30
0.0
 40
2.000000000002444
 50
10.0
 51
90.0
  0
LINE
  5
218
  8
1
  6
CONTINUOUS
 62
     7
 10
1879.884077000002
 20
-658.5879549999999
 30
0.0
 11
1879.884077000002
 21
-746.412044
 31
0.0
  0
LINE
  5
219
  8
1
  6
CONTINUOUS
 62
     7
 10
1677.794122999997
 20
-659.5000000000001
 30
0.0
 11
1680.205876999999
 21
-659.5000000000001
 31
0.0
  0
LINE
  5
21A
  8
1
  6
CONTINUOUS
 62
     7
 10
1913.482701999992
 20
-647.5000000000001
 30
0.0
 11
1906.517298999991
 21
-647.5000000000001
 31
0.0
  0
LINE
  5
21B
  8
1
  6
CONTINUOUS
 62
     7
 10
1874.115924000001
 20
-658.5879549999999
 30
0.0
 11
1874.115924000001
 21
-746.412044
 31
0.0
  0
LINE
  5
21C
  8
1
  6
CONTINUOUS
 62
     7
 10
1902.175493
 20
-747.1527029999992
 30
0.0
 11
1903.562876000001
 21
-755.0209440000003
 31
0.0
  0
ARC
  5
21D
  8
1
  6
CONTINUOUS
 62
     7
 10
1818.517298999999
 20
-754.5000000000002
 30
0.0
 40
3.000000000000114
 50
190.0
 51
270.0
  0
LINE
  5
21E
  8
1
  6
CONTINUOUS
 62
     7
 10
1838.0
 20
-756.1319329999999
 30
0.0
 11
1838.0
 21
-708.4999999999998
 31
0.0
  0
LINE
  5
21F
  8
1
  6
CONTINUOUS
 62
     7
 10
1894.528981000003
 20
-708.5
 30
0.0
 11
1894.528981000003
 21
-696.5
 31
0.0
  0
LINE
  5
220
  8
1
  6
CONTINUOUS
 62
     7
 10
1850.528980999999
 20
-696.5
 30
0.0
 11
1837.471018999999
 21
-696.5
 31
0.0
  0
LINE
  5
221
  8
1
  6
CONTINUOUS
 62
     7
 10
1904.000000000003
 20
-756.1319329999999
 30
0.0
 11
1904.000000000003
 21
-708.4999999999998
 31
0.0
  0
LINE
  5
222
  8
1
  6
CONTINUOUS
 62
     7
 10
1903.471018999997
 20
-708.5
 30
0.0
 11
1916.528980999997
 21
-708.5
 31
0.0
  0
ARC
  5
223
  8
1
  6
CONTINUOUS
 62
     7
 10
1913.482701999992
 20
-754.5000000000002
 30
0.0
 40
3.000000000003666
 50
270.0
 51
349.9999999999999
  0
LINE
  5
224
  8
1
  6
CONTINUOUS
 62
     7
 10
992.5289810000022
 20
-696.5
 30
0.0
 11
979.4710190000022
 21
-696.5
 31
0.0
  0
ARC
  5
225
  8
1
  6
CONTINUOUS
 62
     7
 10
1429.482701999997
 20
-650.5000000000002
 30
0.0
 40
3.000000000000114
 50
9.999999999976865
 51
90.0
  0
LINE
  5
226
  8
1
  6
CONTINUOUS
 62
     7
 10
1431.999999999998
 20
-756.1319329999999
 30
0.0
 11
1431.999999999998
 21
-708.4999999999998
 31
0.0
  0
LINE
  5
227
  8
1
  6
CONTINUOUS
 62
     7
 10
1433.824507999996
 20
-657.847296000001
 30
0.0
 11
1432.437124999996
 21
-649.9790550000002
 31
0.0
  0
LINE
  5
228
  8
1
  6
CONTINUOUS
 62
     7
 10
1165.482702000001
 20
-647.5000000000001
 30
0.0
 11
1158.517299
 21
-647.5000000000001
 31
0.0
  0
LINE
  5
229
  8
1
  6
CONTINUOUS
 62
     7
 10
1168.528981000001
 20
-708.5
 30
0.0
 11
1168.528981000001
 21
-696.5
 31
0.0
  0
LINE
  5
22A
  8
1
  6
CONTINUOUS
 62
     7
 10
1002.000000000002
 20
-756.1319329999999
 30
0.0
 11
1002.000000000002
 21
-708.4999999999998
 31
0.0
  0
ARC
  5
22B
  8
1
  6
CONTINUOUS
 62
     7
 10
1171.794123000001
 20
-747.5000000000001
 30
0.0
 40
2.000000000002444
 50
90.0
 51
170.0
  0
ARC
  5
22C
  8
1
  6
CONTINUOUS
 62
     7
 10
1435.794122999996
 20
-657.4999999999999
 30
0.0
 40
1.999999999998892
 50
190.0000000000008
 51
270.0
  0
ARC
  5
22D
  8
1
  6
CONTINUOUS
 62
     7
 10
1174.205877000001
 20
-657.4999999999999
 30
0.0
 40
1.999999999998892
 50
270.0
 51
349.9999999999999
  0
LINE
  5
22E
  8
1
  6
CONTINUOUS
 62
     7
 10
1171.794123000001
 20
-659.5000000000001
 30
0.0
 11
1174.205877000002
 21
-659.5000000000001
 31
0.0
  0
LINE
  5
22F
  8
1
  6
CONTINUOUS
 62
     7
 10
1171.794123000001
 20
-745.5000000000003
 30
0.0
 11
1174.205877000002
 21
-745.5000000000003
 31
0.0
  0
ARC
  5
230
  8
1
  6
CONTINUOUS
 62
     7
 10
1174.205877000001
 20
-747.5000000000001
 30
0.0
 40
1.999999999998892
 50
10.0
 51
90.0
  0
LINE
  5
231
  8
1
  6
CONTINUOUS
 62
     7
 10
1126.115923999999
 20
-658.5879549999999
 30
0.0
 11
1126.115923999999
 21
-746.412044
 31
0.0
  0
ARC
  5
232
  8
1
  6
CONTINUOUS
 62
     7
 10
1416.205876999999
 20
-747.5000000000001
 30
0.0
 40
1.999999999998892
 50
9.999999999998751
 51
90.0
  0
LINE
  5
233
  8
1
  6
CONTINUOUS
 62
     7
 10
1147.824508000002
 20
-657.8472960000005
 30
0.0
 11
1146.437125000003
 21
-649.9790550000002
 31
0.0
  0
LINE
  5
234
  8
1
  6
CONTINUOUS
 62
     7
 10
995.7941229999986
 20
-659.5000000000001
 30
0.0
 11
998.2058769999993
 21
-659.5000000000001
 31
0.0
  0
ARC
  5
235
  8
1
  6
CONTINUOUS
 62
     7
 10
1187.482702
 20
-754.5000000000002
 30
0.0
 40
3.000000000000114
 50
270.0
 51
349.9999999999999
  0
LINE
  5
236
  8
1
  6
CONTINUOUS
 62
     7
 10
1419.471018999998
 20
-708.5
 30
0.0
 11
1432.528981000002
 21
-708.5
 31
0.0
  0
LINE
  5
237
  8
1
  6
CONTINUOUS
 62
     7
 10
1155.471018999999
 20
-696.5
 30
0.0
 11
1155.471018999999
 21
-708.5
 31
0.0
  0
ARC
  5
238
  8
1
  6
CONTINUOUS
 62
     7
 10
1422.517298999998
 20
-650.5000000000002
 30
0.0
 40
3.000000000000114
 50
89.99999999993213
 51
170.000000000001
  0
LINE
  5
239
  8
1
  6
CONTINUOUS
 62
     7
 10
1433.824507999996
 20
-747.1527029999997
 30
0.0
 11
1432.437124999996
 21
-755.0209440000003
 31
0.0
  0
LINE
  5
23A
  8
1
  6
CONTINUOUS
 62
     7
 10
1881.471019000002
 20
-696.5
 30
0.0
 11
1881.471019000002
 21
-708.5
 31
0.0
  0
LINE
  5
23B
  8
1
  6
CONTINUOUS
 62
     7
 10
1431.999999999998
 20
-648.8680670000001
 30
0.0
 11
1431.999999999998
 21
-696.5
 31
0.0
  0
LINE
  5
23C
  8
1
  6
CONTINUOUS
 62
     7
 10
1417.884076999999
 20
-658.5879549999999
 30
0.0
 11
1417.884076999999
 21
-746.412044
 31
0.0
  0
ARC
  5
23D
  8
1
  6
CONTINUOUS
 62
     7
 10
1906.517299000004
 20
-650.5000000000002
 30
0.0
 40
2.999999999996561
 50
90.0
 51
169.9999999999996
  0
ARC
  5
23E
  8
1
  6
CONTINUOUS
 62
     7
 10
1435.794122999996
 20
-747.5000000000001
 30
0.0
 40
1.999999999998892
 50
90.0
 51
169.9999999999993
  0
ARC
  5
23F
  8
1
  6
CONTINUOUS
 62
     7
 10
1193.794122999999
 20
-657.4999999999999
 30
0.0
 40
1.999999999998892
 50
190.0
 51
270.0
  0
LINE
  5
240
  8
1
  6
CONTINUOUS
 62
     7
 10
1418.175492999995
 20
-657.8472960000005
 30
0.0
 11
1419.562875999995
 21
-649.9790549999997
 31
0.0
  0
LINE
  5
241
  8
1
  6
CONTINUOUS
 62
     7
 10
1432.528981
 20
-696.5
 30
0.0
 11
1419.471019
 21
-696.5
 31
0.0
  0
LINE
  5
242
  8
1
  6
CONTINUOUS
 62
     7
 10
1416.205877000002
 20
-659.5000000000001
 30
0.0
 11
1413.794123000001
 21
-659.5000000000001
 31
0.0
  0
ARC
  5
243
  8
1
  6
CONTINUOUS
 62
     7
 10
1900.205877
 20
-747.5000000000001
 30
0.0
 40
2.000000000002444
 50
9.999999999998767
 51
90.0
  0
LINE
  5
244
  8
1
  6
CONTINUOUS
 62
     7
 10
1146.0
 20
-756.1319329999999
 30
0.0
 11
1146.0
 21
-708.4999999999998
 31
0.0
  0
LINE
  5
245
  8
1
  6
CONTINUOUS
 62
     7
 10
1419.999999999997
 20
-756.1319329999999
 30
0.0
 11
1419.999999999997
 21
-708.4999999999998
 31
0.0
  0
LINE
  5
246
  8
1
  6
CONTINUOUS
 62
     7
 10
1429.482702000004
 20
-757.4999999999999
 30
0.0
 11
1422.517298999997
 21
-757.4999999999999
 31
0.0
  0
LINE
  5
247
  8
1
  6
CONTINUOUS
 62
     7
 10
1419.999999999997
 20
-648.8680670000001
 30
0.0
 11
1419.999999999997
 21
-696.5
 31
0.0
  0
ARC
  5
248
  8
1
  6
CONTINUOUS
 62
     7
 10
1422.517298999998
 20
-754.5000000000002
 30
0.0
 40
3.000000000000114
 50
189.9999999999991
 51
270.0
  0
LINE
  5
249
  8
1
  6
CONTINUOUS
 62
     7
 10
1897.794122999996
 20
-659.5000000000001
 30
0.0
 11
1900.205877
 21
-659.5000000000001
 31
0.0
  0
LINE
  5
24A
  8
1
  6
CONTINUOUS
 62
     7
 10
1416.205877000002
 20
-745.5000000000003
 30
0.0
 11
1413.794123000001
 21
-745.5000000000003
 31
0.0
  0
LINE
  5
24B
  8
1
  6
CONTINUOUS
 62
     7
 10
1429.482702000004
 20
-647.5000000000001
 30
0.0
 11
1422.517298999997
 21
-647.5000000000001
 31
0.0
  0
LINE
  5
24C
  8
1
  6
CONTINUOUS
 62
     7
 10
1168.000000000002
 20
-756.1319329999999
 30
0.0
 11
1168.000000000002
 21
-708.4999999999998
 31
0.0
  0
LINE
  5
24D
  8
1
  6
CONTINUOUS
 62
     7
 10
979.4710190000009
 20
-708.5
 30
0.0
 11
992.5289810000008
 21
-708.5
 31
0.0
  0
LINE
  5
24E
  8
1
  6
CONTINUOUS
 62
     7
 10
1432.528981
 20
-708.5
 30
0.0
 11
1432.528981
 21
-696.5
 31
0.0
  0
ARC
  5
24F
  8
1
  6
CONTINUOUS
 62
     7
 10
1416.205876999999
 20
-657.4999999999999
 30
0.0
 40
1.999999999998892
 50
270.0
 51
349.9999999999992
  0
ARC
  5
250
  8
1
  6
CONTINUOUS
 62
     7
 10
1884.517299000001
 20
-754.5000000000002
 30
0.0
 40
3.000000000000114
 50
190.0
 51
270.0
  0
LINE
  5
251
  8
1
  6
CONTINUOUS
 62
     7
 10
1418.175492999995
 20
-747.1527030000003
 30
0.0
 11
1419.562875999995
 21
-755.020944000001
 31
0.0
  0
ARC
  5
252
  8
1
  6
CONTINUOUS
 62
     7
 10
1875.794123000001
 20
-747.5000000000001
 30
0.0
 40
2.000000000002444
 50
90.0
 51
170.0000000000012
  0
LINE
  5
253
  8
1
  6
CONTINUOUS
 62
     7
 10
1873.824508000001
 20
-657.8472960000005
 30
0.0
 11
1872.437125000001
 21
-649.9790549999998
 31
0.0
  0
ARC
  5
254
  8
1
  6
CONTINUOUS
 62
     7
 10
1906.517299000004
 20
-754.5000000000002
 30
0.0
 40
2.999999999996561
 50
189.9999999999756
 51
270.0
  0
ARC
  5
255
  8
1
  6
CONTINUOUS
 62
     7
 10
1429.482701999997
 20
-754.5000000000002
 30
0.0
 40
3.000000000000114
 50
270.0
 51
350.0000000000009
  0
ARC
  5
256
  8
1
  6
CONTINUOUS
 62
     7
 10
1900.205877
 20
-657.4999999999999
 30
0.0
 40
2.000000000002444
 50
269.9999999997965
 51
350.0000000000013
  0
ARC
  5
257
  8
1
  6
CONTINUOUS
 62
     7
 10
1869.482702000002
 20
-650.5000000000002
 30
0.0
 40
3.000000000000114
 50
9.999999999999062
 51
90.0
  0
ARC
  5
258
  8
1
  6
CONTINUOUS
 62
     7
 10
1869.482702000002
 20
-754.5000000000002
 30
0.0
 40
3.000000000000114
 50
269.9999999999321
 51
350.0000000000009
  0
LINE
  5
259
  8
1
  6
CONTINUOUS
 62
     7
 10
1132.175493000001
 20
-747.1527030000003
 30
0.0
 11
1133.562876000001
 21
-755.0209440000003
 31
0.0
  0
LINE
  5
25A
  8
1
  6
CONTINUOUS
 62
     7
 10
1133.471019000001
 20
-708.5
 30
0.0
 11
1146.528981000002
 21
-708.5
 31
0.0
  0
LINE
  5
25B
  8
1
  6
CONTINUOUS
 62
     7
 10
1148.115923999998
 20
-658.5879549999999
 30
0.0
 11
1148.115923999998
 21
-746.412044
 31
0.0
  0
LINE
  5
25C
  8
1
  6
CONTINUOUS
 62
     7
 10
1111.471018999999
 20
-696.5
 30
0.0
 11
1111.471018999999
 21
-708.5
 31
0.0
  0
LINE
  5
25D
  8
1
  6
CONTINUOUS
 62
     7
 10
993.8245079999986
 20
-657.8472960000005
 30
0.0
 11
992.4371249999981
 21
-649.9790550000002
 31
0.0
  0
ARC
  5
25E
  8
1
  6
CONTINUOUS
 62
     7
 10
1875.794123000001
 20
-657.4999999999999
 30
0.0
 40
2.000000000002444
 50
189.9999999999831
 51
270.0
  0
LINE
  5
25F
  8
1
  6
CONTINUOUS
 62
     7
 10
1147.824508000002
 20
-747.1527030000003
 30
0.0
 11
1146.437125000003
 21
-755.0209440000003
 31
0.0
  0
ARC
  5
260
  8
1
  6
CONTINUOUS
 62
     7
 10
1180.517299000001
 20
-754.5000000000002
 30
0.0
 40
3.000000000000114
 50
190.0
 51
270.0
  0
LINE
  5
261
  8
1
  6
CONTINUOUS
 62
     7
 10
1036.528980999999
 20
-708.5
 30
0.0
 11
1036.528980999999
 21
-696.5
 31
0.0
  0
ARC
  5
262
  8
1
  6
CONTINUOUS
 62
     7
 10
982.5172990000004
 20
-754.5000000000002
 30
0.0
 40
3.000000000000114
 50
190.0
 51
270.0
  0
ARC
  5
263
  8
1
  6
CONTINUOUS
 62
     7
 10
1136.517299
 20
-650.5000000000002
 30
0.0
 40
3.000000000000114
 50
90.0
 51
170.0
  0
LINE
  5
264
  8
1
  6
CONTINUOUS
 62
     7
 10
1177.471019000001
 20
-708.5
 30
0.0
 11
1190.528981000002
 21
-708.5
 31
0.0
  0
LINE
  5
265
  8
1
  6
CONTINUOUS
 62
     7
 10
1033.482701999996
 20
-757.4999999999999
 30
0.0
 11
1026.517298999996
 21
-757.4999999999999
 31
0.0
  0
ARC
  5
266
  8
1
  6
CONTINUOUS
 62
     7
 10
1171.794123000001
 20
-657.4999999999999
 30
0.0
 40
2.000000000002444
 50
190.0
 51
270.0
  0
LINE
  5
267
  8
1
  6
CONTINUOUS
 62
     7
 10
1176.175493000005
 20
-747.1527030000003
 30
0.0
 11
1177.562876000005
 21
-755.0209440000003
 31
0.0
  0
LINE
  5
268
  8
1
  6
CONTINUOUS
 62
     7
 10
1017.794123000001
 20
-745.5000000000003
 30
0.0
 11
1020.205877000001
 21
-745.5000000000003
 31
0.0
  0
LINE
  5
269
  8
1
  6
CONTINUOUS
 62
     7
 10
1044.175493
 20
-657.8472960000005
 30
0.0
 11
1045.562876
 21
-649.9790550000002
 31
0.0
  0
ARC
  5
26A
  8
1
  6
CONTINUOUS
 62
     7
 10
982.5172990000004
 20
-650.5000000000002
 30
0.0
 40
3.000000000000114
 50
90.0
 51
170.0
  0
LINE
  5
26B
  8
1
  6
CONTINUOUS
 62
     7
 10
979.4710190000009
 20
-696.5
 30
0.0
 11
979.4710190000009
 21
-708.5
 31
0.0
  0
ARC
  5
26C
  8
1
  6
CONTINUOUS
 62
     7
 10
1143.482701999999
 20
-650.5000000000002
 30
0.0
 40
3.000000000003666
 50
10.0
 51
90.0
  0
ARC
  5
26D
  8
1
  6
CONTINUOUS
 62
     7
 10
1011.482702000001
 20
-754.5000000000002
 30
0.0
 40
3.000000000000114
 50
270.0
 51
349.9999999999999
  0
ARC
  5
26E
  8
1
  6
CONTINUOUS
 62
     7
 10
1152.205877000003
 20
-657.4999999999999
 30
0.0
 40
1.999999999998892
 50
270.0
 51
349.9999999999999
  0
LINE
  5
26F
  8
1
  6
CONTINUOUS
 62
     7
 10
975.0000000000006
 20
-745.5000000000001
 30
0.0
 11
975.0000000000006
 21
-659.5000000000001
 31
0.0
  0
LINE
  5
270
  8
1
  6
CONTINUOUS
 62
     7
 10
992.0
 20
-648.8680670000001
 30
0.0
 11
992.0
 21
-696.5
 31
0.0
  0
LINE
  5
271
  8
1
  6
CONTINUOUS
 62
     7
 10
1177.471019000001
 20
-696.5
 30
0.0
 11
1177.471019000001
 21
-708.5
 31
0.0
  0
LINE
  5
272
  8
1
  6
CONTINUOUS
 62
     7
 10
978.1754929999975
 20
-657.8472960000005
 30
0.0
 11
979.5628759999975
 21
-649.9790550000002
 31
0.0
  0
LINE
  5
273
  8
1
  6
CONTINUOUS
 62
     7
 10
977.8840770000014
 20
-658.5879549999999
 30
0.0
 11
977.8840770000014
 21
-746.412044
 31
0.0
  0
LINE
  5
274
  8
1
  6
CONTINUOUS
 62
     7
 10
1068.0
 20
-648.8680670000001
 30
0.0
 11
1068.0
 21
-696.5
 31
0.0
  0
LINE
  5
275
  8
1
  6
CONTINUOUS
 62
     7
 10
1057.999999999999
 20
-756.1319329999999
 30
0.0
 11
1057.999999999999
 21
-708.4999999999998
 31
0.0
  0
LINE
  5
276
  8
1
  6
CONTINUOUS
 62
     7
 10
1033.482701999996
 20
-647.5000000000001
 30
0.0
 11
1026.517298999996
 21
-647.5000000000001
 31
0.0
  0
LINE
  5
277
  8
1
  6
CONTINUOUS
 62
     7
 10
1165.482702000001
 20
-757.4999999999999
 30
0.0
 11
1158.517299
 21
-757.4999999999999
 31
0.0
  0
LINE
  5
278
  8
1
  6
CONTINUOUS
 62
     7
 10
995.7941229999986
 20
-745.5000000000003
 30
0.0
 11
998.2058769999993
 21
-745.5000000000003
 31
0.0
  0
LINE
  5
279
  8
1
  6
CONTINUOUS
 62
     7
 10
1133.999999999999
 20
-648.8680670000001
 30
0.0
 11
1133.999999999999
 21
-696.5
 31
0.0
  0
LINE
  5
27A
  8
1
  6
CONTINUOUS
 62
     7
 10
1109.884076999999
 20
-658.5879549999999
 30
0.0
 11
1109.884076999999
 21
-746.412044
 31
0.0
  0
ARC
  5
27B
  8
1
  6
CONTINUOUS
 62
     7
 10
1020.205876999998
 20
-657.4999999999999
 30
0.0
 40
2.000000000002444
 50
270.0
 51
349.9999999999999
  0
LINE
  5
27C
  8
1
  6
CONTINUOUS
 62
     7
 10
1169.824508
 20
-657.8472960000005
 30
0.0
 11
1168.437125000002
 21
-649.9790550000002
 31
0.0
  0
LINE
  5
27D
  8
1
  6
CONTINUOUS
 62
     7
 10
1192.115924000002
 20
-658.5879549999999
 30
0.0
 11
1192.115924000002
 21
-746.412044
 31
0.0
  0
ARC
  5
27E
  8
1
  6
CONTINUOUS
 62
     7
 10
1130.205877000001
 20
-747.5000000000001
 30
0.0
 40
1.999999999998892
 50
10.0
 51
90.0
  0
ARC
  5
27F
  8
1
  6
CONTINUOUS
 62
     7
 10
1193.794122999999
 20
-747.5000000000001
 30
0.0
 40
1.999999999998892
 50
90.0
 51
170.0
  0
ARC
  5
280
  8
1
  6
CONTINUOUS
 62
     7
 10
1143.482701999999
 20
-754.5000000000002
 30
0.0
 40
3.000000000003666
 50
270.0
 51
349.9999999999999
  0
ARC
  5
281
  8
1
  6
CONTINUOUS
 62
     7
 10
1152.205877000003
 20
-747.5000000000001
 30
0.0
 40
1.999999999998892
 50
10.0
 51
90.0
  0
LINE
  5
282
  8
1
  6
CONTINUOUS
 62
     7
 10
1149.794122999999
 20
-659.5000000000001
 30
0.0
 11
1152.205876999999
 21
-659.5000000000001
 31
0.0
  0
LINE
  5
283
  8
1
  6
CONTINUOUS
 62
     7
 10
1190.528981000003
 20
-708.5
 30
0.0
 11
1190.528981000003
 21
-696.5
 31
0.0
  0
LINE
  5
284
  8
1
  6
CONTINUOUS
 62
     7
 10
1022.175492999998
 20
-747.1527030000003
 30
0.0
 11
1023.562875999998
 21
-755.0209440000003
 31
0.0
  0
LINE
  5
285
  8
1
  6
CONTINUOUS
 62
     7
 10
1061.794123000001
 20
-659.5000000000001
 30
0.0
 11
1064.205877000001
 21
-659.5000000000001
 31
0.0
  0
LINE
  5
286
  8
1
  6
CONTINUOUS
 62
     7
 10
1178.0
 20
-648.8680670000001
 30
0.0
 11
1178.0
 21
-696.5
 31
0.0
  0
ARC
  5
287
  8
1
  6
CONTINUOUS
 62
     7
 10
1149.794122999999
 20
-657.4999999999999
 30
0.0
 40
1.999999999998892
 50
190.0
 51
270.0
  0
LINE
  5
288
  8
1
  6
CONTINUOUS
 62
     7
 10
976.2058770000008
 20
-745.5000000000003
 30
0.0
 11
975.0000000000006
 21
-745.5000000000003
 31
0.0
  0
ARC
  5
289
  8
1
  6
CONTINUOUS
 62
     7
 10
976.2058770000008
 20
-657.4999999999999
 30
0.0
 40
1.999999999998892
 50
270.0
 51
349.9999999999999
  0
LINE
  5
28A
  8
1
  6
CONTINUOUS
 62
     7
 10
979.9999999999995
 20
-756.1319329999999
 30
0.0
 11
979.9999999999995
 21
-708.4999999999998
 31
0.0
  0
ARC
  5
28B
  8
1
  6
CONTINUOUS
 62
     7
 10
1026.517299000001
 20
-650.5000000000002
 30
0.0
 40
3.000000000000114
 50
90.0
 51
170.0
  0
LINE
  5
28C
  8
1
  6
CONTINUOUS
 62
     7
 10
1190.0
 20
-756.1319329999999
 30
0.0
 11
1190.0
 21
-708.4999999999998
 31
0.0
  0
ARC
  5
28D
  8
1
  6
CONTINUOUS
 62
     7
 10
1165.482702000001
 20
-650.5000000000002
 30
0.0
 40
3.000000000000114
 50
10.0
 51
90.0
  0
ARC
  5
28E
  8
1
  6
CONTINUOUS
 62
     7
 10
1165.482702000001
 20
-754.5000000000002
 30
0.0
 40
3.000000000000114
 50
270.0
 51
349.9999999999999
  0
LINE
  5
28F
  8
1
  6
CONTINUOUS
 62
     7
 10
1132.175493000001
 20
-657.8472960000005
 30
0.0
 11
1133.562876000001
 21
-649.9790550000002
 31
0.0
  0
LINE
  5
290
  8
1
  6
CONTINUOUS
 62
     7
 10
1011.482702000001
 20
-757.4999999999999
 30
0.0
 11
1004.517299000001
 21
-757.4999999999999
 31
0.0
  0
LINE
  5
291
  8
1
  6
CONTINUOUS
 62
     7
 10
1015.824508000001
 20
-747.1527030000003
 30
0.0
 11
1014.437125000001
 21
-755.0209440000003
 31
0.0
  0
ARC
  5
292
  8
1
  6
CONTINUOUS
 62
     7
 10
1136.517299
 20
-754.5000000000002
 30
0.0
 40
3.000000000000114
 50
190.0
 51
270.0
  0
LINE
  5
293
  8
1
  6
CONTINUOUS
 62
     7
 10
1143.482701999999
 20
-647.5000000000001
 30
0.0
 11
1136.517298999999
 21
-647.5000000000001
 31
0.0
  0
ARC
  5
294
  8
1
  6
CONTINUOUS
 62
     7
 10
998.2058769999993
 20
-747.5000000000001
 30
0.0
 40
2.000000000002444
 50
10.0
 51
90.0
  0
LINE
  5
295
  8
1
  6
CONTINUOUS
 62
     7
 10
1170.115924
 20
-658.5879549999999
 30
0.0
 11
1170.115924
 21
-746.412044
 31
0.0
  0
ARC
  5
296
  8
1
  6
CONTINUOUS
 62
     7
 10
1026.517299000001
 20
-754.5000000000002
 30
0.0
 40
3.000000000000114
 50
190.0
 51
270.0
  0
ARC
  5
297
  8
1
  6
CONTINUOUS
 62
     7
 10
1017.794123000001
 20
-747.5000000000001
 30
0.0
 40
1.999999999998892
 50
90.0
 51
170.0
  0
LINE
  5
298
  8
1
  6
CONTINUOUS
 62
     7
 10
1193.794122999999
 20
-659.5000000000001
 30
0.0
 11
1196.205877
 21
-659.5000000000001
 31
0.0
  0
LINE
  5
299
  8
1
  6
CONTINUOUS
 62
     7
 10
1176.175493000005
 20
-657.8472960000005
 30
0.0
 11
1177.562876000005
 21
-649.9790550000002
 31
0.0
  0
LINE
  5
29A
  8
1
  6
CONTINUOUS
 62
     7
 10
1083.794123
 20
-659.5000000000001
 30
0.0
 11
1086.205877000001
 21
-659.5000000000001
 31
0.0
  0
ARC
  5
29B
  8
1
  6
CONTINUOUS
 62
     7
 10
1048.517298999999
 20
-754.5000000000002
 30
0.0
 40
3.000000000000114
 50
190.0
 51
270.0
  0
ARC
  5
29C
  8
1
  6
CONTINUOUS
 62
     7
 10
989.4827019999992
 20
-650.5000000000002
 30
0.0
 40
3.000000000000114
 50
10.0
 51
90.0
  0
LINE
  5
29D
  8
1
  6
CONTINUOUS
 62
     7
 10
1111.471018999999
 20
-708.5
 30
0.0
 11
1124.528981
 21
-708.5
 31
0.0
  0
LINE
  5
29E
  8
1
  6
CONTINUOUS
 62
     7
 10
979.9999999999995
 20
-648.8680670000001
 30
0.0
 11
979.9999999999995
 21
-696.5
 31
0.0
  0
LINE
  5
29F
  8
1
  6
CONTINUOUS
 62
     7
 10
1000.175493
 20
-657.8472960000005
 30
0.0
 11
1001.562875999999
 21
-649.9790550000002
 31
0.0
  0
LINE
  5
2A0
  8
1
  6
CONTINUOUS
 62
     7
 10
1081.824507999999
 20
-747.1527030000003
 30
0.0
 11
1080.437124999999
 21
-755.0209440000003
 31
0.0
  0
LINE
  5
2A1
  8
1
  6
CONTINUOUS
 62
     7
 10
1013.999999999998
 20
-756.1319329999999
 30
0.0
 11
1013.999999999998
 21
-708.4999999999998
 31
0.0
  0
LINE
  5
2A2
  8
1
  6
CONTINUOUS
 62
     7
 10
1303.794122999999
 20
-659.5000000000001
 30
0.0
 11
1306.205877
 21
-659.5000000000001
 31
0.0
  0
ARC
  5
2A3
  8
1
  6
CONTINUOUS
 62
     7
 10
1004.517299000002
 20
-754.5000000000002
 30
0.0
 40
2.999999999996561
 50
190.0
 51
270.0
  0
LINE
  5
2A4
  8
1
  6
CONTINUOUS
 62
     7
 10
773.000000000001
 20
-708.5
 30
0.0
 11
773.000000000001
 21
-696.5
 31
0.0
  0
LINE
  5
2A5
  8
1
  6
CONTINUOUS
 62
     7
 10
1024.0
 20
-648.8680670000001
 30
0.0
 11
1024.0
 21
-696.5
 31
0.0
  0
LINE
  5
2A6
  8
1
  6
CONTINUOUS
 62
     7
 10
1081.824507999999
 20
-657.8472960000005
 30
0.0
 11
1080.437124999999
 21
-649.9790550000002
 31
0.0
  0
LINE
  5
2A7
  8
1
  6
CONTINUOUS
 62
     7
 10
1190.528981000003
 20
-696.5
 30
0.0
 11
1177.471019000002
 21
-696.5
 31
0.0
  0
ARC
  5
2A8
  8
1
  6
CONTINUOUS
 62
     7
 10
1033.482701999996
 20
-650.5000000000002
 30
0.0
 40
3.000000000003666
 50
10.0
 51
90.0
  0
LINE
  5
2A9
  8
1
  6
CONTINUOUS
 62
     7
 10
989.4827019999992
 20
-647.5000000000001
 30
0.0
 11
982.5172989999991
 21
-647.5000000000001
 31
0.0
  0
LINE
  5
2AA
  8
1
  6
CONTINUOUS
 62
     7
 10
1153.884077
 20
-658.5879549999999
 30
0.0
 11
1153.884077
 21
-746.412044
 31
0.0
  0
LINE
  5
2AB
  8
1
  6
CONTINUOUS
 62
     7
 10
1037.824507999999
 20
-657.8472960000005
 30
0.0
 11
1036.437124999999
 21
-649.9790550000002
 31
0.0
  0
LINE
  5
2AC
  8
1
  6
CONTINUOUS
 62
     7
 10
1046.000000000002
 20
-756.1319329999999
 30
0.0
 11
1046.000000000002
 21
-708.4999999999998
 31
0.0
  0
LINE
  5
2AD
  8
1
  6
CONTINUOUS
 62
     7
 10
1037.824507999999
 20
-747.1527030000003
 30
0.0
 11
1036.437124999999
 21
-755.0209440000003
 31
0.0
  0
LINE
  5
2AE
  8
1
  6
CONTINUOUS
 62
     7
 10
1104.115923999997
 20
-658.5879549999999
 30
0.0
 11
1104.115923999997
 21
-746.412044
 31
0.0
  0
LINE
  5
2AF
  8
1
  6
CONTINUOUS
 62
     7
 10
1017.794123000001
 20
-659.5000000000001
 30
0.0
 11
1020.205877000001
 21
-659.5000000000001
 31
0.0
  0
ARC
  5
2B0
  8
1
  6
CONTINUOUS
 62
     7
 10
1042.205877
 20
-747.5000000000001
 30
0.0
 40
1.999999999998892
 50
10.0
 51
90.0
  0
LINE
  5
2B1
  8
1
  6
CONTINUOUS
 62
     7
 10
1055.482702000002
 20
-647.5000000000001
 30
0.0
 11
1048.517299000001
 21
-647.5000000000001
 31
0.0
  0
LINE
  5
2B2
  8
1
  6
CONTINUOUS
 62
     7
 10
992.0
 20
-756.1319329999999
 30
0.0
 11
992.0
 21
-708.4999999999998
 31
0.0
  0
ARC
  5
2B3
  8
1
  6
CONTINUOUS
 62
     7
 10
1086.205877
 20
-747.5000000000001
 30
0.0
 40
1.999999999998892
 50
10.00000000000263
 51
90.0
  0
ARC
  5
2B4
  8
1
  6
CONTINUOUS
 62
     7
 10
1017.794123000001
 20
-657.4999999999999
 30
0.0
 40
1.999999999998892
 50
190.0
 51
270.0
  0
LINE
  5
2B5
  8
1
  6
CONTINUOUS
 62
     7
 10
1067.471018999998
 20
-696.5
 30
0.0
 11
1067.471018999998
 21
-708.5
 31
0.0
  0
ARC
  5
2B6
  8
1
  6
CONTINUOUS
 62
     7
 10
1061.794123000001
 20
-747.5000000000001
 30
0.0
 40
1.999999999998892
 50
90.0
 51
170.0
  0
LINE
  5
2B7
  8
1
  6
CONTINUOUS
 62
     7
 10
1191.824507999999
 20
-657.8472960000005
 30
0.0
 11
1190.437125
 21
-649.9790550000002
 31
0.0
  0
LINE
  5
2B8
  8
1
  6
CONTINUOUS
 62
     7
 10
1036.528980999999
 20
-696.5
 30
0.0
 11
1023.471018999999
 21
-696.5
 31
0.0
  0
LINE
  5
2B9
  8
1
  6
CONTINUOUS
 62
     7
 10
1014.528981000001
 20
-696.5
 30
0.0
 11
1001.471019000001
 21
-696.5
 31
0.0
  0
LINE
  5
2BA
  8
1
  6
CONTINUOUS
 62
     7
 10
1067.471018999998
 20
-708.5
 30
0.0
 11
1080.528980999998
 21
-708.5
 31
0.0
  0
LINE
  5
2BB
  8
1
  6
CONTINUOUS
 62
     7
 10
1011.482702000001
 20
-647.5000000000001
 30
0.0
 11
1004.517299000001
 21
-647.5000000000001
 31
0.0
  0
LINE
  5
2BC
  8
1
  6
CONTINUOUS
 62
     7
 10
1193.794122999999
 20
-745.5000000000003
 30
0.0
 11
1196.205877
 21
-745.5000000000003
 31
0.0
  0
LINE
  5
2BD
  8
1
  6
CONTINUOUS
 62
     7
 10
992.5289810000022
 20
-708.5
 30
0.0
 11
992.5289810000022
 21
-696.5
 31
0.0
  0
ARC
  5
2BE
  8
1
  6
CONTINUOUS
 62
     7
 10
1070.517298999998
 20
-754.5000000000002
 30
0.0
 40
3.000000000003666
 50
190.0
 51
270.0
  0
ARC
  5
2BF
  8
1
  6
CONTINUOUS
 62
     7
 10
1055.482702000002
 20
-650.5000000000002
 30
0.0
 40
3.000000000000114
 50
10.0
 51
90.0
  0
LINE
  5
2C0
  8
1
  6
CONTINUOUS
 62
     7
 10
1001.471018999999
 20
-696.5
 30
0.0
 11
1001.471018999999
 21
-708.5
 31
0.0
  0
LINE
  5
2C1
  8
1
  6
CONTINUOUS
 62
     7
 10
1043.884077000004
 20
-658.5879549999999
 30
0.0
 11
1043.884077000004
 21
-746.412044
 31
0.0
  0
LINE
  5
2C2
  8
1
  6
CONTINUOUS
 62
     7
 10
1023.471019000001
 20
-708.5
 30
0.0
 11
1036.528981000001
 21
-708.5
 31
0.0
  0
LINE
  5
2C3
  8
1
  6
CONTINUOUS
 62
     7
 10
1014.528981000001
 20
-708.5
 30
0.0
 11
1014.528981000001
 21
-696.5
 31
0.0
  0
LINE
  5
2C4
  8
1
  6
CONTINUOUS
 62
     7
 10
1190.0
 20
-648.8680670000001
 30
0.0
 11
1190.0
 21
-696.5
 31
0.0
  0
LINE
  5
2C5
  8
1
  6
CONTINUOUS
 62
     7
 10
1060.115923999997
 20
-658.5879549999999
 30
0.0
 11
1060.115923999997
 21
-746.412044
 31
0.0
  0
LINE
  5
2C6
  8
1
  6
CONTINUOUS
 62
     7
 10
1039.794122999999
 20
-659.5000000000001
 30
0.0
 11
1042.205876999999
 21
-659.5000000000001
 31
0.0
  0
LINE
  5
2C7
  8
1
  6
CONTINUOUS
 62
     7
 10
1000.175493
 20
-747.1527030000003
 30
0.0
 11
1001.562875999999
 21
-755.0209440000003
 31
0.0
  0
ARC
  5
2C8
  8
1
  6
CONTINUOUS
 62
     7
 10
1061.794123000001
 20
-657.4999999999999
 30
0.0
 40
1.999999999998892
 50
190.0
 51
270.0
  0
LINE
  5
2C9
  8
1
  6
CONTINUOUS
 62
     7
 10
1066.175493000002
 20
-747.1527030000003
 30
0.0
 11
1067.562876000002
 21
-755.0209440000003
 31
0.0
  0
LINE
  5
2CA
  8
1
  6
CONTINUOUS
 62
     7
 10
978.1754929999975
 20
-747.1527030000003
 30
0.0
 11
979.5628759999975
 21
-755.0209440000003
 31
0.0
  0
LINE
  5
2CB
  8
1
  6
CONTINUOUS
 62
     7
 10
1001.471018999999
 20
-708.5
 30
0.0
 11
1014.528980999999
 21
-708.5
 31
0.0
  0
ARC
  5
2CC
  8
1
  6
CONTINUOUS
 62
     7
 10
1011.482702000001
 20
-650.5000000000002
 30
0.0
 40
3.000000000000114
 50
10.0
 51
90.0
  0
ARC
  5
2CD
  8
1
  6
CONTINUOUS
 62
     7
 10
1180.517299000001
 20
-650.5000000000002
 30
0.0
 40
3.000000000000114
 50
90.0
 51
170.0
  0
ARC
  5
2CE
  8
1
  6
CONTINUOUS
 62
     7
 10
1187.482702
 20
-650.5000000000002
 30
0.0
 40
3.000000000000114
 50
10.0
 51
90.0
  0
LINE
  5
2CF
  8
1
  6
CONTINUOUS
 62
     7
 10
1036.000000000004
 20
-648.8680670000001
 30
0.0
 11
1036.000000000004
 21
-696.5
 31
0.0
  0
ARC
  5
2D0
  8
1
  6
CONTINUOUS
 62
     7
 10
1039.794122999999
 20
-657.4999999999999
 30
0.0
 40
1.999999999998892
 50
190.0
 51
270.0
  0
ARC
  5
2D1
  8
1
  6
CONTINUOUS
 62
     7
 10
1039.794122999999
 20
-747.5000000000001
 30
0.0
 40
1.999999999998892
 50
90.0
 51
170.0
  0
LINE
  5
2D2
  8
1
  6
CONTINUOUS
 62
     7
 10
976.2058770000008
 20
-659.5000000000001
 30
0.0
 11
975.0000000000006
 21
-659.5000000000001
 31
0.0
  0
LINE
  5
2D3
  8
1
  6
CONTINUOUS
 62
     7
 10
1038.115924000002
 20
-658.5879549999999
 30
0.0
 11
1038.115924000002
 21
-746.412044
 31
0.0
  0
ARC
  5
2D4
  8
1
  6
CONTINUOUS
 62
     7
 10
1004.517299000002
 20
-650.5000000000002
 30
0.0
 40
2.999999999996561
 50
90.0
 51
170.0
  0
LINE
  5
2D5
  8
1
  6
CONTINUOUS
 62
     7
 10
993.8245079999986
 20
-747.1527030000003
 30
0.0
 11
992.4371249999981
 21
-755.0209440000003
 31
0.0
  0
LINE
  5
2D6
  8
1
  6
CONTINUOUS
 62
     7
 10
1046.000000000002
 20
-648.8680670000001
 30
0.0
 11
1046.000000000002
 21
-696.5
 31
0.0
  0
LINE
  5
2D7
  8
1
  6
CONTINUOUS
 62
     7
 10
1058.528980999998
 20
-696.5
 30
0.0
 11
1045.471018999998
 21
-696.5
 31
0.0
  0
ARC
  5
2D8
  8
1
  6
CONTINUOUS
 62
     7
 10
1064.205876999998
 20
-657.4999999999999
 30
0.0
 40
2.000000000005997
 50
270.0
 51
349.9999999999999
  0
LINE
  5
2D9
  8
1
  6
CONTINUOUS
 62
     7
 10
1187.482702
 20
-647.5000000000001
 30
0.0
 11
1180.517298999999
 21
-647.5000000000001
 31
0.0
  0
LINE
  5
2DA
  8
1
  6
CONTINUOUS
 62
     7
 10
1045.471019
 20
-696.5
 30
0.0
 11
1045.471019
 21
-708.5
 31
0.0
  0
ARC
  5
2DB
  8
1
  6
CONTINUOUS
 62
     7
 10
976.2058770000008
 20
-747.5000000000001
 30
0.0
 40
1.999999999998892
 50
10.0
 51
90.0
  0
LINE
  5
2DC
  8
1
  6
CONTINUOUS
 62
     7
 10
1082.115924000003
 20
-658.5879549999999
 30
0.0
 11
1082.115924000003
 21
-746.412044
 31
0.0
  0
LINE
  5
2DD
  8
1
  6
CONTINUOUS
 62
     7
 10
1131.884077000001
 20
-658.5879549999999
 30
0.0
 11
1131.884077000001
 21
-746.412044
 31
0.0
  0
LINE
  5
2DE
  8
1
  6
CONTINUOUS
 62
     7
 10
1083.794123
 20
-745.5000000000003
 30
0.0
 11
1086.205877000001
 21
-745.5000000000003
 31
0.0
  0
ARC
  5
2DF
  8
1
  6
CONTINUOUS
 62
     7
 10
989.4827019999992
 20
-754.5000000000002
 30
0.0
 40
3.000000000000114
 50
270.0
 51
349.9999999999999
  0
ARC
  5
2E0
  8
1
  6
CONTINUOUS
 62
     7
 10
1083.794123
 20
-657.4999999999999
 30
0.0
 40
2.000000000002444
 50
190.0
 51
270.0
  0
ARC
  5
2E1
  8
1
  6
CONTINUOUS
 62
     7
 10
2264.500000000006
 20
-700.0043629999999
 30
0.0
 40
0.499999999995282
 50
179.0
 51
180.0
  0
LINE
  5
2E2
  8
1
  6
CONTINUOUS
 62
     7
 10
2264.464288000004
 20
-731.5990620000001
 30
0.0
 11
2264.000076000004
 21
-705.0043630000002
 31
0.0
  0
ARC
  5
2E3
  8
1
  6
CONTINUOUS
 62
     7
 10
1064.205876999998
 20
-747.5000000000001
 30
0.0
 40
2.000000000005997
 50
10.0
 51
90.0
  0
ARC
  5
2E4
  8
1
  6
CONTINUOUS
 62
     7
 10
2046.369106884867
 20
-649.5589636924001
 30
0.0
 40
1.896355714098519
 50
80.28401431699999
 51
93.7938645927
  0
ARC
  5
2E5
  8
1
  6
CONTINUOUS
 62
     7
 10
796.4999999999995
 20
-674.0
 30
0.0
 40
11.9999999999969
 50
90.0
 51
180.0
  0
LINE
  5
2E6
  8
1
  6
CONTINUOUS
 62
     7
 10
1059.824508000001
 20
-747.1527030000003
 30
0.0
 11
1058.437125000001
 21
-755.0209440000003
 31
0.0
  0
ARC
  5
2E7
  8
1
  6
CONTINUOUS
 62
     7
 10
796.4999999999995
 20
-731.0
 30
0.0
 40
26.50000000000219
 50
180.0
 51
270.0
  0
LINE
  5
2E8
  8
1
  6
CONTINUOUS
 62
     7
 10
1077.482702
 20
-647.5000000000001
 30
0.0
 11
1070.517299
 21
-647.5000000000001
 31
0.0
  0
ARC
  5
2E9
  8
1
  6
CONTINUOUS
 62
     7
 10
853.4999999999982
 20
-731.0
 30
0.0
 40
12.00000000000045
 50
270.0
 51
0.0
  0
ARC
  5
2EA
  8
1
  6
CONTINUOUS
 62
     7
 10
1086.205877
 20
-657.4999999999999
 30
0.0
 40
1.999999999998892
 50
270.0
 51
349.9999999999974
  0
ARC
  5
2EB
  8
1
  6
CONTINUOUS
 62
     7
 10
853.4999999999982
 20
-674.0
 30
0.0
 40
14.50000000000529
 50
0.0
 51
90.0
  0
LINE
  5
2EC
  8
1
  6
CONTINUOUS
 62
     7
 10
1303.794122999999
 20
-745.5000000000003
 30
0.0
 11
1306.205877
 21
-745.5000000000003
 31
0.0
  0
ARC
  5
2ED
  8
1
  6
CONTINUOUS
 62
     7
 10
2046.375074922266
 20
-665.8483820676004
 30
0.0
 40
0.5000039495968167
 50
257.3191124928
 51
0.0
  0
LINE
  5
2EE
  8
1
  6
CONTINUOUS
 62
     7
 10
1002.000000000002
 20
-648.8680670000001
 30
0.0
 11
1002.000000000002
 21
-696.5
 31
0.0
  0
LINE
  5
2EF
  8
1
  6
CONTINUOUS
 62
     7
 10
1077.482702
 20
-757.4999999999999
 30
0.0
 11
1070.517299
 21
-757.4999999999999
 31
0.0
  0
ARC
  5
2F0
  8
1
  6
CONTINUOUS
 62
     7
 10
2322.504363000005
 20
-642.0000000000001
 30
0.0
 40
0.4999999999988347
 50
90.0
 51
91.0
  0
LINE
  5
2F1
  8
1
  6
CONTINUOUS
 62
     7
 10
880.0000000000003
 20
-674.0
 30
0.0
 11
880.0000000000003
 21
-695.9710190000002
 31
0.0
  0
LINE
  5
2F2
  8
1
  6
CONTINUOUS
 62
     7
 10
1087.884077000001
 20
-658.5879549999999
 30
0.0
 11
1087.884077000001
 21
-746.412044
 31
0.0
  0
ARC
  5
2F3
  8
1
  6
CONTINUOUS
 62
     7
 10
2042.607343690665
 20
-653.1290279046998
 30
0.0
 40
5.113102109298495
 50
95.3479395628
 51
118.3069413985
  0
LINE
  5
2F4
  8
1
  6
CONTINUOUS
 62
     7
 10
1022.175492999998
 20
-657.8472960000005
 30
0.0
 11
1023.562875999998
 21
-649.9790550000002
 31
0.0
  0
LINE
  5
2F5
  8
1
  6
CENTER
 62
     1
 10
882.9239640000011
 20
-702.4999999999998
 30
0.0
 11
768.1672110000011
 21
-702.4999999999998
 31
0.0
  0
LINE
  5
2F6
  8
1
  6
CONTINUOUS
 62
     7
 10
796.4999999999995
 20
-743.0
 30
0.0
 11
853.4999999999994
 21
-743.0
 31
0.0
  0
LINE
  5
2F7
  8
1
  6
CONTINUOUS
 62
     7
 10
1013.999999999998
 20
-648.8680670000001
 30
0.0
 11
1013.999999999998
 21
-696.5
 31
0.0
  0
LINE
  5
2F8
  8
1
  6
CONTINUOUS
 62
     7
 10
1055.482702000002
 20
-757.4999999999999
 30
0.0
 11
1048.517299000001
 21
-757.4999999999999
 31
0.0
  0
LINE
  5
2F9
  8
1
  6
CONTINUOUS
 62
     7
 10
1080.528980999999
 20
-696.5
 30
0.0
 11
1067.471019
 21
-696.5
 31
0.0
  0
ARC
  5
2FA
  8
1
  6
CONTINUOUS
 62
     7
 10
1033.482701999996
 20
-754.5000000000002
 30
0.0
 40
3.000000000003666
 50
270.0
 51
349.9999999999999
  0
LINE
  5
2FB
  8
1
  6
CONTINUOUS
 62
     7
 10
1016.115924
 20
-658.5879549999999
 30
0.0
 11
1016.115924
 21
-746.412044
 31
0.0
  0
LINE
  5
2FC
  8
1
  6
CONTINUOUS
 62
     7
 10
796.4999999999995
 20
-659.5000000000001
 30
0.0
 11
853.4999999999994
 21
-659.5000000000001
 31
0.0
  0
LINE
  5
2FD
  8
1
  6
CONTINUOUS
 62
     7
 10
1065.884076999999
 20
-658.5879549999999
 30
0.0
 11
1065.884076999999
 21
-746.412044
 31
0.0
  0
LINE
  5
2FE
  8
1
  6
CONTINUOUS
 62
     7
 10
2046.245669041716
 20
-642.8819111331943
 30
0.0
 11
2042.098621433789
 21
-643.1759140466072
 31
0.0
  0
ARC
  5
2FF
  8
1
  6
CONTINUOUS
 62
     7
 10
2353.540585000002
 20
-673.9594149999999
 30
0.0
 40
32.00000000000003
 50
1.0
 51
89.00000000000001
  0
LINE
  5
300
  8
1
  6
CONTINUOUS
 62
     7
 10
876.9999999999967
 20
-708.5
 30
0.0
 11
876.9999999999967
 21
-696.5
 31
0.0
  0
LINE
  5
301
  8
1
  6
CONTINUOUS
 62
     7
 10
1057.999999999999
 20
-648.8680670000001
 30
0.0
 11
1057.999999999999
 21
-696.5
 31
0.0
  0
ARC
  5
302
  8
1
  6
CONTINUOUS
 62
     7
 10
2327.495637000003
 20
-763.0000000000001
 30
0.0
 40
0.4999999999988347
 50
270.0
 51
271.0
  0
LINE
  5
303
  8
1
  6
CONTINUOUS
 62
     7
 10
1044.175493
 20
-747.1527030000003
 30
0.0
 11
1045.562876
 21
-755.0209440000003
 31
0.0
  0
LINE
  5
304
  8
1
  6
CONTINUOUS
 62
     7
 10
1943.875078871865
 20
-643.0044270000003
 30
0.0
 11
1943.875078871865
 21
-665.8483870000003
 31
0.0
  0
LINE
  5
305
  8
1
  6
CONTINUOUS
 62
     7
 10
2296.500000000003
 20
-662.0000000000001
 30
0.0
 11
2353.500000000003
 21
-662.0000000000001
 31
0.0
  0
ARC
  5
306
  8
1
  6
CONTINUOUS
 62
     7
 10
1077.482702
 20
-754.5000000000002
 30
0.0
 40
3.000000000000114
 50
270.0
 51
349.9999999999999
  0
LINE
  5
307
  8
1
  6
CENTER
 62
     7
 10
825.0000000000006
 20
-758.344738
 30
0.0
 11
825.0000000000006
 21
-645.1889530000002
 31
0.0
  0
ARC
  5
308
  8
1
  6
CONTINUOUS
 62
     7
 10
2040.527595232866
 20
-644.2225841816002
 30
0.0
 40
0.6565005122993739
 50
118.2975426839
 51
173.6844978166
  0
ARC
  5
309
  8
1
  6
CONTINUOUS
 62
     7
 10
796.4999999999995
 20
-731.0
 30
0.0
 40
11.9999999999969
 50
180.0
 51
270.0
  0
ARC
  5
30A
  8
1
  6
CONTINUOUS
 62
     7
 10
796.4999999999995
 20
-674.0
 30
0.0
 40
26.50000000000219
 50
90.0
 51
180.0
  0
LINE
  5
30B
  8
1
  6
CONTINUOUS
 62
     7
 10
781.9999999999978
 20
-731.0
 30
0.0
 11
781.9999999999978
 21
-674.0
 31
0.0
  0
LINE
  5
30C
  8
1
  6
CONTINUOUS
 62
     7
 10
2046.245668871864
 20
-666.3313500000002
 30
0.0
 11
2042.098621871864
 21
-665.2201520000002
 31
0.0
  0
LINE
  5
30D
  8
1
  6
CENTER
 62
     1
 10
2325.0
 20
-766.5000000000003
 30
0.0
 11
2325.0
 21
-638.5000000000005
 31
0.0
  0
LINE
  5
30E
  8
1
  6
CONTINUOUS
 62
     7
 10
1024.0
 20
-756.1319329999999
 30
0.0
 11
1024.0
 21
-708.4999999999998
 31
0.0
  0
ARC
  5
30F
  8
1
  6
CONTINUOUS
 62
     7
 10
1048.517298999999
 20
-650.5000000000002
 30
0.0
 40
3.000000000000114
 50
90.0
 51
170.0
  0
ARC
  5
310
  8
1
  6
CONTINUOUS
 62
     7
 10
998.2058769999993
 20
-657.4999999999999
 30
0.0
 40
2.000000000002444
 50
270.0
 51
349.9999999999999
  0
ARC
  5
311
  8
1
  6
CONTINUOUS
 62
     7
 10
1020.205876999998
 20
-747.5000000000001
 30
0.0
 40
2.000000000002444
 50
10.0
 51
90.0
  0
LINE
  5
312
  8
1
  6
CONTINUOUS
 62
     7
 10
1023.471019000001
 20
-696.5
 30
0.0
 11
1023.471019000001
 21
-708.5
 31
0.0
  0
LINE
  5
313
  8
1
  6
CONTINUOUS
 62
     7
 10
1058.528980999998
 20
-708.5
 30
0.0
 11
1058.528980999998
 21
-696.5
 31
0.0
  0
LINE
  5
314
  8
1
  6
CONTINUOUS
 62
     7
 10
1066.175493000002
 20
-657.8472960000005
 30
0.0
 11
1067.562876000002
 21
-649.9790550000002
 31
0.0
  0
LINE
  5
315
  8
1
  6
CONTINUOUS
 62
     7
 10
1036.000000000004
 20
-756.1319329999999
 30
0.0
 11
1036.000000000004
 21
-708.4999999999998
 31
0.0
  0
ARC
  5
316
  8
1
  6
CONTINUOUS
 62
     7
 10
1077.482702
 20
-650.5000000000002
 30
0.0
 40
3.000000000000114
 50
10.0
 51
90.0
  0
ARC
  5
317
  8
1
  6
CONTINUOUS
 62
     7
 10
1055.482702000002
 20
-754.5000000000002
 30
0.0
 40
3.000000000000114
 50
270.0
 51
349.9999999999999
  0
ARC
  5
318
  8
1
  6
CONTINUOUS
 62
     7
 10
1042.205877
 20
-657.4999999999999
 30
0.0
 40
1.999999999998892
 50
270.0
 51
349.9999999999999
  0
ARC
  5
319
  8
1
  6
CONTINUOUS
 62
     7
 10
1083.794123
 20
-747.5000000000001
 30
0.0
 40
2.000000000002444
 50
90.0
 51
170.0
  0
LINE
  5
31A
  8
1
  6
CONTINUOUS
 62
     7
 10
1059.824508000001
 20
-657.8472960000005
 30
0.0
 11
1058.437125000001
 21
-649.9790550000002
 31
0.0
  0
LINE
  5
31B
  8
1
  6
CONTINUOUS
 62
     7
 10
1080.000000000001
 20
-648.8680670000001
 30
0.0
 11
1080.000000000001
 21
-696.5
 31
0.0
  0
ARC
  5
31C
  8
1
  6
CONTINUOUS
 62
     7
 10
853.4999999999982
 20
-731.0
 30
0.0
 40
26.50000000000219
 50
270.0
 51
0.0
  0
ARC
  5
31D
  8
1
  6
CONTINUOUS
 62
     7
 10
1944.077478155367
 20
-761.8404114903999
 30
0.0
 40
0.255030515898369
 50
217.4741694079
 51
266.2985196153
  0
LINE
  5
31E
  8
1
  6
CONTINUOUS
 62
     7
 10
2264.0
 20
-704.9956370000003
 30
0.0
 11
2264.0
 21
-700.0043630000004
 31
0.0
  0
LINE
  5
31F
  8
1
  6
CONTINUOUS
 62
     7
 10
2327.495637000003
 20
-763.5000000000002
 30
0.0
 11
2322.504363000003
 21
-763.5000000000002
 31
0.0
  0
LINE
  5
320
  8
1
  6
CONTINUOUS
 62
     7
 10
1309.471018999999
 20
-696.5
 30
0.0
 11
1309.471018999999
 21
-708.5
 31
0.0
  0
LINE
  5
321
  8
1
  6
CONTINUOUS
 62
     7
 10
1325.794123000004
 20
-745.5000000000003
 30
0.0
 11
1328.205877000004
 21
-745.5000000000003
 31
0.0
  0
ARC
  5
322
  8
1
  6
CONTINUOUS
 62
     7
 10
2296.0
 20
-731.5000000000002
 30
0.0
 40
26.40000000000242
 50
180.0
 51
270.0
  0
LINE
  5
323
  8
1
  6
CONTINUOUS
 62
     7
 10
2046.245669364985
 20
-647.6666296381511
 30
0.0
 11
2042.130783750872
 21
-648.0381828075091
 31
0.0
  0
LINE
  5
324
  8
1
  6
CONTINUOUS
 62
     7
 10
880.0000000000003
 20
-731.0
 30
0.0
 11
880.0000000000003
 21
-709.0289810000002
 31
0.0
  0
ARC
  5
325
  8
1
  6
CONTINUOUS
 62
     7
 10
2353.500000000002
 20
-674.0000000000001
 30
0.0
 40
12.00000000000401
 50
0.0
 51
90.0
  0
LINE
  5
326
  8
1
  6
CONTINUOUS
 62
     7
 10
2046.875078871863
 20
-643.0044270000003
 30
0.0
 11
2046.875078871863
 21
-665.8483870000003
 31
0.0
  0
LINE
  5
327
  8
1
  6
CONTINUOUS
 62
     7
 10
1061.794123000001
 20
-745.5000000000003
 30
0.0
 11
1064.205877000001
 21
-745.5000000000003
 31
0.0
  0
LINE
  5
328
  8
1
  6
CONTINUOUS
 62
     7
 10
1948.651536307596
 20
-643.1759140464278
 30
0.0
 11
1944.504488699648
 21
-642.881911133038
 31
0.0
  0
LINE
  5
329
  8
1
  6
CONTINUOUS
 62
     7
 10
2264.000076000003
 20
-699.995637
 30
0.0
 11
2264.464288000004
 21
-673.4009379999999
 31
0.0
  0
LINE
  5
32A
  8
1
  6
CONTINUOUS
 62
     7
 10
2039.875078871865
 20
-644.1503670000005
 30
0.0
 11
2039.875078871865
 21
-662.3223750000003
 31
0.0
  0
LINE
  5
32B
  8
1
  6
CONTINUOUS
 62
     7
 10
2269.600000000002
 20
-673.5000000000005
 30
0.0
 11
2269.600000000002
 21
-731.5000000000005
 31
0.0
  0
ARC
  5
32C
  8
1
  6
CONTINUOUS
 62
     7
 10
2327.495637000003
 20
-642.0000000000001
 30
0.0
 40
0.4999999999988347
 50
89.00000000000001
 51
90.0
  0
LINE
  5
32D
  8
1
  6
CONTINUOUS
 62
     7
 10
784.5000000000026
 20
-731.0
 30
0.0
 11
784.5000000000026
 21
-674.0
 31
0.0
  0
ARC
  5
32E
  8
1
  6
CONTINUOUS
 62
     7
 10
2264.500000000006
 20
-704.9956370000003
 30
0.0
 40
0.499999999995282
 50
180.0
 51
181.0
  0
LINE
  5
32F
  8
1
  6
CONTINUOUS
 62
     7
 10
2365.500000000005
 20
-674.0000000000001
 30
0.0
 11
2365.500000000005
 21
-731.0000000000001
 31
0.0
  0
LINE
  5
330
  8
1
  6
CONTINUOUS
 62
     7
 10
1089.471019000004
 20
-696.5
 30
0.0
 11
1089.471019000004
 21
-708.5
 31
0.0
  0
LINE
  5
331
  8
1
  6
CONTINUOUS
 62
     7
 10
1068.0
 20
-756.1319329999999
 30
0.0
 11
1068.0
 21
-708.4999999999998
 31
0.0
  0
LINE
  5
332
  8
1
  6
CONTINUOUS
 62
     7
 10
868.0000000000034
 20
-731.0
 30
0.0
 11
868.0000000000034
 21
-674.0
 31
0.0
  0
ARC
  5
333
  8
1
  6
CONTINUOUS
 62
     7
 10
1950.122976099364
 20
-649.2353330691004
 30
0.0
 40
0.7531091236998577
 50
2.9431671791
 51
53.8325894623
  0
ARC
  5
334
  8
1
  6
CONTINUOUS
 62
     7
 10
1950.222562510866
 20
-644.2225841816002
 30
0.0
 40
0.6565005122993739
 50
6.3155021834
 51
61.70245731610002
  0
LINE
  5
335
  8
1
  6
CONTINUOUS
 62
     7
 10
769.9999999999974
 20
-674.0
 30
0.0
 11
769.9999999999974
 21
-695.9710190000002
 31
0.0
  0
ARC
  5
336
  8
1
  6
CONTINUOUS
 62
     7
 10
1306.205877000003
 20
-657.4999999999999
 30
0.0
 40
1.999999999998892
 50
270.0
 51
349.9999999999999
  0
ARC
  5
337
  8
1
  6
CONTINUOUS
 62
     7
 10
2354.0
 20
-731.5000000000002
 30
0.0
 40
26.40000000000242
 50
270.0
 51
0.0
  0
ARC
  5
338
  8
1
  6
CONTINUOUS
 62
     7
 10
1325.794123000004
 20
-747.5000000000001
 30
0.0
 40
1.999999999998892
 50
90.0
 51
170.0
  0
LINE
  5
339
  8
1
  6
CONTINUOUS
 62
     7
 10
1944.504488378747
 20
-757.3333703618493
 30
0.0
 11
1948.619373992858
 21
-756.9618171924914
 31
0.0
  0
ARC
  5
33A
  8
1
  6
CONTINUOUS
 62
     7
 10
2322.504363000005
 20
-763.0000000000001
 30
0.0
 40
0.4999999999988347
 50
269.0
 51
270.0
  0
ARC
  5
33B
  8
1
  6
CONTINUOUS
 62
     7
 10
2046.672679911064
 20
-647.9443070145999
 30
0.0
 40
0.255030515898369
 50
37.4741694079
 51
86.29851961540001
  0
LINE
  5
33C
  8
1
  6
CONTINUOUS
 62
     7
 10
1080.528980999999
 20
-708.5
 30
0.0
 11
1080.528980999999
 21
-696.5
 31
0.0
  0
ARC
  5
33D
  8
1
  6
CONTINUOUS
 62
     7
 10
1070.517298999998
 20
-650.5000000000002
 30
0.0
 40
3.000000000003666
 50
90.0
 51
170.0
  0
LINE
  5
33E
  8
1
  6
CONTINUOUS
 62
     7
 10
1021.884076999998
 20
-658.5879549999999
 30
0.0
 11
1021.884076999998
 21
-746.412044
 31
0.0
  0
LINE
  5
33F
  8
1
  6
CONTINUOUS
 62
     7
 10
876.9999999999967
 20
-708.5
 30
0.0
 11
879.9999999999968
 21
-709.0289810000002
 31
0.0
  0
ARC
  5
340
  8
1
  6
CONTINUOUS
 62
     7
 10
796.4999999999995
 20
-731.0
 30
0.0
 40
14.50000000000173
 50
180.0
 51
270.0
  0
ARC
  5
341
  8
1
  6
CONTINUOUS
 62
     7
 10
1306.205877000003
 20
-747.5000000000001
 30
0.0
 40
1.999999999998892
 50
10.0
 51
90.0
  0
LINE
  5
342
  8
1
  6
CONTINUOUS
 62
     7
 10
999.8840769999999
 20
-658.5879549999999
 30
0.0
 11
999.8840769999999
 21
-746.412044
 31
0.0
  0
ARC
  5
343
  8
1
  6
CONTINUOUS
 62
     7
 10
1947.875039871866
 20
-662.3223449999998
 30
0.0
 40
3.000038999999788
 50
285.00057
 51
0.0
  0
LINE
  5
344
  8
1
  6
CONTINUOUS
 62
     7
 10
1923.875078871865
 20
-763.4999240000001
 30
0.0
 11
1923.875078871865
 21
-641.5000760000001
 31
0.0
  0
ARC
  5
345
  8
1
  6
CONTINUOUS
 62
     7
 10
2353.540585000002
 20
-731.0405850000003
 30
0.0
 40
32.00000000000003
 50
271.0
 51
358.9999999999999
  0
ARC
  5
346
  8
1
  6
CONTINUOUS
 62
     7
 10
2040.627181644363
 20
-649.2353330691004
 30
0.0
 40
0.7531091236998577
 50
126.1674105377
 51
177.0568328209
  0
ARC
  5
347
  8
1
  6
CONTINUOUS
 62
     7
 10
2296.459415000006
 20
-673.9594149999999
 30
0.0
 40
31.99999999999648
 50
91.0
 51
179.0
  0
LINE
  5
348
  8
1
  6
CONTINUOUS
 62
     7
 10
2270.160654000003
 20
-666.348387
 30
0.0
 11
2270.166615000002
 21
-666.33135
 31
0.0
  0
LINE
  5
349
  8
1
  6
CONTINUOUS
 62
     7
 10
865.4999999999986
 20
-731.0
 30
0.0
 11
865.4999999999986
 21
-674.0
 31
0.0
  0
ARC
  5
34A
  8
1
  6
CONTINUOUS
 62
     7
 10
2042.875117871865
 20
-662.3223449999998
 30
0.0
 40
3.000038999999788
 50
180.00057
 51
254.99943
  0
ARC
  5
34B
  8
1
  6
CONTINUOUS
 62
     7
 10
2046.369106562167
 20
-760.2257548126003
 30
0.0
 40
1.896355714098519
 50
266.2061354073
 51
279.715985683
  0
LINE
  5
34C
  8
1
  6
CONTINUOUS
 62
     7
 10
994.1159240000017
 20
-658.5879549999999
 30
0.0
 11
994.1159240000017
 21
-746.412044
 31
0.0
  0
LINE
  5
34D
  8
1
  6
CONTINUOUS
 62
     7
 10
796.4999999999995
 20
-745.5000000000003
 30
0.0
 11
853.4999999999994
 21
-745.5000000000003
 31
0.0
  0
LINE
  5
34E
  8
1
  6
CONTINUOUS
 62
     7
 10
773.000000000001
 20
-708.5
 30
0.0
 11
770.0000000000009
 21
-709.0289810000002
 31
0.0
  0
LINE
  5
34F
  8
1
  6
CONTINUOUS
 62
     7
 10
1080.000000000001
 20
-756.1319329999999
 30
0.0
 11
1080.000000000001
 21
-708.4999999999998
 31
0.0
  0
LINE
  5
350
  8
1
  6
CONTINUOUS
 62
     7
 10
876.9999999999967
 20
-696.5
 30
0.0
 11
879.9999999999968
 21
-695.9710190000002
 31
0.0
  0
LINE
  5
351
  8
1
  6
CONTINUOUS
 62
     7
 10
796.4999999999995
 20
-647.5000000000001
 30
0.0
 11
853.4999999999994
 21
-647.5000000000001
 31
0.0
  0
LINE
  5
352
  8
1
  6
CONTINUOUS
 62
     7
 10
2322.495637000001
 20
-763.4999240000002
 30
0.0
 11
2295.900938000001
 21
-763.0357120000002
 31
0.0
  0
ARC
  5
353
  8
1
  6
CONTINUOUS
 62
     7
 10
796.4999999999995
 20
-674.0
 30
0.0
 40
14.50000000000173
 50
90.0
 51
180.0
  0
LINE
  5
354
  8
1
  6
CONTINUOUS
 62
     7
 10
773.000000000001
 20
-696.5
 30
0.0
 11
770.0000000000009
 21
-695.9710190000002
 31
0.0
  0
LINE
  5
355
  8
1
  6
CONTINUOUS
 62
     7
 10
1045.471019
 20
-708.5
 30
0.0
 11
1058.528981
 21
-708.5
 31
0.0
  0
ARC
  5
356
  8
1
  6
CONTINUOUS
 62
     7
 10
2042.558733484461
 20
-755.9616755707
 30
0.0
 40
5.880438639600527
 50
246.5262065214999
 51
265.5123326418
  0
LINE
  5
357
  8
1
  6
CONTINUOUS
 62
     7
 10
1943.875078871865
 20
-761.9955730000001
 30
0.0
 11
1943.875078871865
 21
-739.1516130000001
 31
0.0
  0
ARC
  5
358
  8
1
  6
CONTINUOUS
 62
     7
 10
2296.0
 20
-673.5000000000005
 30
0.0
 40
26.40000000000242
 50
90.0
 51
180.0
  0
ARC
  5
359
  8
1
  6
CONTINUOUS
 62
     7
 10
2354.0
 20
-673.5000000000005
 30
0.0
 40
26.40000000000242
 50
0.0
 51
90.0
  0
LINE
  5
35A
  8
1
  6
CONTINUOUS
 62
     7
 10
2066.875078871866
 20
-641.5000760000004
 30
0.0
 11
2066.875078871866
 21
-763.4999240000003
 31
0.0
  0
LINE
  5
35B
  8
1
  6
CONTINUOUS
 62
     7
 10
769.9999999999974
 20
-731.0
 30
0.0
 11
769.9999999999974
 21
-709.0289810000002
 31
0.0
  0
ARC
  5
35C
  8
1
  6
CONTINUOUS
 62
     7
 10
1944.077477832663
 20
-647.9443070145999
 30
0.0
 40
0.2550305159019217
 50
93.7014803846
 51
142.5258305921
  0
LINE
  5
35D
  8
1
  6
CONTINUOUS
 62
     7
 10
1310.000000000005
 20
-756.1319329999999
 30
0.0
 11
1310.000000000005
 21
-708.4999999999998
 31
0.0
  0
LINE
  5
35E
  8
1
  6
CONTINUOUS
 62
     7
 10
2385.999924000005
 20
-705.0043630000002
 30
0.0
 11
2385.535712000005
 21
-731.5990620000001
 31
0.0
  0
ARC
  5
35F
  8
1
  6
CONTINUOUS
 62
     7
 10
2296.500000000003
 20
-731.0000000000001
 30
0.0
 40
12.00000000000045
 50
180.0
 51
270.0
  0
ARC
  5
360
  8
1
  6
CONTINUOUS
 62
     7
 10
1948.142814053067
 20
-653.1290279046998
 30
0.0
 40
5.113102109298495
 50
61.6930586015
 51
84.65206043720002
  0
LINE
  5
361
  8
1
  6
CONTINUOUS
 62
     7
 10
2354.099062000004
 20
-763.035712
 30
0.0
 11
2327.504363000004
 21
-763.499924
 31
0.0
  0
LINE
  5
362
  8
1
  6
CONTINUOUS
 62
     7
 10
1948.619373990914
 20
-648.0381828073215
 30
0.0
 11
1944.504488376774
 21
-647.6666296379864
 31
0.0
  0
ARC
  5
363
  8
1
  6
CONTINUOUS
 62
     7
 10
2040.627181644363
 20
-755.7646669309005
 30
0.0
 40
0.7531091236998577
 50
182.9431671791
 51
233.8325894623
  0
LINE
  5
364
  8
1
  6
CONTINUOUS
 62
     7
 10
1319.482702000001
 20
-647.5000000000001
 30
0.0
 11
1312.517299000001
 21
-647.5000000000001
 31
0.0
  0
LINE
  5
365
  8
1
  6
CONTINUOUS
 62
     7
 10
2380.400000000003
 20
-731.5000000000002
 30
0.0
 11
2380.400000000003
 21
-673.5000000000002
 31
0.0
  0
ARC
  5
366
  8
1
  6
CONTINUOUS
 62
     7
 10
1944.375082821465
 20
-739.1516179324001
 30
0.0
 40
0.5000039495968167
 50
77.3191124928
 51
180.0
  0
LINE
  5
367
  8
1
  6
CONTINUOUS
 62
     7
 10
1088.175493
 20
-657.8472960000005
 30
0.0
 11
1089.562876000001
 21
-649.9790550000002
 31
0.0
  0
ARC
  5
368
  8
1
  6
CONTINUOUS
 62
     7
 10
1092.517299
 20
-650.5000000000002
 30
0.0
 40
2.999999999996561
 50
90.0
 51
170.0
  0
LINE
  5
369
  8
1
  6
CONTINUOUS
 62
     7
 10
2353.500000000002
 20
-743.0000000000001
 30
0.0
 11
2296.500000000002
 21
-743.0000000000001
 31
0.0
  0
ARC
  5
36A
  8
1
  6
CONTINUOUS
 62
     7
 10
1947.875039871866
 20
-742.6776550000002
 30
0.0
 40
3.000038999999788
 50
0.00057
 51
74.99943
  0
ARC
  5
36B
  8
1
  6
CONTINUOUS
 62
     7
 10
853.4999999999982
 20
-674.0
 30
0.0
 40
26.50000000000219
 50
0.0
 51
90.0
  0
LINE
  5
36C
  8
1
  6
CONTINUOUS
 62
     7
 10
2295.900938000004
 20
-641.9642880000002
 30
0.0
 11
2322.495637000004
 21
-641.5000760000003
 31
0.0
  0
LINE
  5
36D
  8
1
  6
CONTINUOUS
 62
     7
 10
2322.504363000005
 20
-641.5
 30
0.0
 11
2327.495637000005
 21
-641.5
 31
0.0
  0
ARC
  5
36E
  8
1
  6
CONTINUOUS
 62
     7
 10
853.4999999999982
 20
-674.0
 30
0.0
 40
12.00000000000045
 50
0.0
 51
90.0
  0
LINE
  5
36F
  8
1
  6
CONTINUOUS
 62
     7
 10
1323.824508000004
 20
-657.8472960000005
 30
0.0
 11
1322.437125000004
 21
-649.9790550000002
 31
0.0
  0
ARC
  5
370
  8
1
  6
CONTINUOUS
 62
     7
 10
1312.517298999999
 20
-650.5000000000002
 30
0.0
 40
3.000000000003666
 50
90.0
 51
170.0
  0
LINE
  5
371
  8
1
  6
CONTINUOUS
 62
     7
 10
2354.0
 20
-647.1000000000003
 30
0.0
 11
2296.0
 21
-647.1000000000003
 31
0.0
  0
LINE
  5
372
  8
1
  6
CONTINUOUS
 62
     7
 10
796.4999999999995
 20
-662.0
 30
0.0
 11
853.4999999999994
 21
-662.0
 31
0.0
  0
LINE
  5
373
  8
1
  6
CONTINUOUS
 62
     7
 10
2386.0
 20
-700.0043629999999
 30
0.0
 11
2386.0
 21
-704.9956369999999
 31
0.0
  0
LINE
  5
374
  8
1
  6
CONTINUOUS
 62
     7
 10
2066.875078871866
 20
-641.4999999999999
 30
0.0
 11
1923.875078871866
 21
-641.4999999999999
 31
0.0
  0
ARC
  5
375
  8
1
  6
CONTINUOUS
 62
     7
 10
853.4999999999982
 20
-731.0
 30
0.0
 40
14.50000000000529
 50
270.0
 51
0.0
  0
LINE
  5
376
  8
1
  6
CONTINUOUS
 62
     7
 10
2042.098621436131
 20
-761.8240859535708
 30
0.0
 11
2046.24566904408
 21
-762.118088866962
 31
0.0
  0
LINE
  5
377
  8
1
  6
CONTINUOUS
 62
     7
 10
2327.504363
 20
-641.5000760000005
 30
0.0
 11
2354.099062000001
 21
-641.9642880000005
 31
0.0
  0
ARC
  5
378
  8
1
  6
CONTINUOUS
 62
     7
 10
1319.482702000001
 20
-650.5000000000002
 30
0.0
 40
2.999999999996561
 50
10.0
 51
90.0
  0
LINE
  5
379
  8
1
  6
CONTINUOUS
 62
     7
 10
1950.875078871866
 20
-760.8496330000004
 30
0.0
 11
1950.875078871866
 21
-742.6776250000004
 31
0.0
  0
LINE
  5
37A
  8
1
  6
CONTINUOUS
 62
     7
 10
796.4999999999995
 20
-757.4999999999999
 30
0.0
 11
853.4999999999994
 21
-757.4999999999999
 31
0.0
  0
LINE
  5
37B
  8
1
  6
CONTINUOUS
 62
     7
 10
2296.0
 20
-757.9000000000004
 30
0.0
 11
2354.0
 21
-757.9000000000004
 31
0.0
  0
ARC
  5
37C
  8
1
  6
CONTINUOUS
 62
     7
 10
2353.500000000002
 20
-731.0000000000001
 30
0.0
 40
12.00000000000401
 50
270.0
 51
0.0
  0
ARC
  5
37D
  8
1
  6
CONTINUOUS
 62
     7
 10
2296.500000000003
 20
-674.0000000000001
 30
0.0
 40
12.00000000000045
 50
90.0
 51
180.0
  0
LINE
  5
37E
  8
1
  6
CONTINUOUS
 62
     7
 10
1322.528981
 20
-708.5
 30
0.0
 11
1322.528981
 21
-696.5
 31
0.0
  0
LINE
  5
37F
  8
1
  6
CONTINUOUS
 62
     7
 10
2046.245668871864
 20
-738.6686500000003
 30
0.0
 11
2042.098621871864
 21
-739.7798480000002
 31
0.0
  0
ARC
  5
380
  8
1
  6
CONTINUOUS
 62
     7
 10
2046.672679588368
 20
-761.8404114903999
 30
0.0
 40
0.2550305158948163
 50
273.7014803847
 51
322.5258305921
  0
LINE
  5
381
  8
1
  6
CONTINUOUS
 62
     7
 10
2066.875078871866
 20
-763.5000000000001
 30
0.0
 11
1923.875078871866
 21
-763.5000000000001
 31
0.0
  0
ARC
  5
382
  8
1
  6
CONTINUOUS
 62
     7
 10
1944.375082821465
 20
-665.8483820676004
 30
0.0
 40
0.5000039495968167
 50
180.0
 51
282.6808875072
  0
ARC
  5
383
  8
1
  6
CONTINUOUS
 62
     7
 10
2046.672679588368
 20
-643.1595885096001
 30
0.0
 40
0.2550305158948163
 50
37.47416940779999
 51
86.2985196153
  0
ARC
  5
384
  8
1
  6
CONTINUOUS
 62
     7
 10
1950.222562510866
 20
-760.7774158184003
 30
0.0
 40
0.6565005122993739
 50
298.2975426839
 51
353.6844978166
  0
ARC
  5
385
  8
1
  6
CONTINUOUS
 62
     7
 10
1325.794123000004
 20
-657.4999999999999
 30
0.0
 40
1.999999999998892
 50
190.0
 51
270.0
  0
ARC
  5
386
  8
1
  6
CONTINUOUS
 62
     7
 10
2046.369106562167
 20
-644.7742451874002
 30
0.0
 40
1.896355714098519
 50
80.28401431699999
 51
93.7938645927
  0
LINE
  5
387
  8
1
  6
CONTINUOUS
 62
     7
 10
1308.175493000003
 20
-657.8472960000005
 30
0.0
 11
1309.562876000003
 21
-649.9790550000002
 31
0.0
  0
LINE
  5
388
  8
1
  6
CONTINUOUS
 62
     7
 10
2042.13078375281
 20
-756.961817192679
 30
0.0
 11
2046.24566936695
 21
-757.3333703620139
 31
0.0
  0
ARC
  5
389
  8
1
  6
CONTINUOUS
 62
     7
 10
1948.191424259263
 20
-755.9616755707
 30
0.0
 40
5.880438639600527
 50
274.4876673582
 51
293.4737934784999
  0
LINE
  5
38A
  8
1
  6
CONTINUOUS
 62
     7
 10
1944.504488871863
 20
-666.3313500000002
 30
0.0
 11
1948.651535871863
 21
-665.2201520000002
 31
0.0
  0
ARC
  5
38B
  8
1
  6
CONTINUOUS
 62
     7
 10
1944.381051181565
 20
-644.7742451874002
 30
0.0
 40
1.896355714102071
 50
86.20613540729998
 51
99.715985683
  0
LINE
  5
38C
  8
1
  6
CONTINUOUS
 62
     7
 10
1950.875078871866
 20
-644.1503670000005
 30
0.0
 11
1950.875078871866
 21
-662.3223750000003
 31
0.0
  0
LINE
  5
38D
  8
1
  6
CONTINUOUS
 62
     7
 10
1308.175493000003
 20
-747.1527030000003
 30
0.0
 11
1309.562876000003
 21
-755.0209440000003
 31
0.0
  0
LINE
  5
38E
  8
1
  6
CONTINUOUS
 62
     7
 10
1105.794122999998
 20
-659.5000000000001
 30
0.0
 11
1108.205876999998
 21
-659.5000000000001
 31
0.0
  0
ARC
  5
38F
  8
1
  6
CONTINUOUS
 62
     7
 10
1944.381050858864
 20
-649.5589636924001
 30
0.0
 40
1.896355714102071
 50
86.20613540729998
 51
99.715985683
  0
LINE
  5
390
  8
1
  6
CONTINUOUS
 62
     7
 10
1300.528981000002
 20
-696.5
 30
0.0
 11
1287.471019000001
 21
-696.5
 31
0.0
  0
LINE
  5
391
  8
1
  6
CONTINUOUS
 62
     7
 10
2284.500000000003
 20
-731.0000000000001
 30
0.0
 11
2284.500000000003
 21
-674.0000000000001
 31
0.0
  0
ARC
  5
392
  8
1
  6
CONTINUOUS
 62
     7
 10
1944.077478155367
 20
-643.1595885096001
 30
0.0
 40
0.255030515898369
 50
93.7014803847
 51
142.5258305922
  0
ARC
  5
393
  8
1
  6
CONTINUOUS
 62
     7
 10
2042.558733484461
 20
-649.0383244293
 30
0.0
 40
5.880438639600527
 50
94.4876673582
 51
113.4737934785
  0
ARC
  5
394
  8
1
  6
CONTINUOUS
 62
     7
 10
1950.122976099364
 20
-755.7646669309005
 30
0.0
 40
0.7531091236998577
 50
306.1674105377001
 51
357.0568328209
  0
LINE
  5
395
  8
1
  6
CONTINUOUS
 62
     7
 10
1319.482702000001
 20
-757.4999999999999
 30
0.0
 11
1312.517299000001
 21
-757.4999999999999
 31
0.0
  0
ARC
  5
396
  8
1
  6
CONTINUOUS
 62
     7
 10
2046.672679911064
 20
-757.0556929854001
 30
0.0
 40
0.255030515898369
 50
273.7014803846
 51
322.5258305921
  0
ARC
  5
397
  8
1
  6
CONTINUOUS
 62
     7
 10
2385.500000000002
 20
-700.0043629999999
 30
0.0
 40
0.4999999999988347
 50
0.0
 51
1.0
  0
LINE
  5
398
  8
1
  6
CONTINUOUS
 62
     7
 10
1302.115924000002
 20
-658.5879549999999
 30
0.0
 11
1302.115924000002
 21
-746.412044
 31
0.0
  0
ARC
  5
399
  8
1
  6
CONTINUOUS
 62
     7
 10
1944.381050858864
 20
-755.4410363076004
 30
0.0
 40
1.896355714102071
 50
260.284014317
 51
273.7938645927
  0
LINE
  5
39A
  8
1
  6
CONTINUOUS
 62
     7
 10
1110.175493000002
 20
-747.1527030000003
 30
0.0
 11
1111.562876000002
 21
-755.0209440000003
 31
0.0
  0
ARC
  5
39B
  8
1
  6
CONTINUOUS
 62
     7
 10
2046.369106884867
 20
-755.4410363076004
 30
0.0
 40
1.896355714098519
 50
266.2061354073
 51
279.715985683
  0
LINE
  5
39C
  8
1
  6
CONTINUOUS
 62
     7
 10
1236.115924000002
 20
-658.5879549999999
 30
0.0
 11
1236.115924000002
 21
-746.412044
 31
0.0
  0
LINE
  5
39D
  8
1
  6
CONTINUOUS
 62
     7
 10
2288.848387000003
 20
-757.3393460000004
 30
0.0
 11
2288.831350000003
 21
-757.3333850000006
 31
0.0
  0
LINE
  5
39E
  8
1
  6
CONTINUOUS
 62
     7
 10
1124.528981
 20
-708.5
 30
0.0
 11
1124.528981
 21
-696.5
 31
0.0
  0
ARC
  5
39F
  8
1
  6
CONTINUOUS
 62
     7
 10
1121.482702000001
 20
-754.5000000000002
 30
0.0
 40
2.999999999996561
 50
270.0
 51
349.9999999999999
  0
LINE
  5
3A0
  8
1
  6
CONTINUOUS
 62
     7
 10
1280.115924000003
 20
-658.5879549999999
 30
0.0
 11
1280.115924000003
 21
-746.412044
 31
0.0
  0
LINE
  5
3A1
  8
1
  6
CONTINUOUS
 62
     7
 10
1103.824508000002
 20
-657.8472960000005
 30
0.0
 11
1102.437125000002
 21
-649.9790550000002
 31
0.0
  0
ARC
  5
3A2
  8
1
  6
CONTINUOUS
 62
     7
 10
1224.517299000001
 20
-650.5000000000002
 30
0.0
 40
3.000000000000114
 50
90.0
 51
170.0
  0
LINE
  5
3A3
  8
1
  6
CONTINUOUS
 62
     7
 10
1110.175493000002
 20
-657.8472960000005
 30
0.0
 11
1111.562876000002
 21
-649.9790550000002
 31
0.0
  0
LINE
  5
3A4
  8
1
  6
CONTINUOUS
 62
     7
 10
1323.824508000004
 20
-747.1527030000003
 30
0.0
 11
1322.437125000004
 21
-755.0209440000003
 31
0.0
  0
ARC
  5
3A5
  8
1
  6
CONTINUOUS
 62
     7
 10
2296.459415000006
 20
-731.0405850000003
 30
0.0
 40
31.99999999999648
 50
181.0
 51
269.0
  0
ARC
  5
3A6
  8
1
  6
CONTINUOUS
 62
     7
 10
2046.375074922266
 20
-739.1516179324001
 30
0.0
 40
0.5000039495968167
 50
0.0
 51
102.6808875072
  0
LINE
  5
3A7
  8
1
  6
CONTINUOUS
 62
     7
 10
1263.884076999999
 20
-658.5879549999999
 30
0.0
 11
1263.884076999999
 21
-746.412044
 31
0.0
  0
LINE
  5
3A8
  8
1
  6
CONTINUOUS
 62
     7
 10
1944.504488702015
 20
-762.118088866806
 30
0.0
 11
1948.651536309941
 21
-761.8240859533928
 31
0.0
  0
LINE
  5
3A9
  8
1
  6
CONTINUOUS
 62
     7
 10
1133.999999999999
 20
-756.1319329999999
 30
0.0
 11
1133.999999999999
 21
-708.4999999999998
 31
0.0
  0
ARC
  5
3AA
  8
1
  6
CONTINUOUS
 62
     7
 10
1105.794122999998
 20
-747.5000000000001
 30
0.0
 40
2.000000000002444
 50
90.0
 51
170.0
  0
LINE
  5
3AB
  8
1
  6
CONTINUOUS
 62
     7
 10
1322.000000000002
 20
-756.1319329999999
 30
0.0
 11
1322.000000000002
 21
-708.4999999999998
 31
0.0
  0
LINE
  5
3AC
  8
1
  6
CONTINUOUS
 62
     7
 10
1300.0
 20
-648.8680670000001
 30
0.0
 11
1300.0
 21
-696.5
 31
0.0
  0
LINE
  5
3AD
  8
1
  6
CONTINUOUS
 62
     7
 10
1200.000000000002
 20
-756.1319329999999
 30
0.0
 11
1200.000000000002
 21
-708.4999999999998
 31
0.0
  0
ARC
  5
3AE
  8
1
  6
CONTINUOUS
 62
     7
 10
1319.482702000001
 20
-754.5000000000002
 30
0.0
 40
2.999999999996561
 50
270.0
 51
349.9999999999999
  0
LINE
  5
3AF
  8
1
  6
CONTINUOUS
 62
     7
 10
1944.504488871863
 20
-738.6686500000003
 30
0.0
 11
1948.651535871863
 21
-739.7798480000002
 31
0.0
  0
LINE
  5
3B0
  8
1
  6
CONTINUOUS
 62
     7
 10
1121.482702000001
 20
-647.5000000000001
 30
0.0
 11
1114.517299
 21
-647.5000000000001
 31
0.0
  0
LINE
  5
3B1
  8
1
  6
CONTINUOUS
 62
     7
 10
1287.999999999999
 20
-756.1319329999999
 30
0.0
 11
1287.999999999999
 21
-708.4999999999998
 31
0.0
  0
LINE
  5
3B2
  8
1
  6
CONTINUOUS
 62
     7
 10
1253.482702000002
 20
-757.4999999999999
 30
0.0
 11
1246.517299000001
 21
-757.4999999999999
 31
0.0
  0
ARC
  5
3B3
  8
1
  6
CONTINUOUS
 62
     7
 10
2385.500000000002
 20
-704.9956370000003
 30
0.0
 40
0.4999999999988347
 50
358.9999999999999
 51
0.0
  0
LINE
  5
3B4
  8
1
  6
CONTINUOUS
 62
     7
 10
1155.999999999998
 20
-756.1319329999999
 30
0.0
 11
1155.999999999998
 21
-708.4999999999998
 31
0.0
  0
LINE
  5
3B5
  8
1
  6
CONTINUOUS
 62
     7
 10
1287.471019000004
 20
-708.5
 30
0.0
 11
1300.528981000006
 21
-708.5
 31
0.0
  0
LINE
  5
3B6
  8
1
  6
CONTINUOUS
 62
     7
 10
1231.482702000004
 20
-647.5000000000001
 30
0.0
 11
1224.517299000003
 21
-647.5000000000001
 31
0.0
  0
ARC
  5
3B7
  8
1
  6
CONTINUOUS
 62
     7
 10
1149.794122999999
 20
-747.5000000000001
 30
0.0
 40
1.999999999998892
 50
90.0
 51
170.0
  0
LINE
  5
3B8
  8
1
  6
CONTINUOUS
 62
     7
 10
1101.999999999999
 20
-756.1319329999999
 30
0.0
 11
1101.999999999999
 21
-708.4999999999998
 31
0.0
  0
LINE
  5
3B9
  8
1
  6
CONTINUOUS
 62
     7
 10
1344.528981000002
 20
-696.5
 30
0.0
 11
1331.471019000002
 21
-696.5
 31
0.0
  0
ARC
  5
3BA
  8
1
  6
CONTINUOUS
 62
     7
 10
1127.794123000004
 20
-747.5000000000001
 30
0.0
 40
1.999999999998892
 50
90.0
 51
170.0
  0
ARC
  5
3BB
  8
1
  6
CONTINUOUS
 62
     7
 10
1237.794122999999
 20
-657.4999999999999
 30
0.0
 40
1.999999999998892
 50
190.0
 51
270.0
  0
ARC
  5
3BC
  8
1
  6
CONTINUOUS
 62
     7
 10
1944.077477832663
 20
-757.0556929854001
 30
0.0
 40
0.2550305159019217
 50
217.4741694079
 51
266.2985196154
  0
LINE
  5
3BD
  8
1
  6
CONTINUOUS
 62
     7
 10
2385.535712000004
 20
-673.4009380000001
 30
0.0
 11
2385.999924000004
 21
-699.9956370000002
 31
0.0
  0
ARC
  5
3BE
  8
1
  6
CONTINUOUS
 62
     7
 10
1202.517299000003
 20
-650.5000000000002
 30
0.0
 40
2.999999999996561
 50
90.0
 51
170.0
  0
LINE
  5
3BF
  8
1
  6
CONTINUOUS
 62
     7
 10
1287.999999999999
 20
-648.8680670000001
 30
0.0
 11
1287.999999999999
 21
-696.5
 31
0.0
  0
ARC
  5
3C0
  8
1
  6
CONTINUOUS
 62
     7
 10
1237.794122999999
 20
-747.5000000000001
 30
0.0
 40
1.999999999998892
 50
90.0
 51
170.0
  0
LINE
  5
3C1
  8
1
  6
CONTINUOUS
 62
     7
 10
1212.528981000001
 20
-708.5
 30
0.0
 11
1212.528981000001
 21
-696.5
 31
0.0
  0
ARC
  5
3C2
  8
1
  6
CONTINUOUS
 62
     7
 10
1312.517298999999
 20
-754.5000000000002
 30
0.0
 40
3.000000000003666
 50
190.0
 51
270.0
  0
ARC
  5
3C3
  8
1
  6
CONTINUOUS
 62
     7
 10
1944.381051181565
 20
-760.2257548126003
 30
0.0
 40
1.896355714102071
 50
260.284014317
 51
273.7938645927
  0
LINE
  5
3C4
  8
1
  6
CONTINUOUS
 62
     7
 10
1241.884077000004
 20
-658.5879549999999
 30
0.0
 11
1241.884077000004
 21
-746.412044
 31
0.0
  0
LINE
  5
3C5
  8
1
  6
CONTINUOUS
 62
     7
 10
1281.794123000004
 20
-659.5000000000001
 30
0.0
 11
1284.205877000004
 21
-659.5000000000001
 31
0.0
  0
ARC
  5
3C6
  8
1
  6
CONTINUOUS
 62
     7
 10
1108.205877000002
 20
-657.4999999999999
 30
0.0
 40
1.999999999998892
 50
270.0
 51
349.9999999999999
  0
ARC
  5
3C7
  8
1
  6
CONTINUOUS
 62
     7
 10
2042.607343690665
 20
-751.8709720953002
 30
0.0
 40
5.113102109298495
 50
241.6930586015
 51
264.6520604372001
  0
LINE
  5
3C8
  8
1
  6
CONTINUOUS
 62
     7
 10
1125.824507999997
 20
-747.1527030000003
 30
0.0
 11
1124.437124999997
 21
-755.0209440000003
 31
0.0
  0
ARC
  5
3C9
  8
1
  6
CONTINUOUS
 62
     7
 10
2040.527595232866
 20
-760.7774158184003
 30
0.0
 40
0.6565005122993739
 50
186.3155021834001
 51
241.7024573161
  0
ARC
  5
3CA
  8
1
  6
CONTINUOUS
 62
     7
 10
2042.875117871865
 20
-742.6776550000002
 30
0.0
 40
3.000038999999788
 50
105.00057
 51
179.99943
  0
LINE
  5
3CB
  8
1
  6
CONTINUOUS
 62
     7
 10
1286.175493000001
 20
-747.1527030000003
 30
0.0
 11
1287.562876000001
 21
-755.0209440000003
 31
0.0
  0
LINE
  5
3CC
  8
1
  6
CONTINUOUS
 62
     7
 10
1089.999999999999
 20
-648.8680670000001
 30
0.0
 11
1089.999999999999
 21
-696.5
 31
0.0
  0
LINE
  5
3CD
  8
1
  6
CONTINUOUS
 62
     7
 10
1089.471019000004
 20
-708.5
 30
0.0
 11
1102.528981000005
 21
-708.5
 31
0.0
  0
LINE
  5
3CE
  8
1
  6
CONTINUOUS
 62
     7
 10
1089.999999999999
 20
-756.1319329999999
 30
0.0
 11
1089.999999999999
 21
-708.4999999999998
 31
0.0
  0
ARC
  5
3CF
  8
1
  6
CONTINUOUS
 62
     7
 10
1105.794122999998
 20
-657.4999999999999
 30
0.0
 40
2.000000000002444
 50
190.0
 51
270.0
  0
LINE
  5
3D0
  8
1
  6
CONTINUOUS
 62
     7
 10
1124.000000000001
 20
-756.1319329999999
 30
0.0
 11
1124.000000000001
 21
-708.4999999999998
 31
0.0
  0
ARC
  5
3D1
  8
1
  6
CONTINUOUS
 62
     7
 10
1948.142814053067
 20
-751.8709720953002
 30
0.0
 40
5.113102109298495
 50
275.3479395627999
 51
298.3069413985
  0
LINE
  5
3D2
  8
1
  6
CONTINUOUS
 62
     7
 10
1325.794123000004
 20
-659.5000000000001
 30
0.0
 11
1328.205877000004
 21
-659.5000000000001
 31
0.0
  0
LINE
  5
3D3
  8
1
  6
CONTINUOUS
 62
     7
 10
2046.875078871863
 20
-761.9955730000001
 30
0.0
 11
2046.875078871863
 21
-739.1516130000001
 31
0.0
  0
ARC
  5
3D4
  8
1
  6
CONTINUOUS
 62
     7
 10
1099.482701999999
 20
-650.5000000000002
 30
0.0
 40
3.000000000003666
 50
10.0
 51
90.0
  0
LINE
  5
3D5
  8
1
  6
CONTINUOUS
 62
     7
 10
1102.528981000002
 20
-708.5
 30
0.0
 11
1102.528981000002
 21
-696.5
 31
0.0
  0
ARC
  5
3D6
  8
1
  6
CONTINUOUS
 62
     7
 10
1948.191424259263
 20
-649.0383244293
 30
0.0
 40
5.880438639600527
 50
66.5262065215
 51
85.51233264179999
  0
LINE
  5
3D7
  8
1
  6
CONTINUOUS
 62
     7
 10
2039.875078871865
 20
-760.8496330000004
 30
0.0
 11
2039.875078871865
 21
-742.6776250000004
 31
0.0
  0
LINE
  5
3D8
  8
1
  6
CONTINUOUS
 62
     7
 10
1088.175493
 20
-747.1527030000003
 30
0.0
 11
1089.562876000001
 21
-755.0209440000003
 31
0.0
  0
LINE
  5
3D9
  8
1
  6
CONTINUOUS
 62
     7
 10
1231.482702000004
 20
-757.4999999999999
 30
0.0
 11
1224.517299000003
 21
-757.4999999999999
 31
0.0
  0
LINE
  5
3DA
  8
1
  6
CONTINUOUS
 62
     7
 10
1127.794123000004
 20
-745.5000000000003
 30
0.0
 11
1130.205877000005
 21
-745.5000000000003
 31
0.0
  0
LINE
  5
3DB
  8
1
  6
CONTINUOUS
 62
     7
 10
1234.000000000004
 20
-648.8680670000001
 30
0.0
 11
1234.000000000004
 21
-696.5
 31
0.0
  0
LINE
  5
3DC
  8
1
  6
CONTINUOUS
 62
     7
 10
1285.884077000001
 20
-658.5879549999999
 30
0.0
 11
1285.884077000001
 21
-746.412044
 31
0.0
  0
ARC
  5
3DD
  8
1
  6
CONTINUOUS
 62
     7
 10
1114.517298999998
 20
-754.5000000000002
 30
0.0
 40
3.000000000003666
 50
190.0
 51
270.0
  0
ARC
  5
3DE
  8
1
  6
CONTINUOUS
 62
     7
 10
1092.517299
 20
-754.5000000000002
 30
0.0
 40
2.999999999996561
 50
190.0
 51
270.0
  0
ARC
  5
3DF
  8
1
  6
CONTINUOUS
 62
     7
 10
1121.482702000001
 20
-650.5000000000002
 30
0.0
 40
2.999999999996561
 50
10.0
 51
90.0
  0
LINE
  5
3E0
  8
1
  6
CONTINUOUS
 62
     7
 10
1258.115923999997
 20
-658.5879549999999
 30
0.0
 11
1258.115923999997
 21
-746.412044
 31
0.0
  0
ARC
  5
3E1
  8
1
  6
CONTINUOUS
 62
     7
 10
1231.482702000004
 20
-754.5000000000002
 30
0.0
 40
2.999999999996561
 50
270.0
 51
349.9999999999999
  0
LINE
  5
3E2
  8
1
  6
CONTINUOUS
 62
     7
 10
1214.115924000001
 20
-658.5879549999999
 30
0.0
 11
1214.115924000001
 21
-746.412044
 31
0.0
  0
LINE
  5
3E3
  8
1
  6
CONTINUOUS
 62
     7
 10
1198.175493
 20
-747.1527030000003
 30
0.0
 11
1199.562876
 21
-755.0209440000003
 31
0.0
  0
LINE
  5
3E4
  8
1
  6
CONTINUOUS
 62
     7
 10
1199.471019
 20
-696.5
 30
0.0
 11
1199.471019
 21
-708.5
 31
0.0
  0
LINE
  5
3E5
  8
1
  6
CONTINUOUS
 62
     7
 10
1235.824507999999
 20
-747.1527030000003
 30
0.0
 11
1234.437125
 21
-755.0209440000003
 31
0.0
  0
LINE
  5
3E6
  8
1
  6
CONTINUOUS
 62
     7
 10
1237.794122999999
 20
-745.5000000000003
 30
0.0
 11
1240.205877000001
 21
-745.5000000000003
 31
0.0
  0
LINE
  5
3E7
  8
1
  6
CONTINUOUS
 62
     7
 10
1111.999999999997
 20
-756.1319329999999
 30
0.0
 11
1111.999999999997
 21
-708.4999999999998
 31
0.0
  0
LINE
  5
3E8
  8
1
  6
CONTINUOUS
 62
     7
 10
1099.482701999999
 20
-647.5000000000001
 30
0.0
 11
1092.517298999999
 21
-647.5000000000001
 31
0.0
  0
ARC
  5
3E9
  8
1
  6
CONTINUOUS
 62
     7
 10
1202.517299000003
 20
-754.5000000000002
 30
0.0
 40
2.999999999996561
 50
190.0
 51
270.0
  0
ARC
  5
3EA
  8
1
  6
CONTINUOUS
 62
     7
 10
1099.482701999999
 20
-754.5000000000002
 30
0.0
 40
3.000000000003666
 50
270.0
 51
349.9999999999999
  0
LINE
  5
3EB
  8
1
  6
CONTINUOUS
 62
     7
 10
1219.884076999999
 20
-658.5879549999999
 30
0.0
 11
1219.884076999999
 21
-746.412044
 31
0.0
  0
LINE
  5
3EC
  8
1
  6
CONTINUOUS
 62
     7
 10
1197.884077
 20
-658.5879549999999
 30
0.0
 11
1197.884077
 21
-746.412044
 31
0.0
  0
LINE
  5
3ED
  8
1
  6
CONTINUOUS
 62
     7
 10
1099.482701999999
 20
-757.4999999999999
 30
0.0
 11
1092.517298999999
 21
-757.4999999999999
 31
0.0
  0
LINE
  5
3EE
  8
1
  6
CONTINUOUS
 62
     7
 10
1200.000000000002
 20
-648.8680670000001
 30
0.0
 11
1200.000000000002
 21
-696.5
 31
0.0
  0
ARC
  5
3EF
  8
1
  6
CONTINUOUS
 62
     7
 10
1127.794123000004
 20
-657.4999999999999
 30
0.0
 40
1.999999999998892
 50
190.0
 51
270.0
  0
LINE
  5
3F0
  8
1
  6
CONTINUOUS
 62
     7
 10
1211.999999999999
 20
-756.1319329999999
 30
0.0
 11
1211.999999999999
 21
-708.4999999999998
 31
0.0
  0
LINE
  5
3F1
  8
1
  6
CONTINUOUS
 62
     7
 10
1215.794123000001
 20
-659.5000000000001
 30
0.0
 11
1218.205877000002
 21
-659.5000000000001
 31
0.0
  0
LINE
  5
3F2
  8
1
  6
CONTINUOUS
 62
     7
 10
1102.528981000002
 20
-696.5
 30
0.0
 11
1089.471019000001
 21
-696.5
 31
0.0
  0
LINE
  5
3F3
  8
1
  6
CONTINUOUS
 62
     7
 10
1476.528980999997
 20
-708.5
 30
0.0
 11
1476.528980999997
 21
-696.5
 31
0.0
  0
ARC
  5
3F4
  8
1
  6
CONTINUOUS
 62
     7
 10
1620.517298999999
 20
-650.5000000000002
 30
0.0
 40
3.000000000000114
 50
90.0
 51
170.0
  0
LINE
  5
3F5
  8
1
  6
CONTINUOUS
 62
     7
 10
1473.482701999994
 20
-757.4999999999999
 30
0.0
 11
1466.517298999994
 21
-757.4999999999999
 31
0.0
  0
LINE
  5
3F6
  8
1
  6
CONTINUOUS
 62
     7
 10
1572.175492999999
 20
-747.1527030000003
 30
0.0
 11
1573.562875999999
 21
-755.0209440000003
 31
0.0
  0
ARC
  5
3F7
  8
1
  6
CONTINUOUS
 62
     7
 10
1526.205876999998
 20
-747.5000000000001
 30
0.0
 40
1.999999999998892
 50
10.00000000000263
 51
90.0
  0
ARC
  5
3F8
  8
1
  6
CONTINUOUS
 62
     7
 10
1457.794122999998
 20
-657.4999999999999
 30
0.0
 40
1.999999999998892
 50
190.0
 51
270.0
  0
LINE
  5
3F9
  8
1
  6
CONTINUOUS
 62
     7
 10
1463.999999999998
 20
-756.1319329999999
 30
0.0
 11
1463.999999999998
 21
-708.4999999999998
 31
0.0
  0
ARC
  5
3FA
  8
1
  6
CONTINUOUS
 62
     7
 10
1451.482701999999
 20
-650.5000000000002
 30
0.0
 40
3.000000000000114
 50
10.0
 51
90.0
  0
LINE
  5
3FB
  8
1
  6
CONTINUOUS
 62
     7
 10
1486.0
 20
-756.1319329999999
 30
0.0
 11
1486.0
 21
-708.4999999999998
 31
0.0
  0
LINE
  5
3FC
  8
1
  6
CONTINUOUS
 62
     7
 10
1457.794122999998
 20
-745.5000000000003
 30
0.0
 11
1460.205876999999
 21
-745.5000000000003
 31
0.0
  0
LINE
  5
3FD
  8
1
  6
CONTINUOUS
 62
     7
 10
1629.999999999998
 20
-648.8680670000001
 30
0.0
 11
1629.999999999998
 21
-696.5
 31
0.0
  0
LINE
  5
3FE
  8
1
  6
CONTINUOUS
 62
     7
 10
1585.999999999997
 20
-756.1319329999999
 30
0.0
 11
1585.999999999997
 21
-708.4999999999998
 31
0.0
  0
LINE
  5
3FF
  8
1
  6
CONTINUOUS
 62
     7
 10
1583.482701999997
 20
-647.5000000000001
 30
0.0
 11
1576.517298999997
 21
-647.5000000000001
 31
0.0
  0
LINE
  5
400
  8
1
  6
CONTINUOUS
 62
     7
 10
1462.175492999996
 20
-747.1527030000003
 30
0.0
 11
1463.562875999996
 21
-755.0209440000003
 31
0.0
  0
LINE
  5
401
  8
1
  6
CONTINUOUS
 62
     7
 10
1440.175492999997
 20
-657.8472960000005
 30
0.0
 11
1441.562875999997
 21
-649.9790550000002
 31
0.0
  0
ARC
  5
402
  8
1
  6
CONTINUOUS
 62
     7
 10
1501.794122999999
 20
-747.5000000000001
 30
0.0
 40
1.999999999998892
 50
90.0
 51
170.0
  0
LINE
  5
403
  8
1
  6
CONTINUOUS
 62
     7
 10
1608.0
 20
-756.1319329999999
 30
0.0
 11
1608.0
 21
-708.4999999999998
 31
0.0
  0
LINE
  5
404
  8
1
  6
CONTINUOUS
 62
     7
 10
1610.115923999998
 20
-658.5879549999999
 30
0.0
 11
1610.115923999998
 21
-746.412044
 31
0.0
  0
LINE
  5
405
  8
1
  6
CONTINUOUS
 62
     7
 10
1630.528981
 20
-708.5
 30
0.0
 11
1630.528981
 21
-696.5
 31
0.0
  0
ARC
  5
406
  8
1
  6
CONTINUOUS
 62
     7
 10
1466.517298999999
 20
-650.5000000000002
 30
0.0
 40
3.000000000000114
 50
90.0
 51
170.0
  0
LINE
  5
407
  8
1
  6
CONTINUOUS
 62
     7
 10
1627.482701999997
 20
-647.5000000000001
 30
0.0
 11
1620.517298999997
 21
-647.5000000000001
 31
0.0
  0
ARC
  5
408
  8
1
  6
CONTINUOUS
 62
     7
 10
1614.205876999999
 20
-747.5000000000001
 30
0.0
 40
1.999999999998892
 50
10.0
 51
90.0
  0
ARC
  5
409
  8
1
  6
CONTINUOUS
 62
     7
 10
1576.517298999998
 20
-650.5000000000002
 30
0.0
 40
3.000000000000114
 50
90.0
 51
170.0
  0
LINE
  5
40A
  8
1
  6
CONTINUOUS
 62
     7
 10
1497.999999999997
 20
-756.1319329999999
 30
0.0
 11
1497.999999999997
 21
-708.4999999999998
 31
0.0
  0
ARC
  5
40B
  8
1
  6
CONTINUOUS
 62
     7
 10
1627.482701999997
 20
-650.5000000000002
 30
0.0
 40
3.000000000000114
 50
10.0
 51
90.0
  0
ARC
  5
40C
  8
1
  6
CONTINUOUS
 62
     7
 10
1592.205877000001
 20
-657.4999999999999
 30
0.0
 40
1.999999999998892
 50
270.0
 51
349.9999999999999
  0
LINE
  5
40D
  8
1
  6
CONTINUOUS
 62
     7
 10
1440.175492999997
 20
-747.1527030000003
 30
0.0
 11
1441.562875999997
 21
-755.0209440000003
 31
0.0
  0
LINE
  5
40E
  8
1
  6
CONTINUOUS
 62
     7
 10
1451.482701999999
 20
-647.5000000000001
 30
0.0
 11
1444.517298999999
 21
-647.5000000000001
 31
0.0
  0
LINE
  5
40F
  8
1
  6
CONTINUOUS
 62
     7
 10
1521.824507999997
 20
-657.8472960000005
 30
0.0
 11
1520.437124999997
 21
-649.9790550000002
 31
0.0
  0
LINE
  5
410
  8
1
  6
CONTINUOUS
 62
     7
 10
1633.794122999997
 20
-745.5000000000003
 30
0.0
 11
1636.205876999998
 21
-745.5000000000003
 31
0.0
  0
LINE
  5
411
  8
1
  6
CONTINUOUS
 62
     7
 10
1495.482701999999
 20
-647.5000000000001
 30
0.0
 11
1488.517298999999
 21
-647.5000000000001
 31
0.0
  0
LINE
  5
412
  8
1
  6
CONTINUOUS
 62
     7
 10
1500.115923999995
 20
-658.5879549999999
 30
0.0
 11
1500.115923999995
 21
-746.412044
 31
0.0
  0
LINE
  5
413
  8
1
  6
CONTINUOUS
 62
     7
 10
1523.794122999997
 20
-659.5000000000001
 30
0.0
 11
1526.205876999999
 21
-659.5000000000001
 31
0.0
  0
LINE
  5
414
  8
1
  6
CONTINUOUS
 62
     7
 10
1616.175493000003
 20
-657.8472960000005
 30
0.0
 11
1617.562876000003
 21
-649.9790550000002
 31
0.0
  0
ARC
  5
415
  8
1
  6
CONTINUOUS
 62
     7
 10
1438.205876999997
 20
-747.5000000000001
 30
0.0
 40
2.000000000002444
 50
10.0
 51
90.0
  0
LINE
  5
416
  8
1
  6
CONTINUOUS
 62
     7
 10
1743.794122999996
 20
-659.5000000000001
 30
0.0
 11
1746.205876999997
 21
-659.5000000000001
 31
0.0
  0
ARC
  5
417
  8
1
  6
CONTINUOUS
 62
     7
 10
1510.517298999996
 20
-754.5000000000002
 30
0.0
 40
3.000000000003666
 50
190.0
 51
270.0
  0
LINE
  5
418
  8
1
  6
CONTINUOUS
 62
     7
 10
1617.471018999999
 20
-708.5
 30
0.0
 11
1630.528981
 21
-708.5
 31
0.0
  0
LINE
  5
419
  8
1
  6
CONTINUOUS
 62
     7
 10
1477.824507999997
 20
-747.1527030000003
 30
0.0
 11
1476.437124999996
 21
-755.0209440000003
 31
0.0
  0
LINE
  5
41A
  8
1
  6
CONTINUOUS
 62
     7
 10
1476.000000000002
 20
-648.8680670000001
 30
0.0
 11
1476.000000000002
 21
-696.5
 31
0.0
  0
LINE
  5
41B
  8
1
  6
CONTINUOUS
 62
     7
 10
1506.175493
 20
-747.1527030000003
 30
0.0
 11
1507.562876
 21
-755.0209440000003
 31
0.0
  0
LINE
  5
41C
  8
1
  6
CONTINUOUS
 62
     7
 10
1549.884076999997
 20
-658.5879549999999
 30
0.0
 11
1549.884076999997
 21
-746.412044
 31
0.0
  0
LINE
  5
41D
  8
1
  6
CONTINUOUS
 62
     7
 10
1544.115923999995
 20
-658.5879549999999
 30
0.0
 11
1544.115923999995
 21
-746.412044
 31
0.0
  0
LINE
  5
41E
  8
1
  6
CONTINUOUS
 62
     7
 10
1589.794122999996
 20
-659.5000000000001
 30
0.0
 11
1592.205876999996
 21
-659.5000000000001
 31
0.0
  0
LINE
  5
41F
  8
1
  6
CONTINUOUS
 62
     7
 10
1455.824507999998
 20
-747.1527030000003
 30
0.0
 11
1454.437124999998
 21
-755.0209440000003
 31
0.0
  0
LINE
  5
420
  8
1
  6
CONTINUOUS
 62
     7
 10
1435.794122999996
 20
-659.5000000000001
 30
0.0
 11
1438.205876999997
 21
-659.5000000000001
 31
0.0
  0
LINE
  5
421
  8
1
  6
CONTINUOUS
 62
     7
 10
1484.175492999998
 20
-657.8472960000005
 30
0.0
 11
1485.562875999997
 21
-649.9790550000002
 31
0.0
  0
LINE
  5
422
  8
1
  6
CONTINUOUS
 62
     7
 10
1573.471018999998
 20
-708.5
 30
0.0
 11
1586.528980999999
 21
-708.5
 31
0.0
  0
LINE
  5
423
  8
1
  6
CONTINUOUS
 62
     7
 10
1441.471018999997
 20
-708.5
 30
0.0
 11
1454.528980999997
 21
-708.5
 31
0.0
  0
LINE
  5
424
  8
1
  6
CONTINUOUS
 62
     7
 10
1593.884076999997
 20
-658.5879549999999
 30
0.0
 11
1593.884076999997
 21
-746.412044
 31
0.0
  0
ARC
  5
425
  8
1
  6
CONTINUOUS
 62
     7
 10
1482.205876999997
 20
-747.5000000000001
 30
0.0
 40
1.999999999998892
 50
10.0
 51
90.0
  0
LINE
  5
426
  8
1
  6
CONTINUOUS
 62
     7
 10
1571.884076999999
 20
-658.5879549999999
 30
0.0
 11
1571.884076999999
 21
-746.412044
 31
0.0
  0
LINE
  5
427
  8
1
  6
CONTINUOUS
 62
     7
 10
1501.794122999999
 20
-659.5000000000001
 30
0.0
 11
1504.205876999999
 21
-659.5000000000001
 31
0.0
  0
ARC
  5
428
  8
1
  6
CONTINUOUS
 62
     7
 10
1583.482701999997
 20
-650.5000000000002
 30
0.0
 40
3.000000000003666
 50
10.0
 51
90.0
  0
LINE
  5
429
  8
1
  6
CONTINUOUS
 62
     7
 10
1451.482701999999
 20
-757.4999999999999
 30
0.0
 11
1444.517298999999
 21
-757.4999999999999
 31
0.0
  0
LINE
  5
42A
  8
1
  6
CONTINUOUS
 62
     7
 10
1507.471018999996
 20
-696.5
 30
0.0
 11
1507.471018999996
 21
-708.5
 31
0.0
  0
ARC
  5
42B
  8
1
  6
CONTINUOUS
 62
     7
 10
1523.794122999997
 20
-747.5000000000001
 30
0.0
 40
2.000000000002444
 50
90.0
 51
170.0
  0
LINE
  5
42C
  8
1
  6
CONTINUOUS
 62
     7
 10
1457.794122999998
 20
-659.5000000000001
 30
0.0
 11
1460.205876999999
 21
-659.5000000000001
 31
0.0
  0
LINE
  5
42D
  8
1
  6
CONTINUOUS
 62
     7
 10
1517.482701999998
 20
-647.5000000000001
 30
0.0
 11
1510.517298999998
 21
-647.5000000000001
 31
0.0
  0
LINE
  5
42E
  8
1
  6
CONTINUOUS
 62
     7
 10
1501.794122999999
 20
-745.5000000000003
 30
0.0
 11
1504.205876999999
 21
-745.5000000000003
 31
0.0
  0
LINE
  5
42F
  8
1
  6
CONTINUOUS
 62
     7
 10
1495.482701999999
 20
-757.4999999999999
 30
0.0
 11
1488.517298999999
 21
-757.4999999999999
 31
0.0
  0
LINE
  5
430
  8
1
  6
CONTINUOUS
 62
     7
 10
1505.884076999997
 20
-658.5879549999999
 30
0.0
 11
1505.884076999997
 21
-746.412044
 31
0.0
  0
LINE
  5
431
  8
1
  6
CONTINUOUS
 62
     7
 10
1453.999999999996
 20
-756.1319329999999
 30
0.0
 11
1453.999999999996
 21
-708.4999999999998
 31
0.0
  0
ARC
  5
432
  8
1
  6
CONTINUOUS
 62
     7
 10
1510.517298999996
 20
-650.5000000000002
 30
0.0
 40
3.000000000003666
 50
90.0
 51
170.0
  0
LINE
  5
433
  8
1
  6
CONTINUOUS
 62
     7
 10
1519.999999999999
 20
-648.8680670000001
 30
0.0
 11
1519.999999999999
 21
-696.5
 31
0.0
  0
LINE
  5
434
  8
1
  6
CONTINUOUS
 62
     7
 10
1476.528980999997
 20
-696.5
 30
0.0
 11
1463.471018999997
 21
-696.5
 31
0.0
  0
LINE
  5
435
  8
1
  6
CONTINUOUS
 62
     7
 10
1523.794122999997
 20
-745.5000000000003
 30
0.0
 11
1526.205876999999
 21
-745.5000000000003
 31
0.0
  0
LINE
  5
436
  8
1
  6
CONTINUOUS
 62
     7
 10
1522.115924
 20
-658.5879549999999
 30
0.0
 11
1522.115924
 21
-746.412044
 31
0.0
  0
LINE
  5
437
  8
1
  6
CONTINUOUS
 62
     7
 10
1529.471019000002
 20
-696.5
 30
0.0
 11
1529.471019000002
 21
-708.5
 31
0.0
  0
LINE
  5
438
  8
1
  6
CONTINUOUS
 62
     7
 10
1439.884076999998
 20
-658.5879549999999
 30
0.0
 11
1439.884076999998
 21
-746.412044
 31
0.0
  0
LINE
  5
439
  8
1
  6
CONTINUOUS
 62
     7
 10
1743.794122999996
 20
-745.5000000000003
 30
0.0
 11
1746.205876999997
 21
-745.5000000000003
 31
0.0
  0
ARC
  5
43A
  8
1
  6
CONTINUOUS
 62
     7
 10
1495.482701999999
 20
-650.5000000000002
 30
0.0
 40
3.000000000000114
 50
10.0
 51
90.0
  0
LINE
  5
43B
  8
1
  6
CONTINUOUS
 62
     7
 10
1478.115924
 20
-658.5879549999999
 30
0.0
 11
1478.115924
 21
-746.412044
 31
0.0
  0
ARC
  5
43C
  8
1
  6
CONTINUOUS
 62
     7
 10
1460.205876999996
 20
-747.5000000000001
 30
0.0
 40
2.000000000002444
 50
10.0
 51
90.0
  0
ARC
  5
43D
  8
1
  6
CONTINUOUS
 62
     7
 10
1495.482701999999
 20
-754.5000000000002
 30
0.0
 40
3.000000000000114
 50
270.0
 51
349.9999999999999
  0
LINE
  5
43E
  8
1
  6
CONTINUOUS
 62
     7
 10
1456.115923999998
 20
-658.5879549999999
 30
0.0
 11
1456.115923999998
 21
-746.412044
 31
0.0
  0
LINE
  5
43F
  8
1
  6
CONTINUOUS
 62
     7
 10
1476.000000000002
 20
-756.1319329999999
 30
0.0
 11
1476.000000000002
 21
-708.4999999999998
 31
0.0
  0
ARC
  5
440
  8
1
  6
CONTINUOUS
 62
     7
 10
1501.794122999999
 20
-657.4999999999999
 30
0.0
 40
1.999999999998892
 50
190.0
 51
270.0
  0
LINE
  5
441
  8
1
  6
CONTINUOUS
 62
     7
 10
1454.528980999998
 20
-696.5
 30
0.0
 11
1441.471018999998
 21
-696.5
 31
0.0
  0
LINE
  5
442
  8
1
  6
CONTINUOUS
 62
     7
 10
1497.999999999997
 20
-648.8680670000001
 30
0.0
 11
1497.999999999997
 21
-696.5
 31
0.0
  0
ARC
  5
443
  8
1
  6
CONTINUOUS
 62
     7
 10
1479.794122999997
 20
-747.5000000000001
 30
0.0
 40
1.999999999998892
 50
90.0
 51
170.0
  0
LINE
  5
444
  8
1
  6
CONTINUOUS
 62
     7
 10
1155.999999999998
 20
-648.8680670000001
 30
0.0
 11
1155.999999999998
 21
-696.5
 31
0.0
  0
ARC
  5
445
  8
1
  6
CONTINUOUS
 62
     7
 10
1438.205876999997
 20
-657.4999999999999
 30
0.0
 40
2.000000000002444
 50
270.0
 51
349.9999999999999
  0
ARC
  5
446
  8
1
  6
CONTINUOUS
 62
     7
 10
1350.205877000003
 20
-657.4999999999999
 30
0.0
 40
1.999999999998892
 50
270.0
 51
349.9999999999999
  0
ARC
  5
447
  8
1
  6
CONTINUOUS
 62
     7
 10
1482.205876999997
 20
-657.4999999999999
 30
0.0
 40
1.999999999998892
 50
270.0
 51
349.9999999999999
  0
LINE
  5
448
  8
1
  6
CONTINUOUS
 62
     7
 10
1498.528980999995
 20
-708.5
 30
0.0
 11
1498.528980999995
 21
-696.5
 31
0.0
  0
LINE
  5
449
  8
1
  6
CONTINUOUS
 62
     7
 10
1507.471018999996
 20
-708.5
 30
0.0
 11
1520.528980999996
 21
-708.5
 31
0.0
  0
LINE
  5
44A
  8
1
  6
CONTINUOUS
 62
     7
 10
1499.824507999999
 20
-657.8472960000005
 30
0.0
 11
1498.437124999999
 21
-649.9790550000002
 31
0.0
  0
LINE
  5
44B
  8
1
  6
CONTINUOUS
 62
     7
 10
1486.0
 20
-648.8680670000001
 30
0.0
 11
1486.0
 21
-696.5
 31
0.0
  0
ARC
  5
44C
  8
1
  6
CONTINUOUS
 62
     7
 10
1479.794122999997
 20
-657.4999999999999
 30
0.0
 40
1.999999999998892
 50
190.0
 51
270.0
  0
LINE
  5
44D
  8
1
  6
CONTINUOUS
 62
     7
 10
1485.471018999998
 20
-696.5
 30
0.0
 11
1485.471018999998
 21
-708.5
 31
0.0
  0
LINE
  5
44E
  8
1
  6
CONTINUOUS
 62
     7
 10
1441.471018999997
 20
-696.5
 30
0.0
 11
1441.471018999997
 21
-708.5
 31
0.0
  0
ARC
  5
44F
  8
1
  6
CONTINUOUS
 62
     7
 10
1444.517299
 20
-650.5000000000002
 30
0.0
 40
2.999999999996561
 50
90.0
 51
170.0
  0
ARC
  5
450
  8
1
  6
CONTINUOUS
 62
     7
 10
1517.482701999998
 20
-650.5000000000002
 30
0.0
 40
3.000000000000114
 50
10.0
 51
90.0
  0
LINE
  5
451
  8
1
  6
CONTINUOUS
 62
     7
 10
1453.999999999996
 20
-648.8680670000001
 30
0.0
 11
1453.999999999996
 21
-696.5
 31
0.0
  0
LINE
  5
452
  8
1
  6
CONTINUOUS
 62
     7
 10
1441.999999999999
 20
-648.8680670000001
 30
0.0
 11
1441.999999999999
 21
-696.5
 31
0.0
  0
ARC
  5
453
  8
1
  6
CONTINUOUS
 62
     7
 10
1504.205876999996
 20
-657.4999999999999
 30
0.0
 40
2.000000000005997
 50
270.0
 51
349.9999999999999
  0
LINE
  5
454
  8
1
  6
CONTINUOUS
 62
     7
 10
1477.824507999997
 20
-657.8472960000005
 30
0.0
 11
1476.437124999996
 21
-649.9790550000002
 31
0.0
  0
LINE
  5
455
  8
1
  6
CONTINUOUS
 62
     7
 10
1499.824507999999
 20
-747.1527030000003
 30
0.0
 11
1498.437124999999
 21
-755.0209440000003
 31
0.0
  0
LINE
  5
456
  8
1
  6
CONTINUOUS
 62
     7
 10
1498.528980999995
 20
-696.5
 30
0.0
 11
1485.471018999995
 21
-696.5
 31
0.0
  0
LINE
  5
457
  8
1
  6
CONTINUOUS
 62
     7
 10
1507.999999999998
 20
-756.1319329999999
 30
0.0
 11
1507.999999999998
 21
-708.4999999999998
 31
0.0
  0
LINE
  5
458
  8
1
  6
CONTINUOUS
 62
     7
 10
1485.471018999998
 20
-708.5
 30
0.0
 11
1498.528980999997
 21
-708.5
 31
0.0
  0
LINE
  5
459
  8
1
  6
CONTINUOUS
 62
     7
 10
1484.175492999998
 20
-747.1527030000003
 30
0.0
 11
1485.562875999997
 21
-755.0209440000003
 31
0.0
  0
LINE
  5
45A
  8
1
  6
CONTINUOUS
 62
     7
 10
1483.884077000002
 20
-658.5879549999999
 30
0.0
 11
1483.884077000002
 21
-746.412044
 31
0.0
  0
LINE
  5
45B
  8
1
  6
CONTINUOUS
 62
     7
 10
1463.471018999999
 20
-708.5
 30
0.0
 11
1476.528980999999
 21
-708.5
 31
0.0
  0
LINE
  5
45C
  8
1
  6
CONTINUOUS
 62
     7
 10
1463.471018999999
 20
-696.5
 30
0.0
 11
1463.471018999999
 21
-708.5
 31
0.0
  0
LINE
  5
45D
  8
1
  6
CONTINUOUS
 62
     7
 10
1527.884076999999
 20
-658.5879549999999
 30
0.0
 11
1527.884076999999
 21
-746.412044
 31
0.0
  0
ARC
  5
45E
  8
1
  6
CONTINUOUS
 62
     7
 10
1517.482701999998
 20
-754.5000000000002
 30
0.0
 40
3.000000000000114
 50
270.0
 51
349.9999999999999
  0
ARC
  5
45F
  8
1
  6
CONTINUOUS
 62
     7
 10
1473.482701999994
 20
-754.5000000000002
 30
0.0
 40
3.000000000003666
 50
270.0
 51
349.9999999999999
  0
ARC
  5
460
  8
1
  6
CONTINUOUS
 62
     7
 10
1526.205876999998
 20
-657.4999999999999
 30
0.0
 40
1.999999999998892
 50
270.0
 51
349.9999999999974
  0
LINE
  5
461
  8
1
  6
CONTINUOUS
 62
     7
 10
1454.528980999998
 20
-708.5
 30
0.0
 11
1454.528980999998
 21
-696.5
 31
0.0
  0
LINE
  5
462
  8
1
  6
CONTINUOUS
 62
     7
 10
1506.175493
 20
-657.8472960000005
 30
0.0
 11
1507.562876
 21
-649.9790550000002
 31
0.0
  0
LINE
  5
463
  8
1
  6
CONTINUOUS
 62
     7
 10
1479.794122999997
 20
-659.5000000000001
 30
0.0
 11
1482.205876999997
 21
-659.5000000000001
 31
0.0
  0
ARC
  5
464
  8
1
  6
CONTINUOUS
 62
     7
 10
1488.517298999997
 20
-650.5000000000002
 30
0.0
 40
3.000000000000114
 50
90.0
 51
170.0
  0
LINE
  5
465
  8
1
  6
CONTINUOUS
 62
     7
 10
1462.175492999996
 20
-657.8472960000005
 30
0.0
 11
1463.562875999996
 21
-649.9790550000002
 31
0.0
  0
ARC
  5
466
  8
1
  6
CONTINUOUS
 62
     7
 10
1473.482701999994
 20
-650.5000000000002
 30
0.0
 40
3.000000000003666
 50
10.0
 51
90.0
  0
LINE
  5
467
  8
1
  6
CONTINUOUS
 62
     7
 10
1521.824507999997
 20
-747.1527030000003
 30
0.0
 11
1520.437124999997
 21
-755.0209440000003
 31
0.0
  0
ARC
  5
468
  8
1
  6
CONTINUOUS
 62
     7
 10
1523.794122999997
 20
-657.4999999999999
 30
0.0
 40
2.000000000002444
 50
190.0
 51
270.0
  0
ARC
  5
469
  8
1
  6
CONTINUOUS
 62
     7
 10
1444.517299
 20
-754.5000000000002
 30
0.0
 40
2.999999999996561
 50
190.0
 51
270.0
  0
LINE
  5
46A
  8
1
  6
CONTINUOUS
 62
     7
 10
1463.999999999998
 20
-648.8680670000001
 30
0.0
 11
1463.999999999998
 21
-696.5
 31
0.0
  0
LINE
  5
46B
  8
1
  6
CONTINUOUS
 62
     7
 10
1345.824508000002
 20
-747.1527030000003
 30
0.0
 11
1344.437125000003
 21
-755.0209440000003
 31
0.0
  0
LINE
  5
46C
  8
1
  6
CONTINUOUS
 62
     7
 10
1146.528981000002
 20
-708.5
 30
0.0
 11
1146.528981000002
 21
-696.5
 31
0.0
  0
LINE
  5
46D
  8
1
  6
CONTINUOUS
 62
     7
 10
1369.794123000001
 20
-659.5000000000001
 30
0.0
 11
1372.205877000001
 21
-659.5000000000001
 31
0.0
  0
LINE
  5
46E
  8
1
  6
CONTINUOUS
 62
     7
 10
1309.471018999999
 20
-708.5
 30
0.0
 11
1322.528980999999
 21
-708.5
 31
0.0
  0
ARC
  5
46F
  8
1
  6
CONTINUOUS
 62
     7
 10
1347.794122999999
 20
-747.5000000000001
 30
0.0
 40
1.999999999998892
 50
90.0
 51
170.0
  0
LINE
  5
470
  8
1
  6
CONTINUOUS
 62
     7
 10
1191.824507999999
 20
-747.1527030000003
 30
0.0
 11
1190.437125
 21
-755.0209440000003
 31
0.0
  0
ARC
  5
471
  8
1
  6
CONTINUOUS
 62
     7
 10
1328.205877000001
 20
-657.4999999999999
 30
0.0
 40
1.999999999998892
 50
270.0
 51
349.9999999999999
  0
LINE
  5
472
  8
1
  6
CONTINUOUS
 62
     7
 10
1354.000000000002
 20
-756.1319329999999
 30
0.0
 11
1354.000000000002
 21
-708.4999999999998
 31
0.0
  0
LINE
  5
473
  8
1
  6
CONTINUOUS
 62
     7
 10
1347.794122999999
 20
-745.5000000000003
 30
0.0
 11
1350.205876999999
 21
-745.5000000000003
 31
0.0
  0
LINE
  5
474
  8
1
  6
CONTINUOUS
 62
     7
 10
1332.0
 20
-756.1319329999999
 30
0.0
 11
1332.0
 21
-708.4999999999998
 31
0.0
  0
LINE
  5
475
  8
1
  6
CONTINUOUS
 62
     7
 10
1146.0
 20
-648.8680670000001
 30
0.0
 11
1146.0
 21
-696.5
 31
0.0
  0
LINE
  5
476
  8
1
  6
CONTINUOUS
 62
     7
 10
1367.824508000001
 20
-747.1527030000003
 30
0.0
 11
1366.437125000001
 21
-755.0209440000003
 31
0.0
  0
LINE
  5
477
  8
1
  6
CONTINUOUS
 62
     7
 10
1111.999999999997
 20
-648.8680670000001
 30
0.0
 11
1111.999999999997
 21
-696.5
 31
0.0
  0
LINE
  5
478
  8
1
  6
CONTINUOUS
 62
     7
 10
1341.482702
 20
-647.5000000000001
 30
0.0
 11
1334.517298999999
 21
-647.5000000000001
 31
0.0
  0
LINE
  5
479
  8
1
  6
CONTINUOUS
 62
     7
 10
1143.482701999999
 20
-757.4999999999999
 30
0.0
 11
1136.517298999999
 21
-757.4999999999999
 31
0.0
  0
LINE
  5
47A
  8
1
  6
CONTINUOUS
 62
     7
 10
1353.471019
 20
-696.5
 30
0.0
 11
1353.471019
 21
-708.5
 31
0.0
  0
LINE
  5
47B
  8
1
  6
CONTINUOUS
 62
     7
 10
1344.0
 20
-648.8680670000001
 30
0.0
 11
1344.0
 21
-696.5
 31
0.0
  0
ARC
  5
47C
  8
1
  6
CONTINUOUS
 62
     7
 10
1334.517299000001
 20
-754.5000000000002
 30
0.0
 40
3.000000000000114
 50
190.0
 51
270.0
  0
LINE
  5
47D
  8
1
  6
CONTINUOUS
 62
     7
 10
1124.528981
 20
-696.5
 30
0.0
 11
1111.471018999999
 21
-696.5
 31
0.0
  0
ARC
  5
47E
  8
1
  6
CONTINUOUS
 62
     7
 10
1158.517299000002
 20
-754.5000000000002
 30
0.0
 40
2.999999999996561
 50
190.0
 51
270.0
  0
LINE
  5
47F
  8
1
  6
CONTINUOUS
 62
     7
 10
1344.0
 20
-756.1319329999999
 30
0.0
 11
1344.0
 21
-708.4999999999998
 31
0.0
  0
LINE
  5
480
  8
1
  6
CONTINUOUS
 62
     7
 10
1391.794122999999
 20
-745.5000000000003
 30
0.0
 11
1394.205877
 21
-745.5000000000003
 31
0.0
  0
LINE
  5
481
  8
1
  6
CONTINUOUS
 62
     7
 10
1391.794122999999
 20
-659.5000000000001
 30
0.0
 11
1394.205877
 21
-659.5000000000001
 31
0.0
  0
LINE
  5
482
  8
1
  6
CONTINUOUS
 62
     7
 10
1310.000000000005
 20
-648.8680670000001
 30
0.0
 11
1310.000000000005
 21
-696.5
 31
0.0
  0
LINE
  5
483
  8
1
  6
CONTINUOUS
 62
     7
 10
1354.000000000002
 20
-648.8680670000001
 30
0.0
 11
1354.000000000002
 21
-696.5
 31
0.0
  0
LINE
  5
484
  8
1
  6
CONTINUOUS
 62
     7
 10
1347.794122999999
 20
-659.5000000000001
 30
0.0
 11
1350.205876999999
 21
-659.5000000000001
 31
0.0
  0
ARC
  5
485
  8
1
  6
CONTINUOUS
 62
     7
 10
1341.482702
 20
-650.5000000000002
 30
0.0
 40
3.000000000003666
 50
10.0
 51
90.0
  0
LINE
  5
486
  8
1
  6
CONTINUOUS
 62
     7
 10
1331.471019000001
 20
-708.5
 30
0.0
 11
1344.528981000002
 21
-708.5
 31
0.0
  0
ARC
  5
487
  8
1
  6
CONTINUOUS
 62
     7
 10
1130.205877000001
 20
-657.4999999999999
 30
0.0
 40
1.999999999998892
 50
270.0
 51
349.9999999999999
  0
LINE
  5
488
  8
1
  6
CONTINUOUS
 62
     7
 10
1154.175493
 20
-747.1527030000003
 30
0.0
 11
1155.562875999998
 21
-755.0209440000003
 31
0.0
  0
LINE
  5
489
  8
1
  6
CONTINUOUS
 62
     7
 10
1369.794123000001
 20
-745.5000000000003
 30
0.0
 11
1372.205877000001
 21
-745.5000000000003
 31
0.0
  0
LINE
  5
48A
  8
1
  6
CONTINUOUS
 62
     7
 10
1330.175493000001
 20
-747.1527030000003
 30
0.0
 11
1331.562876000001
 21
-755.0209440000003
 31
0.0
  0
LINE
  5
48B
  8
1
  6
CONTINUOUS
 62
     7
 10
1146.528981000002
 20
-696.5
 30
0.0
 11
1133.471019000001
 21
-696.5
 31
0.0
  0
LINE
  5
48C
  8
1
  6
CONTINUOUS
 62
     7
 10
1363.482702000002
 20
-757.4999999999999
 30
0.0
 11
1356.517299000001
 21
-757.4999999999999
 31
0.0
  0
LINE
  5
48D
  8
1
  6
CONTINUOUS
 62
     7
 10
1322.528981
 20
-696.5
 30
0.0
 11
1309.471019
 21
-696.5
 31
0.0
  0
ARC
  5
48E
  8
1
  6
CONTINUOUS
 62
     7
 10
1363.482702000002
 20
-650.5000000000002
 30
0.0
 40
3.000000000000114
 50
10.0
 51
90.0
  0
ARC
  5
48F
  8
1
  6
CONTINUOUS
 62
     7
 10
1347.794122999999
 20
-657.4999999999999
 30
0.0
 40
1.999999999998892
 50
190.0
 51
270.0
  0
LINE
  5
490
  8
1
  6
CONTINUOUS
 62
     7
 10
1367.824508000001
 20
-657.8472960000005
 30
0.0
 11
1366.437125000001
 21
-649.9790550000002
 31
0.0
  0
LINE
  5
491
  8
1
  6
CONTINUOUS
 62
     7
 10
1322.000000000002
 20
-648.8680670000001
 30
0.0
 11
1322.000000000002
 21
-696.5
 31
0.0
  0
LINE
  5
492
  8
1
  6
CONTINUOUS
 62
     7
 10
1352.175493
 20
-657.8472960000005
 30
0.0
 11
1353.562876
 21
-649.9790550000002
 31
0.0
  0
LINE
  5
493
  8
1
  6
CONTINUOUS
 62
     7
 10
1374.175493000005
 20
-657.8472960000005
 30
0.0
 11
1375.562876000005
 21
-649.9790550000002
 31
0.0
  0
ARC
  5
494
  8
1
  6
CONTINUOUS
 62
     7
 10
1369.794123000001
 20
-747.5000000000001
 30
0.0
 40
2.000000000002444
 50
90.0
 51
170.0
  0
ARC
  5
495
  8
1
  6
CONTINUOUS
 62
     7
 10
1350.205877000003
 20
-747.5000000000001
 30
0.0
 40
1.999999999998892
 50
10.0
 51
90.0
  0
LINE
  5
496
  8
1
  6
CONTINUOUS
 62
     7
 10
1015.824508000001
 20
-657.8472960000005
 30
0.0
 11
1014.437125000001
 21
-649.9790550000002
 31
0.0
  0
LINE
  5
497
  8
1
  6
CONTINUOUS
 62
     7
 10
1352.175493
 20
-747.1527030000003
 30
0.0
 11
1353.562876
 21
-755.0209440000003
 31
0.0
  0
LINE
  5
498
  8
1
  6
CONTINUOUS
 62
     7
 10
1409.999999999999
 20
-648.8680670000001
 30
0.0
 11
1409.999999999999
 21
-696.5
 31
0.0
  0
ARC
  5
499
  8
1
  6
CONTINUOUS
 62
     7
 10
1363.482702000002
 20
-754.5000000000002
 30
0.0
 40
3.000000000000114
 50
270.0
 51
349.9999999999999
  0
LINE
  5
49A
  8
1
  6
CONTINUOUS
 62
     7
 10
1133.471019000001
 20
-696.5
 30
0.0
 11
1133.471019000001
 21
-708.5
 31
0.0
  0
LINE
  5
49B
  8
1
  6
CONTINUOUS
 62
     7
 10
1168.528981000001
 20
-696.5
 30
0.0
 11
1155.471019000001
 21
-696.5
 31
0.0
  0
LINE
  5
49C
  8
1
  6
CONTINUOUS
 62
     7
 10
1332.0
 20
-648.8680670000001
 30
0.0
 11
1332.0
 21
-696.5
 31
0.0
  0
LINE
  5
49D
  8
1
  6
CONTINUOUS
 62
     7
 10
1389.824507999999
 20
-747.1527030000003
 30
0.0
 11
1388.437125
 21
-755.0209440000003
 31
0.0
  0
LINE
  5
49E
  8
1
  6
CONTINUOUS
 62
     7
 10
1353.471019
 20
-708.5
 30
0.0
 11
1366.528981
 21
-708.5
 31
0.0
  0
LINE
  5
49F
  8
1
  6
CONTINUOUS
 62
     7
 10
1366.528981000001
 20
-696.5
 30
0.0
 11
1353.471019000001
 21
-696.5
 31
0.0
  0
ARC
  5
4A0
  8
1
  6
CONTINUOUS
 62
     7
 10
1158.517299000002
 20
-650.5000000000002
 30
0.0
 40
2.999999999996561
 50
90.0
 51
170.0
  0
LINE
  5
4A1
  8
1
  6
CONTINUOUS
 62
     7
 10
1397.471019
 20
-708.5
 30
0.0
 11
1410.528981000001
 21
-708.5
 31
0.0
  0
LINE
  5
4A2
  8
1
  6
CONTINUOUS
 62
     7
 10
1345.824508000002
 20
-657.8472960000005
 30
0.0
 11
1344.437125000003
 21
-649.9790550000002
 31
0.0
  0
LINE
  5
4A3
  8
1
  6
CONTINUOUS
 62
     7
 10
1330.175493000001
 20
-657.8472960000005
 30
0.0
 11
1331.562876000001
 21
-649.9790550000002
 31
0.0
  0
LINE
  5
4A4
  8
1
  6
CONTINUOUS
 62
     7
 10
1411.824508000001
 20
-747.1527030000003
 30
0.0
 11
1410.437125000001
 21
-755.0209440000003
 31
0.0
  0
ARC
  5
4A5
  8
1
  6
CONTINUOUS
 62
     7
 10
1369.794123000001
 20
-657.4999999999999
 30
0.0
 40
2.000000000002444
 50
190.0
 51
270.0
  0
ARC
  5
4A6
  8
1
  6
CONTINUOUS
 62
     7
 10
1356.517299000003
 20
-754.5000000000002
 30
0.0
 40
2.999999999996561
 50
190.0
 51
270.0
  0
LINE
  5
4A7
  8
1
  6
CONTINUOUS
 62
     7
 10
1331.471019000001
 20
-696.5
 30
0.0
 11
1331.471019000001
 21
-708.5
 31
0.0
  0
LINE
  5
4A8
  8
1
  6
CONTINUOUS
 62
     7
 10
1363.482702000002
 20
-647.5000000000001
 30
0.0
 11
1356.517299000001
 21
-647.5000000000001
 31
0.0
  0
LINE
  5
4A9
  8
1
  6
CONTINUOUS
 62
     7
 10
1366.528981000001
 20
-708.5
 30
0.0
 11
1366.528981000001
 21
-696.5
 31
0.0
  0
LINE
  5
4AA
  8
1
  6
CONTINUOUS
 62
     7
 10
1341.482702
 20
-757.4999999999999
 30
0.0
 11
1334.517298999999
 21
-757.4999999999999
 31
0.0
  0
LINE
  5
4AB
  8
1
  6
CONTINUOUS
 62
     7
 10
1154.175493
 20
-657.8472960000005
 30
0.0
 11
1155.562875999998
 21
-649.9790550000002
 31
0.0
  0
ARC
  5
4AC
  8
1
  6
CONTINUOUS
 62
     7
 10
1328.205877000001
 20
-747.5000000000001
 30
0.0
 40
1.999999999998892
 50
10.0
 51
90.0
  0
LINE
  5
4AD
  8
1
  6
CONTINUOUS
 62
     7
 10
1149.794122999999
 20
-745.5000000000003
 30
0.0
 11
1152.205876999999
 21
-745.5000000000003
 31
0.0
  0
LINE
  5
4AE
  8
1
  6
CONTINUOUS
 62
     7
 10
1155.471018999999
 20
-708.5
 30
0.0
 11
1168.528980999999
 21
-708.5
 31
0.0
  0
LINE
  5
4AF
  8
1
  6
CONTINUOUS
 62
     7
 10
1187.482702
 20
-757.4999999999999
 30
0.0
 11
1180.517298999999
 21
-757.4999999999999
 31
0.0
  0
LINE
  5
4B0
  8
1
  6
CONTINUOUS
 62
     7
 10
1168.000000000002
 20
-648.8680670000001
 30
0.0
 11
1168.000000000002
 21
-696.5
 31
0.0
  0
LINE
  5
4B1
  8
1
  6
CONTINUOUS
 62
     7
 10
1124.000000000001
 20
-648.8680670000001
 30
0.0
 11
1124.000000000001
 21
-696.5
 31
0.0
  0
ARC
  5
4B2
  8
1
  6
CONTINUOUS
 62
     7
 10
995.7941229999986
 20
-747.5000000000001
 30
0.0
 40
1.999999999998892
 50
90.0
 51
170.0
  0
LINE
  5
4B3
  8
1
  6
CONTINUOUS
 62
     7
 10
1178.0
 20
-756.1319329999999
 30
0.0
 11
1178.0
 21
-708.4999999999998
 31
0.0
  0
LINE
  5
4B4
  8
1
  6
CONTINUOUS
 62
     7
 10
1169.824508
 20
-747.1527030000003
 30
0.0
 11
1168.437125000002
 21
-755.0209440000003
 31
0.0
  0
ARC
  5
4B5
  8
1
  6
CONTINUOUS
 62
     7
 10
1356.517299000003
 20
-650.5000000000002
 30
0.0
 40
2.999999999996561
 50
90.0
 51
170.0
  0
ARC
  5
4B6
  8
1
  6
CONTINUOUS
 62
     7
 10
1334.517299000001
 20
-650.5000000000002
 30
0.0
 40
3.000000000000114
 50
90.0
 51
170.0
  0
ARC
  5
4B7
  8
1
  6
CONTINUOUS
 62
     7
 10
1341.482702
 20
-754.5000000000002
 30
0.0
 40
3.000000000003666
 50
270.0
 51
349.9999999999999
  0
LINE
  5
4B8
  8
1
  6
CONTINUOUS
 62
     7
 10
1366.000000000002
 20
-756.1319329999999
 30
0.0
 11
1366.000000000002
 21
-708.4999999999998
 31
0.0
  0
LINE
  5
4B9
  8
1
  6
CONTINUOUS
 62
     7
 10
1344.528981000002
 20
-708.5
 30
0.0
 11
1344.528981000002
 21
-696.5
 31
0.0
  0
LINE
  5
4BA
  8
1
  6
CONTINUOUS
 62
     7
 10
1175.884077000002
 20
-658.5879549999999
 30
0.0
 11
1175.884077000002
 21
-746.412044
 31
0.0
  0
LINE
  5
4BB
  8
1
  6
CONTINUOUS
 62
     7
 10
1366.000000000002
 20
-648.8680670000001
 30
0.0
 11
1366.000000000002
 21
-696.5
 31
0.0
  0
ARC
  5
4BC
  8
1
  6
CONTINUOUS
 62
     7
 10
995.7941229999986
 20
-657.4999999999999
 30
0.0
 40
1.999999999998892
 50
190.0
 51
270.0
  0
LINE
  5
4BD
  8
1
  6
CONTINUOUS
 62
     7
 10
1039.794122999999
 20
-745.5000000000003
 30
0.0
 11
1042.205876999999
 21
-745.5000000000003
 31
0.0
  0
LINE
  5
4BE
  8
1
  6
CONTINUOUS
 62
     7
 10
989.4827019999992
 20
-757.4999999999999
 30
0.0
 11
982.5172989999991
 21
-757.4999999999999
 31
0.0
  0
ARC
  5
4BF
  8
1
  6
CONTINUOUS
 62
     7
 10
1275.482702
 20
-754.5000000000002
 30
0.0
 40
3.000000000000114
 50
270.0
 51
349.9999999999999
  0
LINE
  5
4C0
  8
1
  6
CONTINUOUS
 62
     7
 10
1770.175492999999
 20
-747.1527030000003
 30
0.0
 11
1771.562875999999
 21
-755.0209440000003
 31
0.0
  0
LINE
  5
4C1
  8
1
  6
CONTINUOUS
 62
     7
 10
1794.0
 20
-756.1319329999999
 30
0.0
 11
1794.0
 21
-708.4999999999998
 31
0.0
  0
LINE
  5
4C2
  8
1
  6
CONTINUOUS
 62
     7
 10
1346.115924000002
 20
-658.5879549999999
 30
0.0
 11
1346.115924000002
 21
-746.412044
 31
0.0
  0
LINE
  5
4C3
  8
1
  6
CONTINUOUS
 62
     7
 10
1831.794122999997
 20
-659.5000000000001
 30
0.0
 11
1834.205876999997
 21
-659.5000000000001
 31
0.0
  0
ARC
  5
4C4
  8
1
  6
CONTINUOUS
 62
     7
 10
1394.205877
 20
-657.4999999999999
 30
0.0
 40
2.000000000002444
 50
270.0
 51
349.9999999999999
  0
LINE
  5
4C5
  8
1
  6
CONTINUOUS
 62
     7
 10
1803.482701999999
 20
-757.4999999999999
 30
0.0
 11
1796.517298999999
 21
-757.4999999999999
 31
0.0
  0
LINE
  5
4C6
  8
1
  6
CONTINUOUS
 62
     7
 10
1585.999999999997
 20
-648.8680670000001
 30
0.0
 11
1585.999999999997
 21
-696.5
 31
0.0
  0
LINE
  5
4C7
  8
1
  6
CONTINUOUS
 62
     7
 10
1265.471018999999
 20
-708.5
 30
0.0
 11
1278.528980999999
 21
-708.5
 31
0.0
  0
LINE
  5
4C8
  8
1
  6
CONTINUOUS
 62
     7
 10
1794.0
 20
-648.8680670000001
 30
0.0
 11
1794.0
 21
-696.5
 31
0.0
  0
ARC
  5
4C9
  8
1
  6
CONTINUOUS
 62
     7
 10
1407.482702000002
 20
-650.5000000000002
 30
0.0
 40
3.000000000000114
 50
10.0
 51
90.0
  0
ARC
  5
4CA
  8
1
  6
CONTINUOUS
 62
     7
 10
1803.482701999999
 20
-650.5000000000002
 30
0.0
 40
3.000000000000114
 50
10.0
 51
90.0
  0
LINE
  5
4CB
  8
1
  6
CONTINUOUS
 62
     7
 10
1806.528980999999
 20
-708.5
 30
0.0
 11
1806.528980999999
 21
-696.5
 31
0.0
  0
LINE
  5
4CC
  8
1
  6
CONTINUOUS
 62
     7
 10
1586.528981
 20
-696.5
 30
0.0
 11
1573.471018999999
 21
-696.5
 31
0.0
  0
LINE
  5
4CD
  8
1
  6
CONTINUOUS
 62
     7
 10
1281.794123000004
 20
-745.5000000000003
 30
0.0
 11
1284.205877000004
 21
-745.5000000000003
 31
0.0
  0
LINE
  5
4CE
  8
1
  6
CONTINUOUS
 62
     7
 10
1771.999999999997
 20
-756.1319329999999
 30
0.0
 11
1771.999999999997
 21
-708.4999999999998
 31
0.0
  0
ARC
  5
4CF
  8
1
  6
CONTINUOUS
 62
     7
 10
1297.482701999999
 20
-650.5000000000002
 30
0.0
 40
3.000000000003666
 50
10.0
 51
90.0
  0
ARC
  5
4D0
  8
1
  6
CONTINUOUS
 62
     7
 10
1809.794122999999
 20
-657.4999999999999
 30
0.0
 40
2.000000000002444
 50
190.0
 51
270.0
  0
ARC
  5
4D1
  8
1
  6
CONTINUOUS
 62
     7
 10
1391.794122999999
 20
-657.4999999999999
 30
0.0
 40
1.999999999998892
 50
190.0
 51
270.0
  0
LINE
  5
4D2
  8
1
  6
CONTINUOUS
 62
     7
 10
1831.794122999997
 20
-745.5000000000003
 30
0.0
 11
1834.205876999997
 21
-745.5000000000003
 31
0.0
  0
ARC
  5
4D3
  8
1
  6
CONTINUOUS
 62
     7
 10
1803.482701999999
 20
-754.5000000000002
 30
0.0
 40
3.000000000000114
 50
270.0
 51
349.9999999999999
  0
LINE
  5
4D4
  8
1
  6
CONTINUOUS
 62
     7
 10
1781.482701999997
 20
-757.4999999999999
 30
0.0
 11
1774.517298999997
 21
-757.4999999999999
 31
0.0
  0
LINE
  5
4D5
  8
1
  6
CONTINUOUS
 62
     7
 10
1307.884077
 20
-658.5879549999999
 30
0.0
 11
1307.884077
 21
-746.412044
 31
0.0
  0
ARC
  5
4D6
  8
1
  6
CONTINUOUS
 62
     7
 10
1372.205877000002
 20
-747.5000000000001
 30
0.0
 40
1.999999999998892
 50
10.0
 51
90.0
  0
LINE
  5
4D7
  8
1
  6
CONTINUOUS
 62
     7
 10
1807.824507999999
 20
-657.8472960000005
 30
0.0
 11
1806.437124999999
 21
-649.9790550000002
 31
0.0
  0
LINE
  5
4D8
  8
1
  6
CONTINUOUS
 62
     7
 10
1792.175492999997
 20
-657.8472960000005
 30
0.0
 11
1793.562875999998
 21
-649.9790550000002
 31
0.0
  0
LINE
  5
4D9
  8
1
  6
CONTINUOUS
 62
     7
 10
1771.471018999999
 20
-708.5
 30
0.0
 11
1784.528980999999
 21
-708.5
 31
0.0
  0
LINE
  5
4DA
  8
1
  6
CONTINUOUS
 62
     7
 10
1787.794122999997
 20
-659.5000000000001
 30
0.0
 11
1790.205876999997
 21
-659.5000000000001
 31
0.0
  0
LINE
  5
4DB
  8
1
  6
CONTINUOUS
 62
     7
 10
1793.471018999997
 20
-696.5
 30
0.0
 11
1793.471018999997
 21
-708.5
 31
0.0
  0
LINE
  5
4DC
  8
1
  6
CONTINUOUS
 62
     7
 10
1750.000000000003
 20
-648.8680670000001
 30
0.0
 11
1750.000000000003
 21
-696.5
 31
0.0
  0
LINE
  5
4DD
  8
1
  6
CONTINUOUS
 62
     7
 10
1411.824508000001
 20
-657.8472960000005
 30
0.0
 11
1410.437125000001
 21
-649.9790550000002
 31
0.0
  0
LINE
  5
4DE
  8
1
  6
CONTINUOUS
 62
     7
 10
1368.115924
 20
-658.5879549999999
 30
0.0
 11
1368.115924
 21
-746.412044
 31
0.0
  0
LINE
  5
4DF
  8
1
  6
CONTINUOUS
 62
     7
 10
1785.824508
 20
-657.8472960000005
 30
0.0
 11
1784.437125000001
 21
-649.9790550000002
 31
0.0
  0
LINE
  5
4E0
  8
1
  6
CONTINUOUS
 62
     7
 10
1792.175492999997
 20
-747.1527030000003
 30
0.0
 11
1793.562875999998
 21
-755.0209440000003
 31
0.0
  0
ARC
  5
4E1
  8
1
  6
CONTINUOUS
 62
     7
 10
1796.517299
 20
-754.5000000000002
 30
0.0
 40
2.999999999996561
 50
190.0
 51
270.0
  0
LINE
  5
4E2
  8
1
  6
CONTINUOUS
 62
     7
 10
1375.471019000002
 20
-696.5
 30
0.0
 11
1375.471019000002
 21
-708.5
 31
0.0
  0
LINE
  5
4E3
  8
1
  6
CONTINUOUS
 62
     7
 10
1586.528981
 20
-708.5
 30
0.0
 11
1586.528981
 21
-696.5
 31
0.0
  0
ARC
  5
4E4
  8
1
  6
CONTINUOUS
 62
     7
 10
1413.794123000001
 20
-747.5000000000001
 30
0.0
 40
1.999999999998892
 50
90.0
 51
170.0
  0
LINE
  5
4E5
  8
1
  6
CONTINUOUS
 62
     7
 10
1573.471018999998
 20
-696.5
 30
0.0
 11
1573.471018999998
 21
-708.5
 31
0.0
  0
LINE
  5
4E6
  8
1
  6
CONTINUOUS
 62
     7
 10
1407.482702000002
 20
-647.5000000000001
 30
0.0
 11
1400.517299000002
 21
-647.5000000000001
 31
0.0
  0
LINE
  5
4E7
  8
1
  6
CONTINUOUS
 62
     7
 10
1781.482701999997
 20
-647.5000000000001
 30
0.0
 11
1774.517298999997
 21
-647.5000000000001
 31
0.0
  0
LINE
  5
4E8
  8
1
  6
CONTINUOUS
 62
     7
 10
1787.794122999997
 20
-745.5000000000003
 30
0.0
 11
1790.205876999997
 21
-745.5000000000003
 31
0.0
  0
LINE
  5
4E9
  8
1
  6
CONTINUOUS
 62
     7
 10
1793.471018999997
 20
-708.5
 30
0.0
 11
1806.528980999998
 21
-708.5
 31
0.0
  0
LINE
  5
4EA
  8
1
  6
CONTINUOUS
 62
     7
 10
1803.482701999999
 20
-647.5000000000001
 30
0.0
 11
1796.517298999999
 21
-647.5000000000001
 31
0.0
  0
LINE
  5
4EB
  8
1
  6
CONTINUOUS
 62
     7
 10
1631.824507999997
 20
-747.1527030000003
 30
0.0
 11
1630.437124999998
 21
-755.0209440000003
 31
0.0
  0
ARC
  5
4EC
  8
1
  6
CONTINUOUS
 62
     7
 10
1768.205876999999
 20
-657.4999999999999
 30
0.0
 40
1.999999999998892
 50
270.0
 51
349.9999999999999
  0
LINE
  5
4ED
  8
1
  6
CONTINUOUS
 62
     7
 10
1390.115924000002
 20
-658.5879549999999
 30
0.0
 11
1390.115924000002
 21
-746.412044
 31
0.0
  0
LINE
  5
4EE
  8
1
  6
CONTINUOUS
 62
     7
 10
1398.000000000002
 20
-648.8680670000001
 30
0.0
 11
1398.000000000002
 21
-696.5
 31
0.0
  0
LINE
  5
4EF
  8
1
  6
CONTINUOUS
 62
     7
 10
1771.471018999999
 20
-696.5
 30
0.0
 11
1771.471018999999
 21
-708.5
 31
0.0
  0
LINE
  5
4F0
  8
1
  6
CONTINUOUS
 62
     7
 10
1388.528981000003
 20
-708.5
 30
0.0
 11
1388.528981000003
 21
-696.5
 31
0.0
  0
ARC
  5
4F1
  8
1
  6
CONTINUOUS
 62
     7
 10
1781.482701999997
 20
-650.5000000000002
 30
0.0
 40
3.000000000003666
 50
10.0
 51
90.0
  0
LINE
  5
4F2
  8
1
  6
CONTINUOUS
 62
     7
 10
1376.0
 20
-648.8680670000001
 30
0.0
 11
1376.0
 21
-696.5
 31
0.0
  0
LINE
  5
4F3
  8
1
  6
CONTINUOUS
 62
     7
 10
1373.884077000002
 20
-658.5879549999999
 30
0.0
 11
1373.884077000002
 21
-746.412044
 31
0.0
  0
LINE
  5
4F4
  8
1
  6
CONTINUOUS
 62
     7
 10
1809.794122999999
 20
-659.5000000000001
 30
0.0
 11
1812.205876999999
 21
-659.5000000000001
 31
0.0
  0
LINE
  5
4F5
  8
1
  6
CONTINUOUS
 62
     7
 10
1749.471018999997
 20
-708.5
 30
0.0
 11
1762.528980999997
 21
-708.5
 31
0.0
  0
LINE
  5
4F6
  8
1
  6
CONTINUOUS
 62
     7
 10
1770.175492999999
 20
-657.8472960000005
 30
0.0
 11
1771.562875999999
 21
-649.9790550000002
 31
0.0
  0
LINE
  5
4F7
  8
1
  6
CONTINUOUS
 62
     7
 10
1762.0
 20
-648.8680670000001
 30
0.0
 11
1762.0
 21
-696.5
 31
0.0
  0
LINE
  5
4F8
  8
1
  6
CONTINUOUS
 62
     7
 10
1595.999999999996
 20
-648.8680670000001
 30
0.0
 11
1595.999999999996
 21
-696.5
 31
0.0
  0
ARC
  5
4F9
  8
1
  6
CONTINUOUS
 62
     7
 10
1774.517298999999
 20
-754.5000000000002
 30
0.0
 40
3.000000000000114
 50
190.0
 51
270.0
  0
LINE
  5
4FA
  8
1
  6
CONTINUOUS
 62
     7
 10
1351.884077
 20
-658.5879549999999
 30
0.0
 11
1351.884077
 21
-746.412044
 31
0.0
  0
LINE
  5
4FB
  8
1
  6
CONTINUOUS
 62
     7
 10
1783.999999999998
 20
-648.8680670000001
 30
0.0
 11
1783.999999999998
 21
-696.5
 31
0.0
  0
ARC
  5
4FC
  8
1
  6
CONTINUOUS
 62
     7
 10
1787.794122999997
 20
-747.5000000000001
 30
0.0
 40
1.999999999998892
 50
90.0
 51
170.0
  0
LINE
  5
4FD
  8
1
  6
CONTINUOUS
 62
     7
 10
1809.794122999999
 20
-745.5000000000003
 30
0.0
 11
1812.205876999999
 21
-745.5000000000003
 31
0.0
  0
LINE
  5
4FE
  8
1
  6
CONTINUOUS
 62
     7
 10
1783.999999999998
 20
-756.1319329999999
 30
0.0
 11
1783.999999999998
 21
-708.4999999999998
 31
0.0
  0
LINE
  5
4FF
  8
1
  6
CONTINUOUS
 62
     7
 10
1785.824508
 20
-747.1527030000003
 30
0.0
 11
1784.437125000001
 21
-755.0209440000003
 31
0.0
  0
ARC
  5
500
  8
1
  6
CONTINUOUS
 62
     7
 10
1809.794122999999
 20
-747.5000000000001
 30
0.0
 40
2.000000000002444
 50
90.0
 51
170.0
  0
ARC
  5
501
  8
1
  6
CONTINUOUS
 62
     7
 10
1598.517299
 20
-754.5000000000002
 30
0.0
 40
2.999999999996561
 50
190.0
 51
270.0
  0
LINE
  5
502
  8
1
  6
CONTINUOUS
 62
     7
 10
1611.794122999998
 20
-659.5000000000001
 30
0.0
 11
1614.205876999999
 21
-659.5000000000001
 31
0.0
  0
LINE
  5
503
  8
1
  6
CONTINUOUS
 62
     7
 10
1588.115923999996
 20
-658.5879549999999
 30
0.0
 11
1588.115923999996
 21
-746.412044
 31
0.0
  0
LINE
  5
504
  8
1
  6
CONTINUOUS
 62
     7
 10
1784.528981
 20
-708.5
 30
0.0
 11
1784.528981
 21
-696.5
 31
0.0
  0
LINE
  5
505
  8
1
  6
CONTINUOUS
 62
     7
 10
1605.482701999999
 20
-647.5000000000001
 30
0.0
 11
1598.517298999998
 21
-647.5000000000001
 31
0.0
  0
ARC
  5
506
  8
1
  6
CONTINUOUS
 62
     7
 10
1605.482701999999
 20
-650.5000000000002
 30
0.0
 40
3.000000000000114
 50
10.0
 51
90.0
  0
LINE
  5
507
  8
1
  6
CONTINUOUS
 62
     7
 10
1594.175492999997
 20
-657.8472960000005
 30
0.0
 11
1595.562875999996
 21
-649.9790550000002
 31
0.0
  0
ARC
  5
508
  8
1
  6
CONTINUOUS
 62
     7
 10
1614.205876999999
 20
-657.4999999999999
 30
0.0
 40
1.999999999998892
 50
270.0
 51
349.9999999999999
  0
LINE
  5
509
  8
1
  6
CONTINUOUS
 62
     7
 10
1617.999999999998
 20
-756.1319329999999
 30
0.0
 11
1617.999999999998
 21
-708.4999999999998
 31
0.0
  0
LINE
  5
50A
  8
1
  6
CONTINUOUS
 62
     7
 10
1479.794122999997
 20
-745.5000000000003
 30
0.0
 11
1482.205876999997
 21
-745.5000000000003
 31
0.0
  0
ARC
  5
50B
  8
1
  6
CONTINUOUS
 62
     7
 10
1598.517299
 20
-650.5000000000002
 30
0.0
 40
2.999999999996561
 50
90.0
 51
170.0
  0
LINE
  5
50C
  8
1
  6
CONTINUOUS
 62
     7
 10
1589.794122999996
 20
-745.5000000000003
 30
0.0
 11
1592.205876999996
 21
-745.5000000000003
 31
0.0
  0
LINE
  5
50D
  8
1
  6
CONTINUOUS
 62
     7
 10
1551.471018999996
 20
-708.5
 30
0.0
 11
1564.528980999998
 21
-708.5
 31
0.0
  0
LINE
  5
50E
  8
1
  6
CONTINUOUS
 62
     7
 10
1594.175492999997
 20
-747.1527030000003
 30
0.0
 11
1595.562875999996
 21
-755.0209440000003
 31
0.0
  0
ARC
  5
50F
  8
1
  6
CONTINUOUS
 62
     7
 10
1774.517298999999
 20
-650.5000000000002
 30
0.0
 40
3.000000000000114
 50
90.0
 51
170.0
  0
LINE
  5
510
  8
1
  6
CONTINUOUS
 62
     7
 10
1551.999999999995
 20
-648.8680670000001
 30
0.0
 11
1551.999999999995
 21
-696.5
 31
0.0
  0
ARC
  5
511
  8
1
  6
CONTINUOUS
 62
     7
 10
1627.482701999997
 20
-754.5000000000002
 30
0.0
 40
3.000000000000114
 50
270.0
 51
349.9999999999999
  0
LINE
  5
512
  8
1
  6
CONTINUOUS
 62
     7
 10
1627.482701999997
 20
-757.4999999999999
 30
0.0
 11
1620.517298999997
 21
-757.4999999999999
 31
0.0
  0
ARC
  5
513
  8
1
  6
CONTINUOUS
 62
     7
 10
1787.794122999997
 20
-657.4999999999999
 30
0.0
 40
1.999999999998892
 50
190.0
 51
270.0
  0
LINE
  5
514
  8
1
  6
CONTINUOUS
 62
     7
 10
1608.528980999998
 20
-696.5
 30
0.0
 11
1595.471018999998
 21
-696.5
 31
0.0
  0
LINE
  5
515
  8
1
  6
CONTINUOUS
 62
     7
 10
1572.175492999999
 20
-657.8472960000005
 30
0.0
 11
1573.562875999999
 21
-649.9790550000002
 31
0.0
  0
LINE
  5
516
  8
1
  6
CONTINUOUS
 62
     7
 10
1388.000000000001
 20
-756.1319329999999
 30
0.0
 11
1388.000000000001
 21
-708.4999999999998
 31
0.0
  0
LINE
  5
517
  8
1
  6
CONTINUOUS
 62
     7
 10
1563.999999999999
 20
-648.8680670000001
 30
0.0
 11
1563.999999999999
 21
-696.5
 31
0.0
  0
LINE
  5
518
  8
1
  6
CONTINUOUS
 62
     7
 10
1807.824507999999
 20
-747.1527030000003
 30
0.0
 11
1806.437124999999
 21
-755.0209440000003
 31
0.0
  0
LINE
  5
519
  8
1
  6
CONTINUOUS
 62
     7
 10
1441.999999999999
 20
-756.1319329999999
 30
0.0
 11
1441.999999999999
 21
-708.4999999999998
 31
0.0
  0
ARC
  5
51A
  8
1
  6
CONTINUOUS
 62
     7
 10
1451.482701999999
 20
-754.5000000000002
 30
0.0
 40
3.000000000000114
 50
270.0
 51
349.9999999999999
  0
ARC
  5
51B
  8
1
  6
CONTINUOUS
 62
     7
 10
1790.205877000001
 20
-747.5000000000001
 30
0.0
 40
1.999999999998892
 50
10.0
 51
90.0
  0
LINE
  5
51C
  8
1
  6
CONTINUOUS
 62
     7
 10
1771.999999999997
 20
-648.8680670000001
 30
0.0
 11
1771.999999999997
 21
-696.5
 31
0.0
  0
ARC
  5
51D
  8
1
  6
CONTINUOUS
 62
     7
 10
1589.794122999996
 20
-657.4999999999999
 30
0.0
 40
1.999999999998892
 50
190.0
 51
270.0
  0
LINE
  5
51E
  8
1
  6
CONTINUOUS
 62
     7
 10
1595.471018999997
 20
-708.5
 30
0.0
 11
1608.528980999997
 21
-708.5
 31
0.0
  0
ARC
  5
51F
  8
1
  6
CONTINUOUS
 62
     7
 10
1611.794122999998
 20
-657.4999999999999
 30
0.0
 40
2.000000000002444
 50
190.0
 51
270.0
  0
ARC
  5
520
  8
1
  6
CONTINUOUS
 62
     7
 10
1633.794122999997
 20
-657.4999999999999
 30
0.0
 40
1.999999999998892
 50
190.0
 51
270.0
  0
LINE
  5
521
  8
1
  6
CONTINUOUS
 62
     7
 10
1566.115923999997
 20
-658.5879549999999
 30
0.0
 11
1566.115923999997
 21
-746.412044
 31
0.0
  0
LINE
  5
522
  8
1
  6
CONTINUOUS
 62
     7
 10
1814.175493000003
 20
-657.8472960000005
 30
0.0
 11
1815.562876000003
 21
-649.9790550000002
 31
0.0
  0
ARC
  5
523
  8
1
  6
CONTINUOUS
 62
     7
 10
1394.205877
 20
-747.5000000000001
 30
0.0
 40
2.000000000002444
 50
10.0
 51
90.0
  0
LINE
  5
524
  8
1
  6
CONTINUOUS
 62
     7
 10
1616.175493000003
 20
-747.1527030000003
 30
0.0
 11
1617.562876000003
 21
-755.0209440000003
 31
0.0
  0
ARC
  5
525
  8
1
  6
CONTINUOUS
 62
     7
 10
1790.205877000001
 20
-657.4999999999999
 30
0.0
 40
1.999999999998892
 50
270.0
 51
349.9999999999999
  0
LINE
  5
526
  8
1
  6
CONTINUOUS
 62
     7
 10
1629.999999999998
 20
-756.1319329999999
 30
0.0
 11
1629.999999999998
 21
-708.4999999999998
 31
0.0
  0
LINE
  5
527
  8
1
  6
CONTINUOUS
 62
     7
 10
1762.528980999998
 20
-696.5
 30
0.0
 11
1749.471018999998
 21
-696.5
 31
0.0
  0
LINE
  5
528
  8
1
  6
CONTINUOUS
 62
     7
 10
1609.824507999998
 20
-747.1527030000003
 30
0.0
 11
1608.437124999999
 21
-755.0209440000003
 31
0.0
  0
ARC
  5
529
  8
1
  6
CONTINUOUS
 62
     7
 10
1796.517299
 20
-650.5000000000002
 30
0.0
 40
2.999999999996561
 50
90.0
 51
170.0
  0
ARC
  5
52A
  8
1
  6
CONTINUOUS
 62
     7
 10
1620.517298999999
 20
-754.5000000000002
 30
0.0
 40
3.000000000000114
 50
190.0
 51
270.0
  0
LINE
  5
52B
  8
1
  6
CONTINUOUS
 62
     7
 10
1605.482701999999
 20
-757.4999999999999
 30
0.0
 11
1598.517298999998
 21
-757.4999999999999
 31
0.0
  0
LINE
  5
52C
  8
1
  6
CONTINUOUS
 62
     7
 10
1632.115924
 20
-658.5879549999999
 30
0.0
 11
1632.115924
 21
-746.412044
 31
0.0
  0
ARC
  5
52D
  8
1
  6
CONTINUOUS
 62
     7
 10
1583.482701999997
 20
-754.5000000000002
 30
0.0
 40
3.000000000003666
 50
270.0
 51
349.9999999999999
  0
LINE
  5
52E
  8
1
  6
CONTINUOUS
 62
     7
 10
1806.528980999999
 20
-696.5
 30
0.0
 11
1793.471018999998
 21
-696.5
 31
0.0
  0
ARC
  5
52F
  8
1
  6
CONTINUOUS
 62
     7
 10
1570.205876999999
 20
-657.4999999999999
 30
0.0
 40
1.999999999998892
 50
270.0
 51
349.9999999999999
  0
ARC
  5
530
  8
1
  6
CONTINUOUS
 62
     7
 10
1768.205876999999
 20
-747.5000000000001
 30
0.0
 40
1.999999999998892
 50
10.0
 51
90.0
  0
LINE
  5
531
  8
1
  6
CONTINUOUS
 62
     7
 10
1609.824507999998
 20
-657.8472960000005
 30
0.0
 11
1608.437124999999
 21
-649.9790550000002
 31
0.0
  0
LINE
  5
532
  8
1
  6
CONTINUOUS
 62
     7
 10
1435.794122999996
 20
-745.5000000000003
 30
0.0
 11
1438.205876999997
 21
-745.5000000000003
 31
0.0
  0
LINE
  5
533
  8
1
  6
CONTINUOUS
 62
     7
 10
1587.824508
 20
-657.8472960000005
 30
0.0
 11
1586.437125000001
 21
-649.9790550000002
 31
0.0
  0
ARC
  5
534
  8
1
  6
CONTINUOUS
 62
     7
 10
1570.205876999999
 20
-747.5000000000001
 30
0.0
 40
1.999999999998892
 50
10.0
 51
90.0
  0
LINE
  5
535
  8
1
  6
CONTINUOUS
 62
     7
 10
1564.528980999998
 20
-696.5
 30
0.0
 11
1551.471018999996
 21
-696.5
 31
0.0
  0
LINE
  5
536
  8
1
  6
CONTINUOUS
 62
     7
 10
1806.0
 20
-756.1319329999999
 30
0.0
 11
1806.0
 21
-708.4999999999998
 31
0.0
  0
LINE
  5
537
  8
1
  6
CONTINUOUS
 62
     7
 10
1573.999999999997
 20
-648.8680670000001
 30
0.0
 11
1573.999999999997
 21
-696.5
 31
0.0
  0
ARC
  5
538
  8
1
  6
CONTINUOUS
 62
     7
 10
1460.205876999996
 20
-657.4999999999999
 30
0.0
 40
2.000000000002444
 50
270.0
 51
349.9999999999999
  0
LINE
  5
539
  8
1
  6
CONTINUOUS
 62
     7
 10
1324.115924
 20
-658.5879549999999
 30
0.0
 11
1324.115924
 21
-746.412044
 31
0.0
  0
LINE
  5
53A
  8
1
  6
CONTINUOUS
 62
     7
 10
1412.115924000001
 20
-658.5879549999999
 30
0.0
 11
1412.115924000001
 21
-746.412044
 31
0.0
  0
LINE
  5
53B
  8
1
  6
CONTINUOUS
 62
     7
 10
1455.824507999998
 20
-657.8472960000005
 30
0.0
 11
1454.437124999998
 21
-649.9790550000002
 31
0.0
  0
LINE
  5
53C
  8
1
  6
CONTINUOUS
 62
     7
 10
1608.528980999998
 20
-708.5
 30
0.0
 11
1608.528980999998
 21
-696.5
 31
0.0
  0
ARC
  5
53D
  8
1
  6
CONTINUOUS
 62
     7
 10
1466.517298999999
 20
-754.5000000000002
 30
0.0
 40
3.000000000000114
 50
190.0
 51
270.0
  0
LINE
  5
53E
  8
1
  6
CONTINUOUS
 62
     7
 10
1583.482701999997
 20
-757.4999999999999
 30
0.0
 11
1576.517298999997
 21
-757.4999999999999
 31
0.0
  0
ARC
  5
53F
  8
1
  6
CONTINUOUS
 62
     7
 10
1611.794122999998
 20
-747.5000000000001
 30
0.0
 40
2.000000000002444
 50
90.0
 51
170.0
  0
LINE
  5
540
  8
1
  6
CONTINUOUS
 62
     7
 10
1617.999999999998
 20
-648.8680670000001
 30
0.0
 11
1617.999999999998
 21
-696.5
 31
0.0
  0
LINE
  5
541
  8
1
  6
CONTINUOUS
 62
     7
 10
1829.824507999997
 20
-747.1527030000003
 30
0.0
 11
1828.437124999997
 21
-755.0209440000003
 31
0.0
  0
LINE
  5
542
  8
1
  6
CONTINUOUS
 62
     7
 10
1615.884076999999
 20
-658.5879549999999
 30
0.0
 11
1615.884076999999
 21
-746.412044
 31
0.0
  0
LINE
  5
543
  8
1
  6
CONTINUOUS
 62
     7
 10
1473.482701999994
 20
-647.5000000000001
 30
0.0
 11
1466.517298999994
 21
-647.5000000000001
 31
0.0
  0
LINE
  5
544
  8
1
  6
CONTINUOUS
 62
     7
 10
1617.471018999999
 20
-696.5
 30
0.0
 11
1617.471018999999
 21
-708.5
 31
0.0
  0
ARC
  5
545
  8
1
  6
CONTINUOUS
 62
     7
 10
1633.794122999997
 20
-747.5000000000001
 30
0.0
 40
1.999999999998892
 50
90.0
 51
170.0
  0
LINE
  5
546
  8
1
  6
CONTINUOUS
 62
     7
 10
1611.794122999998
 20
-745.5000000000003
 30
0.0
 11
1614.205876999999
 21
-745.5000000000003
 31
0.0
  0
LINE
  5
547
  8
1
  6
CONTINUOUS
 62
     7
 10
1595.471018999997
 20
-696.5
 30
0.0
 11
1595.471018999997
 21
-708.5
 31
0.0
  0
LINE
  5
548
  8
1
  6
CONTINUOUS
 62
     7
 10
1608.0
 20
-648.8680670000001
 30
0.0
 11
1608.0
 21
-696.5
 31
0.0
  0
LINE
  5
549
  8
1
  6
CONTINUOUS
 62
     7
 10
1806.0
 20
-648.8680670000001
 30
0.0
 11
1806.0
 21
-696.5
 31
0.0
  0
LINE
  5
54A
  8
1
  6
CONTINUOUS
 62
     7
 10
1551.471018999996
 20
-696.5
 30
0.0
 11
1551.471018999996
 21
-708.5
 31
0.0
  0
LINE
  5
54B
  8
1
  6
CONTINUOUS
 62
     7
 10
1631.824507999997
 20
-657.8472960000005
 30
0.0
 11
1630.437124999998
 21
-649.9790550000002
 31
0.0
  0
ARC
  5
54C
  8
1
  6
CONTINUOUS
 62
     7
 10
1576.517298999998
 20
-754.5000000000002
 30
0.0
 40
3.000000000000114
 50
190.0
 51
270.0
  0
ARC
  5
54D
  8
1
  6
CONTINUOUS
 62
     7
 10
1781.482701999997
 20
-754.5000000000002
 30
0.0
 40
3.000000000003666
 50
270.0
 51
349.9999999999999
  0
LINE
  5
54E
  8
1
  6
CONTINUOUS
 62
     7
 10
1587.824508
 20
-747.1527030000003
 30
0.0
 11
1586.437125000001
 21
-755.0209440000003
 31
0.0
  0
LINE
  5
54F
  8
1
  6
CONTINUOUS
 62
     7
 10
1633.794122999997
 20
-659.5000000000001
 30
0.0
 11
1636.205876999998
 21
-659.5000000000001
 31
0.0
  0
ARC
  5
550
  8
1
  6
CONTINUOUS
 62
     7
 10
1592.205877000001
 20
-747.5000000000001
 30
0.0
 40
1.999999999998892
 50
10.0
 51
90.0
  0
LINE
  5
551
  8
1
  6
CONTINUOUS
 62
     7
 10
1630.528981
 20
-696.5
 30
0.0
 11
1617.471018999999
 21
-696.5
 31
0.0
  0
ARC
  5
552
  8
1
  6
CONTINUOUS
 62
     7
 10
1488.517298999997
 20
-754.5000000000002
 30
0.0
 40
3.000000000000114
 50
190.0
 51
270.0
  0
LINE
  5
553
  8
1
  6
CONTINUOUS
 62
     7
 10
1507.999999999998
 20
-648.8680670000001
 30
0.0
 11
1507.999999999998
 21
-696.5
 31
0.0
  0
ARC
  5
554
  8
1
  6
CONTINUOUS
 62
     7
 10
1457.794122999998
 20
-747.5000000000001
 30
0.0
 40
1.999999999998892
 50
90.0
 51
170.0
  0
ARC
  5
555
  8
1
  6
CONTINUOUS
 62
     7
 10
1605.482701999999
 20
-754.5000000000002
 30
0.0
 40
3.000000000000114
 50
270.0
 51
349.9999999999999
  0
ENDSEC
  0
EOF
