  0
SECTION
  2
HEADER
  9
$ACADVER
  1
AC1006
  9
$DWGCODEPAGE
  3
ansi_932
  9
$INSBASE
 10
0.0
 20
0.0
 30
0.0
  9
$EXTMIN
 10
-423.99999836
 20
97.21251094160316
  9
$EXTMAX
 10
-148.3333344500001
 20
258.99999846
  9
$LIMMIN
 10
0.0
 20
0.0
  9
$LIMMAX
 10
12.0
 20
9.0
  9
$ORTHOMODE
 70
     0
  9
$REGENMODE
 70
     1
  9
$FILLMODE
 70
     1
  9
$QTEXTMODE
 70
     0
  9
$MIRRTEXT
 70
     1
  9
$DRAGMODE
 70
     2
  9
$LTSCALE
 40
1.0
  9
$OSMODE
 70
    37
  9
$ATTMODE
 70
     1
  9
$TEXTSIZE
 40
0.2
  9
$TRACEWID
 40
0.05
  9
$TEXTSTYLE
  7
STANDARD
  9
$CLAYER
  8
0
  9
$CELTYPE
  6
BYLAYER
  9
$CECOLOR
 62
   256
  9
$DIMSCALE
 40
1.0
  9
$DIMASZ
 40
3.0
  9
$DIMEXO
 40
0.0625
  9
$DIMDLI
 40
0.38
  9
$DIMRND
 40
0.0
  9
$DIMDLE
 40
0.0
  9
$DIMEXE
 40
1.5
  9
$DIMTP
 40
0.0
  9
$DIMTM
 40
0.0
  9
$DIMTXT
 40
3.0
  9
$DIMCEN
 40
0.09
  9
$DIMTSZ
 40
0.0
  9
$DIMTOL
 70
     0
  9
$DIMLIM
 70
     0
  9
$DIMTIH
 70
     1
  9
$DIMTOH
 70
     1
  9
$DIMSE1
 70
     0
  9
$DIMSE2
 70
     0
  9
$DIMTAD
 70
     1
  9
$DIMZIN
 70
     0
  9
$DIMBLK
  1

  9
$DIMASO
 70
     1
  9
$DIMSHO
 70
     1
  9
$DIMPOST
  1

  9
$DIMAPOST
  1

  9
$DIMALT
 70
     0
  9
$DIMALTD
 70
     2
  9
$DIMALTF
 40
25.4
  9
$DIMLFAC
 40
1.0
  9
$DIMTOFL
 70
     0
  9
$DIMTVP
 40
0.0
  9
$DIMTIX
 70
     0
  9
$DIMSOXD
 70
     0
  9
$DIMSAH
 70
     0
  9
$DIMBLK1
  1

  9
$DIMBLK2
  1

  9
$LUNITS
 70
     2
  9
$LUPREC
 70
     4
  9
$SKETCHINC
 40
0.1
  9
$FILLETRAD
 40
0.5
  9
$AUNITS
 70
     0
  9
$AUPREC
 70
     0
  9
$MENU
  1
.
  9
$ELEVATION
 40
0.0
  9
$THICKNESS
 40
0.0
  9
$LIMCHECK
 70
     0
  9
$CHAMFERA
 40
0.0
  9
$CHAMFERB
 40
0.0
  9
$SKPOLY
 70
     0
  9
$TDCREATE
 40
2460608.463750567
  9
$TDUPDATE
 40
2460608.463750764
  9
$TDINDWG
 40
0.0000000116
  9
$TDUSRTIMER
 40
0.0000000116
  9
$USRTIMER
 70
     1
  9
$ANGBASE
 50
0.0
  9
$ANGDIR
 70
     0
  9
$PDMODE
 70
     0
  9
$PDSIZE
 40
0.0
  9
$PLINEWID
 40
0.0
  9
$COORDS
 70
     1
  9
$SPLFRAME
 70
     0
  9
$SPLINETYPE
 70
     6
  9
$SPLINESEGS
 70
     8
  9
$ATTDIA
 70
     0
  9
$ATTREQ
 70
     1
  9
$HANDLING
 70
     1
  9
$HANDSEED
  5
1B3
  9
$SURFTAB1
 70
     6
  9
$SURFTAB2
 70
     6
  9
$SURFTYPE
 70
     6
  9
$SURFU
 70
     6
  9
$SURFV
 70
     6
  9
$UCSNAME
  2

  9
$UCSORG
 10
0.0
 20
0.0
 30
0.0
  9
$UCSXDIR
 10
1.0
 20
0.0
 30
0.0
  9
$UCSYDIR
 10
0.0
 20
1.0
 30
0.0
  9
$USERI1
 70
     0
  9
$USERI2
 70
     0
  9
$USERI3
 70
     0
  9
$USERI4
 70
     0
  9
$USERI5
 70
     0
  9
$USERR1
 40
0.0
  9
$USERR2
 40
0.0
  9
$USERR3
 40
0.0
  9
$USERR4
 40
0.0
  9
$USERR5
 40
0.0
  9
$WORLDVIEW
 70
     1
  0
ENDSEC
  0
SECTION
  2
TABLES
  0
TABLE
  2
VPORT
 70
     1
  0
VPORT
  2
*ACTIVE
 70
     0
 10
0.0
 20
0.0
 11
1.0
 21
1.0
 12
-286.166666405
 22
178.1062547008016
 13
0.0
 23
0.0
 14
0.5
 24
0.5
 15
0.5
 25
0.5
 16
0.0
 26
0.0
 36
1.0
 17
0.0
 27
0.0
 37
0.0
 40
161.7874875183969
 41
1.6
 42
50.0
 43
0.0
 44
0.0
 50
0.0
 51
0.0
 71
     0
 72
   100
 73
     1
 74
     3
 75
     0
 76
     0
 77
     0
 78
     0
  0
ENDTAB
  0
TABLE
  2
LTYPE
 70
     2
  0
LTYPE
  2
CONTINUOUS
 70
     0
  3
Solid line
 72
    65
 73
     0
 40
0.0
  0
LTYPE
  2
CENTER
 70
     0
  3

 72
    65
 73
     0
 40
0.0
  0
ENDTAB
  0
TABLE
  2
LAYER
 70
     2
  0
LAYER
  2
0
 70
     0
 62
     7
  6
CONTINUOUS
  0
LAYER
  2
1
 70
     0
 62
     7
  6
CONTINUOUS
  0
ENDTAB
  0
TABLE
  2
STYLE
 70
     2
  0
STYLE
  2
STANDARD
 70
     0
 40
0.0
 41
1.0
 50
0.0
 71
     0
 42
0.2
  3
txt
  4

  0
STYLE
  2
ＭＳ_ゴシック
 70
     0
 40
0.0
 41
1.0
 50
0.0
 71
     0
 42
0.2
  3
ＭＳ ゴシック.shx
  4

  0
ENDTAB
  0
TABLE
  2
VIEW
 70
     0
  0
ENDTAB
  0
TABLE
  2
UCS
 70
     0
  0
ENDTAB
  0
ENDSEC
  0
SECTION
  2
BLOCKS
  0
ENDSEC
  0
SECTION
  2
ENTITIES
  0
TEXT
  5
70
  8
1
  6
CONTINUOUS
 62
     7
 10
-271.4270351381768
 20
96.87047642866081
 30
0.0
 40
3.0
  1
N-KPRX-100E
  0
LINE
  5
71
  8
1
  6
CENTER
 62
     1
 10
-423.99999836
 20
179.9999992500001
 30
0.0
 11
-265.99999994
 21
179.9999992500001
 31
0.0
  0
LINE
  5
73
  8
1
  6
CENTER
 62
     1
 10
-344.99999915
 20
101.0000000400001
 30
0.0
 11
-344.99999915
 21
258.99999846
 31
0.0
  0
LINE
  5
74
  8
1
  6
CENTER
 62
     1
 10
-247.6789431523733
 20
179.9999992500001
 30
0.0
 11
-148.3333344500001
 21
179.9999992500001
 31
0.0
  0
LINE
  5
75
  8
1
  6
CONTINUOUS
 62
     7
 10
-158.4789440443733
 20
125.4999997950001
 30
0.0
 11
-159.7744537332022
 21
125.4999997950001
 31
0.0
  0
LINE
  5
76
  8
1
  6
CONTINUOUS
 62
     7
 10
-158.4789440443733
 20
234.4999987050001
 30
0.0
 11
-159.7744537332022
 21
234.4999987050001
 31
0.0
  0
LINE
  5
77
  8
1
  6
CONTINUOUS
 62
     7
 10
-158.4789440443733
 20
234.4999987050001
 30
0.0
 11
-158.4789440443733
 21
125.4999997950001
 31
0.0
  0
LINE
  5
78
  8
1
  6
CONTINUOUS
 62
     7
 10
-220.1657921366254
 20
110.9999999400001
 30
0.0
 11
-228.7920946321213
 21
110.9999999400001
 31
0.0
  0
LINE
  5
79
  8
1
  6
CONTINUOUS
 62
   253
 10
-216.7189650355511
 20
139.9999996500001
 30
0.0
 11
-216.7189650355511
 21
113.8922312892435
 31
0.0
  0
ARC
  5
7A
  8
1
  6
CONTINUOUS
 62
     7
 10
-220.1657921366254
 20
114.4999999050001
 30
0.0
 40
3.499999965
 50
270.0
 51
350.0000000000007
  0
LINE
  5
7B
  8
1
  6
CONTINUOUS
 62
   253
 10
-163.9189655635508
 20
139.9999996500001
 30
0.0
 11
-163.9189655635508
 21
113.8922312892435
 31
0.0
  0
ARC
  5
7C
  8
1
  6
CONTINUOUS
 62
     7
 10
-167.3657926646254
 20
114.4999999050001
 30
0.0
 40
3.499999965
 50
270.0
 51
350.0000000000007
  0
LINE
  5
7D
  8
1
  6
CONTINUOUS
 62
   253
 10
-190.3189652995507
 20
139.9999996500001
 30
0.0
 11
-190.3189652995507
 21
113.8922312892435
 31
0.0
  0
ARC
  5
7E
  8
1
  6
CONTINUOUS
 62
     7
 10
-193.7657924006251
 20
114.4999999050001
 30
0.0
 40
3.499999965
 50
270.0
 51
350.0000000000009
  0
LINE
  5
7F
  8
1
  6
CONTINUOUS
 62
     7
 10
-167.3657926646254
 20
110.9999999400001
 30
0.0
 11
-175.9920951601214
 21
110.9999999400001
 31
0.0
  0
ARC
  5
80
  8
1
  6
CONTINUOUS
 62
     7
 10
-228.7920946321214
 20
114.4999999050001
 30
0.0
 40
3.499999965
 50
190.0000000000002
 51
270.0
  0
LINE
  5
81
  8
1
  6
CONTINUOUS
 62
   253
 10
-232.2389217331958
 20
139.9999996500001
 30
0.0
 11
-232.2389217331958
 21
113.8922312892435
 31
0.0
  0
ARC
  5
82
  8
1
  6
CONTINUOUS
 62
     7
 10
-175.9920951601215
 20
114.4999999050001
 30
0.0
 40
3.499999965
 50
189.9999999999999
 51
269.9999999999991
  0
LINE
  5
83
  8
1
  6
CONTINUOUS
 62
   253
 10
-179.4389222611958
 20
139.9999996500001
 30
0.0
 11
-179.4389222611958
 21
113.8922312892435
 31
0.0
  0
LINE
  5
84
  8
1
  6
CONTINUOUS
 62
     7
 10
-193.7657924006251
 20
110.9999999400001
 30
0.0
 11
-202.3920948961214
 21
110.9999999400001
 31
0.0
  0
ARC
  5
85
  8
1
  6
CONTINUOUS
 62
     7
 10
-202.3920948961214
 20
114.4999999050001
 30
0.0
 40
3.499999965
 50
190.0
 51
270.0
  0
LINE
  5
86
  8
1
  6
CONTINUOUS
 62
   253
 10
-205.8389219971958
 20
139.9999996500001
 30
0.0
 11
-205.8389219971958
 21
113.8922312892435
 31
0.0
  0
LINE
  5
87
  8
1
  6
CONTINUOUS
 62
   253
 10
-179.4389222611958
 20
169.5552371568193
 30
0.0
 11
-179.4389222611958
 21
139.9999996500001
 31
0.0
  0
LINE
  5
88
  8
1
  6
CONTINUOUS
 62
   253
 10
-216.7189650355511
 20
169.5552371568193
 30
0.0
 11
-216.7189650355511
 21
139.9999996500001
 31
0.0
  0
LINE
  5
89
  8
1
  6
CONTINUOUS
 62
   253
 10
-205.8389219971958
 20
169.5552371568193
 30
0.0
 11
-205.8389219971958
 21
139.9999996500001
 31
0.0
  0
LINE
  5
8A
  8
1
  6
CONTINUOUS
 62
   253
 10
-163.9189655635508
 20
169.5552371568193
 30
0.0
 11
-163.9189655635508
 21
139.9999996500001
 31
0.0
  0
LINE
  5
8B
  8
1
  6
CONTINUOUS
 62
   253
 10
-232.2389217331958
 20
169.5552371568193
 30
0.0
 11
-232.2389217331958
 21
139.9999996500001
 31
0.0
  0
LINE
  5
8C
  8
1
  6
CONTINUOUS
 62
   253
 10
-190.3189652995507
 20
169.5552371568193
 30
0.0
 11
-190.3189652995507
 21
139.9999996500001
 31
0.0
  0
LINE
  5
8D
  8
1
  6
CONTINUOUS
 62
   253
 10
-205.8389219971958
 20
219.9999988500001
 30
0.0
 11
-205.8389219971958
 21
190.4447613431812
 31
0.0
  0
LINE
  5
8E
  8
1
  6
CONTINUOUS
 62
   253
 10
-190.3189652995507
 20
219.9999988500001
 30
0.0
 11
-190.3189652995507
 21
190.4447613431812
 31
0.0
  0
ARC
  5
8F
  8
1
  6
CONTINUOUS
 62
     7
 10
-167.3657926646254
 20
245.4999985950002
 30
0.0
 40
3.499999965
 50
10.00000000000005
 51
90.0
  0
LINE
  5
90
  8
1
  6
CONTINUOUS
 62
   253
 10
-163.9189655635508
 20
246.1077672107568
 30
0.0
 11
-163.9189655635508
 21
219.9999988500001
 31
0.0
  0
LINE
  5
91
  8
1
  6
CONTINUOUS
 62
     7
 10
-193.7657924006251
 20
248.99999856
 30
0.0
 11
-202.3920948961214
 21
248.99999856
 31
0.0
  0
ARC
  5
92
  8
1
  6
CONTINUOUS
 62
     7
 10
-228.7920946321214
 20
245.4999985950002
 30
0.0
 40
3.499999965
 50
90.0
 51
170.0
  0
LINE
  5
93
  8
1
  6
CONTINUOUS
 62
   253
 10
-232.2389217331958
 20
246.1077672107568
 30
0.0
 11
-232.2389217331958
 21
219.9999988500001
 31
0.0
  0
ARC
  5
94
  8
1
  6
CONTINUOUS
 62
     7
 10
-175.9920951601215
 20
245.4999985950002
 30
0.0
 40
3.499999965
 50
90.0000000000009
 51
170.0000000000003
  0
LINE
  5
95
  8
1
  6
CONTINUOUS
 62
   253
 10
-179.4389222611958
 20
246.1077672107568
 30
0.0
 11
-179.4389222611958
 21
219.9999988500001
 31
0.0
  0
LINE
  5
96
  8
1
  6
CONTINUOUS
 62
   253
 10
-179.4389222611958
 20
219.9999988500001
 30
0.0
 11
-179.4389222611958
 21
190.4447613431812
 31
0.0
  0
ARC
  5
97
  8
1
  6
CONTINUOUS
 62
     7
 10
-202.3920948961214
 20
245.4999985950002
 30
0.0
 40
3.499999965
 50
90.0
 51
170.0000000000002
  0
LINE
  5
98
  8
1
  6
CONTINUOUS
 62
   253
 10
-205.8389219971958
 20
246.1077672107568
 30
0.0
 11
-205.8389219971958
 21
219.9999988500001
 31
0.0
  0
LINE
  5
99
  8
1
  6
CONTINUOUS
 62
   253
 10
-216.7189650355511
 20
219.9999988500001
 30
0.0
 11
-216.7189650355511
 21
190.4447613431812
 31
0.0
  0
ARC
  5
9A
  8
1
  6
CONTINUOUS
 62
     7
 10
-220.1657921366254
 20
245.4999985950002
 30
0.0
 40
3.499999965
 50
10.00000000000005
 51
90.0
  0
LINE
  5
9B
  8
1
  6
CONTINUOUS
 62
   253
 10
-216.7189650355511
 20
246.1077672107568
 30
0.0
 11
-216.7189650355511
 21
219.9999988500001
 31
0.0
  0
LINE
  5
9C
  8
1
  6
CONTINUOUS
 62
     7
 10
-220.1657921366254
 20
248.99999856
 30
0.0
 11
-228.7920946321213
 21
248.99999856
 31
0.0
  0
LINE
  5
9D
  8
1
  6
CONTINUOUS
 62
     7
 10
-167.3657926646254
 20
248.99999856
 30
0.0
 11
-175.9920951601214
 21
248.99999856
 31
0.0
  0
LINE
  5
9E
  8
1
  6
CONTINUOUS
 62
   253
 10
-163.9189655635508
 20
219.9999988500001
 30
0.0
 11
-163.9189655635508
 21
190.4447613431812
 31
0.0
  0
LINE
  5
9F
  8
1
  6
CONTINUOUS
 62
   253
 10
-232.2389217331958
 20
219.9999988500001
 30
0.0
 11
-232.2389217331958
 21
190.4447613431812
 31
0.0
  0
ARC
  5
A0
  8
1
  6
CONTINUOUS
 62
     7
 10
-193.7657924006251
 20
245.4999985950002
 30
0.0
 40
3.499999965
 50
9.999999999999352
 51
89.99999999999996
  0
LINE
  5
A1
  8
1
  6
CONTINUOUS
 62
   253
 10
-190.3189652995507
 20
246.1077672107568
 30
0.0
 11
-190.3189652995507
 21
219.9999988500001
 31
0.0
  0
LINE
  5
A2
  8
1
  6
CONTINUOUS
 62
     7
 10
-178.8105200416842
 20
189.2717279046098
 30
0.0
 11
-164.5473677830624
 21
189.2717279046098
 31
0.0
  0
LINE
  5
A3
  8
1
  6
CONTINUOUS
 62
     7
 10
-231.6105195136843
 20
170.7282705953907
 30
0.0
 11
-217.3473672550624
 21
170.7282705953907
 31
0.0
  0
LINE
  5
A4
  8
1
  6
CONTINUOUS
 62
     7
 10
-205.2105197776841
 20
170.7282705953907
 30
0.0
 11
-190.9473675190623
 21
170.7282705953907
 31
0.0
  0
LINE
  5
A5
  8
1
  6
CONTINUOUS
 62
     7
 10
-178.8105200416842
 20
170.7282705953907
 30
0.0
 11
-164.5473677830624
 21
170.7282705953907
 31
0.0
  0
LINE
  5
A6
  8
1
  6
CONTINUOUS
 62
     7
 10
-231.6105195136843
 20
189.2717279046098
 30
0.0
 11
-217.3473672550624
 21
189.2717279046098
 31
0.0
  0
LINE
  5
A7
  8
1
  6
CONTINUOUS
 62
     7
 10
-205.2105197776841
 20
189.2717279046098
 30
0.0
 11
-190.9473675190623
 21
189.2717279046098
 31
0.0
  0
LINE
  5
A8
  8
1
  6
CONTINUOUS
 62
     7
 10
-205.2105197776841
 20
170.7282705953907
 30
0.0
 11
-205.3929554118031
 21
170.7118873685426
 31
0.0
  0
LINE
  5
A9
  8
1
  6
CONTINUOUS
 62
     7
 10
-205.3929554118031
 20
170.7118873685426
 30
0.0
 11
-205.5689343886087
 21
170.6632724654847
 31
0.0
  0
LINE
  5
AA
  8
1
  6
CONTINUOUS
 62
     7
 10
-205.5689343886087
 20
170.6632724654846
 30
0.0
 11
-205.7327124432069
 21
170.5840127625927
 31
0.0
  0
LINE
  5
AB
  8
1
  6
CONTINUOUS
 62
     7
 10
-205.7327124432069
 20
170.5840127625927
 30
0.0
 11
-205.8789435703733
 21
170.4766954366822
 31
0.0
  0
LINE
  5
AC
  8
1
  6
CONTINUOUS
 62
   253
 10
-205.8389219971958
 20
169.5552371568193
 30
0.0
 11
-205.8789435703733
 21
169.5750947755199
 31
0.0
  0
LINE
  5
AD
  8
1
  6
CONTINUOUS
 62
   253
 10
-205.8789435703733
 20
190.4249037244807
 30
0.0
 11
-205.8389219971958
 21
190.4447613431811
 31
0.0
  0
LINE
  5
AE
  8
1
  6
CONTINUOUS
 62
     7
 10
-205.8789435703733
 20
189.5233030633181
 30
0.0
 11
-205.732712443207
 21
189.4159857374076
 31
0.0
  0
LINE
  5
AF
  8
1
  6
CONTINUOUS
 62
     7
 10
-205.7327124432069
 20
189.4159857374076
 30
0.0
 11
-205.5689343886087
 21
189.3367260345156
 31
0.0
  0
LINE
  5
B0
  8
1
  6
CONTINUOUS
 62
     7
 10
-205.5689343886087
 20
189.3367260345155
 30
0.0
 11
-205.3929554118031
 21
189.2881111314576
 31
0.0
  0
LINE
  5
B1
  8
1
  6
CONTINUOUS
 62
     7
 10
-205.3929554118031
 20
189.2881111314576
 30
0.0
 11
-205.2105197776841
 21
189.2717279046095
 31
0.0
  0
LINE
  5
B2
  8
1
  6
CONTINUOUS
 62
     7
 10
-231.6105195136842
 20
170.7282705953907
 30
0.0
 11
-231.7929551478031
 21
170.7118873685426
 31
0.0
  0
LINE
  5
B3
  8
1
  6
CONTINUOUS
 62
     7
 10
-231.792955147803
 20
170.7118873685426
 30
0.0
 11
-231.9689341246086
 21
170.6632724654847
 31
0.0
  0
LINE
  5
B4
  8
1
  6
CONTINUOUS
 62
     7
 10
-231.9689341246086
 20
170.6632724654846
 30
0.0
 11
-232.1327121792068
 21
170.5840127625927
 31
0.0
  0
LINE
  5
B5
  8
1
  6
CONTINUOUS
 62
     7
 10
-232.1327121792069
 20
170.5840127625927
 30
0.0
 11
-232.2789433063732
 21
170.4766954366822
 31
0.0
  0
LINE
  5
B6
  8
1
  6
CONTINUOUS
 62
   253
 10
-232.2389217331958
 20
169.5552371568193
 30
0.0
 11
-232.2789433063734
 21
169.5750947755199
 31
0.0
  0
LINE
  5
B7
  8
1
  6
CONTINUOUS
 62
   253
 10
-179.4789438343733
 20
190.4249037244807
 30
0.0
 11
-179.4389222611958
 21
190.4447613431811
 31
0.0
  0
LINE
  5
B8
  8
1
  6
CONTINUOUS
 62
     7
 10
-179.4789438343733
 20
189.5233030633181
 30
0.0
 11
-179.3327127072069
 21
189.4159857374076
 31
0.0
  0
LINE
  5
B9
  8
1
  6
CONTINUOUS
 62
     7
 10
-179.3327127072069
 20
189.4159857374076
 30
0.0
 11
-179.1689346526087
 21
189.3367260345156
 31
0.0
  0
LINE
  5
BA
  8
1
  6
CONTINUOUS
 62
     7
 10
-179.1689346526087
 20
189.3367260345155
 30
0.0
 11
-178.9929556758031
 21
189.2881111314576
 31
0.0
  0
LINE
  5
BB
  8
1
  6
CONTINUOUS
 62
     7
 10
-178.9929556758031
 20
189.2881111314576
 30
0.0
 11
-178.8105200416841
 21
189.2717279046095
 31
0.0
  0
LINE
  5
BC
  8
1
  6
CONTINUOUS
 62
     7
 10
-178.8105200416842
 20
170.7282705953907
 30
0.0
 11
-178.9929556758031
 21
170.7118873685426
 31
0.0
  0
LINE
  5
BD
  8
1
  6
CONTINUOUS
 62
     7
 10
-178.9929556758031
 20
170.7118873685426
 30
0.0
 11
-179.1689346526087
 21
170.6632724654847
 31
0.0
  0
LINE
  5
BE
  8
1
  6
CONTINUOUS
 62
     7
 10
-179.1689346526087
 20
170.6632724654846
 30
0.0
 11
-179.3327127072068
 21
170.5840127625927
 31
0.0
  0
LINE
  5
BF
  8
1
  6
CONTINUOUS
 62
     7
 10
-179.3327127072069
 20
170.5840127625927
 30
0.0
 11
-179.4789438343733
 21
170.4766954366825
 31
0.0
  0
LINE
  5
C0
  8
1
  6
CONTINUOUS
 62
   253
 10
-179.4389222611958
 20
169.5552371568193
 30
0.0
 11
-179.4789438343733
 21
169.5750947755199
 31
0.0
  0
LINE
  5
C1
  8
1
  6
CONTINUOUS
 62
   253
 10
-232.2789433063734
 20
190.4249037244807
 30
0.0
 11
-232.2389217331958
 21
190.4447613431811
 31
0.0
  0
LINE
  5
C2
  8
1
  6
CONTINUOUS
 62
     7
 10
-232.2789433063732
 20
189.5233030633181
 30
0.0
 11
-232.1327121792069
 21
189.4159857374076
 31
0.0
  0
LINE
  5
C3
  8
1
  6
CONTINUOUS
 62
     7
 10
-232.1327121792069
 20
189.4159857374076
 30
0.0
 11
-231.9689341246086
 21
189.3367260345156
 31
0.0
  0
LINE
  5
C4
  8
1
  6
CONTINUOUS
 62
     7
 10
-231.9689341246086
 20
189.3367260345155
 30
0.0
 11
-231.792955147803
 21
189.2881111314576
 31
0.0
  0
LINE
  5
C5
  8
1
  6
CONTINUOUS
 62
     7
 10
-231.792955147803
 20
189.2881111314576
 30
0.0
 11
-231.6105195136841
 21
189.2717279046095
 31
0.0
  0
LINE
  5
C6
  8
1
  6
CONTINUOUS
 62
   253
 10
-189.9473088261473
 20
169.7396430147213
 30
0.0
 11
-190.3189652995507
 21
169.5552371568193
 31
0.0
  0
LINE
  5
C7
  8
1
  6
CONTINUOUS
 62
     7
 10
-189.9473088261473
 20
169.7396430147213
 30
0.0
 11
-189.9664469654896
 21
169.933307035874
 31
0.0
  0
LINE
  5
C8
  8
1
  6
CONTINUOUS
 62
     7
 10
-189.9664469654896
 20
169.933307035874
 30
0.0
 11
-190.0231399756336
 21
170.1190982667091
 31
0.0
  0
LINE
  5
C9
  8
1
  6
CONTINUOUS
 62
     7
 10
-190.0231399756336
 20
170.1190982667091
 30
0.0
 11
-190.1152508262395
 21
170.2900133483267
 31
0.0
  0
LINE
  5
CA
  8
1
  6
CONTINUOUS
 62
     7
 10
-190.1152508262395
 20
170.2900133483267
 30
0.0
 11
-190.2393074193913
 21
170.439609674944
 31
0.0
  0
LINE
  5
CB
  8
1
  6
CONTINUOUS
 62
     7
 10
-190.2393074193913
 20
170.439609674944
 30
0.0
 11
-190.3906334695513
 21
170.5622482464826
 31
0.0
  0
LINE
  5
CC
  8
1
  6
CONTINUOUS
 62
     7
 10
-190.3906334695513
 20
170.5622482464826
 30
0.0
 11
-190.5635247750981
 21
170.6533062294117
 31
0.0
  0
LINE
  5
CD
  8
1
  6
CONTINUOUS
 62
     7
 10
-190.5635247750981
 20
170.6533062294117
 30
0.0
 11
-190.7514642369311
 21
170.7093512134279
 31
0.0
  0
LINE
  5
CE
  8
1
  6
CONTINUOUS
 62
     7
 10
-190.751464236931
 20
170.7093512134279
 30
0.0
 11
-190.9473675190623
 21
170.7282705953907
 31
0.0
  0
LINE
  5
CF
  8
1
  6
CONTINUOUS
 62
   253
 10
-190.3189652995507
 20
190.4447613431812
 30
0.0
 11
-189.9473088261473
 21
190.2603554852788
 31
0.0
  0
LINE
  5
D0
  8
1
  6
CONTINUOUS
 62
     7
 10
-190.9473675190623
 20
189.2717279046094
 30
0.0
 11
-190.751464236931
 21
189.2906472865723
 31
0.0
  0
LINE
  5
D1
  8
1
  6
CONTINUOUS
 62
     7
 10
-190.751464236931
 20
189.2906472865723
 30
0.0
 11
-190.5635247750981
 21
189.3466922705881
 31
0.0
  0
LINE
  5
D2
  8
1
  6
CONTINUOUS
 62
     7
 10
-190.5635247750981
 20
189.3466922705881
 30
0.0
 11
-190.390633469551
 21
189.4377502535175
 31
0.0
  0
LINE
  5
D3
  8
1
  6
CONTINUOUS
 62
     7
 10
-190.390633469551
 20
189.4377502535175
 30
0.0
 11
-190.2393074193909
 21
189.5603888250562
 31
0.0
  0
LINE
  5
D4
  8
1
  6
CONTINUOUS
 62
     7
 10
-190.239307419391
 20
189.5603888250562
 30
0.0
 11
-190.1152508262395
 21
189.7099851516736
 31
0.0
  0
LINE
  5
D5
  8
1
  6
CONTINUOUS
 62
     7
 10
-190.1152508262395
 20
189.7099851516736
 30
0.0
 11
-190.0231399756336
 21
189.8809002332911
 31
0.0
  0
LINE
  5
D6
  8
1
  6
CONTINUOUS
 62
     7
 10
-190.0231399756336
 20
189.8809002332911
 30
0.0
 11
-189.9664469654896
 21
190.0666914641258
 31
0.0
  0
LINE
  5
D7
  8
1
  6
CONTINUOUS
 62
     7
 10
-189.9664469654896
 20
190.0666914641258
 30
0.0
 11
-189.9473088261473
 21
190.2603554852788
 31
0.0
  0
LINE
  5
D8
  8
1
  6
CONTINUOUS
 62
   253
 10
-216.7189650355511
 20
190.4447613431812
 30
0.0
 11
-216.3473085621473
 21
190.2603554852788
 31
0.0
  0
LINE
  5
D9
  8
1
  6
CONTINUOUS
 62
     7
 10
-217.3473672550624
 20
189.2717279046094
 30
0.0
 11
-217.1514639729307
 21
189.2906472865723
 31
0.0
  0
LINE
  5
DA
  8
1
  6
CONTINUOUS
 62
     7
 10
-217.1514639729307
 20
189.2906472865723
 30
0.0
 11
-216.9635245110981
 21
189.3466922705885
 31
0.0
  0
LINE
  5
DB
  8
1
  6
CONTINUOUS
 62
     7
 10
-216.9635245110981
 20
189.3466922705885
 30
0.0
 11
-216.7906332055511
 21
189.4377502535175
 31
0.0
  0
LINE
  5
DC
  8
1
  6
CONTINUOUS
 62
     7
 10
-216.790633205551
 20
189.4377502535175
 30
0.0
 11
-216.639307155391
 21
189.5603888250562
 31
0.0
  0
LINE
  5
DD
  8
1
  6
CONTINUOUS
 62
     7
 10
-216.639307155391
 20
189.5603888250562
 30
0.0
 11
-216.5152505622392
 21
189.7099851516736
 31
0.0
  0
LINE
  5
DE
  8
1
  6
CONTINUOUS
 62
     7
 10
-216.5152505622392
 20
189.7099851516736
 30
0.0
 11
-216.4231397116336
 21
189.8809002332911
 31
0.0
  0
LINE
  5
DF
  8
1
  6
CONTINUOUS
 62
     7
 10
-216.4231397116336
 20
189.8809002332911
 30
0.0
 11
-216.3664467014896
 21
190.0666914641261
 31
0.0
  0
LINE
  5
E0
  8
1
  6
CONTINUOUS
 62
     7
 10
-216.3664467014896
 20
190.0666914641262
 30
0.0
 11
-216.3473085621473
 21
190.2603554852788
 31
0.0
  0
LINE
  5
E1
  8
1
  6
CONTINUOUS
 62
   253
 10
-216.3473085621473
 20
169.7396430147213
 30
0.0
 11
-216.7189650355507
 21
169.5552371568193
 31
0.0
  0
LINE
  5
E2
  8
1
  6
CONTINUOUS
 62
     7
 10
-216.3473085621473
 20
169.7396430147213
 30
0.0
 11
-216.3664467014896
 21
169.9333070358743
 31
0.0
  0
LINE
  5
E3
  8
1
  6
CONTINUOUS
 62
     7
 10
-216.3664467014896
 20
169.9333070358744
 30
0.0
 11
-216.4231397116336
 21
170.1190982667091
 31
0.0
  0
LINE
  5
E4
  8
1
  6
CONTINUOUS
 62
     7
 10
-216.4231397116336
 20
170.1190982667091
 30
0.0
 11
-216.5152505622392
 21
170.2900133483267
 31
0.0
  0
LINE
  5
E5
  8
1
  6
CONTINUOUS
 62
     7
 10
-216.5152505622392
 20
170.2900133483267
 30
0.0
 11
-216.639307155391
 21
170.439609674944
 31
0.0
  0
LINE
  5
E6
  8
1
  6
CONTINUOUS
 62
     7
 10
-216.639307155391
 20
170.439609674944
 30
0.0
 11
-216.790633205551
 21
170.5622482464826
 31
0.0
  0
LINE
  5
E7
  8
1
  6
CONTINUOUS
 62
     7
 10
-216.790633205551
 20
170.5622482464826
 30
0.0
 11
-216.9635245110981
 21
170.653306229412
 31
0.0
  0
LINE
  5
E8
  8
1
  6
CONTINUOUS
 62
     7
 10
-216.9635245110981
 20
170.653306229412
 30
0.0
 11
-217.1514639729307
 21
170.7093512134279
 31
0.0
  0
LINE
  5
E9
  8
1
  6
CONTINUOUS
 62
     7
 10
-217.1514639729307
 20
170.7093512134279
 30
0.0
 11
-217.3473672550624
 21
170.7282705953907
 31
0.0
  0
LINE
  5
EA
  8
1
  6
CONTINUOUS
 62
   253
 10
-163.9189655635508
 20
190.4447613431812
 30
0.0
 11
-163.5473090901473
 21
190.2603554852788
 31
0.0
  0
LINE
  5
EB
  8
1
  6
CONTINUOUS
 62
     7
 10
-164.5473677830624
 20
189.2717279046094
 30
0.0
 11
-164.3514645009311
 21
189.2906472865723
 31
0.0
  0
LINE
  5
EC
  8
1
  6
CONTINUOUS
 62
     7
 10
-164.3514645009311
 20
189.2906472865723
 30
0.0
 11
-164.1635250390981
 21
189.3466922705885
 31
0.0
  0
LINE
  5
ED
  8
1
  6
CONTINUOUS
 62
     7
 10
-164.1635250390981
 20
189.3466922705885
 30
0.0
 11
-163.9906337335514
 21
189.4377502535175
 31
0.0
  0
LINE
  5
EE
  8
1
  6
CONTINUOUS
 62
     7
 10
-163.9906337335514
 20
189.4377502535175
 30
0.0
 11
-163.8393076833913
 21
189.5603888250562
 31
0.0
  0
LINE
  5
EF
  8
1
  6
CONTINUOUS
 62
     7
 10
-163.8393076833912
 20
189.5603888250562
 30
0.0
 11
-163.7152510902395
 21
189.7099851516736
 31
0.0
  0
LINE
  5
F0
  8
1
  6
CONTINUOUS
 62
     7
 10
-163.7152510902395
 20
189.7099851516736
 30
0.0
 11
-163.6231402396336
 21
189.8809002332911
 31
0.0
  0
LINE
  5
F1
  8
1
  6
CONTINUOUS
 62
     7
 10
-163.6231402396336
 20
189.8809002332911
 30
0.0
 11
-163.5664472294896
 21
190.0666914641261
 31
0.0
  0
LINE
  5
F2
  8
1
  6
CONTINUOUS
 62
     7
 10
-163.5664472294896
 20
190.0666914641262
 30
0.0
 11
-163.5473090901476
 21
190.2603554852788
 31
0.0
  0
LINE
  5
F3
  8
1
  6
CONTINUOUS
 62
   253
 10
-163.5473090901473
 20
169.7396430147213
 30
0.0
 11
-163.9189655635511
 21
169.5552371568193
 31
0.0
  0
LINE
  5
F4
  8
1
  6
CONTINUOUS
 62
     7
 10
-163.5473090901476
 20
169.7396430147213
 30
0.0
 11
-163.5664472294899
 21
169.933307035874
 31
0.0
  0
LINE
  5
F5
  8
1
  6
CONTINUOUS
 62
     7
 10
-163.5664472294899
 20
169.933307035874
 30
0.0
 11
-163.6231402396336
 21
170.1190982667091
 31
0.0
  0
LINE
  5
F6
  8
1
  6
CONTINUOUS
 62
     7
 10
-163.6231402396336
 20
170.1190982667091
 30
0.0
 11
-163.7152510902395
 21
170.2900133483267
 31
0.0
  0
LINE
  5
F7
  8
1
  6
CONTINUOUS
 62
     7
 10
-163.7152510902395
 20
170.2900133483267
 30
0.0
 11
-163.8393076833913
 21
170.439609674944
 31
0.0
  0
LINE
  5
F8
  8
1
  6
CONTINUOUS
 62
     7
 10
-163.8393076833912
 20
170.439609674944
 30
0.0
 11
-163.9906337335513
 21
170.5622482464826
 31
0.0
  0
LINE
  5
F9
  8
1
  6
CONTINUOUS
 62
     7
 10
-163.9906337335514
 20
170.5622482464826
 30
0.0
 11
-164.1635250390981
 21
170.6533062294117
 31
0.0
  0
LINE
  5
FA
  8
1
  6
CONTINUOUS
 62
     7
 10
-164.1635250390981
 20
170.6533062294117
 30
0.0
 11
-164.3514645009311
 21
170.7093512134279
 31
0.0
  0
LINE
  5
FB
  8
1
  6
CONTINUOUS
 62
     7
 10
-164.3514645009311
 20
170.7093512134279
 30
0.0
 11
-164.5473677830624
 21
170.7282705953907
 31
0.0
  0
LINE
  5
FC
  8
1
  6
CONTINUOUS
 62
     7
 10
-205.8389219971958
 20
113.8922312892435
 30
0.0
 11
-207.5214144696342
 21
123.4341202598262
 31
0.0
  0
LINE
  5
FD
  8
1
  6
CONTINUOUS
 62
     7
 10
-179.4389222611958
 20
113.8922312892435
 30
0.0
 11
-181.1214147336339
 21
123.4341202598262
 31
0.0
  0
LINE
  5
FE
  8
1
  6
CONTINUOUS
 62
     7
 10
-232.2389217331958
 20
113.8922312892435
 30
0.0
 11
-233.9214142056341
 21
123.4341202598262
 31
0.0
  0
LINE
  5
FF
  8
1
  6
CONTINUOUS
 62
     7
 10
-179.4789438343733
 20
190.4249037244807
 30
0.0
 11
-179.4789438343733
 21
169.5750947755199
 31
0.0
  0
LINE
  5
100
  8
1
  6
CONTINUOUS
 62
     7
 10
-232.2789433063734
 20
190.4249037244807
 30
0.0
 11
-232.2789433063734
 21
169.5750947755199
 31
0.0
  0
LINE
  5
101
  8
1
  6
CONTINUOUS
 62
     7
 10
-205.8789435703733
 20
190.4249037244807
 30
0.0
 11
-205.8789435703733
 21
169.5750947755199
 31
0.0
  0
LINE
  5
102
  8
1
  6
CONTINUOUS
 62
     7
 10
-205.8389219971958
 20
246.1077672107568
 30
0.0
 11
-207.5214144696342
 21
236.565878240174
 31
0.0
  0
LINE
  5
103
  8
1
  6
CONTINUOUS
 62
     7
 10
-188.6364728271127
 20
123.4341202598263
 30
0.0
 11
-190.3189652995507
 21
113.8922312892435
 31
0.0
  0
LINE
  5
104
  8
1
  6
CONTINUOUS
 62
     7
 10
-232.2389217331958
 20
246.1077672107568
 30
0.0
 11
-233.9214142056341
 21
236.565878240174
 31
0.0
  0
LINE
  5
105
  8
1
  6
CONTINUOUS
 62
     7
 10
-179.4389222611958
 20
246.1077672107568
 30
0.0
 11
-181.1214147336339
 21
236.565878240174
 31
0.0
  0
LINE
  5
106
  8
1
  6
CONTINUOUS
 62
     7
 10
-163.5473090901473
 20
190.2603554852788
 30
0.0
 11
-163.5473090901473
 21
169.7396430147214
 31
0.0
  0
LINE
  5
107
  8
1
  6
CONTINUOUS
 62
     7
 10
-162.2364730911127
 20
123.4341202598263
 30
0.0
 11
-163.9189655635508
 21
113.8922312892435
 31
0.0
  0
LINE
  5
108
  8
1
  6
CONTINUOUS
 62
     7
 10
-216.3473085621473
 20
190.2603554852788
 30
0.0
 11
-216.3473085621473
 21
169.7396430147214
 31
0.0
  0
LINE
  5
109
  8
1
  6
CONTINUOUS
 62
     7
 10
-189.9473088261473
 20
190.2603554852788
 30
0.0
 11
-189.9473088261473
 21
169.7396430147214
 31
0.0
  0
LINE
  5
10A
  8
1
  6
CONTINUOUS
 62
     7
 10
-215.0364725631127
 20
123.4341202598263
 30
0.0
 11
-216.7189650355511
 21
113.8922312892435
 31
0.0
  0
LINE
  5
10B
  8
1
  6
CONTINUOUS
 62
     7
 10
-215.0364725631127
 20
236.5658782401739
 30
0.0
 11
-216.7189650355511
 21
246.1077672107567
 31
0.0
  0
LINE
  5
10C
  8
1
  6
CONTINUOUS
 62
     7
 10
-162.2364730911127
 20
236.5658782401739
 30
0.0
 11
-163.9189655635508
 21
246.1077672107567
 31
0.0
  0
LINE
  5
10D
  8
1
  6
CONTINUOUS
 62
     7
 10
-188.6364728271127
 20
236.5658782401739
 30
0.0
 11
-190.3189652995507
 21
246.1077672107567
 31
0.0
  0
ARC
  5
10E
  8
1
  6
CONTINUOUS
 62
     7
 10
-159.7744537332022
 20
122.9999998200001
 30
0.0
 40
2.499999975
 50
90.0
 51
170.0000000000001
  0
ARC
  5
10F
  8
1
  6
CONTINUOUS
 62
     7
 10
-186.1744534692021
 20
122.9999998200001
 30
0.0
 40
2.499999975
 50
90.0
 51
170.0000000000001
  0
ARC
  5
110
  8
1
  6
CONTINUOUS
 62
     7
 10
-212.5744532052025
 20
122.9999998200001
 30
0.0
 40
2.499999975
 50
90.0
 51
170.0000000000001
  0
ARC
  5
111
  8
1
  6
CONTINUOUS
 62
     7
 10
-159.7744537332022
 20
236.9999986800001
 30
0.0
 40
2.499999975
 50
189.9999999999999
 51
270.0
  0
ARC
  5
112
  8
1
  6
CONTINUOUS
 62
     7
 10
-212.5744532052025
 20
236.9999986800001
 30
0.0
 40
2.499999975
 50
189.9999999999999
 51
270.0
  0
ARC
  5
113
  8
1
  6
CONTINUOUS
 62
     7
 10
-186.1744534692021
 20
236.9999986800001
 30
0.0
 40
2.499999975
 50
189.9999999999999
 51
269.9999999999987
  0
ARC
  5
114
  8
1
  6
CONTINUOUS
 62
     7
 10
-183.5834340915443
 20
122.9999998200001
 30
0.0
 40
2.499999975
 50
10.00000000000163
 51
89.99999999999996
  0
ARC
  5
115
  8
1
  6
CONTINUOUS
 62
     7
 10
-236.3834335635444
 20
122.9999998200001
 30
0.0
 40
2.499999975
 50
10.00000000000141
 51
89.99999999999999
  0
ARC
  5
116
  8
1
  6
CONTINUOUS
 62
     7
 10
-209.9834338275443
 20
122.9999998200001
 30
0.0
 40
2.499999975
 50
10.00000000000163
 51
89.99999999999996
  0
ARC
  5
117
  8
1
  6
CONTINUOUS
 62
     7
 10
-183.5834340915443
 20
236.9999986800001
 30
0.0
 40
2.499999975
 50
270.0
 51
349.9999999999994
  0
ARC
  5
118
  8
1
  6
CONTINUOUS
 62
     7
 10
-209.9834338275443
 20
236.9999986800001
 30
0.0
 40
2.499999975
 50
270.0
 51
349.9999999999994
  0
ARC
  5
119
  8
1
  6
CONTINUOUS
 62
     7
 10
-236.3834335635444
 20
236.9999986800001
 30
0.0
 40
2.499999975000111
 50
270.0
 51
349.9999999999998
  0
LINE
  5
11A
  8
1
  6
CONTINUOUS
 62
     7
 10
-183.5834340915443
 20
125.4999997950001
 30
0.0
 11
-186.1744534692021
 21
125.4999997950001
 31
0.0
  0
LINE
  5
11B
  8
1
  6
CONTINUOUS
 62
     7
 10
-209.9834338275443
 20
125.4999997950001
 30
0.0
 11
-212.5744532052024
 21
125.4999997950001
 31
0.0
  0
LINE
  5
11C
  8
1
  6
CONTINUOUS
 62
     7
 10
-236.3834335635444
 20
125.4999997950001
 30
0.0
 11
-237.6789432523733
 21
125.4999997950001
 31
0.0
  0
LINE
  5
11D
  8
1
  6
CONTINUOUS
 62
     7
 10
-237.6789432523734
 20
139.9999996500001
 30
0.0
 11
-237.6789432523734
 21
125.4999997950001
 31
0.0
  0
LINE
  5
11E
  8
1
  6
CONTINUOUS
 62
     7
 10
-237.6789432523734
 20
219.9999988500001
 30
0.0
 11
-237.6789432523734
 21
139.9999996500001
 31
0.0
  0
LINE
  5
11F
  8
1
  6
CONTINUOUS
 62
     7
 10
-183.5834340915443
 20
234.4999987050001
 30
0.0
 11
-186.1744534692021
 21
234.4999987050001
 31
0.0
  0
LINE
  5
120
  8
1
  6
CONTINUOUS
 62
     7
 10
-236.3834335635444
 20
234.4999987050001
 30
0.0
 11
-237.6789432523733
 21
234.4999987050001
 31
0.0
  0
LINE
  5
121
  8
1
  6
CONTINUOUS
 62
     7
 10
-237.6789432523734
 20
234.4999987050001
 30
0.0
 11
-237.6789432523734
 21
219.9999988500001
 31
0.0
  0
LINE
  5
122
  8
1
  6
CONTINUOUS
 62
     7
 10
-209.9834338275443
 20
234.4999987050001
 30
0.0
 11
-212.5744532052024
 21
234.4999987050001
 31
0.0
  0
ARC
  5
123
  8
1
  6
CONTINUOUS
 62
     7
 10
-384.9999987500001
 20
219.9999988500001
 30
0.0
 40
11.49999988500006
 50
90.00000000000011
 51
180.0000000000001
  0
ARC
  5
124
  8
1
  6
CONTINUOUS
 62
     7
 10
-384.9999987500001
 20
139.9999996500001
 30
0.0
 40
11.49999988500006
 50
180.0000000000001
 51
270.0000000000001
  0
LINE
  5
125
  8
1
  6
CONTINUOUS
 62
     7
 10
-384.9999987500001
 20
128.4999997650001
 30
0.0
 11
-345.9999991400001
 21
128.4999997650001
 31
0.0
  0
LINE
  5
126
  8
1
  6
CONTINUOUS
 62
     7
 10
-345.99999914
 20
125.4999997950001
 30
0.0
 11
-345.99999914
 21
128.499999765
 31
0.0
  0
LINE
  5
127
  8
1
  6
CONTINUOUS
 62
     7
 10
-384.9999987500001
 20
125.4999997950001
 30
0.0
 11
-345.9999991400001
 21
125.4999997950001
 31
0.0
  0
LINE
  5
128
  8
1
  6
CONTINUOUS
 62
     7
 10
-399.4999986050001
 20
219.9999988500001
 30
0.0
 11
-399.4999986050001
 21
139.9999996500001
 31
0.0
  0
ARC
  5
129
  8
1
  6
CONTINUOUS
 62
     7
 10
-384.9999987500001
 20
219.9999988500001
 30
0.0
 40
14.49999985500017
 50
90.00000000000016
 51
180.0000000000001
  0
LINE
  5
12A
  8
1
  6
CONTINUOUS
 62
     7
 10
-345.9999991400001
 20
234.4999987050001
 30
0.0
 11
-384.9999987500001
 21
234.4999987050001
 31
0.0
  0
ARC
  5
12B
  8
1
  6
CONTINUOUS
 62
     7
 10
-384.9999987500001
 20
139.9999996500001
 30
0.0
 40
14.49999985500017
 50
180.0000000000001
 51
270.0000000000001
  0
LINE
  5
12C
  8
1
  6
CONTINUOUS
 62
     7
 10
-345.9999991400001
 20
231.4999987350002
 30
0.0
 11
-384.9999987500001
 21
231.4999987350002
 31
0.0
  0
LINE
  5
12D
  8
1
  6
CONTINUOUS
 62
     7
 10
-345.9999991400001
 20
231.4999987350002
 30
0.0
 11
-345.9999991400001
 21
234.4999987050001
 31
0.0
  0
LINE
  5
12E
  8
1
  6
CONTINUOUS
 62
     7
 10
-396.4999986350001
 20
219.9999988500001
 30
0.0
 11
-396.4999986350001
 21
139.9999996500001
 31
0.0
  0
LINE
  5
12F
  8
1
  6
CONTINUOUS
 62
     7
 10
-290.499999695
 20
219.9999988500001
 30
0.0
 11
-290.499999695
 21
139.9999996500001
 31
0.0
  0
LINE
  5
130
  8
1
  6
CONTINUOUS
 62
     7
 10
-304.99999955
 20
125.4999997950001
 30
0.0
 11
-343.99999916
 21
125.4999997950001
 31
0.0
  0
LINE
  5
131
  8
1
  6
CONTINUOUS
 62
     7
 10
-293.4999996650001
 20
219.9999988500001
 30
0.0
 11
-293.499999665
 21
139.9999996500001
 31
0.0
  0
LINE
  5
132
  8
1
  6
CONTINUOUS
 62
     7
 10
-343.99999916
 20
231.4999987350002
 30
0.0
 11
-304.99999955
 21
231.4999987350002
 31
0.0
  0
LINE
  5
133
  8
1
  6
CONTINUOUS
 62
     7
 10
-343.99999916
 20
234.4999987050001
 30
0.0
 11
-304.99999955
 21
234.4999987050001
 31
0.0
  0
ARC
  5
134
  8
1
  6
CONTINUOUS
 62
     7
 10
-304.99999955
 20
139.9999996500001
 30
0.0
 40
11.49999988499994
 50
270.0
 51
0.0
  0
ARC
  5
135
  8
1
  6
CONTINUOUS
 62
     7
 10
-304.99999955
 20
139.9999996500001
 30
0.0
 40
14.49999985499995
 50
270.0
 51
0.0
  0
LINE
  5
136
  8
1
  6
CONTINUOUS
 62
     7
 10
-343.99999916
 20
234.4999987050001
 30
0.0
 11
-343.99999916
 21
231.4999987350001
 31
0.0
  0
LINE
  5
137
  8
1
  6
CONTINUOUS
 62
     7
 10
-304.99999955
 20
128.4999997650001
 30
0.0
 11
-343.99999916
 21
128.4999997650001
 31
0.0
  0
LINE
  5
138
  8
1
  6
CONTINUOUS
 62
     7
 10
-343.99999916
 20
128.4999997650001
 30
0.0
 11
-343.99999916
 21
125.4999997950002
 31
0.0
  0
ARC
  5
139
  8
1
  6
CONTINUOUS
 62
     7
 10
-304.9999995500001
 20
219.9999988500001
 30
0.0
 40
11.49999988500006
 50
359.9999999999998
 51
89.99999999999994
  0
ARC
  5
13A
  8
1
  6
CONTINUOUS
 62
     7
 10
-304.9999995500001
 20
219.9999988500001
 30
0.0
 40
14.49999985500006
 50
359.9999999999998
 51
89.9999999999999
  0
LINE
  5
13B
  8
1
  6
CONTINUOUS
 62
     7
 10
-345.9999991400001
 20
236.5658782401739
 30
0.0
 11
-345.9999991400001
 21
234.4999987050001
 31
0.0
  0
LINE
  5
13C
  8
1
  6
CONTINUOUS
 62
     7
 10
-343.99999916
 20
123.4341202598263
 30
0.0
 11
-343.99999916
 21
125.4999997950002
 31
0.0
  0
LINE
  5
13D
  8
1
  6
CONTINUOUS
 62
     7
 10
-345.99999914
 20
125.4999997950001
 30
0.0
 11
-345.99999914
 21
123.4341202598262
 31
0.0
  0
LINE
  5
13E
  8
1
  6
CONTINUOUS
 62
     7
 10
-343.99999916
 20
234.4999987050001
 30
0.0
 11
-343.99999916
 21
236.5658782401739
 31
0.0
  0
LINE
  5
13F
  8
1
  6
CONTINUOUS
 62
     7
 10
-279.1192048095977
 20
190.4249037244807
 30
0.0
 11
-279.1192048095977
 21
169.5750947755199
 31
0.0
  0
LINE
  5
140
  8
1
  6
CONTINUOUS
 62
     7
 10
-410.8807934904024
 20
190.4249037244807
 30
0.0
 11
-410.8807934904024
 21
169.5750947755199
 31
0.0
  0
LINE
  5
141
  8
1
  6
CONTINUOUS
 62
     7
 10
-345.99999914
 20
113.8922312892435
 30
0.0
 11
-345.99999914
 21
123.4341202598262
 31
0.0
  0
LINE
  5
142
  8
1
  6
CONTINUOUS
 62
     7
 10
-343.99999916
 20
123.4341202598263
 30
0.0
 11
-343.99999916
 21
113.8922312892435
 31
0.0
  0
LINE
  5
143
  8
1
  6
CONTINUOUS
 62
     7
 10
-344.9999991500001
 20
243.99999861
 30
0.0
 11
-343.9999991600001
 21
243.99999861
 31
0.0
  0
LINE
  5
144
  8
1
  6
CONTINUOUS
 62
     7
 10
-343.99999916
 20
243.99999861
 30
0.0
 11
-343.99999916
 21
236.5658782401739
 31
0.0
  0
LINE
  5
145
  8
1
  6
CONTINUOUS
 62
     7
 10
-345.9999991400001
 20
243.99999861
 30
0.0
 11
-344.9999991500002
 21
243.99999861
 31
0.0
  0
LINE
  5
146
  8
1
  6
CONTINUOUS
 62
     7
 10
-345.9999991400001
 20
236.5658782401739
 30
0.0
 11
-345.9999991400001
 21
243.99999861
 31
0.0
  0
LINE
  5
147
  8
1
  6
CONTINUOUS
 62
     7
 10
-410.8807934904023
 20
170.5637223561889
 30
0.0
 11
-411.0212746767022
 21
170.5514318449492
 31
0.0
  0
LINE
  5
148
  8
1
  6
CONTINUOUS
 62
     7
 10
-278.9787236232979
 20
189.4485666550514
 30
0.0
 11
-279.1192048095978
 21
189.4362761438113
 31
0.0
  0
LINE
  5
149
  8
1
  6
CONTINUOUS
 62
     7
 10
-411.0212746767022
 20
189.4485666550511
 30
0.0
 11
-410.8807934904024
 21
189.4362761438113
 31
0.0
  0
LINE
  5
14A
  8
1
  6
CONTINUOUS
 62
     7
 10
-279.1192048095977
 20
170.5637223561889
 30
0.0
 11
-278.9787236232978
 21
170.5514318449492
 31
0.0
  0
LINE
  5
14B
  8
1
  6
CONTINUOUS
 62
     7
 10
-413.087154211876
 20
189.629307694589
 30
0.0
 11
-411.0212746767021
 21
189.4485666550511
 31
0.0
  0
ARC
  5
14C
  8
1
  6
CONTINUOUS
 62
     7
 10
-412.99999847
 20
190.625502382719
 30
0.0
 40
0.9999999900000001
 50
179.9999999999999
 51
264.9999999999999
  0
LINE
  5
14D
  8
1
  6
CONTINUOUS
 62
     7
 10
-384.9999987500001
 20
110.9999999400001
 30
0.0
 11
-345.9999991400001
 21
110.9999999400001
 31
0.0
  0
LINE
  5
14E
  8
1
  6
CONTINUOUS
 62
     7
 10
-345.99999914
 20
110.9999999400001
 30
0.0
 11
-345.99999914
 21
113.8922312892435
 31
0.0
  0
LINE
  5
14F
  8
1
  6
CONTINUOUS
 62
     7
 10
-344.9999991500001
 20
248.99999856
 30
0.0
 11
-304.99999955
 21
248.99999856
 31
0.0
  0
ARC
  5
150
  8
1
  6
CONTINUOUS
 62
     7
 10
-384.9999987500001
 20
139.9999996500001
 30
0.0
 40
28.99999971000011
 50
180.0000000000001
 51
270.0000000000001
  0
LINE
  5
151
  8
1
  6
CONTINUOUS
 62
     7
 10
-304.99999955
 20
110.9999999400001
 30
0.0
 11
-343.99999916
 21
110.9999999400001
 31
0.0
  0
LINE
  5
152
  8
1
  6
CONTINUOUS
 62
     7
 10
-343.99999916
 20
113.8922312892435
 30
0.0
 11
-343.99999916
 21
110.9999999400001
 31
0.0
  0
ARC
  5
153
  8
1
  6
CONTINUOUS
 62
     7
 10
-412.99999847
 20
169.3744961172814
 30
0.0
 40
0.9999999900000001
 50
148.166041174907
 51
180.0
  0
LINE
  5
154
  8
1
  6
CONTINUOUS
 62
     7
 10
-412.5096263004365
 20
170.4212179505318
 30
0.0
 11
-413.0871542118761
 21
170.3706908054107
 31
0.0
  0
ARC
  5
155
  8
1
  6
CONTINUOUS
 62
     7
 10
-412.99999847
 20
169.3744961172814
 30
0.0
 40
0.9999999900000001
 50
95.00000000000014
 51
138.3460422293125
  0
ARC
  5
156
  8
1
  6
CONTINUOUS
 62
     7
 10
-412.99999847
 20
169.3744961172814
 30
0.0
 40
0.9999999900000001
 50
146.4348430514378
 51
148.1660411749069
  0
LINE
  5
157
  8
1
  6
CONTINUOUS
 62
     7
 10
-411.0212746767022
 20
170.5514318449491
 30
0.0
 11
-412.5096263004365
 21
170.4212179505319
 31
0.0
  0
LINE
  5
158
  8
1
  6
CONTINUOUS
 62
     7
 10
-344.9999991500001
 20
248.99999856
 30
0.0
 11
-384.9999987500001
 21
248.99999856
 31
0.0
  0
ARC
  5
159
  8
1
  6
CONTINUOUS
 62
     7
 10
-384.9999987500001
 20
219.9999988500001
 30
0.0
 40
28.99999971000022
 50
90.00000000000016
 51
180.0000000000001
  0
LINE
  5
15A
  8
1
  6
CONTINUOUS
 62
     7
 10
-413.99999846
 20
169.3744961172814
 30
0.0
 11
-413.99999846
 21
139.9999996500001
 31
0.0
  0
LINE
  5
15B
  8
1
  6
CONTINUOUS
 62
     7
 10
-413.99999846
 20
219.9999988500001
 30
0.0
 11
-413.99999846
 21
190.6255023827191
 31
0.0
  0
LINE
  5
15C
  8
1
  6
CONTINUOUS
 62
     7
 10
-275.99999984
 20
219.9999988500001
 30
0.0
 11
-275.99999984
 21
190.6255023827191
 31
0.0
  0
LINE
  5
15D
  8
1
  6
CONTINUOUS
 62
     7
 10
-275.99999984
 20
169.3744961172814
 30
0.0
 11
-275.99999984
 21
139.9999996500001
 31
0.0
  0
ARC
  5
15E
  8
1
  6
CONTINUOUS
 62
     7
 10
-304.99999955
 20
219.9999988500001
 30
0.0
 40
28.99999970999989
 50
359.9999999999998
 51
89.9999999999999
  0
LINE
  5
15F
  8
1
  6
CONTINUOUS
 62
     7
 10
-277.4893360109701
 20
170.4211273132745
 30
0.0
 11
-276.912844088124
 21
170.3706908054112
 31
0.0
  0
ARC
  5
160
  8
1
  6
CONTINUOUS
 62
     7
 10
-276.99999983
 20
169.3744961172814
 30
0.0
 40
0.9999999900000001
 50
0.0000000000000568
 51
31.83395882509308
  0
LINE
  5
161
  8
1
  6
CONTINUOUS
 62
     7
 10
-278.9787236232979
 20
170.5514318449491
 30
0.0
 11
-277.4893360109702
 21
170.4211273132745
 31
0.0
  0
ARC
  5
162
  8
1
  6
CONTINUOUS
 62
     7
 10
-276.99999983
 20
169.3744961172814
 30
0.0
 40
0.9999999900000001
 50
41.65395777093636
 51
84.99999999999989
  0
ARC
  5
163
  8
1
  6
CONTINUOUS
 62
     7
 10
-276.99999983
 20
169.3744961172814
 30
0.0
 40
0.9999999900000001
 50
31.83395882509308
 51
33.5651569487909
  0
ARC
  5
164
  8
1
  6
CONTINUOUS
 62
     7
 10
-276.99999983
 20
190.625502382719
 30
0.0
 40
0.9999999900000001
 50
275.0000000000001
 51
0.0000000000001137
  0
LINE
  5
165
  8
1
  6
CONTINUOUS
 62
     7
 10
-276.912844088124
 20
189.6293076945894
 30
0.0
 11
-278.9787236232979
 21
189.4485666550514
 31
0.0
  0
ARC
  5
166
  8
1
  6
CONTINUOUS
 62
     7
 10
-304.99999955
 20
139.9999996500001
 30
0.0
 40
28.99999971
 50
270.0
 51
0.0
  0
LINE
  5
167
  8
1
  6
CONTINUOUS
 62
     7
 10
-345.99999914
 20
233.9999987100001
 30
0.0
 11
-343.99999916
 21
233.9999987100001
 31
0.0
  0
LINE
  5
168
  8
1
  6
CONTINUOUS
 62
     7
 10
-412.509330416702
 20
170.4212437839493
 30
0.0
 11
-412.5532317127217
 21
170.4173925348611
 31
0.0
  0
LINE
  5
169
  8
1
  6
CONTINUOUS
 62
     7
 10
-412.5532317127216
 20
170.4173925348611
 30
0.0
 11
-412.6079846832591
 21
170.4125519549662
 31
0.0
  0
LINE
  5
16A
  8
1
  6
CONTINUOUS
 62
     7
 10
-412.6079846832591
 20
170.4125519549662
 30
0.0
 11
-412.6590902236731
 21
170.4079837400619
 31
0.0
  0
LINE
  5
16B
  8
1
  6
CONTINUOUS
 62
     7
 10
-412.6590902236732
 20
170.4079837400619
 30
0.0
 11
-412.7067515106834
 21
170.4036821750312
 31
0.0
  0
LINE
  5
16C
  8
1
  6
CONTINUOUS
 62
     7
 10
-412.7067515106833
 20
170.4036821750312
 30
0.0
 11
-412.8388864371362
 21
170.3918717229777
 31
0.0
  0
LINE
  5
16D
  8
1
  6
CONTINUOUS
 62
     7
 10
-412.8388864371364
 20
170.3918717229777
 30
0.0
 11
-412.9605354448327
 21
170.38173968136
 31
0.0
  0
LINE
  5
16E
  8
1
  6
CONTINUOUS
 62
     7
 10
-412.9605354448325
 20
170.38173968136
 30
0.0
 11
-412.9930419926839
 21
170.3789003664927
 31
0.0
  0
LINE
  5
16F
  8
1
  6
CONTINUOUS
 62
     7
 10
-412.9930419926839
 20
170.3789003664927
 30
0.0
 11
-413.0269447073163
 21
170.3756394576043
 31
0.0
  0
LINE
  5
170
  8
1
  6
CONTINUOUS
 62
     7
 10
-413.0269447073164
 20
170.3756394576044
 30
0.0
 11
-413.0622820401902
 21
170.3717567520509
 31
0.0
  0
LINE
  5
171
  8
1
  6
CONTINUOUS
 62
     7
 10
-413.0622820401901
 20
170.3717567520509
 30
0.0
 11
-413.0990396332937
 21
170.3670357096173
 31
0.0
  0
LINE
  5
172
  8
1
  6
CONTINUOUS
 62
     7
 10
-413.0990396332937
 20
170.3670357096173
 30
0.0
 11
-413.1371646263634
 21
170.3612499398149
 31
0.0
  0
LINE
  5
173
  8
1
  6
CONTINUOUS
 62
     7
 10
-413.1371646263634
 20
170.3612499398149
 30
0.0
 11
-413.1758533284312
 21
170.3543094892077
 31
0.0
  0
LINE
  5
174
  8
1
  6
CONTINUOUS
 62
     7
 10
-413.1758533284312
 20
170.3543094892077
 30
0.0
 11
-413.2156573338824
 21
170.345908068218
 31
0.0
  0
LINE
  5
175
  8
1
  6
CONTINUOUS
 62
     7
 10
-413.2156573338823
 20
170.345908068218
 30
0.0
 11
-413.2564289774302
 21
170.3358427839399
 31
0.0
  0
LINE
  5
176
  8
1
  6
CONTINUOUS
 62
     7
 10
-413.2564289774303
 20
170.3358427839399
 30
0.0
 11
-413.2979928084609
 21
170.3239266048294
 31
0.0
  0
LINE
  5
177
  8
1
  6
CONTINUOUS
 62
     7
 10
-413.2979928084609
 20
170.3239266048295
 30
0.0
 11
-413.3362973965571
 21
170.311347568193
 31
0.0
  0
LINE
  5
178
  8
1
  6
CONTINUOUS
 62
     7
 10
-413.3362973965571
 20
170.3113475681929
 30
0.0
 11
-413.3749253289554
 21
170.2969955449125
 31
0.0
  0
LINE
  5
179
  8
1
  6
CONTINUOUS
 62
     7
 10
-413.3749253289554
 20
170.2969955449125
 30
0.0
 11
-413.4136982639509
 21
170.2807851050246
 31
0.0
  0
LINE
  5
17A
  8
1
  6
CONTINUOUS
 62
     7
 10
-413.4136982639509
 20
170.2807851050246
 30
0.0
 11
-413.4524282216741
 21
170.2626537040729
 31
0.0
  0
LINE
  5
17B
  8
1
  6
CONTINUOUS
 62
     7
 10
-413.452428221674
 20
170.2626537040729
 30
0.0
 11
-413.4909204663492
 21
170.2425636034214
 31
0.0
  0
LINE
  5
17C
  8
1
  6
CONTINUOUS
 62
     7
 10
-413.4909204663493
 20
170.2425636034214
 30
0.0
 11
-413.5226726344454
 21
170.2243165381139
 31
0.0
  0
LINE
  5
17D
  8
1
  6
CONTINUOUS
 62
     7
 10
-413.5226726344453
 20
170.2243165381139
 30
0.0
 11
-413.5540067039155
 21
170.204708619537
 31
0.0
  0
LINE
  5
17E
  8
1
  6
CONTINUOUS
 62
     7
 10
-413.5540067039155
 20
170.204708619537
 30
0.0
 11
-413.5848085157396
 21
170.1837610147909
 31
0.0
  0
LINE
  5
17F
  8
1
  6
CONTINUOUS
 62
     7
 10
-413.5848085157396
 20
170.1837610147909
 30
0.0
 11
-413.6149663038522
 21
170.1615082954601
 31
0.0
  0
LINE
  5
180
  8
1
  6
CONTINUOUS
 62
     7
 10
-413.6149663038523
 20
170.1615082954601
 30
0.0
 11
-413.6443719980732
 21
170.1379983008297
 31
0.0
  0
LINE
  5
181
  8
1
  6
CONTINUOUS
 62
     7
 10
-413.6443719980732
 20
170.1379983008298
 30
0.0
 11
-413.6729224918379
 21
170.1132918303239
 31
0.0
  0
LINE
  5
182
  8
1
  6
CONTINUOUS
 62
     7
 10
-413.6729224918379
 20
170.1132918303239
 30
0.0
 11
-413.7005208547212
 21
170.0874621710411
 31
0.0
  0
LINE
  5
183
  8
1
  6
CONTINUOUS
 62
     7
 10
-413.7005208547212
 20
170.0874621710411
 30
0.0
 11
-413.7270774703082
 21
170.0605944694561
 31
0.0
  0
LINE
  5
184
  8
1
  6
CONTINUOUS
 62
     7
 10
-413.7270774703082
 20
170.0605944694561
 30
0.0
 11
-413.7525110809779
 21
170.0327849594142
 31
0.0
  0
LINE
  5
185
  8
1
  6
CONTINUOUS
 62
     7
 10
-413.7525110809779
 20
170.0327849594143
 30
0.0
 11
-413.7767497225893
 21
170.0041400614234
 31
0.0
  0
LINE
  5
186
  8
1
  6
CONTINUOUS
 62
     7
 10
-413.7767497225893
 20
170.0041400614234
 30
0.0
 11
-413.7997315338639
 21
169.97477537083
 31
0.0
  0
LINE
  5
187
  8
1
  6
CONTINUOUS
 62
     7
 10
-413.799731533864
 20
169.9747753708299
 30
0.0
 11
-413.8214054273712
 21
169.9448145546823
 31
0.0
  0
LINE
  5
188
  8
1
  6
CONTINUOUS
 62
     7
 10
-413.8214054273712
 20
169.9448145546824
 30
0.0
 11
-413.8417316114006
 21
169.9143881788765
 31
0.0
  0
LINE
  5
189
  8
1
  6
CONTINUOUS
 62
     7
 10
-413.8417316114007
 20
169.9143881788765
 30
0.0
 11
-413.849610377431
 21
169.9019044802361
 31
0.0
  0
LINE
  5
18A
  8
1
  6
CONTINUOUS
 62
     7
 10
-276.1503879225691
 20
169.9019044802361
 30
0.0
 11
-276.1582666885994
 21
169.9143881788765
 31
0.0
  0
LINE
  5
18B
  8
1
  6
CONTINUOUS
 62
     7
 10
-276.1582666885994
 20
169.9143881788765
 30
0.0
 11
-276.1785928726288
 21
169.9448145546823
 31
0.0
  0
LINE
  5
18C
  8
1
  6
CONTINUOUS
 62
     7
 10
-276.1785928726288
 20
169.9448145546824
 30
0.0
 11
-276.2002667661362
 21
169.9747753708303
 31
0.0
  0
LINE
  5
18D
  8
1
  6
CONTINUOUS
 62
     7
 10
-276.2002667661362
 20
169.9747753708303
 30
0.0
 11
-276.2232485774107
 21
170.0041400614234
 31
0.0
  0
LINE
  5
18E
  8
1
  6
CONTINUOUS
 62
     7
 10
-276.2232485774107
 20
170.0041400614234
 30
0.0
 11
-276.2474872190222
 21
170.0327849594143
 31
0.0
  0
LINE
  5
18F
  8
1
  6
CONTINUOUS
 62
     7
 10
-276.2474872190222
 20
170.0327849594143
 30
0.0
 11
-276.2729208296918
 21
170.0605944694562
 31
0.0
  0
LINE
  5
190
  8
1
  6
CONTINUOUS
 62
     7
 10
-276.2729208296918
 20
170.0605944694561
 30
0.0
 11
-276.2994774452788
 21
170.0874621710411
 31
0.0
  0
LINE
  5
191
  8
1
  6
CONTINUOUS
 62
     7
 10
-276.2994774452788
 20
170.0874621710411
 30
0.0
 11
-276.3270758081622
 21
170.1132918303238
 31
0.0
  0
LINE
  5
192
  8
1
  6
CONTINUOUS
 62
     7
 10
-276.3270758081622
 20
170.1132918303239
 30
0.0
 11
-276.3556263019269
 21
170.1379983008298
 31
0.0
  0
LINE
  5
193
  8
1
  6
CONTINUOUS
 62
     7
 10
-276.3556263019269
 20
170.1379983008298
 30
0.0
 11
-276.3850319961477
 21
170.1615082954601
 31
0.0
  0
LINE
  5
194
  8
1
  6
CONTINUOUS
 62
     7
 10
-276.3850319961478
 20
170.1615082954601
 30
0.0
 11
-276.4151897842605
 21
170.1837610147909
 31
0.0
  0
LINE
  5
195
  8
1
  6
CONTINUOUS
 62
     7
 10
-276.4151897842604
 20
170.1837610147909
 30
0.0
 11
-276.4459915960846
 21
170.204708619537
 31
0.0
  0
LINE
  5
196
  8
1
  6
CONTINUOUS
 62
     7
 10
-276.4459915960846
 20
170.204708619537
 30
0.0
 11
-276.4773256655548
 21
170.2243165381142
 31
0.0
  0
LINE
  5
197
  8
1
  6
CONTINUOUS
 62
     7
 10
-276.4773256655547
 20
170.2243165381142
 30
0.0
 11
-276.5090778336508
 21
170.2425636034214
 31
0.0
  0
LINE
  5
198
  8
1
  6
CONTINUOUS
 62
     7
 10
-276.5090778336508
 20
170.2425636034214
 30
0.0
 11
-276.547570078326
 21
170.2626537040729
 31
0.0
  0
LINE
  5
199
  8
1
  6
CONTINUOUS
 62
     7
 10
-276.547570078326
 20
170.2626537040729
 30
0.0
 11
-276.5863000360492
 21
170.2807851050246
 31
0.0
  0
LINE
  5
19A
  8
1
  6
CONTINUOUS
 62
     7
 10
-276.5863000360491
 20
170.2807851050246
 30
0.0
 11
-276.6250729710446
 21
170.2969955449125
 31
0.0
  0
LINE
  5
19B
  8
1
  6
CONTINUOUS
 62
     7
 10
-276.6250729710446
 20
170.2969955449125
 30
0.0
 11
-276.663700903443
 21
170.3113475681929
 31
0.0
  0
LINE
  5
19C
  8
1
  6
CONTINUOUS
 62
     7
 10
-276.6637009034429
 20
170.3113475681929
 30
0.0
 11
-276.7020054915391
 21
170.3239266048294
 31
0.0
  0
LINE
  5
19D
  8
1
  6
CONTINUOUS
 62
     7
 10
-276.7020054915392
 20
170.3239266048295
 30
0.0
 11
-276.7443182666861
 21
170.3360417716614
 31
0.0
  0
LINE
  5
19E
  8
1
  6
CONTINUOUS
 62
     7
 10
-276.744318266686
 20
170.3360417716614
 30
0.0
 11
-276.7858063176932
 21
170.346241538762
 31
0.0
  0
LINE
  5
19F
  8
1
  6
CONTINUOUS
 62
     7
 10
-276.7858063176934
 20
170.346241538762
 30
0.0
 11
-276.8262852243555
 21
170.3547238337765
 31
0.0
  0
LINE
  5
1A0
  8
1
  6
CONTINUOUS
 62
     7
 10
-276.8262852243554
 20
170.3547238337765
 30
0.0
 11
-276.8656005292293
 21
170.3617034102143
 31
0.0
  0
LINE
  5
1A1
  8
1
  6
CONTINUOUS
 62
     7
 10
-276.8656005292294
 20
170.3617034102143
 30
0.0
 11
-276.9036303964007
 21
170.3674055235333
 31
0.0
  0
LINE
  5
1A2
  8
1
  6
CONTINUOUS
 62
     7
 10
-276.9036303964007
 20
170.3674055235333
 30
0.0
 11
-276.9396456337667
 21
170.3719840230536
 31
0.0
  0
LINE
  5
1A3
  8
1
  6
CONTINUOUS
 62
     7
 10
-276.9396456337666
 20
170.3719840230536
 30
0.0
 11
-276.9742890726575
 21
170.3757653816445
 31
0.0
  0
LINE
  5
1A4
  8
1
  6
CONTINUOUS
 62
     7
 10
-276.9742890726575
 20
170.3757653816444
 30
0.0
 11
-277.0075487718385
 21
170.3789541968969
 31
0.0
  0
LINE
  5
1A5
  8
1
  6
CONTINUOUS
 62
     7
 10
-277.0075487718385
 20
170.3789541968969
 30
0.0
 11
-277.0394628551675
 21
170.38173968136
 31
0.0
  0
LINE
  5
1A6
  8
1
  6
CONTINUOUS
 62
     7
 10
-277.0394628551675
 20
170.38173968136
 30
0.0
 11
-277.1426192481154
 21
170.3902889017536
 31
0.0
  0
LINE
  5
1A7
  8
1
  6
CONTINUOUS
 62
     7
 10
-277.1426192481155
 20
170.3902889017536
 30
0.0
 11
-277.2507355070134
 21
170.3998324391251
 31
0.0
  0
LINE
  5
1A8
  8
1
  6
CONTINUOUS
 62
     7
 10
-277.2507355070134
 20
170.3998324391251
 30
0.0
 11
-277.3770458433324
 21
170.4112193181526
 31
0.0
  0
LINE
  5
1A9
  8
1
  6
CONTINUOUS
 62
     7
 10
-277.3770458433324
 20
170.4112193181525
 30
0.0
 11
-277.4250963872622
 21
170.4154826433399
 31
0.0
  0
LINE
  5
1AA
  8
1
  6
CONTINUOUS
 62
     7
 10
-277.4250963872622
 20
170.4154826433399
 30
0.0
 11
-277.4761284625449
 21
170.4199704832467
 31
0.0
  0
LINE
  5
1AB
  8
1
  6
CONTINUOUS
 62
     7
 10
-277.4761284625449
 20
170.4199704832467
 30
0.0
 11
-277.4896983504002
 21
170.4211589302812
 31
0.0
  0
ENDSEC
  0
EOF
