  0
SECTION
  2
HEADER
  9
$ACADVER
  1
AC1006
  9
$DWGCODEPAGE
  3
ansi_932
  9
$INSBASE
 10
0.0
 20
0.0
 30
0.0
  9
$EXTMIN
 10
43.05925832546495
 20
81.67982043513946
  9
$EXTMAX
 10
390.5000000000001
 20
269.4999999999997
  9
$LIMMIN
 10
0.0
 20
0.0
  9
$LIMMAX
 10
12.0
 20
9.0
  9
$ORTHOMODE
 70
     0
  9
$REGENMODE
 70
     1
  9
$FILLMODE
 70
     1
  9
$QTEXTMODE
 70
     0
  9
$MIRRTEXT
 70
     1
  9
$DRAGMODE
 70
     2
  9
$LTSCALE
 40
1.0
  9
$OSMODE
 70
    37
  9
$ATTMODE
 70
     1
  9
$TEXTSIZE
 40
0.2
  9
$TRACEWID
 40
0.05
  9
$TEXTSTYLE
  7
STANDARD
  9
$CLAYER
  8
0
  9
$CELTYPE
  6
BYLAYER
  9
$CECOLOR
 62
   256
  9
$DIMSCALE
 40
1.0
  9
$DIMASZ
 40
3.0
  9
$DIMEXO
 40
0.0625
  9
$DIMDLI
 40
0.38
  9
$DIMRND
 40
0.0
  9
$DIMDLE
 40
0.0
  9
$DIMEXE
 40
1.5
  9
$DIMTP
 40
0.0
  9
$DIMTM
 40
0.0
  9
$DIMTXT
 40
4.0
  9
$DIMCEN
 40
0.09
  9
$DIMTSZ
 40
0.0
  9
$DIMTOL
 70
     0
  9
$DIMLIM
 70
     0
  9
$DIMTIH
 70
     1
  9
$DIMTOH
 70
     1
  9
$DIMSE1
 70
     0
  9
$DIMSE2
 70
     0
  9
$DIMTAD
 70
     1
  9
$DIMZIN
 70
     0
  9
$DIMBLK
  1

  9
$DIMASO
 70
     1
  9
$DIMSHO
 70
     1
  9
$DIMPOST
  1

  9
$DIMAPOST
  1

  9
$DIMALT
 70
     0
  9
$DIMALTD
 70
     2
  9
$DIMALTF
 40
25.4
  9
$DIMLFAC
 40
1.0
  9
$DIMTOFL
 70
     0
  9
$DIMTVP
 40
0.0
  9
$DIMTIX
 70
     0
  9
$DIMSOXD
 70
     0
  9
$DIMSAH
 70
     0
  9
$DIMBLK1
  1

  9
$DIMBLK2
  1

  9
$LUNITS
 70
     2
  9
$LUPREC
 70
     4
  9
$SKETCHINC
 40
0.1
  9
$FILLETRAD
 40
0.5
  9
$AUNITS
 70
     0
  9
$AUPREC
 70
     0
  9
$MENU
  1
.
  9
$ELEVATION
 40
0.0
  9
$THICKNESS
 40
0.0
  9
$LIMCHECK
 70
     0
  9
$CHAMFERA
 40
0.0
  9
$CHAMFERB
 40
0.0
  9
$SKPOLY
 70
     0
  9
$TDCREATE
 40
2460580.414826539
  9
$TDUPDATE
 40
2460580.414826666
  9
$TDINDWG
 40
0.0000000116
  9
$TDUSRTIMER
 40
0.0000000116
  9
$USRTIMER
 70
     1
  9
$ANGBASE
 50
0.0
  9
$ANGDIR
 70
     0
  9
$PDMODE
 70
     0
  9
$PDSIZE
 40
0.0
  9
$PLINEWID
 40
0.0
  9
$COORDS
 70
     1
  9
$SPLFRAME
 70
     0
  9
$SPLINETYPE
 70
     6
  9
$SPLINESEGS
 70
     8
  9
$ATTDIA
 70
     0
  9
$ATTREQ
 70
     1
  9
$HANDLING
 70
     1
  9
$HANDSEED
  5
59B
  9
$SURFTAB1
 70
     6
  9
$SURFTAB2
 70
     6
  9
$SURFTYPE
 70
     6
  9
$SURFU
 70
     6
  9
$SURFV
 70
     6
  9
$UCSNAME
  2

  9
$UCSORG
 10
0.0
 20
0.0
 30
0.0
  9
$UCSXDIR
 10
1.0
 20
0.0
 30
0.0
  9
$UCSYDIR
 10
0.0
 20
1.0
 30
0.0
  9
$USERI1
 70
     0
  9
$USERI2
 70
     0
  9
$USERI3
 70
     0
  9
$USERI4
 70
     0
  9
$USERI5
 70
     0
  9
$USERR1
 40
0.0
  9
$USERR2
 40
0.0
  9
$USERR3
 40
0.0
  9
$USERR4
 40
0.0
  9
$USERR5
 40
0.0
  9
$WORLDVIEW
 70
     1
  0
ENDSEC
  0
SECTION
  2
TABLES
  0
TABLE
  2
VPORT
 70
     1
  0
VPORT
  2
*ACTIVE
 70
     0
 10
0.0
 20
0.0
 11
1.0
 21
1.0
 12
216.7796291627325
 22
175.5899102175696
 13
0.0
 23
0.0
 14
0.5
 24
0.5
 15
0.5
 25
0.5
 16
0.0
 26
0.0
 36
1.0
 17
0.0
 27
0.0
 37
0.0
 40
187.8201795648603
 41
1.6
 42
50.0
 43
0.0
 44
0.0
 50
0.0
 51
0.0
 71
     0
 72
   100
 73
     1
 74
     3
 75
     0
 76
     0
 77
     0
 78
     0
  0
ENDTAB
  0
TABLE
  2
LTYPE
 70
     3
  0
LTYPE
  2
CONTINUOUS
 70
     0
  3
Solid line
 72
    65
 73
     0
 40
0.0
  0
LTYPE
  2
CENTER
 70
     0
  3

 72
    65
 73
     0
 40
0.0
  0
LTYPE
  2
DOT
 70
     0
  3

 72
    65
 73
     0
 40
0.0
  0
ENDTAB
  0
TABLE
  2
LAYER
 70
     2
  0
LAYER
  2
0
 70
     0
 62
     7
  6
CONTINUOUS
  0
LAYER
  2
257
 70
     0
 62
     7
  6
CONTINUOUS
  0
ENDTAB
  0
TABLE
  2
STYLE
 70
     2
  0
STYLE
  2
STANDARD
 70
     0
 40
0.0
 41
1.0
 50
0.0
 71
     0
 42
0.2
  3
txt
  4

  0
STYLE
  2
ＭＳ_ゴシック
 70
     0
 40
0.0
 41
1.0
 50
0.0
 71
     0
 42
0.2
  3
ＭＳ ゴシック.shx
  4

  0
ENDTAB
  0
TABLE
  2
VIEW
 70
     0
  0
ENDTAB
  0
TABLE
  2
UCS
 70
     0
  0
ENDTAB
  0
ENDSEC
  0
SECTION
  2
BLOCKS
  0
BLOCK
  8
0
  2
D_FRAME_VIEW_4128
 70
     0
 10
0.0
 20
0.0
 30
0.0
  0
POLYLINE
  5
162
  8
257
  6
CONTINUOUS
 62
     7
 66
     1
 10
0.0
 20
0.0
 30
0.0
  0
VERTEX
  5
23F
  8
257
  6
CONTINUOUS
 62
     7
 10
134.9999999999998
 20
112.0000000000002
 30
0.0
  0
VERTEX
  5
240
  8
257
  6
CONTINUOUS
 62
     7
 10
155.1656346539015
 20
112.1377147964958
 30
0.0
  0
VERTEX
  5
241
  8
257
  6
CONTINUOUS
 62
     7
 10
160.9223119256065
 20
112.1837079337631
 30
0.0
  0
SEQEND
  5
585
  8
257
  6
CONTINUOUS
 62
     7
  0
ARC
  5
163
  8
257
  6
CONTINUOUS
 62
     7
 10
164.26222155727
 20
201.0345178479446
 30
0.0
 40
88.91356150078391
 50
267.8472602602382
 51
276.8526870899393
  0
ARC
  5
164
  8
257
  6
CONTINUOUS
 62
     7
 10
170.5719062731678
 20
141.9289303829221
 30
0.0
 40
29.48788176691398
 50
278.3833777058971
 51
353.2536893577561
  0
POLYLINE
  5
165
  8
257
  6
CONTINUOUS
 62
     7
 66
     1
 10
0.0
 20
0.0
 30
0.0
  0
VERTEX
  5
242
  8
257
  6
CONTINUOUS
 62
     7
 10
199.8556146337497
 20
138.4648871164655
 30
0.0
  0
VERTEX
  5
243
  8
257
  6
CONTINUOUS
 62
     7
 10
200.1969944868107
 20
142.3468773927478
 30
0.0
  0
VERTEX
  5
244
  8
257
  6
CONTINUOUS
 62
     7
 10
200.3452244393561
 20
146.2433607375333
 30
0.0
  0
VERTEX
  5
245
  8
257
  6
CONTINUOUS
 62
     7
 10
200.3742720282563
 20
150.1483005374841
 30
0.0
  0
VERTEX
  5
246
  8
257
  6
CONTINUOUS
 62
     7
 10
200.3581047903812
 20
154.0556601792625
 30
0.0
  0
VERTEX
  5
247
  8
257
  6
CONTINUOUS
 62
     7
 10
200.370690262601
 20
157.9594030495307
 30
0.0
  0
VERTEX
  5
248
  8
257
  6
CONTINUOUS
 62
     7
 10
200.5000000000001
 20
177.5
 30
0.0
  0
SEQEND
  5
586
  8
257
  6
CONTINUOUS
 62
     7
  0
POLYLINE
  5
166
  8
257
  6
CONTINUOUS
 62
     7
 66
     1
 10
0.0
 20
0.0
 30
0.0
  0
VERTEX
  5
249
  8
257
  6
CONTINUOUS
 62
     7
 10
134.9999999999998
 20
242.9999999999998
 30
0.0
  0
VERTEX
  5
24A
  8
257
  6
CONTINUOUS
 62
     7
 10
155.1656346539015
 20
242.8622852035042
 30
0.0
  0
VERTEX
  5
24B
  8
257
  6
CONTINUOUS
 62
     7
 10
160.9223119256065
 20
242.8162920662368
 30
0.0
  0
SEQEND
  5
587
  8
257
  6
CONTINUOUS
 62
     7
  0
ARC
  5
167
  8
257
  6
CONTINUOUS
 62
     7
 10
164.26222155727
 20
153.9654821520554
 30
0.0
 40
88.91356150078391
 50
83.1473129100607
 51
92.15273973976184
  0
ARC
  5
168
  8
257
  6
CONTINUOUS
 62
     7
 10
170.5719062731679
 20
213.0710696170779
 30
0.0
 40
29.48788176691392
 50
6.746310642243884
 51
81.61662229410297
  0
POLYLINE
  5
169
  8
257
  6
CONTINUOUS
 62
     7
 66
     1
 10
0.0
 20
0.0
 30
0.0
  0
VERTEX
  5
24C
  8
257
  6
CONTINUOUS
 62
     7
 10
199.8556146337497
 20
216.5351128835345
 30
0.0
  0
VERTEX
  5
24D
  8
257
  6
CONTINUOUS
 62
     7
 10
200.1969944868107
 20
212.6531226072522
 30
0.0
  0
VERTEX
  5
24E
  8
257
  6
CONTINUOUS
 62
     7
 10
200.3452244393561
 20
208.7566392624667
 30
0.0
  0
VERTEX
  5
24F
  8
257
  6
CONTINUOUS
 62
     7
 10
200.3742720282563
 20
204.8516994625159
 30
0.0
  0
VERTEX
  5
250
  8
257
  6
CONTINUOUS
 62
     7
 10
200.3581047903812
 20
200.9443398207374
 30
0.0
  0
VERTEX
  5
251
  8
257
  6
CONTINUOUS
 62
     7
 10
200.370690262601
 20
197.0405969504693
 30
0.0
  0
VERTEX
  5
252
  8
257
  6
CONTINUOUS
 62
     7
 10
200.5000000000001
 20
177.5
 30
0.0
  0
SEQEND
  5
588
  8
257
  6
CONTINUOUS
 62
     7
  0
POLYLINE
  5
16A
  8
257
  6
CONTINUOUS
 62
     7
 66
     1
 10
0.0
 20
0.0
 30
0.0
  0
VERTEX
  5
253
  8
257
  6
CONTINUOUS
 62
     7
 10
134.9999999999998
 20
112.0000000000002
 30
0.0
  0
VERTEX
  5
254
  8
257
  6
CONTINUOUS
 62
     7
 10
114.8343653460986
 20
112.1377147964958
 30
0.0
  0
VERTEX
  5
255
  8
257
  6
CONTINUOUS
 62
     7
 10
109.0776880743935
 20
112.1837079337631
 30
0.0
  0
SEQEND
  5
589
  8
257
  6
CONTINUOUS
 62
     7
  0
ARC
  5
16B
  8
257
  6
CONTINUOUS
 62
     7
 10
105.73777844273
 20
201.0345178479446
 30
0.0
 40
88.91356150078391
 50
263.1473129100607
 51
272.1527397397617
  0
ARC
  5
16C
  8
257
  6
CONTINUOUS
 62
     7
 10
99.42809372683222
 20
141.9289303829221
 30
0.0
 40
29.487881766914
 50
186.746310642244
 51
261.6166222941029
  0
POLYLINE
  5
16D
  8
257
  6
CONTINUOUS
 62
     7
 66
     1
 10
0.0
 20
0.0
 30
0.0
  0
VERTEX
  5
256
  8
257
  6
CONTINUOUS
 62
     7
 10
70.14438536625026
 20
138.4648871164655
 30
0.0
  0
VERTEX
  5
257
  8
257
  6
CONTINUOUS
 62
     7
 10
69.80300551318932
 20
142.3468773927478
 30
0.0
  0
VERTEX
  5
258
  8
257
  6
CONTINUOUS
 62
     7
 10
69.65477556064387
 20
146.2433607375333
 30
0.0
  0
VERTEX
  5
259
  8
257
  6
CONTINUOUS
 62
     7
 10
69.62572797174373
 20
150.1483005374841
 30
0.0
  0
VERTEX
  5
25A
  8
257
  6
CONTINUOUS
 62
     7
 10
69.64189520961882
 20
154.0556601792625
 30
0.0
  0
VERTEX
  5
25B
  8
257
  6
CONTINUOUS
 62
     7
 10
69.62930973739901
 20
157.9594030495307
 30
0.0
  0
VERTEX
  5
25C
  8
257
  6
CONTINUOUS
 62
     7
 10
69.49999999999996
 20
177.5
 30
0.0
  0
SEQEND
  5
58A
  8
257
  6
CONTINUOUS
 62
     7
  0
POLYLINE
  5
16E
  8
257
  6
CONTINUOUS
 62
     7
 66
     1
 10
0.0
 20
0.0
 30
0.0
  0
VERTEX
  5
25D
  8
257
  6
CONTINUOUS
 62
     7
 10
134.9999999999998
 20
242.9999999999998
 30
0.0
  0
VERTEX
  5
25E
  8
257
  6
CONTINUOUS
 62
     7
 10
114.8343653460986
 20
242.8622852035042
 30
0.0
  0
VERTEX
  5
25F
  8
257
  6
CONTINUOUS
 62
     7
 10
109.0776880743935
 20
242.8162920662368
 30
0.0
  0
SEQEND
  5
58B
  8
257
  6
CONTINUOUS
 62
     7
  0
ARC
  5
16F
  8
257
  6
CONTINUOUS
 62
     7
 10
105.73777844273
 20
153.9654821520554
 30
0.0
 40
88.91356150078391
 50
87.8472602602382
 51
96.85268708993932
  0
ARC
  5
170
  8
257
  6
CONTINUOUS
 62
     7
 10
99.42809372683217
 20
213.0710696170779
 30
0.0
 40
29.48788176691397
 50
98.38337770589708
 51
173.2536893577561
  0
POLYLINE
  5
171
  8
257
  6
CONTINUOUS
 62
     7
 66
     1
 10
0.0
 20
0.0
 30
0.0
  0
VERTEX
  5
260
  8
257
  6
CONTINUOUS
 62
     7
 10
70.14438536625026
 20
216.5351128835345
 30
0.0
  0
VERTEX
  5
261
  8
257
  6
CONTINUOUS
 62
     7
 10
69.80300551318932
 20
212.6531226072522
 30
0.0
  0
VERTEX
  5
262
  8
257
  6
CONTINUOUS
 62
     7
 10
69.65477556064387
 20
208.7566392624667
 30
0.0
  0
VERTEX
  5
263
  8
257
  6
CONTINUOUS
 62
     7
 10
69.62572797174373
 20
204.8516994625159
 30
0.0
  0
VERTEX
  5
264
  8
257
  6
CONTINUOUS
 62
     7
 10
69.64189520961882
 20
200.9443398207374
 30
0.0
  0
VERTEX
  5
265
  8
257
  6
CONTINUOUS
 62
     7
 10
69.62930973739901
 20
197.0405969504693
 30
0.0
  0
VERTEX
  5
266
  8
257
  6
CONTINUOUS
 62
     7
 10
69.49999999999996
 20
177.5
 30
0.0
  0
SEQEND
  5
58C
  8
257
  6
CONTINUOUS
 62
     7
  0
POLYLINE
  5
172
  8
257
  6
CONTINUOUS
 62
     7
 66
     1
 10
0.0
 20
0.0
 30
0.0
  0
VERTEX
  5
267
  8
257
  6
CONTINUOUS
 62
     7
 10
135.0000000000002
 20
108.5000000000002
 30
0.0
  0
VERTEX
  5
268
  8
257
  6
CONTINUOUS
 62
     7
 10
135.6820803793424
 20
108.5001571739708
 30
0.0
  0
VERTEX
  5
269
  8
257
  6
CONTINUOUS
 62
     7
 10
136.3641606205723
 20
108.5006286955864
 30
0.0
  0
VERTEX
  5
26A
  8
257
  6
CONTINUOUS
 62
     7
 10
137.0462405781196
 20
108.5014145644022
 30
0.0
  0
VERTEX
  5
26B
  8
257
  6
CONTINUOUS
 62
     7
 10
137.7283201064137
 20
108.5025147799735
 30
0.0
  0
VERTEX
  5
26C
  8
257
  6
CONTINUOUS
 62
     7
 10
138.4103990598845
 20
108.5039293418556
 30
0.0
  0
VERTEX
  5
26D
  8
257
  6
CONTINUOUS
 62
     7
 10
139.0924772929615
 20
108.5056582496039
 30
0.0
  0
VERTEX
  5
26E
  8
257
  6
CONTINUOUS
 62
     7
 10
139.7745546600744
 20
108.5077015027737
 30
0.0
  0
VERTEX
  5
26F
  8
257
  6
CONTINUOUS
 62
     7
 10
140.4566310156529
 20
108.5100591009203
 30
0.0
  0
VERTEX
  5
270
  8
257
  6
CONTINUOUS
 62
     7
 10
141.1387062141264
 20
108.512731043599
 30
0.0
  0
VERTEX
  5
271
  8
257
  6
CONTINUOUS
 62
     7
 10
141.8207801099248
 20
108.5157173303652
 30
0.0
  0
VERTEX
  5
272
  8
257
  6
CONTINUOUS
 62
     7
 10
142.5028525574775
 20
108.5190179607742
 30
0.0
  0
VERTEX
  5
273
  8
257
  6
CONTINUOUS
 62
     7
 10
143.1849234112143
 20
108.5226329343813
 30
0.0
  0
VERTEX
  5
274
  8
257
  6
CONTINUOUS
 62
     7
 10
143.8669925255647
 20
108.5265622507418
 30
0.0
  0
VERTEX
  5
275
  8
257
  6
CONTINUOUS
 62
     7
 10
144.5490597550002
 20
108.5308059093669
 30
0.0
  0
VERTEX
  5
276
  8
257
  6
CONTINUOUS
 62
     7
 10
145.2311249544769
 20
108.535363909256
 30
0.0
  0
VERTEX
  5
277
  8
257
  6
CONTINUOUS
 62
     7
 10
145.9131879792636
 20
108.540236249078
 30
0.0
  0
VERTEX
  5
278
  8
257
  6
CONTINUOUS
 62
     7
 10
146.5952486846347
 20
108.5454229274962
 30
0.0
  0
VERTEX
  5
279
  8
257
  6
CONTINUOUS
 62
     7
 10
147.2773069258641
 20
108.5509239431741
 30
0.0
  0
VERTEX
  5
27A
  8
257
  6
CONTINUOUS
 62
     7
 10
147.9593625582261
 20
108.556739294775
 30
0.0
  0
VERTEX
  5
27B
  8
257
  6
CONTINUOUS
 62
     7
 10
148.6414154369948
 20
108.5628689809624
 30
0.0
  0
VERTEX
  5
27C
  8
257
  6
CONTINUOUS
 62
     7
 10
149.3234654174443
 20
108.5693130003996
 30
0.0
  0
VERTEX
  5
27D
  8
257
  6
CONTINUOUS
 62
     7
 10
150.005512354849
 20
108.5760713517501
 30
0.0
  0
VERTEX
  5
27E
  8
257
  6
CONTINUOUS
 62
     7
 10
150.6875561044828
 20
108.5831440336773
 30
0.0
  0
VERTEX
  5
27F
  8
257
  6
CONTINUOUS
 62
     7
 10
151.3695965216198
 20
108.5905310448445
 30
0.0
  0
VERTEX
  5
280
  8
257
  6
CONTINUOUS
 62
     7
 10
152.0516334615344
 20
108.5982323839152
 30
0.0
  0
VERTEX
  5
281
  8
257
  6
CONTINUOUS
 62
     7
 10
152.7336667795006
 20
108.6062480495528
 30
0.0
  0
VERTEX
  5
282
  8
257
  6
CONTINUOUS
 62
     7
 10
153.4156963307927
 20
108.6145780404152
 30
0.0
  0
VERTEX
  5
283
  8
257
  6
CONTINUOUS
 62
     7
 10
154.0977219706888
 20
108.6232223548329
 30
0.0
  0
VERTEX
  5
284
  8
257
  6
CONTINUOUS
 62
     7
 10
154.7797435544735
 20
108.6321809906288
 30
0.0
  0
VERTEX
  5
285
  8
257
  6
CONTINUOUS
 62
     7
 10
155.4617609374318
 20
108.6414539455823
 30
0.0
  0
VERTEX
  5
286
  8
257
  6
CONTINUOUS
 62
     7
 10
156.1437739748487
 20
108.6510412174724
 30
0.0
  0
VERTEX
  5
287
  8
257
  6
CONTINUOUS
 62
     7
 10
156.8257825220093
 20
108.6609428040786
 30
0.0
  0
VERTEX
  5
288
  8
257
  6
CONTINUOUS
 62
     7
 10
157.5077864341986
 20
108.6711587031802
 30
0.0
  0
VERTEX
  5
289
  8
257
  6
CONTINUOUS
 62
     7
 10
158.1897855667015
 20
108.6816889125562
 30
0.0
  0
VERTEX
  5
28A
  8
257
  6
CONTINUOUS
 62
     7
 10
158.8717797748031
 20
108.6925334299862
 30
0.0
  0
VERTEX
  5
28B
  8
257
  6
CONTINUOUS
 62
     7
 10
159.5537689137885
 20
108.7036922532492
 30
0.0
  0
VERTEX
  5
28C
  8
257
  6
CONTINUOUS
 62
     7
 10
160.2357528389427
 20
108.7151653801246
 30
0.0
  0
VERTEX
  5
28D
  8
257
  6
CONTINUOUS
 62
     7
 10
160.9177314055506
 20
108.7269528083916
 30
0.0
  0
VERTEX
  5
28E
  8
257
  6
CONTINUOUS
 62
     7
 10
161.5997044688974
 20
108.7390545358295
 30
0.0
  0
VERTEX
  5
28F
  8
257
  6
CONTINUOUS
 62
     7
 10
162.281671884268
 20
108.7514705602176
 30
0.0
  0
VERTEX
  5
290
  8
257
  6
CONTINUOUS
 62
     7
 10
162.9636335068103
 20
108.7642008791831
 30
0.0
  0
VERTEX
  5
291
  8
257
  6
CONTINUOUS
 62
     7
 10
163.6455891911243
 20
108.7772454897448
 30
0.0
  0
VERTEX
  5
292
  8
257
  6
CONTINUOUS
 62
     7
 10
164.3275387916723
 20
108.7906043887697
 30
0.0
  0
VERTEX
  5
293
  8
257
  6
CONTINUOUS
 62
     7
 10
165.0094821629173
 20
108.8042775731246
 30
0.0
  0
VERTEX
  5
294
  8
257
  6
CONTINUOUS
 62
     7
 10
165.6914191593218
 20
108.8182650396764
 30
0.0
  0
VERTEX
  5
295
  8
257
  6
CONTINUOUS
 62
     7
 10
166.3733496353486
 20
108.8325667852919
 30
0.0
  0
VERTEX
  5
296
  8
257
  6
CONTINUOUS
 62
     7
 10
167.0552734454602
 20
108.847182806838
 30
0.0
  0
VERTEX
  5
297
  8
257
  6
CONTINUOUS
 62
     7
 10
167.7371904441193
 20
108.8621131011816
 30
0.0
  0
VERTEX
  5
298
  8
257
  6
CONTINUOUS
 62
     7
 10
168.4191004857887
 20
108.8773576651895
 30
0.0
  0
VERTEX
  5
299
  8
257
  6
CONTINUOUS
 62
     7
 10
169.101003424931
 20
108.8929164957286
 30
0.0
  0
VERTEX
  5
29A
  8
257
  6
CONTINUOUS
 62
     7
 10
169.7828991160088
 20
108.9087895896657
 30
0.0
  0
VERTEX
  5
29B
  8
257
  6
CONTINUOUS
 62
     7
 10
170.4647874134849
 20
108.9249769438677
 30
0.0
  0
VERTEX
  5
29C
  8
257
  6
CONTINUOUS
 62
     7
 10
171.1466681718218
 20
108.9414785552015
 30
0.0
  0
VERTEX
  5
29D
  8
257
  6
CONTINUOUS
 62
     7
 10
171.9972581086647
 20
108.9684364307593
 30
0.0
  0
VERTEX
  5
29E
  8
257
  6
CONTINUOUS
 62
     7
 10
172.933734133216
 20
109.0232106913859
 30
0.0
  0
VERTEX
  5
29F
  8
257
  6
CONTINUOUS
 62
     7
 10
173.8707689208793
 20
109.1050222169255
 30
0.0
  0
VERTEX
  5
2A0
  8
257
  6
CONTINUOUS
 62
     7
 10
174.8069270007915
 20
109.2136523743011
 30
0.0
  0
VERTEX
  5
2A1
  8
257
  6
CONTINUOUS
 62
     7
 10
175.7407729020891
 20
109.3488825304359
 30
0.0
  0
VERTEX
  5
2A2
  8
257
  6
CONTINUOUS
 62
     7
 10
176.6708711539092
 20
109.5104940522527
 30
0.0
  0
VERTEX
  5
2A3
  8
257
  6
CONTINUOUS
 62
     7
 10
177.5957862853884
 20
109.6982683066747
 30
0.0
  0
VERTEX
  5
2A4
  8
257
  6
CONTINUOUS
 62
     7
 10
178.514223718832
 20
109.9120001528024
 30
0.0
  0
VERTEX
  5
2A5
  8
257
  6
CONTINUOUS
 62
     7
 10
179.42545244922
 20
110.1515384184464
 30
0.0
  0
VERTEX
  5
2A6
  8
257
  6
CONTINUOUS
 62
     7
 10
180.3288823647009
 20
110.4167454235952
 30
0.0
  0
VERTEX
  5
2A7
  8
257
  6
CONTINUOUS
 62
     7
 10
181.223923353423
 20
110.707483488237
 30
0.0
  0
VERTEX
  5
2A8
  8
257
  6
CONTINUOUS
 62
     7
 10
182.1099853035348
 20
111.0236149323601
 30
0.0
  0
VERTEX
  5
2A9
  8
257
  6
CONTINUOUS
 62
     7
 10
182.9864781031847
 20
111.3650020759529
 30
0.0
  0
VERTEX
  5
2AA
  8
257
  6
CONTINUOUS
 62
     7
 10
183.8528112544115
 20
111.7315054169323
 30
0.0
  0
VERTEX
  5
2AB
  8
257
  6
CONTINUOUS
 62
     7
 10
184.7083710926653
 20
112.1228761289411
 30
0.0
  0
VERTEX
  5
2AC
  8
257
  6
CONTINUOUS
 62
     7
 10
185.5525080451845
 20
112.5386959329969
 30
0.0
  0
VERTEX
  5
2AD
  8
257
  6
CONTINUOUS
 62
     7
 10
186.3845694503285
 20
112.978531973547
 30
0.0
  0
VERTEX
  5
2AE
  8
257
  6
CONTINUOUS
 62
     7
 10
187.2039026464575
 20
113.4419513950392
 30
0.0
  0
VERTEX
  5
2AF
  8
257
  6
CONTINUOUS
 62
     7
 10
188.0098549719308
 20
113.9285213419209
 30
0.0
  0
VERTEX
  5
2B0
  8
257
  6
CONTINUOUS
 62
     7
 10
188.8017737651085
 20
114.4378089586398
 30
0.0
  0
VERTEX
  5
2B1
  8
257
  6
CONTINUOUS
 62
     7
 10
189.5790063643502
 20
114.9693813896435
 30
0.0
  0
VERTEX
  5
2B2
  8
257
  6
CONTINUOUS
 62
     7
 10
190.3409001080157
 20
115.5228057793794
 30
0.0
  0
VERTEX
  5
2B3
  8
257
  6
CONTINUOUS
 62
     7
 10
191.0868023344647
 20
116.0976492722952
 30
0.0
  0
VERTEX
  5
2B4
  8
257
  6
CONTINUOUS
 62
     7
 10
191.816060382057
 20
116.6934790128384
 30
0.0
  0
VERTEX
  5
2B5
  8
257
  6
CONTINUOUS
 62
     7
 10
192.5280215891524
 20
117.3098621454566
 30
0.0
  0
VERTEX
  5
2B6
  8
257
  6
CONTINUOUS
 62
     7
 10
193.2220332941105
 20
117.9463658145974
 30
0.0
  0
VERTEX
  5
2B7
  8
257
  6
CONTINUOUS
 62
     7
 10
193.8974428352912
 20
118.6025571647083
 30
0.0
  0
VERTEX
  5
2B8
  8
257
  6
CONTINUOUS
 62
     7
 10
194.5536341854021
 20
119.277966705889
 30
0.0
  0
VERTEX
  5
2B9
  8
257
  6
CONTINUOUS
 62
     7
 10
195.1901378545429
 20
119.9719784108471
 30
0.0
  0
VERTEX
  5
2BA
  8
257
  6
CONTINUOUS
 62
     7
 10
195.8065209871611
 20
120.6839396179424
 30
0.0
  0
VERTEX
  5
2BB
  8
257
  6
CONTINUOUS
 62
     7
 10
196.4023507277043
 20
121.4131976655347
 30
0.0
  0
VERTEX
  5
2BC
  8
257
  6
CONTINUOUS
 62
     7
 10
196.9771942206201
 20
122.1590998919837
 30
0.0
  0
VERTEX
  5
2BD
  8
257
  6
CONTINUOUS
 62
     7
 10
197.5306186103561
 20
122.9209936356492
 30
0.0
  0
VERTEX
  5
2BE
  8
257
  6
CONTINUOUS
 62
     7
 10
198.0621910413597
 20
123.6982262348909
 30
0.0
  0
VERTEX
  5
2BF
  8
257
  6
CONTINUOUS
 62
     7
 10
198.5714786580786
 20
124.4901450280686
 30
0.0
  0
VERTEX
  5
2C0
  8
257
  6
CONTINUOUS
 62
     7
 10
199.0580486049604
 20
125.296097353542
 30
0.0
  0
VERTEX
  5
2C1
  8
257
  6
CONTINUOUS
 62
     7
 10
199.5214680264526
 20
126.1154305496709
 30
0.0
  0
VERTEX
  5
2C2
  8
257
  6
CONTINUOUS
 62
     7
 10
199.9613040670027
 20
126.947491954815
 30
0.0
  0
VERTEX
  5
2C3
  8
257
  6
CONTINUOUS
 62
     7
 10
200.3771238710585
 20
127.7916289073341
 30
0.0
  0
VERTEX
  5
2C4
  8
257
  6
CONTINUOUS
 62
     7
 10
200.7684945830673
 20
128.6471887455879
 30
0.0
  0
VERTEX
  5
2C5
  8
257
  6
CONTINUOUS
 62
     7
 10
201.1349979240467
 20
129.5135218968147
 30
0.0
  0
VERTEX
  5
2C6
  8
257
  6
CONTINUOUS
 62
     7
 10
201.4763850676395
 20
130.3900146964646
 30
0.0
  0
VERTEX
  5
2C7
  8
257
  6
CONTINUOUS
 62
     7
 10
201.7925165117626
 20
131.2760766465765
 30
0.0
  0
VERTEX
  5
2C8
  8
257
  6
CONTINUOUS
 62
     7
 10
202.0832545764044
 20
132.1711176352985
 30
0.0
  0
VERTEX
  5
2C9
  8
257
  6
CONTINUOUS
 62
     7
 10
202.3484615815532
 20
133.0745475507794
 30
0.0
  0
VERTEX
  5
2CA
  8
257
  6
CONTINUOUS
 62
     7
 10
202.5879998471973
 20
133.9857762811674
 30
0.0
  0
VERTEX
  5
2CB
  8
257
  6
CONTINUOUS
 62
     7
 10
202.8017316933249
 20
134.904213714611
 30
0.0
  0
VERTEX
  5
2CC
  8
257
  6
CONTINUOUS
 62
     7
 10
202.9895059477469
 20
135.8291288460902
 30
0.0
  0
VERTEX
  5
2CD
  8
257
  6
CONTINUOUS
 62
     7
 10
203.1511174695638
 20
136.7592270979102
 30
0.0
  0
VERTEX
  5
2CE
  8
257
  6
CONTINUOUS
 62
     7
 10
203.2863476256986
 20
137.693072999208
 30
0.0
  0
VERTEX
  5
2CF
  8
257
  6
CONTINUOUS
 62
     7
 10
203.3949777830742
 20
138.62923107912
 30
0.0
  0
VERTEX
  5
2D0
  8
257
  6
CONTINUOUS
 62
     7
 10
203.4767893086139
 20
139.5662658667833
 30
0.0
  0
VERTEX
  5
2D1
  8
257
  6
CONTINUOUS
 62
     7
 10
203.5315635692404
 20
140.5027418913346
 30
0.0
  0
VERTEX
  5
2D2
  8
257
  6
CONTINUOUS
 62
     7
 10
203.5585214447983
 20
141.3533318281775
 30
0.0
  0
VERTEX
  5
2D3
  8
257
  6
CONTINUOUS
 62
     7
 10
203.5750230561322
 20
142.0352125865146
 30
0.0
  0
VERTEX
  5
2D4
  8
257
  6
CONTINUOUS
 62
     7
 10
203.5912104103343
 20
142.7171008839908
 30
0.0
  0
VERTEX
  5
2D5
  8
257
  6
CONTINUOUS
 62
     7
 10
203.6070835042714
 20
143.3989965750687
 30
0.0
  0
VERTEX
  5
2D6
  8
257
  6
CONTINUOUS
 62
     7
 10
203.6226423348106
 20
144.0808995142111
 30
0.0
  0
VERTEX
  5
2D7
  8
257
  6
CONTINUOUS
 62
     7
 10
203.6378868988185
 20
144.7628095558805
 30
0.0
  0
VERTEX
  5
2D8
  8
257
  6
CONTINUOUS
 62
     7
 10
203.6528171931622
 20
145.4447265545397
 30
0.0
  0
VERTEX
  5
2D9
  8
257
  6
CONTINUOUS
 62
     7
 10
203.6674332147083
 20
146.1266503646513
 30
0.0
  0
VERTEX
  5
2DA
  8
257
  6
CONTINUOUS
 62
     7
 10
203.6817349603238
 20
146.808580840678
 30
0.0
  0
VERTEX
  5
2DB
  8
257
  6
CONTINUOUS
 62
     7
 10
203.6957224268756
 20
147.4905178370825
 30
0.0
  0
VERTEX
  5
2DC
  8
257
  6
CONTINUOUS
 62
     7
 10
203.7093956112305
 20
148.1724612083275
 30
0.0
  0
VERTEX
  5
2DD
  8
257
  6
CONTINUOUS
 62
     7
 10
203.7227545102554
 20
148.8544108088756
 30
0.0
  0
VERTEX
  5
2DE
  8
257
  6
CONTINUOUS
 62
     7
 10
203.7357991208172
 20
149.5363664931895
 30
0.0
  0
VERTEX
  5
2DF
  8
257
  6
CONTINUOUS
 62
     7
 10
203.7485294397826
 20
150.2183281157319
 30
0.0
  0
VERTEX
  5
2E0
  8
257
  6
CONTINUOUS
 62
     7
 10
203.7609454641707
 20
150.9002955311025
 30
0.0
  0
VERTEX
  5
2E1
  8
257
  6
CONTINUOUS
 62
     7
 10
203.7730471916086
 20
151.5822685944493
 30
0.0
  0
VERTEX
  5
2E2
  8
257
  6
CONTINUOUS
 62
     7
 10
203.7848346198756
 20
152.2642471610573
 30
0.0
  0
VERTEX
  5
2E3
  8
257
  6
CONTINUOUS
 62
     7
 10
203.796307746751
 20
152.9462310862115
 30
0.0
  0
VERTEX
  5
2E4
  8
257
  6
CONTINUOUS
 62
     7
 10
203.807466570014
 20
153.628220225197
 30
0.0
  0
VERTEX
  5
2E5
  8
257
  6
CONTINUOUS
 62
     7
 10
203.818311087444
 20
154.3102144332987
 30
0.0
  0
VERTEX
  5
2E6
  8
257
  6
CONTINUOUS
 62
     7
 10
203.82884129682
 20
154.9922135658016
 30
0.0
  0
VERTEX
  5
2E7
  8
257
  6
CONTINUOUS
 62
     7
 10
203.8390571959216
 20
155.6742174779909
 30
0.0
  0
VERTEX
  5
2E8
  8
257
  6
CONTINUOUS
 62
     7
 10
203.8489587825278
 20
156.3562260251516
 30
0.0
  0
VERTEX
  5
2E9
  8
257
  6
CONTINUOUS
 62
     7
 10
203.858546054418
 20
157.0382390625686
 30
0.0
  0
VERTEX
  5
2EA
  8
257
  6
CONTINUOUS
 62
     7
 10
203.8678190093714
 20
157.7202564455269
 30
0.0
  0
VERTEX
  5
2EB
  8
257
  6
CONTINUOUS
 62
     7
 10
203.8767776451673
 20
158.4022780293116
 30
0.0
  0
VERTEX
  5
2EC
  8
257
  6
CONTINUOUS
 62
     7
 10
203.885421959585
 20
159.0843036692077
 30
0.0
  0
VERTEX
  5
2ED
  8
257
  6
CONTINUOUS
 62
     7
 10
203.8937519504474
 20
159.7663332204997
 30
0.0
  0
VERTEX
  5
2EE
  8
257
  6
CONTINUOUS
 62
     7
 10
203.901767616085
 20
160.4483665384659
 30
0.0
  0
VERTEX
  5
2EF
  8
257
  6
CONTINUOUS
 62
     7
 10
203.9094689551557
 20
161.1304034783804
 30
0.0
  0
VERTEX
  5
2F0
  8
257
  6
CONTINUOUS
 62
     7
 10
203.9168559663229
 20
161.8124438955174
 30
0.0
  0
VERTEX
  5
2F1
  8
257
  6
CONTINUOUS
 62
     7
 10
203.9239286482501
 20
162.4944876451511
 30
0.0
  0
VERTEX
  5
2F2
  8
257
  6
CONTINUOUS
 62
     7
 10
203.9306869996006
 20
163.1765345825556
 30
0.0
  0
VERTEX
  5
2F3
  8
257
  6
CONTINUOUS
 62
     7
 10
203.9371310190378
 20
163.8585845630051
 30
0.0
  0
VERTEX
  5
2F4
  8
257
  6
CONTINUOUS
 62
     7
 10
203.9432607052252
 20
164.5406374417738
 30
0.0
  0
VERTEX
  5
2F5
  8
257
  6
CONTINUOUS
 62
     7
 10
203.9490760568261
 20
165.2226930741356
 30
0.0
  0
VERTEX
  5
2F6
  8
257
  6
CONTINUOUS
 62
     7
 10
203.954577072504
 20
165.904751315365
 30
0.0
  0
VERTEX
  5
2F7
  8
257
  6
CONTINUOUS
 62
     7
 10
203.9597637509222
 20
166.5868120207359
 30
0.0
  0
VERTEX
  5
2F8
  8
257
  6
CONTINUOUS
 62
     7
 10
203.9646360907442
 20
167.2688750455226
 30
0.0
  0
VERTEX
  5
2F9
  8
257
  6
CONTINUOUS
 62
     7
 10
203.9691940906333
 20
167.9509402449992
 30
0.0
  0
VERTEX
  5
2FA
  8
257
  6
CONTINUOUS
 62
     7
 10
203.9734377492585
 20
168.6330074744347
 30
0.0
  0
VERTEX
  5
2FB
  8
257
  6
CONTINUOUS
 62
     7
 10
203.9773670656189
 20
169.3150765887851
 30
0.0
  0
VERTEX
  5
2FC
  8
257
  6
CONTINUOUS
 62
     7
 10
203.980982039226
 20
169.9971474425219
 30
0.0
  0
VERTEX
  5
2FD
  8
257
  6
CONTINUOUS
 62
     7
 10
203.984282669635
 20
170.6792198900746
 30
0.0
  0
VERTEX
  5
2FE
  8
257
  6
CONTINUOUS
 62
     7
 10
203.9872689564012
 20
171.3612937858729
 30
0.0
  0
VERTEX
  5
2FF
  8
257
  6
CONTINUOUS
 62
     7
 10
203.98994089908
 20
172.0433689843466
 30
0.0
  0
VERTEX
  5
300
  8
257
  6
CONTINUOUS
 62
     7
 10
203.9922984972265
 20
172.7254453399249
 30
0.0
  0
VERTEX
  5
301
  8
257
  6
CONTINUOUS
 62
     7
 10
203.9943417503964
 20
173.4075227070379
 30
0.0
  0
VERTEX
  5
302
  8
257
  6
CONTINUOUS
 62
     7
 10
203.9960706581446
 20
174.089600940115
 30
0.0
  0
VERTEX
  5
303
  8
257
  6
CONTINUOUS
 62
     7
 10
203.9974852200268
 20
174.7716798935858
 30
0.0
  0
VERTEX
  5
304
  8
257
  6
CONTINUOUS
 62
     7
 10
203.998585435598
 20
175.4537594218801
 30
0.0
  0
VERTEX
  5
305
  8
257
  6
CONTINUOUS
 62
     7
 10
203.9993713044138
 20
176.1358393794273
 30
0.0
  0
VERTEX
  5
306
  8
257
  6
CONTINUOUS
 62
     7
 10
203.9998428260294
 20
176.8179196206573
 30
0.0
  0
VERTEX
  5
307
  8
257
  6
CONTINUOUS
 62
     7
 10
204.0000000000001
 20
177.5
 30
0.0
  0
SEQEND
  5
58D
  8
257
  6
CONTINUOUS
 62
     7
  0
POLYLINE
  5
173
  8
257
  6
CONTINUOUS
 62
     7
 66
     1
 10
0.0
 20
0.0
 30
0.0
  0
VERTEX
  5
308
  8
257
  6
CONTINUOUS
 62
     7
 10
134.9999999999998
 20
108.5000000000002
 30
0.0
  0
VERTEX
  5
309
  8
257
  6
CONTINUOUS
 62
     7
 10
134.3179196206576
 20
108.5001571739708
 30
0.0
  0
VERTEX
  5
30A
  8
257
  6
CONTINUOUS
 62
     7
 10
133.6358393794277
 20
108.5006286955864
 30
0.0
  0
VERTEX
  5
30B
  8
257
  6
CONTINUOUS
 62
     7
 10
132.9537594218805
 20
108.5014145644022
 30
0.0
  0
VERTEX
  5
30C
  8
257
  6
CONTINUOUS
 62
     7
 10
132.2716798935863
 20
108.5025147799735
 30
0.0
  0
VERTEX
  5
30D
  8
257
  6
CONTINUOUS
 62
     7
 10
131.5896009401155
 20
108.5039293418556
 30
0.0
  0
VERTEX
  5
30E
  8
257
  6
CONTINUOUS
 62
     7
 10
130.9075227070385
 20
108.5056582496039
 30
0.0
  0
VERTEX
  5
30F
  8
257
  6
CONTINUOUS
 62
     7
 10
130.2254453399255
 20
108.5077015027737
 30
0.0
  0
VERTEX
  5
310
  8
257
  6
CONTINUOUS
 62
     7
 10
129.5433689843472
 20
108.5100591009203
 30
0.0
  0
VERTEX
  5
311
  8
257
  6
CONTINUOUS
 62
     7
 10
128.8612937858736
 20
108.512731043599
 30
0.0
  0
VERTEX
  5
312
  8
257
  6
CONTINUOUS
 62
     7
 10
128.1792198900752
 20
108.5157173303652
 30
0.0
  0
VERTEX
  5
313
  8
257
  6
CONTINUOUS
 62
     7
 10
127.4971474425225
 20
108.5190179607742
 30
0.0
  0
VERTEX
  5
314
  8
257
  6
CONTINUOUS
 62
     7
 10
126.8150765887857
 20
108.5226329343813
 30
0.0
  0
VERTEX
  5
315
  8
257
  6
CONTINUOUS
 62
     7
 10
126.1330074744353
 20
108.5265622507418
 30
0.0
  0
VERTEX
  5
316
  8
257
  6
CONTINUOUS
 62
     7
 10
125.4509402449998
 20
108.5308059093669
 30
0.0
  0
VERTEX
  5
317
  8
257
  6
CONTINUOUS
 62
     7
 10
124.7688750455231
 20
108.535363909256
 30
0.0
  0
VERTEX
  5
318
  8
257
  6
CONTINUOUS
 62
     7
 10
124.0868120207364
 20
108.540236249078
 30
0.0
  0
VERTEX
  5
319
  8
257
  6
CONTINUOUS
 62
     7
 10
123.4047513153654
 20
108.5454229274962
 30
0.0
  0
VERTEX
  5
31A
  8
257
  6
CONTINUOUS
 62
     7
 10
122.7226930741359
 20
108.5509239431741
 30
0.0
  0
VERTEX
  5
31B
  8
257
  6
CONTINUOUS
 62
     7
 10
122.0406374417739
 20
108.556739294775
 30
0.0
  0
VERTEX
  5
31C
  8
257
  6
CONTINUOUS
 62
     7
 10
121.3585845630052
 20
108.5628689809624
 30
0.0
  0
VERTEX
  5
31D
  8
257
  6
CONTINUOUS
 62
     7
 10
120.6765345825556
 20
108.5693130003996
 30
0.0
  0
VERTEX
  5
31E
  8
257
  6
CONTINUOUS
 62
     7
 10
119.994487645151
 20
108.5760713517501
 30
0.0
  0
VERTEX
  5
31F
  8
257
  6
CONTINUOUS
 62
     7
 10
119.3124438955173
 20
108.5831440336773
 30
0.0
  0
VERTEX
  5
320
  8
257
  6
CONTINUOUS
 62
     7
 10
118.6304034783802
 20
108.5905310448445
 30
0.0
  0
VERTEX
  5
321
  8
257
  6
CONTINUOUS
 62
     7
 10
117.9483665384656
 20
108.5982323839152
 30
0.0
  0
VERTEX
  5
322
  8
257
  6
CONTINUOUS
 62
     7
 10
117.2663332204994
 20
108.6062480495528
 30
0.0
  0
VERTEX
  5
323
  8
257
  6
CONTINUOUS
 62
     7
 10
116.5843036692074
 20
108.6145780404152
 30
0.0
  0
VERTEX
  5
324
  8
257
  6
CONTINUOUS
 62
     7
 10
115.9022780293112
 20
108.6232223548329
 30
0.0
  0
VERTEX
  5
325
  8
257
  6
CONTINUOUS
 62
     7
 10
115.2202564455265
 20
108.6321809906288
 30
0.0
  0
VERTEX
  5
326
  8
257
  6
CONTINUOUS
 62
     7
 10
114.5382390625682
 20
108.6414539455823
 30
0.0
  0
VERTEX
  5
327
  8
257
  6
CONTINUOUS
 62
     7
 10
113.8562260251513
 20
108.6510412174724
 30
0.0
  0
VERTEX
  5
328
  8
257
  6
CONTINUOUS
 62
     7
 10
113.1742174779907
 20
108.6609428040786
 30
0.0
  0
VERTEX
  5
329
  8
257
  6
CONTINUOUS
 62
     7
 10
112.4922135658015
 20
108.6711587031802
 30
0.0
  0
VERTEX
  5
32A
  8
257
  6
CONTINUOUS
 62
     7
 10
111.8102144332985
 20
108.6816889125562
 30
0.0
  0
VERTEX
  5
32B
  8
257
  6
CONTINUOUS
 62
     7
 10
111.1282202251969
 20
108.6925334299862
 30
0.0
  0
VERTEX
  5
32C
  8
257
  6
CONTINUOUS
 62
     7
 10
110.4462310862115
 20
108.7036922532492
 30
0.0
  0
VERTEX
  5
32D
  8
257
  6
CONTINUOUS
 62
     7
 10
109.7642471610573
 20
108.7151653801246
 30
0.0
  0
VERTEX
  5
32E
  8
257
  6
CONTINUOUS
 62
     7
 10
109.0822685944494
 20
108.7269528083916
 30
0.0
  0
VERTEX
  5
32F
  8
257
  6
CONTINUOUS
 62
     7
 10
108.4002955311026
 20
108.7390545358295
 30
0.0
  0
VERTEX
  5
330
  8
257
  6
CONTINUOUS
 62
     7
 10
107.718328115732
 20
108.7514705602176
 30
0.0
  0
VERTEX
  5
331
  8
257
  6
CONTINUOUS
 62
     7
 10
107.0363664931897
 20
108.7642008791831
 30
0.0
  0
VERTEX
  5
332
  8
257
  6
CONTINUOUS
 62
     7
 10
106.3544108088758
 20
108.7772454897448
 30
0.0
  0
VERTEX
  5
333
  8
257
  6
CONTINUOUS
 62
     7
 10
105.6724612083276
 20
108.7906043887697
 30
0.0
  0
VERTEX
  5
334
  8
257
  6
CONTINUOUS
 62
     7
 10
104.9905178370827
 20
108.8042775731246
 30
0.0
  0
VERTEX
  5
335
  8
257
  6
CONTINUOUS
 62
     7
 10
104.3085808406782
 20
108.8182650396764
 30
0.0
  0
VERTEX
  5
336
  8
257
  6
CONTINUOUS
 62
     7
 10
103.6266503646514
 20
108.8325667852919
 30
0.0
  0
VERTEX
  5
337
  8
257
  6
CONTINUOUS
 62
     7
 10
102.9447265545398
 20
108.847182806838
 30
0.0
  0
VERTEX
  5
338
  8
257
  6
CONTINUOUS
 62
     7
 10
102.2628095558807
 20
108.8621131011816
 30
0.0
  0
VERTEX
  5
339
  8
257
  6
CONTINUOUS
 62
     7
 10
101.5808995142113
 20
108.8773576651895
 30
0.0
  0
VERTEX
  5
33A
  8
257
  6
CONTINUOUS
 62
     7
 10
100.898996575069
 20
108.8929164957286
 30
0.0
  0
VERTEX
  5
33B
  8
257
  6
CONTINUOUS
 62
     7
 10
100.2171008839912
 20
108.9087895896657
 30
0.0
  0
VERTEX
  5
33C
  8
257
  6
CONTINUOUS
 62
     7
 10
99.53521258651513
 20
108.9249769438677
 30
0.0
  0
VERTEX
  5
33D
  8
257
  6
CONTINUOUS
 62
     7
 10
98.85333182817818
 20
108.9414785552015
 30
0.0
  0
VERTEX
  5
33E
  8
257
  6
CONTINUOUS
 62
     7
 10
98.0027418913353
 20
108.9684364307593
 30
0.0
  0
VERTEX
  5
33F
  8
257
  6
CONTINUOUS
 62
     7
 10
97.066265866784
 20
109.0232106913859
 30
0.0
  0
VERTEX
  5
340
  8
257
  6
CONTINUOUS
 62
     7
 10
96.12923107912069
 20
109.1050222169255
 30
0.0
  0
VERTEX
  5
341
  8
257
  6
CONTINUOUS
 62
     7
 10
95.19307299920858
 20
109.2136523743011
 30
0.0
  0
VERTEX
  5
342
  8
257
  6
CONTINUOUS
 62
     7
 10
94.25922709791087
 20
109.3488825304359
 30
0.0
  0
VERTEX
  5
343
  8
257
  6
CONTINUOUS
 62
     7
 10
93.32912884609081
 20
109.5104940522527
 30
0.0
  0
VERTEX
  5
344
  8
257
  6
CONTINUOUS
 62
     7
 10
92.40421371461164
 20
109.6982683066747
 30
0.0
  0
VERTEX
  5
345
  8
257
  6
CONTINUOUS
 62
     7
 10
91.48577628116799
 20
109.9120001528024
 30
0.0
  0
VERTEX
  5
346
  8
257
  6
CONTINUOUS
 62
     7
 10
90.57454755077995
 20
110.1515384184464
 30
0.0
  0
VERTEX
  5
347
  8
257
  6
CONTINUOUS
 62
     7
 10
89.67111763529913
 20
110.4167454235952
 30
0.0
  0
VERTEX
  5
348
  8
257
  6
CONTINUOUS
 62
     7
 10
88.77607664657705
 20
110.707483488237
 30
0.0
  0
VERTEX
  5
349
  8
257
  6
CONTINUOUS
 62
     7
 10
87.89001469646523
 20
111.0236149323601
 30
0.0
  0
VERTEX
  5
34A
  8
257
  6
CONTINUOUS
 62
     7
 10
87.01352189681526
 20
111.3650020759529
 30
0.0
  0
VERTEX
  5
34B
  8
257
  6
CONTINUOUS
 62
     7
 10
86.14718874558851
 20
111.7315054169323
 30
0.0
  0
VERTEX
  5
34C
  8
257
  6
CONTINUOUS
 62
     7
 10
85.29162890733465
 20
112.1228761289411
 30
0.0
  0
VERTEX
  5
34D
  8
257
  6
CONTINUOUS
 62
     7
 10
84.44749195481558
 20
112.5386959329969
 30
0.0
  0
VERTEX
  5
34E
  8
257
  6
CONTINUOUS
 62
     7
 10
83.61543054967146
 20
112.978531973547
 30
0.0
  0
VERTEX
  5
34F
  8
257
  6
CONTINUOUS
 62
     7
 10
82.79609735354259
 20
113.4419513950392
 30
0.0
  0
VERTEX
  5
350
  8
257
  6
CONTINUOUS
 62
     7
 10
81.99014502806916
 20
113.9285213419209
 30
0.0
  0
VERTEX
  5
351
  8
257
  6
CONTINUOUS
 62
     7
 10
81.1982262348915
 20
114.4378089586398
 30
0.0
  0
VERTEX
  5
352
  8
257
  6
CONTINUOUS
 62
     7
 10
80.42099363564978
 20
114.9693813896435
 30
0.0
  0
VERTEX
  5
353
  8
257
  6
CONTINUOUS
 62
     7
 10
79.6590998919843
 20
115.5228057793794
 30
0.0
  0
VERTEX
  5
354
  8
257
  6
CONTINUOUS
 62
     7
 10
78.91319766553528
 20
116.0976492722952
 30
0.0
  0
VERTEX
  5
355
  8
257
  6
CONTINUOUS
 62
     7
 10
78.18393961794298
 20
116.6934790128384
 30
0.0
  0
VERTEX
  5
356
  8
257
  6
CONTINUOUS
 62
     7
 10
77.47197841084764
 20
117.3098621454566
 30
0.0
  0
VERTEX
  5
357
  8
257
  6
CONTINUOUS
 62
     7
 10
76.77796670588953
 20
117.9463658145974
 30
0.0
  0
VERTEX
  5
358
  8
257
  6
CONTINUOUS
 62
     7
 10
76.10255716470886
 20
118.6025571647083
 30
0.0
  0
VERTEX
  5
359
  8
257
  6
CONTINUOUS
 62
     7
 10
75.44636581459794
 20
119.277966705889
 30
0.0
  0
VERTEX
  5
35A
  8
257
  6
CONTINUOUS
 62
     7
 10
74.80986214545715
 20
119.9719784108471
 30
0.0
  0
VERTEX
  5
35B
  8
257
  6
CONTINUOUS
 62
     7
 10
74.1934790128389
 20
120.6839396179424
 30
0.0
  0
VERTEX
  5
35C
  8
257
  6
CONTINUOUS
 62
     7
 10
73.59764927229568
 20
121.4131976655347
 30
0.0
  0
VERTEX
  5
35D
  8
257
  6
CONTINUOUS
 62
     7
 10
73.02280577937988
 20
122.1590998919837
 30
0.0
  0
VERTEX
  5
35E
  8
257
  6
CONTINUOUS
 62
     7
 10
72.46938138964396
 20
122.9209936356492
 30
0.0
  0
VERTEX
  5
35F
  8
257
  6
CONTINUOUS
 62
     7
 10
71.93780895864032
 20
123.6982262348909
 30
0.0
  0
VERTEX
  5
360
  8
257
  6
CONTINUOUS
 62
     7
 10
71.4285213419214
 20
124.4901450280686
 30
0.0
  0
VERTEX
  5
361
  8
257
  6
CONTINUOUS
 62
     7
 10
70.94195139503962
 20
125.296097353542
 30
0.0
  0
VERTEX
  5
362
  8
257
  6
CONTINUOUS
 62
     7
 10
70.47853197354745
 20
126.1154305496709
 30
0.0
  0
VERTEX
  5
363
  8
257
  6
CONTINUOUS
 62
     7
 10
70.0386959329973
 20
126.947491954815
 30
0.0
  0
VERTEX
  5
364
  8
257
  6
CONTINUOUS
 62
     7
 10
69.62287612894157
 20
127.7916289073341
 30
0.0
  0
VERTEX
  5
365
  8
257
  6
CONTINUOUS
 62
     7
 10
69.23150541693272
 20
128.6471887455879
 30
0.0
  0
VERTEX
  5
366
  8
257
  6
CONTINUOUS
 62
     7
 10
68.8650020759533
 20
129.5135218968147
 30
0.0
  0
VERTEX
  5
367
  8
257
  6
CONTINUOUS
 62
     7
 10
68.52361493236054
 20
130.3900146964646
 30
0.0
  0
VERTEX
  5
368
  8
257
  6
CONTINUOUS
 62
     7
 10
68.20748348823741
 20
131.2760766465765
 30
0.0
  0
VERTEX
  5
369
  8
257
  6
CONTINUOUS
 62
     7
 10
67.91674542359559
 20
132.1711176352985
 30
0.0
  0
VERTEX
  5
36A
  8
257
  6
CONTINUOUS
 62
     7
 10
67.65153841844679
 20
133.0745475507794
 30
0.0
  0
VERTEX
  5
36B
  8
257
  6
CONTINUOUS
 62
     7
 10
67.41200015280275
 20
133.9857762811674
 30
0.0
  0
VERTEX
  5
36C
  8
257
  6
CONTINUOUS
 62
     7
 10
67.19826830667508
 20
134.904213714611
 30
0.0
  0
VERTEX
  5
36D
  8
257
  6
CONTINUOUS
 62
     7
 10
67.01049405225311
 20
135.8291288460902
 30
0.0
  0
VERTEX
  5
36E
  8
257
  6
CONTINUOUS
 62
     7
 10
66.84888253043621
 20
136.7592270979102
 30
0.0
  0
VERTEX
  5
36F
  8
257
  6
CONTINUOUS
 62
     7
 10
66.71365237430146
 20
137.693072999208
 30
0.0
  0
VERTEX
  5
370
  8
257
  6
CONTINUOUS
 62
     7
 10
66.60502221692576
 20
138.62923107912
 30
0.0
  0
VERTEX
  5
371
  8
257
  6
CONTINUOUS
 62
     7
 10
66.52321069138614
 20
139.5662658667833
 30
0.0
  0
VERTEX
  5
372
  8
257
  6
CONTINUOUS
 62
     7
 10
66.46843643075957
 20
140.5027418913346
 30
0.0
  0
VERTEX
  5
373
  8
257
  6
CONTINUOUS
 62
     7
 10
66.44147855520168
 20
141.3533318281775
 30
0.0
  0
VERTEX
  5
374
  8
257
  6
CONTINUOUS
 62
     7
 10
66.4249769438678
 20
142.0352125865146
 30
0.0
  0
VERTEX
  5
375
  8
257
  6
CONTINUOUS
 62
     7
 10
66.40878958966573
 20
142.7171008839908
 30
0.0
  0
VERTEX
  5
376
  8
257
  6
CONTINUOUS
 62
     7
 10
66.39291649572854
 20
143.3989965750687
 30
0.0
  0
VERTEX
  5
377
  8
257
  6
CONTINUOUS
 62
     7
 10
66.37735766518942
 20
144.0808995142111
 30
0.0
  0
VERTEX
  5
378
  8
257
  6
CONTINUOUS
 62
     7
 10
66.36211310118149
 20
144.7628095558805
 30
0.0
  0
VERTEX
  5
379
  8
257
  6
CONTINUOUS
 62
     7
 10
66.3471828068379
 20
145.4447265545397
 30
0.0
  0
VERTEX
  5
37A
  8
257
  6
CONTINUOUS
 62
     7
 10
66.33256678529176
 20
146.1266503646513
 30
0.0
  0
VERTEX
  5
37B
  8
257
  6
CONTINUOUS
 62
     7
 10
66.3182650396762
 20
146.808580840678
 30
0.0
  0
VERTEX
  5
37C
  8
257
  6
CONTINUOUS
 62
     7
 10
66.30427757312441
 20
147.4905178370825
 30
0.0
  0
VERTEX
  5
37D
  8
257
  6
CONTINUOUS
 62
     7
 10
66.2906043887695
 20
148.1724612083275
 30
0.0
  0
VERTEX
  5
37E
  8
257
  6
CONTINUOUS
 62
     7
 10
66.2772454897446
 20
148.8544108088756
 30
0.0
  0
VERTEX
  5
37F
  8
257
  6
CONTINUOUS
 62
     7
 10
66.26420087918285
 20
149.5363664931895
 30
0.0
  0
VERTEX
  5
380
  8
257
  6
CONTINUOUS
 62
     7
 10
66.2514705602174
 20
150.2183281157319
 30
0.0
  0
VERTEX
  5
381
  8
257
  6
CONTINUOUS
 62
     7
 10
66.23905453582933
 20
150.9002955311025
 30
0.0
  0
VERTEX
  5
382
  8
257
  6
CONTINUOUS
 62
     7
 10
66.2269528083914
 20
151.5822685944493
 30
0.0
  0
VERTEX
  5
383
  8
257
  6
CONTINUOUS
 62
     7
 10
66.21516538012439
 20
152.2642471610573
 30
0.0
  0
VERTEX
  5
384
  8
257
  6
CONTINUOUS
 62
     7
 10
66.203692253249
 20
152.9462310862115
 30
0.0
  0
VERTEX
  5
385
  8
257
  6
CONTINUOUS
 62
     7
 10
66.192533429986
 20
153.628220225197
 30
0.0
  0
VERTEX
  5
386
  8
257
  6
CONTINUOUS
 62
     7
 10
66.18168891255607
 20
154.3102144332987
 30
0.0
  0
VERTEX
  5
387
  8
257
  6
CONTINUOUS
 62
     7
 10
66.17115870317998
 20
154.9922135658016
 30
0.0
  0
VERTEX
  5
388
  8
257
  6
CONTINUOUS
 62
     7
 10
66.16094280407846
 20
155.6742174779909
 30
0.0
  0
VERTEX
  5
389
  8
257
  6
CONTINUOUS
 62
     7
 10
66.15104121747224
 20
156.3562260251516
 30
0.0
  0
VERTEX
  5
38A
  8
257
  6
CONTINUOUS
 62
     7
 10
66.14145394558204
 20
157.0382390625686
 30
0.0
  0
VERTEX
  5
38B
  8
257
  6
CONTINUOUS
 62
     7
 10
66.13218099062861
 20
157.7202564455269
 30
0.0
  0
VERTEX
  5
38C
  8
257
  6
CONTINUOUS
 62
     7
 10
66.1232223548327
 20
158.4022780293116
 30
0.0
  0
VERTEX
  5
38D
  8
257
  6
CONTINUOUS
 62
     7
 10
66.11457804041501
 20
159.0843036692077
 30
0.0
  0
VERTEX
  5
38E
  8
257
  6
CONTINUOUS
 62
     7
 10
66.1062480495526
 20
159.7663332204997
 30
0.0
  0
VERTEX
  5
38F
  8
257
  6
CONTINUOUS
 62
     7
 10
66.09823238391505
 20
160.4483665384659
 30
0.0
  0
VERTEX
  5
390
  8
257
  6
CONTINUOUS
 62
     7
 10
66.09053104484433
 20
161.1304034783804
 30
0.0
  0
VERTEX
  5
391
  8
257
  6
CONTINUOUS
 62
     7
 10
66.08314403367709
 20
161.8124438955174
 30
0.0
  0
VERTEX
  5
392
  8
257
  6
CONTINUOUS
 62
     7
 10
66.07607135174992
 20
162.4944876451511
 30
0.0
  0
VERTEX
  5
393
  8
257
  6
CONTINUOUS
 62
     7
 10
66.06931300039942
 20
163.1765345825556
 30
0.0
  0
VERTEX
  5
394
  8
257
  6
CONTINUOUS
 62
     7
 10
66.06286898096218
 20
163.8585845630051
 30
0.0
  0
VERTEX
  5
395
  8
257
  6
CONTINUOUS
 62
     7
 10
66.05673929477481
 20
164.5406374417738
 30
0.0
  0
VERTEX
  5
396
  8
257
  6
CONTINUOUS
 62
     7
 10
66.05092394317388
 20
165.2226930741356
 30
0.0
  0
VERTEX
  5
397
  8
257
  6
CONTINUOUS
 62
     7
 10
66.04542292749602
 20
165.904751315365
 30
0.0
  0
VERTEX
  5
398
  8
257
  6
CONTINUOUS
 62
     7
 10
66.04023624907781
 20
166.5868120207359
 30
0.0
  0
VERTEX
  5
399
  8
257
  6
CONTINUOUS
 62
     7
 10
66.03536390925584
 20
167.2688750455226
 30
0.0
  0
VERTEX
  5
39A
  8
257
  6
CONTINUOUS
 62
     7
 10
66.03080590936672
 20
167.9509402449992
 30
0.0
  0
VERTEX
  5
39B
  8
257
  6
CONTINUOUS
 62
     7
 10
66.02656225074156
 20
168.6330074744347
 30
0.0
  0
VERTEX
  5
39C
  8
257
  6
CONTINUOUS
 62
     7
 10
66.02263293438106
 20
169.3150765887851
 30
0.0
  0
VERTEX
  5
39D
  8
257
  6
CONTINUOUS
 62
     7
 10
66.01901796077401
 20
169.9971474425219
 30
0.0
  0
VERTEX
  5
39E
  8
257
  6
CONTINUOUS
 62
     7
 10
66.01571733036504
 20
170.6792198900746
 30
0.0
  0
VERTEX
  5
39F
  8
257
  6
CONTINUOUS
 62
     7
 10
66.01273104359883
 20
171.3612937858729
 30
0.0
  0
VERTEX
  5
3A0
  8
257
  6
CONTINUOUS
 62
     7
 10
66.01005910092009
 20
172.0433689843466
 30
0.0
  0
VERTEX
  5
3A1
  8
257
  6
CONTINUOUS
 62
     7
 10
66.00770150277347
 20
172.7254453399249
 30
0.0
  0
VERTEX
  5
3A2
  8
257
  6
CONTINUOUS
 62
     7
 10
66.00565824960368
 20
173.4075227070379
 30
0.0
  0
VERTEX
  5
3A3
  8
257
  6
CONTINUOUS
 62
     7
 10
66.00392934185538
 20
174.089600940115
 30
0.0
  0
VERTEX
  5
3A4
  8
257
  6
CONTINUOUS
 62
     7
 10
66.00251477997323
 20
174.7716798935858
 30
0.0
  0
VERTEX
  5
3A5
  8
257
  6
CONTINUOUS
 62
     7
 10
66.00141456440194
 20
175.4537594218801
 30
0.0
  0
VERTEX
  5
3A6
  8
257
  6
CONTINUOUS
 62
     7
 10
66.00062869558617
 20
176.1358393794273
 30
0.0
  0
VERTEX
  5
3A7
  8
257
  6
CONTINUOUS
 62
     7
 10
66.00015717397063
 20
176.8179196206573
 30
0.0
  0
VERTEX
  5
3A8
  8
257
  6
CONTINUOUS
 62
     7
 10
65.99999999999996
 20
177.5
 30
0.0
  0
SEQEND
  5
58E
  8
257
  6
CONTINUOUS
 62
     7
  0
POLYLINE
  5
174
  8
257
  6
CONTINUOUS
 62
     7
 66
     1
 10
0.0
 20
0.0
 30
0.0
  0
VERTEX
  5
3A9
  8
257
  6
CONTINUOUS
 62
     7
 10
134.9999999999998
 20
246.4999999999998
 30
0.0
  0
VERTEX
  5
3AA
  8
257
  6
CONTINUOUS
 62
     7
 10
134.3179196206576
 20
246.4998428260292
 30
0.0
  0
VERTEX
  5
3AB
  8
257
  6
CONTINUOUS
 62
     7
 10
133.6358393794277
 20
246.4993713044136
 30
0.0
  0
VERTEX
  5
3AC
  8
257
  6
CONTINUOUS
 62
     7
 10
132.9537594218805
 20
246.4985854355978
 30
0.0
  0
VERTEX
  5
3AD
  8
257
  6
CONTINUOUS
 62
     7
 10
132.2716798935863
 20
246.4974852200265
 30
0.0
  0
VERTEX
  5
3AE
  8
257
  6
CONTINUOUS
 62
     7
 10
131.5896009401155
 20
246.4960706581444
 30
0.0
  0
VERTEX
  5
3AF
  8
257
  6
CONTINUOUS
 62
     7
 10
130.9075227070385
 20
246.494341750396
 30
0.0
  0
VERTEX
  5
3B0
  8
257
  6
CONTINUOUS
 62
     7
 10
130.2254453399255
 20
246.4922984972263
 30
0.0
  0
VERTEX
  5
3B1
  8
257
  6
CONTINUOUS
 62
     7
 10
129.5433689843472
 20
246.4899408990797
 30
0.0
  0
VERTEX
  5
3B2
  8
257
  6
CONTINUOUS
 62
     7
 10
128.8612937858736
 20
246.4872689564009
 30
0.0
  0
VERTEX
  5
3B3
  8
257
  6
CONTINUOUS
 62
     7
 10
128.1792198900752
 20
246.4842826696348
 30
0.0
  0
VERTEX
  5
3B4
  8
257
  6
CONTINUOUS
 62
     7
 10
127.4971474425225
 20
246.4809820392258
 30
0.0
  0
VERTEX
  5
3B5
  8
257
  6
CONTINUOUS
 62
     7
 10
126.8150765887857
 20
246.4773670656187
 30
0.0
  0
VERTEX
  5
3B6
  8
257
  6
CONTINUOUS
 62
     7
 10
126.1330074744353
 20
246.4734377492582
 30
0.0
  0
VERTEX
  5
3B7
  8
257
  6
CONTINUOUS
 62
     7
 10
125.4509402449998
 20
246.469194090633
 30
0.0
  0
VERTEX
  5
3B8
  8
257
  6
CONTINUOUS
 62
     7
 10
124.7688750455231
 20
246.4646360907439
 30
0.0
  0
VERTEX
  5
3B9
  8
257
  6
CONTINUOUS
 62
     7
 10
124.0868120207364
 20
246.459763750922
 30
0.0
  0
VERTEX
  5
3BA
  8
257
  6
CONTINUOUS
 62
     7
 10
123.4047513153654
 20
246.4545770725038
 30
0.0
  0
VERTEX
  5
3BB
  8
257
  6
CONTINUOUS
 62
     7
 10
122.7226930741359
 20
246.4490760568259
 30
0.0
  0
VERTEX
  5
3BC
  8
257
  6
CONTINUOUS
 62
     7
 10
122.0406374417739
 20
246.443260705225
 30
0.0
  0
VERTEX
  5
3BD
  8
257
  6
CONTINUOUS
 62
     7
 10
121.3585845630052
 20
246.4371310190376
 30
0.0
  0
VERTEX
  5
3BE
  8
257
  6
CONTINUOUS
 62
     7
 10
120.6765345825556
 20
246.4306869996004
 30
0.0
  0
VERTEX
  5
3BF
  8
257
  6
CONTINUOUS
 62
     7
 10
119.994487645151
 20
246.4239286482498
 30
0.0
  0
VERTEX
  5
3C0
  8
257
  6
CONTINUOUS
 62
     7
 10
119.3124438955173
 20
246.4168559663227
 30
0.0
  0
VERTEX
  5
3C1
  8
257
  6
CONTINUOUS
 62
     7
 10
118.6304034783802
 20
246.4094689551555
 30
0.0
  0
VERTEX
  5
3C2
  8
257
  6
CONTINUOUS
 62
     7
 10
117.9483665384656
 20
246.4017676160848
 30
0.0
  0
VERTEX
  5
3C3
  8
257
  6
CONTINUOUS
 62
     7
 10
117.2663332204994
 20
246.3937519504472
 30
0.0
  0
VERTEX
  5
3C4
  8
257
  6
CONTINUOUS
 62
     7
 10
116.5843036692074
 20
246.3854219595848
 30
0.0
  0
VERTEX
  5
3C5
  8
257
  6
CONTINUOUS
 62
     7
 10
115.9022780293112
 20
246.3767776451671
 30
0.0
  0
VERTEX
  5
3C6
  8
257
  6
CONTINUOUS
 62
     7
 10
115.2202564455265
 20
246.3678190093712
 30
0.0
  0
VERTEX
  5
3C7
  8
257
  6
CONTINUOUS
 62
     7
 10
114.5382390625682
 20
246.3585460544178
 30
0.0
  0
VERTEX
  5
3C8
  8
257
  6
CONTINUOUS
 62
     7
 10
113.8562260251513
 20
246.3489587825276
 30
0.0
  0
VERTEX
  5
3C9
  8
257
  6
CONTINUOUS
 62
     7
 10
113.1742174779907
 20
246.3390571959213
 30
0.0
  0
VERTEX
  5
3CA
  8
257
  6
CONTINUOUS
 62
     7
 10
112.4922135658015
 20
246.3288412968198
 30
0.0
  0
VERTEX
  5
3CB
  8
257
  6
CONTINUOUS
 62
     7
 10
111.8102144332985
 20
246.3183110874437
 30
0.0
  0
VERTEX
  5
3CC
  8
257
  6
CONTINUOUS
 62
     7
 10
111.1282202251969
 20
246.3074665700138
 30
0.0
  0
VERTEX
  5
3CD
  8
257
  6
CONTINUOUS
 62
     7
 10
110.4462310862115
 20
246.2963077467508
 30
0.0
  0
VERTEX
  5
3CE
  8
257
  6
CONTINUOUS
 62
     7
 10
109.7642471610573
 20
246.2848346198754
 30
0.0
  0
VERTEX
  5
3CF
  8
257
  6
CONTINUOUS
 62
     7
 10
109.0822685944494
 20
246.2730471916084
 30
0.0
  0
VERTEX
  5
3D0
  8
257
  6
CONTINUOUS
 62
     7
 10
108.4002955311026
 20
246.2609454641704
 30
0.0
  0
VERTEX
  5
3D1
  8
257
  6
CONTINUOUS
 62
     7
 10
107.718328115732
 20
246.2485294397824
 30
0.0
  0
VERTEX
  5
3D2
  8
257
  6
CONTINUOUS
 62
     7
 10
107.0363664931897
 20
246.2357991208169
 30
0.0
  0
VERTEX
  5
3D3
  8
257
  6
CONTINUOUS
 62
     7
 10
106.3544108088758
 20
246.2227545102552
 30
0.0
  0
VERTEX
  5
3D4
  8
257
  6
CONTINUOUS
 62
     7
 10
105.6724612083276
 20
246.2093956112302
 30
0.0
  0
VERTEX
  5
3D5
  8
257
  6
CONTINUOUS
 62
     7
 10
104.9905178370827
 20
246.1957224268754
 30
0.0
  0
VERTEX
  5
3D6
  8
257
  6
CONTINUOUS
 62
     7
 10
104.3085808406782
 20
246.1817349603236
 30
0.0
  0
VERTEX
  5
3D7
  8
257
  6
CONTINUOUS
 62
     7
 10
103.6266503646514
 20
246.167433214708
 30
0.0
  0
VERTEX
  5
3D8
  8
257
  6
CONTINUOUS
 62
     7
 10
102.9447265545398
 20
246.1528171931619
 30
0.0
  0
VERTEX
  5
3D9
  8
257
  6
CONTINUOUS
 62
     7
 10
102.2628095558807
 20
246.1378868988184
 30
0.0
  0
VERTEX
  5
3DA
  8
257
  6
CONTINUOUS
 62
     7
 10
101.5808995142113
 20
246.1226423348105
 30
0.0
  0
VERTEX
  5
3DB
  8
257
  6
CONTINUOUS
 62
     7
 10
100.898996575069
 20
246.1070835042714
 30
0.0
  0
VERTEX
  5
3DC
  8
257
  6
CONTINUOUS
 62
     7
 10
100.2171008839912
 20
246.0912104103343
 30
0.0
  0
VERTEX
  5
3DD
  8
257
  6
CONTINUOUS
 62
     7
 10
99.53521258651513
 20
246.0750230561322
 30
0.0
  0
VERTEX
  5
3DE
  8
257
  6
CONTINUOUS
 62
     7
 10
98.85333182817818
 20
246.0585214447985
 30
0.0
  0
VERTEX
  5
3DF
  8
257
  6
CONTINUOUS
 62
     7
 10
98.0027418913353
 20
246.0315635692406
 30
0.0
  0
VERTEX
  5
3E0
  8
257
  6
CONTINUOUS
 62
     7
 10
97.066265866784
 20
245.9767893086141
 30
0.0
  0
VERTEX
  5
3E1
  8
257
  6
CONTINUOUS
 62
     7
 10
96.12923107912069
 20
245.8949777830745
 30
0.0
  0
VERTEX
  5
3E2
  8
257
  6
CONTINUOUS
 62
     7
 10
95.19307299920858
 20
245.7863476256989
 30
0.0
  0
VERTEX
  5
3E3
  8
257
  6
CONTINUOUS
 62
     7
 10
94.25922709791087
 20
245.6511174695641
 30
0.0
  0
VERTEX
  5
3E4
  8
257
  6
CONTINUOUS
 62
     7
 10
93.32912884609081
 20
245.4895059477472
 30
0.0
  0
VERTEX
  5
3E5
  8
257
  6
CONTINUOUS
 62
     7
 10
92.40421371461164
 20
245.3017316933253
 30
0.0
  0
VERTEX
  5
3E6
  8
257
  6
CONTINUOUS
 62
     7
 10
91.48577628116799
 20
245.0879998471977
 30
0.0
  0
VERTEX
  5
3E7
  8
257
  6
CONTINUOUS
 62
     7
 10
90.57454755077995
 20
244.8484615815536
 30
0.0
  0
VERTEX
  5
3E8
  8
257
  6
CONTINUOUS
 62
     7
 10
89.67111763529913
 20
244.5832545764048
 30
0.0
  0
VERTEX
  5
3E9
  8
257
  6
CONTINUOUS
 62
     7
 10
88.77607664657705
 20
244.292516511763
 30
0.0
  0
VERTEX
  5
3EA
  8
257
  6
CONTINUOUS
 62
     7
 10
87.89001469646523
 20
243.9763850676398
 30
0.0
  0
VERTEX
  5
3EB
  8
257
  6
CONTINUOUS
 62
     7
 10
87.01352189681526
 20
243.6349979240471
 30
0.0
  0
VERTEX
  5
3EC
  8
257
  6
CONTINUOUS
 62
     7
 10
86.14718874558851
 20
243.2684945830676
 30
0.0
  0
VERTEX
  5
3ED
  8
257
  6
CONTINUOUS
 62
     7
 10
85.29162890733465
 20
242.8771238710588
 30
0.0
  0
VERTEX
  5
3EE
  8
257
  6
CONTINUOUS
 62
     7
 10
84.44749195481558
 20
242.4613040670031
 30
0.0
  0
VERTEX
  5
3EF
  8
257
  6
CONTINUOUS
 62
     7
 10
83.61543054967146
 20
242.021468026453
 30
0.0
  0
VERTEX
  5
3F0
  8
257
  6
CONTINUOUS
 62
     7
 10
82.79609735354259
 20
241.5580486049608
 30
0.0
  0
VERTEX
  5
3F1
  8
257
  6
CONTINUOUS
 62
     7
 10
81.99014502806916
 20
241.071478658079
 30
0.0
  0
VERTEX
  5
3F2
  8
257
  6
CONTINUOUS
 62
     7
 10
81.1982262348915
 20
240.5621910413601
 30
0.0
  0
VERTEX
  5
3F3
  8
257
  6
CONTINUOUS
 62
     7
 10
80.42099363564978
 20
240.0306186103565
 30
0.0
  0
VERTEX
  5
3F4
  8
257
  6
CONTINUOUS
 62
     7
 10
79.6590998919843
 20
239.4771942206206
 30
0.0
  0
VERTEX
  5
3F5
  8
257
  6
CONTINUOUS
 62
     7
 10
78.91319766553528
 20
238.9023507277048
 30
0.0
  0
VERTEX
  5
3F6
  8
257
  6
CONTINUOUS
 62
     7
 10
78.18393961794298
 20
238.3065209871616
 30
0.0
  0
VERTEX
  5
3F7
  8
257
  6
CONTINUOUS
 62
     7
 10
77.47197841084764
 20
237.6901378545434
 30
0.0
  0
VERTEX
  5
3F8
  8
257
  6
CONTINUOUS
 62
     7
 10
76.77796670588953
 20
237.0536341854026
 30
0.0
  0
VERTEX
  5
3F9
  8
257
  6
CONTINUOUS
 62
     7
 10
76.10255716470886
 20
236.3974428352917
 30
0.0
  0
VERTEX
  5
3FA
  8
257
  6
CONTINUOUS
 62
     7
 10
75.44636581459794
 20
235.722033294111
 30
0.0
  0
VERTEX
  5
3FB
  8
257
  6
CONTINUOUS
 62
     7
 10
74.80986214545715
 20
235.0280215891529
 30
0.0
  0
VERTEX
  5
3FC
  8
257
  6
CONTINUOUS
 62
     7
 10
74.1934790128389
 20
234.3160603820575
 30
0.0
  0
VERTEX
  5
3FD
  8
257
  6
CONTINUOUS
 62
     7
 10
73.59764927229568
 20
233.5868023344652
 30
0.0
  0
VERTEX
  5
3FE
  8
257
  6
CONTINUOUS
 62
     7
 10
73.02280577937988
 20
232.8409001080163
 30
0.0
  0
VERTEX
  5
3FF
  8
257
  6
CONTINUOUS
 62
     7
 10
72.46938138964396
 20
232.0790063643508
 30
0.0
  0
VERTEX
  5
400
  8
257
  6
CONTINUOUS
 62
     7
 10
71.93780895864032
 20
231.3017737651091
 30
0.0
  0
VERTEX
  5
401
  8
257
  6
CONTINUOUS
 62
     7
 10
71.4285213419214
 20
230.5098549719314
 30
0.0
  0
VERTEX
  5
402
  8
257
  6
CONTINUOUS
 62
     7
 10
70.94195139503962
 20
229.703902646458
 30
0.0
  0
VERTEX
  5
403
  8
257
  6
CONTINUOUS
 62
     7
 10
70.47853197354745
 20
228.8845694503291
 30
0.0
  0
VERTEX
  5
404
  8
257
  6
CONTINUOUS
 62
     7
 10
70.0386959329973
 20
228.052508045185
 30
0.0
  0
VERTEX
  5
405
  8
257
  6
CONTINUOUS
 62
     7
 10
69.62287612894157
 20
227.2083710926659
 30
0.0
  0
VERTEX
  5
406
  8
257
  6
CONTINUOUS
 62
     7
 10
69.23150541693272
 20
226.352811254412
 30
0.0
  0
VERTEX
  5
407
  8
257
  6
CONTINUOUS
 62
     7
 10
68.8650020759533
 20
225.4864781031853
 30
0.0
  0
VERTEX
  5
408
  8
257
  6
CONTINUOUS
 62
     7
 10
68.52361493236054
 20
224.6099853035354
 30
0.0
  0
VERTEX
  5
409
  8
257
  6
CONTINUOUS
 62
     7
 10
68.20748348823741
 20
223.7239233534236
 30
0.0
  0
VERTEX
  5
40A
  8
257
  6
CONTINUOUS
 62
     7
 10
67.91674542359559
 20
222.8288823647014
 30
0.0
  0
VERTEX
  5
40B
  8
257
  6
CONTINUOUS
 62
     7
 10
67.65153841844679
 20
221.9254524492206
 30
0.0
  0
VERTEX
  5
40C
  8
257
  6
CONTINUOUS
 62
     7
 10
67.41200015280275
 20
221.0142237188326
 30
0.0
  0
VERTEX
  5
40D
  8
257
  6
CONTINUOUS
 62
     7
 10
67.19826830667508
 20
220.0957862853889
 30
0.0
  0
VERTEX
  5
40E
  8
257
  6
CONTINUOUS
 62
     7
 10
67.01049405225311
 20
219.1708711539098
 30
0.0
  0
VERTEX
  5
40F
  8
257
  6
CONTINUOUS
 62
     7
 10
66.84888253043621
 20
218.2407729020897
 30
0.0
  0
VERTEX
  5
410
  8
257
  6
CONTINUOUS
 62
     7
 10
66.71365237430146
 20
217.3069270007921
 30
0.0
  0
VERTEX
  5
411
  8
257
  6
CONTINUOUS
 62
     7
 10
66.60502221692576
 20
216.3707689208799
 30
0.0
  0
VERTEX
  5
412
  8
257
  6
CONTINUOUS
 62
     7
 10
66.52321069138614
 20
215.4337341332166
 30
0.0
  0
VERTEX
  5
413
  8
257
  6
CONTINUOUS
 62
     7
 10
66.46843643075957
 20
214.4972581086654
 30
0.0
  0
VERTEX
  5
414
  8
257
  6
CONTINUOUS
 62
     7
 10
66.44147855520168
 20
213.6466681718225
 30
0.0
  0
VERTEX
  5
415
  8
257
  6
CONTINUOUS
 62
     7
 10
66.4249769438678
 20
212.9647874134853
 30
0.0
  0
VERTEX
  5
416
  8
257
  6
CONTINUOUS
 62
     7
 10
66.40878958966573
 20
212.2828991160092
 30
0.0
  0
VERTEX
  5
417
  8
257
  6
CONTINUOUS
 62
     7
 10
66.39291649572854
 20
211.6010034249312
 30
0.0
  0
VERTEX
  5
418
  8
257
  6
CONTINUOUS
 62
     7
 10
66.37735766518942
 20
210.9191004857889
 30
0.0
  0
VERTEX
  5
419
  8
257
  6
CONTINUOUS
 62
     7
 10
66.36211310118149
 20
210.2371904441195
 30
0.0
  0
VERTEX
  5
41A
  8
257
  6
CONTINUOUS
 62
     7
 10
66.3471828068379
 20
209.5552734454603
 30
0.0
  0
VERTEX
  5
41B
  8
257
  6
CONTINUOUS
 62
     7
 10
66.33256678529176
 20
208.8733496353487
 30
0.0
  0
VERTEX
  5
41C
  8
257
  6
CONTINUOUS
 62
     7
 10
66.3182650396762
 20
208.191419159322
 30
0.0
  0
VERTEX
  5
41D
  8
257
  6
CONTINUOUS
 62
     7
 10
66.30427757312441
 20
207.5094821629174
 30
0.0
  0
VERTEX
  5
41E
  8
257
  6
CONTINUOUS
 62
     7
 10
66.2906043887695
 20
206.8275387916725
 30
0.0
  0
VERTEX
  5
41F
  8
257
  6
CONTINUOUS
 62
     7
 10
66.2772454897446
 20
206.1455891911244
 30
0.0
  0
VERTEX
  5
420
  8
257
  6
CONTINUOUS
 62
     7
 10
66.26420087918285
 20
205.4636335068105
 30
0.0
  0
VERTEX
  5
421
  8
257
  6
CONTINUOUS
 62
     7
 10
66.2514705602174
 20
204.7816718842681
 30
0.0
  0
VERTEX
  5
422
  8
257
  6
CONTINUOUS
 62
     7
 10
66.23905453582933
 20
204.0997044688975
 30
0.0
  0
VERTEX
  5
423
  8
257
  6
CONTINUOUS
 62
     7
 10
66.2269528083914
 20
203.4177314055507
 30
0.0
  0
VERTEX
  5
424
  8
257
  6
CONTINUOUS
 62
     7
 10
66.21516538012439
 20
202.7357528389427
 30
0.0
  0
VERTEX
  5
425
  8
257
  6
CONTINUOUS
 62
     7
 10
66.203692253249
 20
202.0537689137885
 30
0.0
  0
VERTEX
  5
426
  8
257
  6
CONTINUOUS
 62
     7
 10
66.192533429986
 20
201.371779774803
 30
0.0
  0
VERTEX
  5
427
  8
257
  6
CONTINUOUS
 62
     7
 10
66.18168891255607
 20
200.6897855667013
 30
0.0
  0
VERTEX
  5
428
  8
257
  6
CONTINUOUS
 62
     7
 10
66.17115870317998
 20
200.0077864341984
 30
0.0
  0
VERTEX
  5
429
  8
257
  6
CONTINUOUS
 62
     7
 10
66.16094280407846
 20
199.325782522009
 30
0.0
  0
VERTEX
  5
42A
  8
257
  6
CONTINUOUS
 62
     7
 10
66.15104121747224
 20
198.6437739748484
 30
0.0
  0
VERTEX
  5
42B
  8
257
  6
CONTINUOUS
 62
     7
 10
66.14145394558204
 20
197.9617609374314
 30
0.0
  0
VERTEX
  5
42C
  8
257
  6
CONTINUOUS
 62
     7
 10
66.13218099062861
 20
197.2797435544731
 30
0.0
  0
VERTEX
  5
42D
  8
257
  6
CONTINUOUS
 62
     7
 10
66.1232223548327
 20
196.5977219706884
 30
0.0
  0
VERTEX
  5
42E
  8
257
  6
CONTINUOUS
 62
     7
 10
66.11457804041501
 20
195.9156963307923
 30
0.0
  0
VERTEX
  5
42F
  8
257
  6
CONTINUOUS
 62
     7
 10
66.1062480495526
 20
195.2336667795002
 30
0.0
  0
VERTEX
  5
430
  8
257
  6
CONTINUOUS
 62
     7
 10
66.09823238391505
 20
194.5516334615341
 30
0.0
  0
VERTEX
  5
431
  8
257
  6
CONTINUOUS
 62
     7
 10
66.09053104484433
 20
193.8695965216196
 30
0.0
  0
VERTEX
  5
432
  8
257
  6
CONTINUOUS
 62
     7
 10
66.08314403367709
 20
193.1875561044826
 30
0.0
  0
VERTEX
  5
433
  8
257
  6
CONTINUOUS
 62
     7
 10
66.07607135174992
 20
192.5055123548489
 30
0.0
  0
VERTEX
  5
434
  8
257
  6
CONTINUOUS
 62
     7
 10
66.06931300039942
 20
191.8234654174443
 30
0.0
  0
VERTEX
  5
435
  8
257
  6
CONTINUOUS
 62
     7
 10
66.06286898096218
 20
191.1414154369948
 30
0.0
  0
VERTEX
  5
436
  8
257
  6
CONTINUOUS
 62
     7
 10
66.05673929477481
 20
190.4593625582262
 30
0.0
  0
VERTEX
  5
437
  8
257
  6
CONTINUOUS
 62
     7
 10
66.05092394317388
 20
189.7773069258643
 30
0.0
  0
VERTEX
  5
438
  8
257
  6
CONTINUOUS
 62
     7
 10
66.04542292749602
 20
189.095248684635
 30
0.0
  0
VERTEX
  5
439
  8
257
  6
CONTINUOUS
 62
     7
 10
66.04023624907781
 20
188.413187979264
 30
0.0
  0
VERTEX
  5
43A
  8
257
  6
CONTINUOUS
 62
     7
 10
66.03536390925584
 20
187.7311249544773
 30
0.0
  0
VERTEX
  5
43B
  8
257
  6
CONTINUOUS
 62
     7
 10
66.03080590936672
 20
187.0490597550007
 30
0.0
  0
VERTEX
  5
43C
  8
257
  6
CONTINUOUS
 62
     7
 10
66.02656225074156
 20
186.3669925255653
 30
0.0
  0
VERTEX
  5
43D
  8
257
  6
CONTINUOUS
 62
     7
 10
66.02263293438106
 20
185.6849234112149
 30
0.0
  0
VERTEX
  5
43E
  8
257
  6
CONTINUOUS
 62
     7
 10
66.01901796077401
 20
185.0028525574781
 30
0.0
  0
VERTEX
  5
43F
  8
257
  6
CONTINUOUS
 62
     7
 10
66.01571733036504
 20
184.3207801099254
 30
0.0
  0
VERTEX
  5
440
  8
257
  6
CONTINUOUS
 62
     7
 10
66.01273104359883
 20
183.638706214127
 30
0.0
  0
VERTEX
  5
441
  8
257
  6
CONTINUOUS
 62
     7
 10
66.01005910092009
 20
182.9566310156535
 30
0.0
  0
VERTEX
  5
442
  8
257
  6
CONTINUOUS
 62
     7
 10
66.00770150277347
 20
182.274554660075
 30
0.0
  0
VERTEX
  5
443
  8
257
  6
CONTINUOUS
 62
     7
 10
66.00565824960368
 20
181.5924772929621
 30
0.0
  0
VERTEX
  5
444
  8
257
  6
CONTINUOUS
 62
     7
 10
66.00392934185538
 20
180.910399059885
 30
0.0
  0
VERTEX
  5
445
  8
257
  6
CONTINUOUS
 62
     7
 10
66.00251477997323
 20
180.2283201064142
 30
0.0
  0
VERTEX
  5
446
  8
257
  6
CONTINUOUS
 62
     7
 10
66.00141456440194
 20
179.5462405781199
 30
0.0
  0
VERTEX
  5
447
  8
257
  6
CONTINUOUS
 62
     7
 10
66.00062869558617
 20
178.8641606205726
 30
0.0
  0
VERTEX
  5
448
  8
257
  6
CONTINUOUS
 62
     7
 10
66.00015717397063
 20
178.1820803793427
 30
0.0
  0
VERTEX
  5
449
  8
257
  6
CONTINUOUS
 62
     7
 10
65.99999999999996
 20
177.5
 30
0.0
  0
SEQEND
  5
58F
  8
257
  6
CONTINUOUS
 62
     7
  0
POLYLINE
  5
175
  8
257
  6
CONTINUOUS
 62
     7
 66
     1
 10
0.0
 20
0.0
 30
0.0
  0
VERTEX
  5
44A
  8
257
  6
CONTINUOUS
 62
     7
 10
135.0000000000002
 20
246.4999999999998
 30
0.0
  0
VERTEX
  5
44B
  8
257
  6
CONTINUOUS
 62
     7
 10
135.6820803793424
 20
246.4998428260292
 30
0.0
  0
VERTEX
  5
44C
  8
257
  6
CONTINUOUS
 62
     7
 10
136.3641606205723
 20
246.4993713044136
 30
0.0
  0
VERTEX
  5
44D
  8
257
  6
CONTINUOUS
 62
     7
 10
137.0462405781196
 20
246.4985854355978
 30
0.0
  0
VERTEX
  5
44E
  8
257
  6
CONTINUOUS
 62
     7
 10
137.7283201064137
 20
246.4974852200265
 30
0.0
  0
VERTEX
  5
44F
  8
257
  6
CONTINUOUS
 62
     7
 10
138.4103990598845
 20
246.4960706581444
 30
0.0
  0
VERTEX
  5
450
  8
257
  6
CONTINUOUS
 62
     7
 10
139.0924772929615
 20
246.494341750396
 30
0.0
  0
VERTEX
  5
451
  8
257
  6
CONTINUOUS
 62
     7
 10
139.7745546600744
 20
246.4922984972263
 30
0.0
  0
VERTEX
  5
452
  8
257
  6
CONTINUOUS
 62
     7
 10
140.4566310156529
 20
246.4899408990797
 30
0.0
  0
VERTEX
  5
453
  8
257
  6
CONTINUOUS
 62
     7
 10
141.1387062141264
 20
246.4872689564009
 30
0.0
  0
VERTEX
  5
454
  8
257
  6
CONTINUOUS
 62
     7
 10
141.8207801099248
 20
246.4842826696348
 30
0.0
  0
VERTEX
  5
455
  8
257
  6
CONTINUOUS
 62
     7
 10
142.5028525574775
 20
246.4809820392258
 30
0.0
  0
VERTEX
  5
456
  8
257
  6
CONTINUOUS
 62
     7
 10
143.1849234112143
 20
246.4773670656187
 30
0.0
  0
VERTEX
  5
457
  8
257
  6
CONTINUOUS
 62
     7
 10
143.8669925255647
 20
246.4734377492582
 30
0.0
  0
VERTEX
  5
458
  8
257
  6
CONTINUOUS
 62
     7
 10
144.5490597550002
 20
246.469194090633
 30
0.0
  0
VERTEX
  5
459
  8
257
  6
CONTINUOUS
 62
     7
 10
145.2311249544769
 20
246.4646360907439
 30
0.0
  0
VERTEX
  5
45A
  8
257
  6
CONTINUOUS
 62
     7
 10
145.9131879792636
 20
246.459763750922
 30
0.0
  0
VERTEX
  5
45B
  8
257
  6
CONTINUOUS
 62
     7
 10
146.5952486846347
 20
246.4545770725038
 30
0.0
  0
VERTEX
  5
45C
  8
257
  6
CONTINUOUS
 62
     7
 10
147.2773069258641
 20
246.4490760568259
 30
0.0
  0
VERTEX
  5
45D
  8
257
  6
CONTINUOUS
 62
     7
 10
147.9593625582261
 20
246.443260705225
 30
0.0
  0
VERTEX
  5
45E
  8
257
  6
CONTINUOUS
 62
     7
 10
148.6414154369948
 20
246.4371310190376
 30
0.0
  0
VERTEX
  5
45F
  8
257
  6
CONTINUOUS
 62
     7
 10
149.3234654174443
 20
246.4306869996004
 30
0.0
  0
VERTEX
  5
460
  8
257
  6
CONTINUOUS
 62
     7
 10
150.005512354849
 20
246.4239286482498
 30
0.0
  0
VERTEX
  5
461
  8
257
  6
CONTINUOUS
 62
     7
 10
150.6875561044828
 20
246.4168559663227
 30
0.0
  0
VERTEX
  5
462
  8
257
  6
CONTINUOUS
 62
     7
 10
151.3695965216198
 20
246.4094689551555
 30
0.0
  0
VERTEX
  5
463
  8
257
  6
CONTINUOUS
 62
     7
 10
152.0516334615344
 20
246.4017676160848
 30
0.0
  0
VERTEX
  5
464
  8
257
  6
CONTINUOUS
 62
     7
 10
152.7336667795006
 20
246.3937519504472
 30
0.0
  0
VERTEX
  5
465
  8
257
  6
CONTINUOUS
 62
     7
 10
153.4156963307927
 20
246.3854219595848
 30
0.0
  0
VERTEX
  5
466
  8
257
  6
CONTINUOUS
 62
     7
 10
154.0977219706888
 20
246.3767776451671
 30
0.0
  0
VERTEX
  5
467
  8
257
  6
CONTINUOUS
 62
     7
 10
154.7797435544735
 20
246.3678190093712
 30
0.0
  0
VERTEX
  5
468
  8
257
  6
CONTINUOUS
 62
     7
 10
155.4617609374318
 20
246.3585460544178
 30
0.0
  0
VERTEX
  5
469
  8
257
  6
CONTINUOUS
 62
     7
 10
156.1437739748487
 20
246.3489587825276
 30
0.0
  0
VERTEX
  5
46A
  8
257
  6
CONTINUOUS
 62
     7
 10
156.8257825220093
 20
246.3390571959213
 30
0.0
  0
VERTEX
  5
46B
  8
257
  6
CONTINUOUS
 62
     7
 10
157.5077864341986
 20
246.3288412968198
 30
0.0
  0
VERTEX
  5
46C
  8
257
  6
CONTINUOUS
 62
     7
 10
158.1897855667015
 20
246.3183110874437
 30
0.0
  0
VERTEX
  5
46D
  8
257
  6
CONTINUOUS
 62
     7
 10
158.8717797748031
 20
246.3074665700138
 30
0.0
  0
VERTEX
  5
46E
  8
257
  6
CONTINUOUS
 62
     7
 10
159.5537689137885
 20
246.2963077467508
 30
0.0
  0
VERTEX
  5
46F
  8
257
  6
CONTINUOUS
 62
     7
 10
160.2357528389427
 20
246.2848346198754
 30
0.0
  0
VERTEX
  5
470
  8
257
  6
CONTINUOUS
 62
     7
 10
160.9177314055506
 20
246.2730471916084
 30
0.0
  0
VERTEX
  5
471
  8
257
  6
CONTINUOUS
 62
     7
 10
161.5997044688974
 20
246.2609454641704
 30
0.0
  0
VERTEX
  5
472
  8
257
  6
CONTINUOUS
 62
     7
 10
162.281671884268
 20
246.2485294397824
 30
0.0
  0
VERTEX
  5
473
  8
257
  6
CONTINUOUS
 62
     7
 10
162.9636335068103
 20
246.2357991208169
 30
0.0
  0
VERTEX
  5
474
  8
257
  6
CONTINUOUS
 62
     7
 10
163.6455891911243
 20
246.2227545102552
 30
0.0
  0
VERTEX
  5
475
  8
257
  6
CONTINUOUS
 62
     7
 10
164.3275387916723
 20
246.2093956112302
 30
0.0
  0
VERTEX
  5
476
  8
257
  6
CONTINUOUS
 62
     7
 10
165.0094821629173
 20
246.1957224268754
 30
0.0
  0
VERTEX
  5
477
  8
257
  6
CONTINUOUS
 62
     7
 10
165.6914191593218
 20
246.1817349603236
 30
0.0
  0
VERTEX
  5
478
  8
257
  6
CONTINUOUS
 62
     7
 10
166.3733496353486
 20
246.167433214708
 30
0.0
  0
VERTEX
  5
479
  8
257
  6
CONTINUOUS
 62
     7
 10
167.0552734454602
 20
246.1528171931619
 30
0.0
  0
VERTEX
  5
47A
  8
257
  6
CONTINUOUS
 62
     7
 10
167.7371904441193
 20
246.1378868988184
 30
0.0
  0
VERTEX
  5
47B
  8
257
  6
CONTINUOUS
 62
     7
 10
168.4191004857887
 20
246.1226423348105
 30
0.0
  0
VERTEX
  5
47C
  8
257
  6
CONTINUOUS
 62
     7
 10
169.101003424931
 20
246.1070835042714
 30
0.0
  0
VERTEX
  5
47D
  8
257
  6
CONTINUOUS
 62
     7
 10
169.7828991160088
 20
246.0912104103343
 30
0.0
  0
VERTEX
  5
47E
  8
257
  6
CONTINUOUS
 62
     7
 10
170.4647874134849
 20
246.0750230561322
 30
0.0
  0
VERTEX
  5
47F
  8
257
  6
CONTINUOUS
 62
     7
 10
171.1466681718218
 20
246.0585214447985
 30
0.0
  0
VERTEX
  5
480
  8
257
  6
CONTINUOUS
 62
     7
 10
171.9972581086647
 20
246.0315635692406
 30
0.0
  0
VERTEX
  5
481
  8
257
  6
CONTINUOUS
 62
     7
 10
172.933734133216
 20
245.9767893086141
 30
0.0
  0
VERTEX
  5
482
  8
257
  6
CONTINUOUS
 62
     7
 10
173.8707689208793
 20
245.8949777830745
 30
0.0
  0
VERTEX
  5
483
  8
257
  6
CONTINUOUS
 62
     7
 10
174.8069270007915
 20
245.7863476256989
 30
0.0
  0
VERTEX
  5
484
  8
257
  6
CONTINUOUS
 62
     7
 10
175.7407729020891
 20
245.6511174695641
 30
0.0
  0
VERTEX
  5
485
  8
257
  6
CONTINUOUS
 62
     7
 10
176.6708711539092
 20
245.4895059477472
 30
0.0
  0
VERTEX
  5
486
  8
257
  6
CONTINUOUS
 62
     7
 10
177.5957862853884
 20
245.3017316933253
 30
0.0
  0
VERTEX
  5
487
  8
257
  6
CONTINUOUS
 62
     7
 10
178.514223718832
 20
245.0879998471977
 30
0.0
  0
VERTEX
  5
488
  8
257
  6
CONTINUOUS
 62
     7
 10
179.42545244922
 20
244.8484615815536
 30
0.0
  0
VERTEX
  5
489
  8
257
  6
CONTINUOUS
 62
     7
 10
180.3288823647009
 20
244.5832545764048
 30
0.0
  0
VERTEX
  5
48A
  8
257
  6
CONTINUOUS
 62
     7
 10
181.223923353423
 20
244.292516511763
 30
0.0
  0
VERTEX
  5
48B
  8
257
  6
CONTINUOUS
 62
     7
 10
182.1099853035348
 20
243.9763850676398
 30
0.0
  0
VERTEX
  5
48C
  8
257
  6
CONTINUOUS
 62
     7
 10
182.9864781031847
 20
243.6349979240471
 30
0.0
  0
VERTEX
  5
48D
  8
257
  6
CONTINUOUS
 62
     7
 10
183.8528112544115
 20
243.2684945830676
 30
0.0
  0
VERTEX
  5
48E
  8
257
  6
CONTINUOUS
 62
     7
 10
184.7083710926653
 20
242.8771238710588
 30
0.0
  0
VERTEX
  5
48F
  8
257
  6
CONTINUOUS
 62
     7
 10
185.5525080451845
 20
242.4613040670031
 30
0.0
  0
VERTEX
  5
490
  8
257
  6
CONTINUOUS
 62
     7
 10
186.3845694503285
 20
242.021468026453
 30
0.0
  0
VERTEX
  5
491
  8
257
  6
CONTINUOUS
 62
     7
 10
187.2039026464575
 20
241.5580486049608
 30
0.0
  0
VERTEX
  5
492
  8
257
  6
CONTINUOUS
 62
     7
 10
188.0098549719308
 20
241.071478658079
 30
0.0
  0
VERTEX
  5
493
  8
257
  6
CONTINUOUS
 62
     7
 10
188.8017737651085
 20
240.5621910413601
 30
0.0
  0
VERTEX
  5
494
  8
257
  6
CONTINUOUS
 62
     7
 10
189.5790063643502
 20
240.0306186103565
 30
0.0
  0
VERTEX
  5
495
  8
257
  6
CONTINUOUS
 62
     7
 10
190.3409001080157
 20
239.4771942206206
 30
0.0
  0
VERTEX
  5
496
  8
257
  6
CONTINUOUS
 62
     7
 10
191.0868023344647
 20
238.9023507277048
 30
0.0
  0
VERTEX
  5
497
  8
257
  6
CONTINUOUS
 62
     7
 10
191.816060382057
 20
238.3065209871616
 30
0.0
  0
VERTEX
  5
498
  8
257
  6
CONTINUOUS
 62
     7
 10
192.5280215891524
 20
237.6901378545434
 30
0.0
  0
VERTEX
  5
499
  8
257
  6
CONTINUOUS
 62
     7
 10
193.2220332941105
 20
237.0536341854026
 30
0.0
  0
VERTEX
  5
49A
  8
257
  6
CONTINUOUS
 62
     7
 10
193.8974428352912
 20
236.3974428352917
 30
0.0
  0
VERTEX
  5
49B
  8
257
  6
CONTINUOUS
 62
     7
 10
194.5536341854021
 20
235.722033294111
 30
0.0
  0
VERTEX
  5
49C
  8
257
  6
CONTINUOUS
 62
     7
 10
195.1901378545429
 20
235.0280215891529
 30
0.0
  0
VERTEX
  5
49D
  8
257
  6
CONTINUOUS
 62
     7
 10
195.8065209871611
 20
234.3160603820575
 30
0.0
  0
VERTEX
  5
49E
  8
257
  6
CONTINUOUS
 62
     7
 10
196.4023507277043
 20
233.5868023344652
 30
0.0
  0
VERTEX
  5
49F
  8
257
  6
CONTINUOUS
 62
     7
 10
196.9771942206201
 20
232.8409001080163
 30
0.0
  0
VERTEX
  5
4A0
  8
257
  6
CONTINUOUS
 62
     7
 10
197.5306186103561
 20
232.0790063643508
 30
0.0
  0
VERTEX
  5
4A1
  8
257
  6
CONTINUOUS
 62
     7
 10
198.0621910413597
 20
231.3017737651091
 30
0.0
  0
VERTEX
  5
4A2
  8
257
  6
CONTINUOUS
 62
     7
 10
198.5714786580786
 20
230.5098549719314
 30
0.0
  0
VERTEX
  5
4A3
  8
257
  6
CONTINUOUS
 62
     7
 10
199.0580486049604
 20
229.703902646458
 30
0.0
  0
VERTEX
  5
4A4
  8
257
  6
CONTINUOUS
 62
     7
 10
199.5214680264526
 20
228.8845694503291
 30
0.0
  0
VERTEX
  5
4A5
  8
257
  6
CONTINUOUS
 62
     7
 10
199.9613040670027
 20
228.052508045185
 30
0.0
  0
VERTEX
  5
4A6
  8
257
  6
CONTINUOUS
 62
     7
 10
200.3771238710585
 20
227.2083710926659
 30
0.0
  0
VERTEX
  5
4A7
  8
257
  6
CONTINUOUS
 62
     7
 10
200.7684945830673
 20
226.352811254412
 30
0.0
  0
VERTEX
  5
4A8
  8
257
  6
CONTINUOUS
 62
     7
 10
201.1349979240467
 20
225.4864781031853
 30
0.0
  0
VERTEX
  5
4A9
  8
257
  6
CONTINUOUS
 62
     7
 10
201.4763850676395
 20
224.6099853035354
 30
0.0
  0
VERTEX
  5
4AA
  8
257
  6
CONTINUOUS
 62
     7
 10
201.7925165117626
 20
223.7239233534236
 30
0.0
  0
VERTEX
  5
4AB
  8
257
  6
CONTINUOUS
 62
     7
 10
202.0832545764044
 20
222.8288823647014
 30
0.0
  0
VERTEX
  5
4AC
  8
257
  6
CONTINUOUS
 62
     7
 10
202.3484615815532
 20
221.9254524492206
 30
0.0
  0
VERTEX
  5
4AD
  8
257
  6
CONTINUOUS
 62
     7
 10
202.5879998471973
 20
221.0142237188326
 30
0.0
  0
VERTEX
  5
4AE
  8
257
  6
CONTINUOUS
 62
     7
 10
202.8017316933249
 20
220.0957862853889
 30
0.0
  0
VERTEX
  5
4AF
  8
257
  6
CONTINUOUS
 62
     7
 10
202.9895059477469
 20
219.1708711539098
 30
0.0
  0
VERTEX
  5
4B0
  8
257
  6
CONTINUOUS
 62
     7
 10
203.1511174695638
 20
218.2407729020897
 30
0.0
  0
VERTEX
  5
4B1
  8
257
  6
CONTINUOUS
 62
     7
 10
203.2863476256986
 20
217.3069270007921
 30
0.0
  0
VERTEX
  5
4B2
  8
257
  6
CONTINUOUS
 62
     7
 10
203.3949777830742
 20
216.3707689208799
 30
0.0
  0
VERTEX
  5
4B3
  8
257
  6
CONTINUOUS
 62
     7
 10
203.4767893086139
 20
215.4337341332166
 30
0.0
  0
VERTEX
  5
4B4
  8
257
  6
CONTINUOUS
 62
     7
 10
203.5315635692404
 20
214.4972581086654
 30
0.0
  0
VERTEX
  5
4B5
  8
257
  6
CONTINUOUS
 62
     7
 10
203.5585214447983
 20
213.6466681718225
 30
0.0
  0
VERTEX
  5
4B6
  8
257
  6
CONTINUOUS
 62
     7
 10
203.5750230561322
 20
212.9647874134853
 30
0.0
  0
VERTEX
  5
4B7
  8
257
  6
CONTINUOUS
 62
     7
 10
203.5912104103343
 20
212.2828991160092
 30
0.0
  0
VERTEX
  5
4B8
  8
257
  6
CONTINUOUS
 62
     7
 10
203.6070835042714
 20
211.6010034249312
 30
0.0
  0
VERTEX
  5
4B9
  8
257
  6
CONTINUOUS
 62
     7
 10
203.6226423348106
 20
210.9191004857889
 30
0.0
  0
VERTEX
  5
4BA
  8
257
  6
CONTINUOUS
 62
     7
 10
203.6378868988185
 20
210.2371904441195
 30
0.0
  0
VERTEX
  5
4BB
  8
257
  6
CONTINUOUS
 62
     7
 10
203.6528171931622
 20
209.5552734454603
 30
0.0
  0
VERTEX
  5
4BC
  8
257
  6
CONTINUOUS
 62
     7
 10
203.6674332147083
 20
208.8733496353487
 30
0.0
  0
VERTEX
  5
4BD
  8
257
  6
CONTINUOUS
 62
     7
 10
203.6817349603238
 20
208.191419159322
 30
0.0
  0
VERTEX
  5
4BE
  8
257
  6
CONTINUOUS
 62
     7
 10
203.6957224268756
 20
207.5094821629174
 30
0.0
  0
VERTEX
  5
4BF
  8
257
  6
CONTINUOUS
 62
     7
 10
203.7093956112305
 20
206.8275387916725
 30
0.0
  0
VERTEX
  5
4C0
  8
257
  6
CONTINUOUS
 62
     7
 10
203.7227545102554
 20
206.1455891911244
 30
0.0
  0
VERTEX
  5
4C1
  8
257
  6
CONTINUOUS
 62
     7
 10
203.7357991208172
 20
205.4636335068105
 30
0.0
  0
VERTEX
  5
4C2
  8
257
  6
CONTINUOUS
 62
     7
 10
203.7485294397826
 20
204.7816718842681
 30
0.0
  0
VERTEX
  5
4C3
  8
257
  6
CONTINUOUS
 62
     7
 10
203.7609454641707
 20
204.0997044688975
 30
0.0
  0
VERTEX
  5
4C4
  8
257
  6
CONTINUOUS
 62
     7
 10
203.7730471916086
 20
203.4177314055507
 30
0.0
  0
VERTEX
  5
4C5
  8
257
  6
CONTINUOUS
 62
     7
 10
203.7848346198756
 20
202.7357528389427
 30
0.0
  0
VERTEX
  5
4C6
  8
257
  6
CONTINUOUS
 62
     7
 10
203.796307746751
 20
202.0537689137885
 30
0.0
  0
VERTEX
  5
4C7
  8
257
  6
CONTINUOUS
 62
     7
 10
203.807466570014
 20
201.371779774803
 30
0.0
  0
VERTEX
  5
4C8
  8
257
  6
CONTINUOUS
 62
     7
 10
203.818311087444
 20
200.6897855667013
 30
0.0
  0
VERTEX
  5
4C9
  8
257
  6
CONTINUOUS
 62
     7
 10
203.82884129682
 20
200.0077864341984
 30
0.0
  0
VERTEX
  5
4CA
  8
257
  6
CONTINUOUS
 62
     7
 10
203.8390571959216
 20
199.325782522009
 30
0.0
  0
VERTEX
  5
4CB
  8
257
  6
CONTINUOUS
 62
     7
 10
203.8489587825278
 20
198.6437739748484
 30
0.0
  0
VERTEX
  5
4CC
  8
257
  6
CONTINUOUS
 62
     7
 10
203.858546054418
 20
197.9617609374314
 30
0.0
  0
VERTEX
  5
4CD
  8
257
  6
CONTINUOUS
 62
     7
 10
203.8678190093714
 20
197.2797435544731
 30
0.0
  0
VERTEX
  5
4CE
  8
257
  6
CONTINUOUS
 62
     7
 10
203.8767776451673
 20
196.5977219706884
 30
0.0
  0
VERTEX
  5
4CF
  8
257
  6
CONTINUOUS
 62
     7
 10
203.885421959585
 20
195.9156963307923
 30
0.0
  0
VERTEX
  5
4D0
  8
257
  6
CONTINUOUS
 62
     7
 10
203.8937519504474
 20
195.2336667795002
 30
0.0
  0
VERTEX
  5
4D1
  8
257
  6
CONTINUOUS
 62
     7
 10
203.901767616085
 20
194.5516334615341
 30
0.0
  0
VERTEX
  5
4D2
  8
257
  6
CONTINUOUS
 62
     7
 10
203.9094689551557
 20
193.8695965216196
 30
0.0
  0
VERTEX
  5
4D3
  8
257
  6
CONTINUOUS
 62
     7
 10
203.9168559663229
 20
193.1875561044826
 30
0.0
  0
VERTEX
  5
4D4
  8
257
  6
CONTINUOUS
 62
     7
 10
203.9239286482501
 20
192.5055123548489
 30
0.0
  0
VERTEX
  5
4D5
  8
257
  6
CONTINUOUS
 62
     7
 10
203.9306869996006
 20
191.8234654174443
 30
0.0
  0
VERTEX
  5
4D6
  8
257
  6
CONTINUOUS
 62
     7
 10
203.9371310190378
 20
191.1414154369948
 30
0.0
  0
VERTEX
  5
4D7
  8
257
  6
CONTINUOUS
 62
     7
 10
203.9432607052252
 20
190.4593625582262
 30
0.0
  0
VERTEX
  5
4D8
  8
257
  6
CONTINUOUS
 62
     7
 10
203.9490760568261
 20
189.7773069258643
 30
0.0
  0
VERTEX
  5
4D9
  8
257
  6
CONTINUOUS
 62
     7
 10
203.954577072504
 20
189.095248684635
 30
0.0
  0
VERTEX
  5
4DA
  8
257
  6
CONTINUOUS
 62
     7
 10
203.9597637509222
 20
188.413187979264
 30
0.0
  0
VERTEX
  5
4DB
  8
257
  6
CONTINUOUS
 62
     7
 10
203.9646360907442
 20
187.7311249544773
 30
0.0
  0
VERTEX
  5
4DC
  8
257
  6
CONTINUOUS
 62
     7
 10
203.9691940906333
 20
187.0490597550007
 30
0.0
  0
VERTEX
  5
4DD
  8
257
  6
CONTINUOUS
 62
     7
 10
203.9734377492585
 20
186.3669925255653
 30
0.0
  0
VERTEX
  5
4DE
  8
257
  6
CONTINUOUS
 62
     7
 10
203.9773670656189
 20
185.6849234112149
 30
0.0
  0
VERTEX
  5
4DF
  8
257
  6
CONTINUOUS
 62
     7
 10
203.980982039226
 20
185.0028525574781
 30
0.0
  0
VERTEX
  5
4E0
  8
257
  6
CONTINUOUS
 62
     7
 10
203.984282669635
 20
184.3207801099254
 30
0.0
  0
VERTEX
  5
4E1
  8
257
  6
CONTINUOUS
 62
     7
 10
203.9872689564012
 20
183.638706214127
 30
0.0
  0
VERTEX
  5
4E2
  8
257
  6
CONTINUOUS
 62
     7
 10
203.98994089908
 20
182.9566310156535
 30
0.0
  0
VERTEX
  5
4E3
  8
257
  6
CONTINUOUS
 62
     7
 10
203.9922984972265
 20
182.274554660075
 30
0.0
  0
VERTEX
  5
4E4
  8
257
  6
CONTINUOUS
 62
     7
 10
203.9943417503964
 20
181.5924772929621
 30
0.0
  0
VERTEX
  5
4E5
  8
257
  6
CONTINUOUS
 62
     7
 10
203.9960706581446
 20
180.910399059885
 30
0.0
  0
VERTEX
  5
4E6
  8
257
  6
CONTINUOUS
 62
     7
 10
203.9974852200268
 20
180.2283201064142
 30
0.0
  0
VERTEX
  5
4E7
  8
257
  6
CONTINUOUS
 62
     7
 10
203.998585435598
 20
179.5462405781199
 30
0.0
  0
VERTEX
  5
4E8
  8
257
  6
CONTINUOUS
 62
     7
 10
203.9993713044138
 20
178.8641606205726
 30
0.0
  0
VERTEX
  5
4E9
  8
257
  6
CONTINUOUS
 62
     7
 10
203.9998428260294
 20
178.1820803793427
 30
0.0
  0
VERTEX
  5
4EA
  8
257
  6
CONTINUOUS
 62
     7
 10
204.0000000000001
 20
177.5
 30
0.0
  0
SEQEND
  5
590
  8
257
  6
CONTINUOUS
 62
     7
  0
ARC
  5
176
  8
257
  6
CONTINUOUS
 62
     7
 10
138.4148440954994
 20
-1644.839218974321
 30
0.0
 40
1911.342269492715
 50
90.10236589311076
 51
91.22014814071868
  0
ARC
  5
177
  8
257
  6
CONTINUOUS
 62
     7
 10
99.4976011879176
 20
213.0491935732216
 30
0.0
 40
53.05044074121585
 50
91.92590142568892
 51
178.8258902553158
  0
POLYLINE
  5
178
  8
257
  6
CONTINUOUS
 62
     7
 66
     1
 10
0.0
 20
0.0
 30
0.0
  0
VERTEX
  5
4EB
  8
257
  6
CONTINUOUS
 62
     7
 10
46.45829867007637
 20
214.1362314098092
 30
0.0
  0
VERTEX
  5
4EC
  8
257
  6
CONTINUOUS
 62
     7
 10
46.37149999279971
 20
210.8820603225072
 30
0.0
  0
VERTEX
  5
4ED
  8
257
  6
CONTINUOUS
 62
     7
 10
46.05929785737073
 20
190.8375424850626
 30
0.0
  0
SEQEND
  5
591
  8
257
  6
CONTINUOUS
 62
     7
  0
ARC
  5
179
  8
257
  6
CONTINUOUS
 62
     7
 10
131.585155904501
 20
1999.839218974536
 30
0.0
 40
1911.34226949293
 50
270.1023658931107
 51
271.2201481407185
  0
ARC
  5
17A
  8
257
  6
CONTINUOUS
 62
     7
 10
170.5023988120824
 20
141.9508064267783
 30
0.0
 40
53.05044074121582
 50
271.9259014256889
 51
358.8258902553158
  0
POLYLINE
  5
17B
  8
257
  6
CONTINUOUS
 62
     7
 66
     1
 10
0.0
 20
0.0
 30
0.0
  0
VERTEX
  5
4EE
  8
257
  6
CONTINUOUS
 62
     7
 10
223.5417013299237
 20
140.8637685901907
 30
0.0
  0
VERTEX
  5
4EF
  8
257
  6
CONTINUOUS
 62
     7
 10
223.6285000072003
 20
144.1179396774928
 30
0.0
  0
VERTEX
  5
4F0
  8
257
  6
CONTINUOUS
 62
     7
 10
223.9407021426293
 20
164.1624575149374
 30
0.0
  0
SEQEND
  5
592
  8
257
  6
CONTINUOUS
 62
     7
  0
ARC
  5
17C
  8
257
  6
CONTINUOUS
 62
     7
 10
131.5851559045007
 20
-1644.839218974316
 30
0.0
 40
1911.34226949271
 50
88.77985185928135
 51
89.89763410688926
  0
ARC
  5
17D
  8
257
  6
CONTINUOUS
 62
     7
 10
170.5023988120824
 20
213.0491935732216
 30
0.0
 40
53.05044074121588
 50
1.174109744684245
 51
88.07409857431111
  0
POLYLINE
  5
17E
  8
257
  6
CONTINUOUS
 62
     7
 66
     1
 10
0.0
 20
0.0
 30
0.0
  0
VERTEX
  5
4F1
  8
257
  6
CONTINUOUS
 62
     7
 10
223.5417013299237
 20
214.1362314098092
 30
0.0
  0
VERTEX
  5
4F2
  8
257
  6
CONTINUOUS
 62
     7
 10
223.6285000072003
 20
210.8820603225072
 30
0.0
  0
VERTEX
  5
4F3
  8
257
  6
CONTINUOUS
 62
     7
 10
223.9407021426293
 20
190.8375424850626
 30
0.0
  0
SEQEND
  5
593
  8
257
  6
CONTINUOUS
 62
     7
  0
ARC
  5
17F
  8
257
  6
CONTINUOUS
 62
     7
 10
138.4148440954991
 20
1999.839218974542
 30
0.0
 40
1911.342269492936
 50
268.7798518592815
 51
269.8976341068892
  0
ARC
  5
180
  8
257
  6
CONTINUOUS
 62
     7
 10
99.49760118791758
 20
141.9508064267783
 30
0.0
 40
53.05044074121579
 50
181.1741097446841
 51
268.0740985743112
  0
POLYLINE
  5
181
  8
257
  6
CONTINUOUS
 62
     7
 66
     1
 10
0.0
 20
0.0
 30
0.0
  0
VERTEX
  5
4F4
  8
257
  6
CONTINUOUS
 62
     7
 10
46.45829867007637
 20
140.8637685901907
 30
0.0
  0
VERTEX
  5
4F5
  8
257
  6
CONTINUOUS
 62
     7
 10
46.37149999279971
 20
144.1179396774928
 30
0.0
  0
VERTEX
  5
4F6
  8
257
  6
CONTINUOUS
 62
     7
 10
46.05929785737073
 20
164.1624575149374
 30
0.0
  0
SEQEND
  5
594
  8
257
  6
CONTINUOUS
 62
     7
  0
POLYLINE
  5
182
  8
257
  6
CONTINUOUS
 62
     7
 66
     1
 10
0.0
 20
0.0
 30
0.0
  0
VERTEX
  5
4F7
  8
257
  6
CONTINUOUS
 62
     7
 10
49.22108066108091
 20
189.4117735225642
 30
0.0
  0
VERTEX
  5
4F8
  8
257
  6
CONTINUOUS
 62
     7
 10
49.23937213054776
 20
189.4022813736021
 30
0.0
  0
VERTEX
  5
4F9
  8
257
  6
CONTINUOUS
 62
     7
 10
49.25731335421599
 20
189.3920100549003
 30
0.0
  0
VERTEX
  5
4FA
  8
257
  6
CONTINUOUS
 62
     7
 10
49.27485907564931
 20
189.380979201882
 30
0.0
  0
VERTEX
  5
4FB
  8
257
  6
CONTINUOUS
 62
     7
 10
49.29196403841146
 20
189.3692084499706
 30
0.0
  0
VERTEX
  5
4FC
  8
257
  6
CONTINUOUS
 62
     7
 10
49.30905762827619
 20
189.3563472444409
 30
0.0
  0
VERTEX
  5
4FD
  8
257
  6
CONTINUOUS
 62
     7
 10
49.32564819130293
 20
189.3427133458871
 30
0.0
  0
VERTEX
  5
4FE
  8
257
  6
CONTINUOUS
 62
     7
 10
49.34168688197593
 20
189.3283376945533
 30
0.0
  0
VERTEX
  5
4FF
  8
257
  6
CONTINUOUS
 62
     7
 10
49.3571248547794
 20
189.3132512306835
 30
0.0
  0
VERTEX
  5
500
  8
257
  6
CONTINUOUS
 62
     7
 10
49.37124830069246
 20
189.2982281541131
 30
0.0
  0
VERTEX
  5
501
  8
257
  6
CONTINUOUS
 62
     7
 10
49.38479166619375
 20
189.2825742716296
 30
0.0
  0
VERTEX
  5
502
  8
257
  6
CONTINUOUS
 62
     7
 10
49.39771471840282
 20
189.2663260957855
 30
0.0
  0
VERTEX
  5
503
  8
257
  6
CONTINUOUS
 62
     7
 10
49.40997722443918
 20
189.2495201391334
 30
0.0
  0
VERTEX
  5
504
  8
257
  6
CONTINUOUS
 62
     7
 10
49.42189989430369
 20
189.2316307233331
 30
0.0
  0
VERTEX
  5
505
  8
257
  6
CONTINUOUS
 62
     7
 10
49.43308520383878
 20
189.2131723606853
 30
0.0
  0
VERTEX
  5
506
  8
257
  6
CONTINUOUS
 62
     7
 10
49.4434943678685
 20
189.1941965640166
 30
0.0
  0
VERTEX
  5
507
  8
257
  6
CONTINUOUS
 62
     7
 10
49.45308860121693
 20
189.1747548461537
 30
0.0
  0
VERTEX
  5
508
  8
257
  6
CONTINUOUS
 62
     7
 10
49.46140840668864
 20
189.1559201168646
 30
0.0
  0
VERTEX
  5
509
  8
257
  6
CONTINUOUS
 62
     7
 10
49.46896910824777
 20
189.1366967666971
 30
0.0
  0
VERTEX
  5
50A
  8
257
  6
CONTINUOUS
 62
     7
 10
49.47574542228234
 20
189.1171378377135
 30
0.0
  0
VERTEX
  5
50B
  8
257
  6
CONTINUOUS
 62
     7
 10
49.48171206518026
 20
189.097296371976
 30
0.0
  0
VERTEX
  5
50C
  8
257
  6
CONTINUOUS
 62
     7
 10
49.4870093638054
 20
189.0765286471911
 30
0.0
  0
VERTEX
  5
50D
  8
257
  6
CONTINUOUS
 62
     7
 10
49.49142246520785
 20
189.0554990101452
 30
0.0
  0
VERTEX
  5
50E
  8
257
  6
CONTINUOUS
 62
     7
 10
49.49493548653794
 20
189.0342734397591
 30
0.0
  0
VERTEX
  5
50F
  8
257
  6
CONTINUOUS
 62
     7
 10
49.49753254494586
 20
189.0129179149536
 30
0.0
  0
VERTEX
  5
510
  8
257
  6
CONTINUOUS
 62
     7
 10
49.49860985360605
 20
189.0005640793872
 30
0.0
  0
VERTEX
  5
511
  8
257
  6
CONTINUOUS
 62
     7
 10
49.49938071880985
 20
188.9881834061815
 30
0.0
  0
VERTEX
  5
512
  8
257
  6
CONTINUOUS
 62
     7
 10
49.4998451047203
 20
188.9757492176634
 30
0.0
  0
VERTEX
  5
513
  8
257
  6
CONTINUOUS
 62
     7
 10
49.50000000000001
 20
188.9633057519317
 30
0.0
  0
SEQEND
  5
595
  8
257
  6
CONTINUOUS
 62
     7
  0
POLYLINE
  5
183
  8
257
  6
CONTINUOUS
 62
     7
 66
     1
 10
0.0
 20
0.0
 30
0.0
  0
VERTEX
  5
514
  8
257
  6
CONTINUOUS
 62
     7
 10
220.7789193389191
 20
189.4117735225642
 30
0.0
  0
VERTEX
  5
515
  8
257
  6
CONTINUOUS
 62
     7
 10
220.7606278694523
 20
189.4022813736021
 30
0.0
  0
VERTEX
  5
516
  8
257
  6
CONTINUOUS
 62
     7
 10
220.742686645784
 20
189.3920100549003
 30
0.0
  0
VERTEX
  5
517
  8
257
  6
CONTINUOUS
 62
     7
 10
220.7251409243507
 20
189.380979201882
 30
0.0
  0
VERTEX
  5
518
  8
257
  6
CONTINUOUS
 62
     7
 10
220.7080359615886
 20
189.3692084499706
 30
0.0
  0
VERTEX
  5
519
  8
257
  6
CONTINUOUS
 62
     7
 10
220.6909423717238
 20
189.3563472444409
 30
0.0
  0
VERTEX
  5
51A
  8
257
  6
CONTINUOUS
 62
     7
 10
220.6743518086971
 20
189.3427133458871
 30
0.0
  0
VERTEX
  5
51B
  8
257
  6
CONTINUOUS
 62
     7
 10
220.6583131180241
 20
189.3283376945533
 30
0.0
  0
VERTEX
  5
51C
  8
257
  6
CONTINUOUS
 62
     7
 10
220.6428751452206
 20
189.3132512306835
 30
0.0
  0
VERTEX
  5
51D
  8
257
  6
CONTINUOUS
 62
     7
 10
220.6287516993076
 20
189.2982281541131
 30
0.0
  0
VERTEX
  5
51E
  8
257
  6
CONTINUOUS
 62
     7
 10
220.6152083338063
 20
189.2825742716296
 30
0.0
  0
VERTEX
  5
51F
  8
257
  6
CONTINUOUS
 62
     7
 10
220.6022852815972
 20
189.2663260957855
 30
0.0
  0
VERTEX
  5
520
  8
257
  6
CONTINUOUS
 62
     7
 10
220.5900227755608
 20
189.2495201391334
 30
0.0
  0
VERTEX
  5
521
  8
257
  6
CONTINUOUS
 62
     7
 10
220.5781001056963
 20
189.2316307233331
 30
0.0
  0
VERTEX
  5
522
  8
257
  6
CONTINUOUS
 62
     7
 10
220.5669147961613
 20
189.2131723606853
 30
0.0
  0
VERTEX
  5
523
  8
257
  6
CONTINUOUS
 62
     7
 10
220.5565056321315
 20
189.1941965640166
 30
0.0
  0
VERTEX
  5
524
  8
257
  6
CONTINUOUS
 62
     7
 10
220.5469113987831
 20
189.1747548461537
 30
0.0
  0
VERTEX
  5
525
  8
257
  6
CONTINUOUS
 62
     7
 10
220.5385915933114
 20
189.1559201168646
 30
0.0
  0
VERTEX
  5
526
  8
257
  6
CONTINUOUS
 62
     7
 10
220.5310308917522
 20
189.1366967666971
 30
0.0
  0
VERTEX
  5
527
  8
257
  6
CONTINUOUS
 62
     7
 10
220.5242545777177
 20
189.1171378377135
 30
0.0
  0
VERTEX
  5
528
  8
257
  6
CONTINUOUS
 62
     7
 10
220.5182879348197
 20
189.097296371976
 30
0.0
  0
VERTEX
  5
529
  8
257
  6
CONTINUOUS
 62
     7
 10
220.5129906361946
 20
189.0765286471911
 30
0.0
  0
VERTEX
  5
52A
  8
257
  6
CONTINUOUS
 62
     7
 10
220.5085775347922
 20
189.0554990101452
 30
0.0
  0
VERTEX
  5
52B
  8
257
  6
CONTINUOUS
 62
     7
 10
220.5050645134621
 20
189.0342734397591
 30
0.0
  0
VERTEX
  5
52C
  8
257
  6
CONTINUOUS
 62
     7
 10
220.5024674550541
 20
189.0129179149536
 30
0.0
  0
VERTEX
  5
52D
  8
257
  6
CONTINUOUS
 62
     7
 10
220.501390146394
 20
189.0005640793872
 30
0.0
  0
VERTEX
  5
52E
  8
257
  6
CONTINUOUS
 62
     7
 10
220.5006192811902
 20
188.9881834061815
 30
0.0
  0
VERTEX
  5
52F
  8
257
  6
CONTINUOUS
 62
     7
 10
220.5001548952797
 20
188.9757492176634
 30
0.0
  0
VERTEX
  5
530
  8
257
  6
CONTINUOUS
 62
     7
 10
220.5
 20
188.9633057519317
 30
0.0
  0
SEQEND
  5
596
  8
257
  6
CONTINUOUS
 62
     7
  0
POLYLINE
  5
184
  8
257
  6
CONTINUOUS
 62
     7
 66
     1
 10
0.0
 20
0.0
 30
0.0
  0
VERTEX
  5
531
  8
257
  6
CONTINUOUS
 62
     7
 10
220.7789193389191
 20
165.5882264774358
 30
0.0
  0
VERTEX
  5
532
  8
257
  6
CONTINUOUS
 62
     7
 10
220.7606278694523
 20
165.5977186263979
 30
0.0
  0
VERTEX
  5
533
  8
257
  6
CONTINUOUS
 62
     7
 10
220.742686645784
 20
165.6079899450997
 30
0.0
  0
VERTEX
  5
534
  8
257
  6
CONTINUOUS
 62
     7
 10
220.7251409243507
 20
165.619020798118
 30
0.0
  0
VERTEX
  5
535
  8
257
  6
CONTINUOUS
 62
     7
 10
220.7080359615886
 20
165.6307915500294
 30
0.0
  0
VERTEX
  5
536
  8
257
  6
CONTINUOUS
 62
     7
 10
220.6909423717238
 20
165.643652755559
 30
0.0
  0
VERTEX
  5
537
  8
257
  6
CONTINUOUS
 62
     7
 10
220.6743518086971
 20
165.6572866541129
 30
0.0
  0
VERTEX
  5
538
  8
257
  6
CONTINUOUS
 62
     7
 10
220.6583131180241
 20
165.6716623054467
 30
0.0
  0
VERTEX
  5
539
  8
257
  6
CONTINUOUS
 62
     7
 10
220.6428751452206
 20
165.6867487693165
 30
0.0
  0
VERTEX
  5
53A
  8
257
  6
CONTINUOUS
 62
     7
 10
220.6287516993076
 20
165.7017718458869
 30
0.0
  0
VERTEX
  5
53B
  8
257
  6
CONTINUOUS
 62
     7
 10
220.6152083338063
 20
165.7174257283704
 30
0.0
  0
VERTEX
  5
53C
  8
257
  6
CONTINUOUS
 62
     7
 10
220.6022852815972
 20
165.7336739042145
 30
0.0
  0
VERTEX
  5
53D
  8
257
  6
CONTINUOUS
 62
     7
 10
220.5900227755608
 20
165.7504798608666
 30
0.0
  0
VERTEX
  5
53E
  8
257
  6
CONTINUOUS
 62
     7
 10
220.5781001056963
 20
165.7683692766669
 30
0.0
  0
VERTEX
  5
53F
  8
257
  6
CONTINUOUS
 62
     7
 10
220.5669147961613
 20
165.7868276393147
 30
0.0
  0
VERTEX
  5
540
  8
257
  6
CONTINUOUS
 62
     7
 10
220.5565056321315
 20
165.8058034359833
 30
0.0
  0
VERTEX
  5
541
  8
257
  6
CONTINUOUS
 62
     7
 10
220.5469113987831
 20
165.8252451538463
 30
0.0
  0
VERTEX
  5
542
  8
257
  6
CONTINUOUS
 62
     7
 10
220.5385915933114
 20
165.8440798831354
 30
0.0
  0
VERTEX
  5
543
  8
257
  6
CONTINUOUS
 62
     7
 10
220.5310308917522
 20
165.8633032333029
 30
0.0
  0
VERTEX
  5
544
  8
257
  6
CONTINUOUS
 62
     7
 10
220.5242545777177
 20
165.8828621622865
 30
0.0
  0
VERTEX
  5
545
  8
257
  6
CONTINUOUS
 62
     7
 10
220.5182879348197
 20
165.9027036280239
 30
0.0
  0
VERTEX
  5
546
  8
257
  6
CONTINUOUS
 62
     7
 10
220.5129906361946
 20
165.9234713528089
 30
0.0
  0
VERTEX
  5
547
  8
257
  6
CONTINUOUS
 62
     7
 10
220.5085775347922
 20
165.9445009898548
 30
0.0
  0
VERTEX
  5
548
  8
257
  6
CONTINUOUS
 62
     7
 10
220.5050645134621
 20
165.9657265602408
 30
0.0
  0
VERTEX
  5
549
  8
257
  6
CONTINUOUS
 62
     7
 10
220.5024674550541
 20
165.9870820850464
 30
0.0
  0
VERTEX
  5
54A
  8
257
  6
CONTINUOUS
 62
     7
 10
220.501390146394
 20
165.9994359206127
 30
0.0
  0
VERTEX
  5
54B
  8
257
  6
CONTINUOUS
 62
     7
 10
220.5006192811902
 20
166.0118165938184
 30
0.0
  0
VERTEX
  5
54C
  8
257
  6
CONTINUOUS
 62
     7
 10
220.5001548952797
 20
166.0242507823366
 30
0.0
  0
VERTEX
  5
54D
  8
257
  6
CONTINUOUS
 62
     7
 10
220.5
 20
166.0366942480682
 30
0.0
  0
SEQEND
  5
597
  8
257
  6
CONTINUOUS
 62
     7
  0
POLYLINE
  5
185
  8
257
  6
CONTINUOUS
 62
     7
 66
     1
 10
0.0
 20
0.0
 30
0.0
  0
VERTEX
  5
54E
  8
257
  6
CONTINUOUS
 62
     7
 10
49.22108066108091
 20
165.5882264774358
 30
0.0
  0
VERTEX
  5
54F
  8
257
  6
CONTINUOUS
 62
     7
 10
49.23937213054776
 20
165.5977186263979
 30
0.0
  0
VERTEX
  5
550
  8
257
  6
CONTINUOUS
 62
     7
 10
49.25731335421599
 20
165.6079899450997
 30
0.0
  0
VERTEX
  5
551
  8
257
  6
CONTINUOUS
 62
     7
 10
49.27485907564931
 20
165.619020798118
 30
0.0
  0
VERTEX
  5
552
  8
257
  6
CONTINUOUS
 62
     7
 10
49.29196403841146
 20
165.6307915500294
 30
0.0
  0
VERTEX
  5
553
  8
257
  6
CONTINUOUS
 62
     7
 10
49.30905762827619
 20
165.643652755559
 30
0.0
  0
VERTEX
  5
554
  8
257
  6
CONTINUOUS
 62
     7
 10
49.32564819130293
 20
165.6572866541129
 30
0.0
  0
VERTEX
  5
555
  8
257
  6
CONTINUOUS
 62
     7
 10
49.34168688197593
 20
165.6716623054467
 30
0.0
  0
VERTEX
  5
556
  8
257
  6
CONTINUOUS
 62
     7
 10
49.3571248547794
 20
165.6867487693165
 30
0.0
  0
VERTEX
  5
557
  8
257
  6
CONTINUOUS
 62
     7
 10
49.37124830069246
 20
165.7017718458869
 30
0.0
  0
VERTEX
  5
558
  8
257
  6
CONTINUOUS
 62
     7
 10
49.38479166619375
 20
165.7174257283704
 30
0.0
  0
VERTEX
  5
559
  8
257
  6
CONTINUOUS
 62
     7
 10
49.39771471840282
 20
165.7336739042145
 30
0.0
  0
VERTEX
  5
55A
  8
257
  6
CONTINUOUS
 62
     7
 10
49.40997722443918
 20
165.7504798608666
 30
0.0
  0
VERTEX
  5
55B
  8
257
  6
CONTINUOUS
 62
     7
 10
49.42189989430369
 20
165.7683692766669
 30
0.0
  0
VERTEX
  5
55C
  8
257
  6
CONTINUOUS
 62
     7
 10
49.43308520383878
 20
165.7868276393147
 30
0.0
  0
VERTEX
  5
55D
  8
257
  6
CONTINUOUS
 62
     7
 10
49.4434943678685
 20
165.8058034359833
 30
0.0
  0
VERTEX
  5
55E
  8
257
  6
CONTINUOUS
 62
     7
 10
49.45308860121693
 20
165.8252451538463
 30
0.0
  0
VERTEX
  5
55F
  8
257
  6
CONTINUOUS
 62
     7
 10
49.46140840668864
 20
165.8440798831354
 30
0.0
  0
VERTEX
  5
560
  8
257
  6
CONTINUOUS
 62
     7
 10
49.46896910824777
 20
165.8633032333029
 30
0.0
  0
VERTEX
  5
561
  8
257
  6
CONTINUOUS
 62
     7
 10
49.47574542228234
 20
165.8828621622865
 30
0.0
  0
VERTEX
  5
562
  8
257
  6
CONTINUOUS
 62
     7
 10
49.48171206518026
 20
165.9027036280239
 30
0.0
  0
VERTEX
  5
563
  8
257
  6
CONTINUOUS
 62
     7
 10
49.4870093638054
 20
165.9234713528089
 30
0.0
  0
VERTEX
  5
564
  8
257
  6
CONTINUOUS
 62
     7
 10
49.49142246520785
 20
165.9445009898548
 30
0.0
  0
VERTEX
  5
565
  8
257
  6
CONTINUOUS
 62
     7
 10
49.49493548653794
 20
165.9657265602408
 30
0.0
  0
VERTEX
  5
566
  8
257
  6
CONTINUOUS
 62
     7
 10
49.49753254494586
 20
165.9870820850464
 30
0.0
  0
VERTEX
  5
567
  8
257
  6
CONTINUOUS
 62
     7
 10
49.49860985360605
 20
165.9994359206127
 30
0.0
  0
VERTEX
  5
568
  8
257
  6
CONTINUOUS
 62
     7
 10
49.49938071880985
 20
166.0118165938184
 30
0.0
  0
VERTEX
  5
569
  8
257
  6
CONTINUOUS
 62
     7
 10
49.4998451047203
 20
166.0242507823366
 30
0.0
  0
VERTEX
  5
56A
  8
257
  6
CONTINUOUS
 62
     7
 10
49.50000000000001
 20
166.0366942480682
 30
0.0
  0
SEQEND
  5
598
  8
257
  6
CONTINUOUS
 62
     7
  0
LINE
  5
186
  8
257
  6
CONTINUOUS
 62
     7
 10
49.50000000000001
 20
188.9633057519317
 30
0.0
 11
49.50000000000001
 21
177.5
 31
0.0
  0
LINE
  5
187
  8
257
  6
CONTINUOUS
 62
     7
 10
220.5
 20
166.0366942480682
 30
0.0
 11
220.5
 21
177.5
 31
0.0
  0
LINE
  5
188
  8
257
  6
CONTINUOUS
 62
     7
 10
220.5
 20
188.9633057519317
 30
0.0
 11
220.5
 21
177.5
 31
0.0
  0
LINE
  5
189
  8
257
  6
CONTINUOUS
 62
     7
 10
49.50000000000001
 20
166.0366942480682
 30
0.0
 11
49.50000000000001
 21
177.5
 31
0.0
  0
LINE
  5
18A
  8
257
  6
CONTINUOUS
 62
     7
 10
220.9131759111665
 20
189.4557096284378
 30
0.0
 11
220.7789193389191
 21
189.4117735225642
 31
0.0
  0
LINE
  5
18B
  8
257
  6
CONTINUOUS
 62
     7
 10
49.08682408883348
 20
189.4557096284378
 30
0.0
 11
49.22108066108091
 21
189.4117735225642
 31
0.0
  0
LINE
  5
18C
  8
257
  6
CONTINUOUS
 62
     7
 10
49.08682408883348
 20
165.5442903715621
 30
0.0
 11
49.22108066108091
 21
165.5882264774358
 31
0.0
  0
LINE
  5
18D
  8
257
  6
CONTINUOUS
 62
     7
 10
220.9131759111665
 20
165.5442903715621
 30
0.0
 11
220.7789193389191
 21
165.5882264774358
 31
0.0
  0
LINE
  5
18E
  8
257
  6
CONTINUOUS
 62
     7
 10
46.885610147798
 20
189.843843036554
 30
0.0
 11
49.08682408883348
 21
189.4557096284378
 31
0.0
  0
ARC
  5
18F
  8
257
  6
CONTINUOUS
 62
     7
 10
47.05925832546494
 20
190.8286507895662
 30
0.0
 40
0.9999999999999968
 50
179.4905366619703
 51
259.9999999999997
  0
ARC
  5
190
  8
257
  6
CONTINUOUS
 62
     7
 10
222.9407416745351
 20
190.8286507895662
 30
0.0
 40
0.9999999999999829
 50
280.0000000000003
 51
0.5094633380297751
  0
LINE
  5
191
  8
257
  6
CONTINUOUS
 62
     7
 10
223.114389852202
 20
189.843843036554
 30
0.0
 11
220.9131759111665
 21
189.4557096284378
 31
0.0
  0
ARC
  5
192
  8
257
  6
CONTINUOUS
 62
     7
 10
47.05925832546494
 20
164.1713492104338
 30
0.0
 40
0.9999999999999968
 50
100.0000000000003
 51
180.5094633380297
  0
LINE
  5
193
  8
257
  6
CONTINUOUS
 62
     7
 10
46.885610147798
 20
165.156156963446
 30
0.0
 11
49.08682408883348
 21
165.5442903715621
 31
0.0
  0
LINE
  5
194
  8
257
  6
CONTINUOUS
 62
     7
 10
223.114389852202
 20
165.156156963446
 30
0.0
 11
220.9131759111665
 21
165.5442903715621
 31
0.0
  0
ARC
  5
195
  8
257
  6
CONTINUOUS
 62
     7
 10
222.9407416745351
 20
164.1713492104338
 30
0.0
 40
0.9999999999999829
 50
359.4905366619702
 51
79.99999999999966
  0
POLYLINE
  5
196
  8
257
  6
CONTINUOUS
 62
     7
 66
     1
 10
0.0
 20
0.0
 30
0.0
  0
VERTEX
  5
56B
  8
257
  6
CONTINUOUS
 62
     7
 10
99.51575090562494
 20
242.5735476474307
 30
0.0
  0
VERTEX
  5
56C
  8
257
  6
CONTINUOUS
 62
     7
 10
101.1274138213225
 20
242.7737252237295
 30
0.0
  0
VERTEX
  5
56D
  8
257
  6
CONTINUOUS
 62
     7
 10
104.7350732841492
 20
242.8282590731567
 30
0.0
  0
VERTEX
  5
56E
  8
257
  6
CONTINUOUS
 62
     7
 10
106.8439757200247
 20
242.7315158180106
 30
0.0
  0
SEQEND
  5
599
  8
257
  6
CONTINUOUS
 62
     7
  0
ARC
  5
197
  8
257
  6
CONTINUOUS
 62
     7
 10
138.5287319098513
 20
206.7538707818865
 30
0.0
 40
68.93710973087087
 50
174.2021531051137
 51
183.4164384119422
  0
POLYLINE
  5
198
  8
257
  6
CONTINUOUS
 62
     7
 66
     1
 10
0.0
 20
0.0
 30
0.0
  0
VERTEX
  5
56F
  8
257
  6
CONTINUOUS
 62
     7
 10
170.4842490943754
 20
112.4264523525693
 30
0.0
  0
VERTEX
  5
570
  8
257
  6
CONTINUOUS
 62
     7
 10
168.8725861786775
 20
112.2262747762705
 30
0.0
  0
VERTEX
  5
571
  8
257
  6
CONTINUOUS
 62
     7
 10
165.2649267158508
 20
112.1717409268433
 30
0.0
  0
VERTEX
  5
572
  8
257
  6
CONTINUOUS
 62
     7
 10
163.156024279975
 20
112.2684841819894
 30
0.0
  0
SEQEND
  5
59A
  8
257
  6
CONTINUOUS
 62
     7
  0
ARC
  5
199
  8
257
  6
CONTINUOUS
 62
     7
 10
131.471268090136
 20
148.2461292181143
 30
0.0
 40
68.9371097308836
 50
354.2021531051141
 51
3.41643841194167
  0
LINE
  5
19A
  8
257
  6
CONTINUOUS
 62
     7
 10
69.94414871343385
 20
141.2871033653381
 30
0.0
 11
69.71418668276306
 21
152.3514932758687
 31
0.0
  0
LINE
  5
19B
  8
257
  6
CONTINUOUS
 62
     7
 10
106.8414615743654
 20
112.2685321361975
 30
0.0
 11
99.50239779226361
 21
112.4267734167736
 31
0.0
  0
LINE
  5
19C
  8
257
  6
CONTINUOUS
 62
     7
 10
200.0558512865662
 20
213.7128966346617
 30
0.0
 11
200.285813317237
 21
202.6485067241307
 31
0.0
  0
LINE
  5
19D
  8
257
  6
CONTINUOUS
 62
     7
 10
163.158538425636
 20
242.7314678638024
 30
0.0
 11
170.4976022077367
 21
242.5732265832263
 31
0.0
  0
ENDBLK
  8
0
  0
BLOCK
  8
0
  2
D_FRAME_VIEW_4354
 70
     0
 10
0.0
 20
0.0
 30
0.0
  0
LINE
  5
1A3
  8
257
  6
CONTINUOUS
 62
     7
 10
275.0
 20
88.50000000000016
 30
0.0
 11
280.992094148029
 21
88.50000000000016
 31
0.0
  0
LINE
  5
1A4
  8
257
  6
CONTINUOUS
 62
     7
 10
275.0
 20
266.4999999999998
 30
0.0
 11
280.992094148029
 21
266.4999999999998
 31
0.0
  0
LINE
  5
1A5
  8
257
  6
CONTINUOUS
 62
     7
 10
280.992094148029
 20
266.4999999999998
 30
0.0
 11
280.9920941480289
 21
266.4998623021838
 31
0.0
  0
LINE
  5
1A6
  8
257
  6
CONTINUOUS
 62
     7
 10
269.007905851971
 20
88.50000000000016
 30
0.0
 11
269.0079058519711
 21
88.50013769781619
 31
0.0
  0
ENDBLK
  8
0
  0
ENDSEC
  0
SECTION
  2
ENTITIES
  0
LINE
  5
70
  8
257
  6
CONTINUOUS
 62
     7
 10
317.9578735935242
 20
91.97789523111996
 30
0.0
 11
319.9041131549858
 21
106.7610523844403
 31
0.0
  0
TEXT
  5
71
  8
257
  6
CONTINUOUS
 62
     7
 10
214.6734305584269
 20
81.33778592219711
 30
0.0
 40
3.0
  1
N-KPRX-130E
  0
LINE
  5
72
  8
257
  6
CONTINUOUS
 62
     7
 10
134.5
 20
92.50000000000017
 30
0.0
 11
134.5
 21
112.0034145911811
 31
0.0
  0
LINE
  5
73
  8
257
  6
CONTINUOUS
 62
     7
 10
135.5
 20
242.9965854088188
 30
0.0
 11
135.5
 21
266.4990412886996
 31
0.0
  0
LINE
  5
74
  8
257
  6
CONTINUOUS
 62
     7
 10
134.5
 20
92.50000000000017
 30
0.0
 11
135.5
 21
92.50000000000017
 31
0.0
  0
LINE
  5
75
  8
257
  6
CONTINUOUS
 62
     7
 10
135.5
 20
92.50000000000017
 30
0.0
 11
135.5
 21
112.0034145911811
 31
0.0
  0
LINE
  5
76
  8
257
  6
CONTINUOUS
 62
     7
 10
134.5
 20
242.9965854088188
 30
0.0
 11
134.5
 21
266.4990412886996
 31
0.0
  0
LINE
  5
77
  8
257
  6
CONTINUOUS
 62
     7
 10
364.0421264064726
 20
190.309826333024
 30
0.0
 11
364.1510834873389
 21
190.4428097808885
 31
0.0
  0
LINE
  5
78
  8
257
  6
CONTINUOUS
 62
     7
 10
331.0421264064727
 20
190.309826333024
 30
0.0
 11
331.0421264064758
 21
263.02210476888
 31
0.0
  0
LINE
  5
79
  8
257
  6
CONTINUOUS
 62
     7
 10
368.007905851971
 20
266.4999999999998
 30
0.0
 11
379.992094148029
 21
266.4999999999998
 31
0.0
  0
ARC
  5
7A
  8
257
  6
CONTINUOUS
 62
     7
 10
368.007905851971
 20
262.4999999999998
 30
0.0
 40
4.000000000000012
 50
90.00000000000011
 51
172.5000000000001
  0
ARC
  5
7B
  8
257
  6
CONTINUOUS
 62
     7
 10
335.007905851971
 20
262.4999999999998
 30
0.0
 40
4.000000000000012
 50
90.00000000000011
 51
172.5000000000001
  0
LINE
  5
7C
  8
257
  6
CONTINUOUS
 62
     7
 10
379.992094148029
 20
88.50000000000016
 30
0.0
 11
368.0079058519711
 21
88.50000000000016
 31
0.0
  0
LINE
  5
7D
  8
257
  6
CONTINUOUS
 62
     7
 10
331.0421264064727
 20
190.309826333024
 30
0.0
 11
331.1510834873389
 21
190.4428097808885
 31
0.0
  0
LINE
  5
7E
  8
257
  6
CONTINUOUS
 62
     7
 10
335.007905851971
 20
266.4999999999998
 30
0.0
 11
346.9920941480291
 21
266.4999999999998
 31
0.0
  0
LINE
  5
7F
  8
257
  6
CONTINUOUS
 62
     7
 10
364.0421264064726
 20
190.309826333024
 30
0.0
 11
364.0421264064757
 21
263.02210476888
 31
0.0
  0
LINE
  5
80
  8
257
  6
CONTINUOUS
 62
     7
 10
346.992094148029
 20
88.50000000000016
 30
0.0
 11
335.0079058519711
 21
88.50000000000016
 31
0.0
  0
LINE
  5
81
  8
257
  6
CONTINUOUS
 62
     7
 10
331.0421264064727
 20
164.690173666976
 30
0.0
 11
331.1510834873389
 21
164.5571902191115
 31
0.0
  0
LINE
  5
82
  8
257
  6
CONTINUOUS
 62
     7
 10
318.0694681691209
 20
166.035693767928
 30
0.0
 11
317.9578735935273
 21
164.690173666976
 31
0.0
  0
LINE
  5
83
  8
257
  6
CENTER
 62
     1
 10
43.05925832546495
 20
177.5
 30
0.0
 11
226.9407416745351
 21
177.5
 31
0.0
  0
LINE
  5
85
  8
257
  6
CENTER
 62
     1
 10
135.0
 20
85.50000000000001
 30
0.0
 11
135.0
 21
269.4999999999997
 31
0.0
  0
LINE
  5
86
  8
257
  6
CONTINUOUS
 62
     7
 10
299.1152890784961
 20
165.5442903715621
 30
0.0
 11
316.8847109215041
 21
165.5442903715621
 31
0.0
  0
LINE
  5
87
  8
257
  6
CONTINUOUS
 62
     7
 10
321.8870028777334
 20
177.5
 30
0.0
 11
321.8870028777334
 21
108.5000000000002
 31
0.0
  0
LINE
  5
88
  8
257
  6
CONTINUOUS
 62
     7
 10
316.8847109215041
 20
165.5442903715621
 30
0.0
 11
316.9664287321538
 21
165.5882264774358
 31
0.0
  0
LINE
  5
89
  8
257
  6
CONTINUOUS
 62
     7
 10
299.0335712678464
 20
189.4117735225642
 30
0.0
 11
298.9219766922529
 21
188.9633057519317
 31
0.0
  0
ARC
  5
8A
  8
257
  6
CONTINUOUS
 62
     7
 10
321.8870028777334
 20
248.4999999999998
 30
0.0
 40
2.000000000000002
 50
187.5
 51
270.0
  0
LINE
  5
8B
  8
257
  6
CONTINUOUS
 62
     7
 10
297.9247478600631
 20
177.5
 30
0.0
 11
297.9305318308791
 21
188.9643062320719
 31
0.0
  0
LINE
  5
8C
  8
257
  6
CONTINUOUS
 62
     7
 10
299.1152890784961
 20
165.5442903715621
 30
0.0
 11
299.0335712678464
 21
165.5882264774358
 31
0.0
  0
LINE
  5
8D
  8
257
  6
CONTINUOUS
 62
     7
 10
316.9664287321538
 20
165.5882264774358
 30
0.0
 11
317.0780233077472
 21
166.0366942480682
 31
0.0
  0
LINE
  5
8E
  8
257
  6
CONTINUOUS
 62
     7
 10
317.0780233077471
 20
188.9633057519317
 30
0.0
 11
317.0838072785631
 21
177.5
 31
0.0
  0
LINE
  5
8F
  8
257
  6
CONTINUOUS
 62
     7
 10
321.8870028777334
 20
177.5
 30
0.0
 11
321.8870028777334
 21
246.4999999999998
 31
0.0
  0
LINE
  5
90
  8
257
  6
CONTINUOUS
 62
     7
 10
280.992094148029
 20
266.4999999999998
 30
0.0
 11
269.007905851971
 21
266.4999999999998
 31
0.0
  0
LINE
  5
91
  8
257
  6
CONTINUOUS
 62
     7
 10
294.1129971222666
 20
177.5
 30
0.0
 11
294.1129971222666
 21
246.4999999999998
 31
0.0
  0
ARC
  5
92
  8
257
  6
CONTINUOUS
 62
     7
 10
321.8870028777334
 20
106.5000000000002
 30
0.0
 40
2.000000000000002
 50
90.0
 51
172.5
  0
ARC
  5
93
  8
257
  6
CONTINUOUS
 62
     7
 10
294.1129971222666
 20
248.4999999999998
 30
0.0
 40
2.000000000000002
 50
270.0
 51
352.5
  0
LINE
  5
94
  8
257
  6
CONTINUOUS
 62
     7
 10
298.0421264064757
 20
263.0221047688801
 30
0.0
 11
296.0958868450142
 21
248.2389476155597
 31
0.0
  0
LINE
  5
95
  8
257
  6
CONTINUOUS
 62
     7
 10
299.1152890784961
 20
189.4557096284378
 30
0.0
 11
316.8847109215041
 21
189.4557096284378
 31
0.0
  0
LINE
  5
96
  8
257
  6
CONTINUOUS
 62
     7
 10
299.0335712678464
 20
165.5882264774358
 30
0.0
 11
298.9219766922529
 21
166.0366942480682
 31
0.0
  0
LINE
  5
97
  8
257
  6
CONTINUOUS
 62
     7
 10
321.8870028777334
 20
246.4999999999998
 30
0.0
 11
324.5
 21
246.4999999999998
 31
0.0
  0
LINE
  5
98
  8
257
  6
CONTINUOUS
 62
     7
 10
298.9219766922528
 20
166.0366942480682
 30
0.0
 11
298.9161927214369
 21
177.5
 31
0.0
  0
LINE
  5
99
  8
257
  6
CONTINUOUS
 62
     7
 10
299.1152890784961
 20
189.4557096284378
 30
0.0
 11
299.0335712678464
 21
189.4117735225642
 31
0.0
  0
LINE
  5
9A
  8
257
  6
CENTER
 62
     1
 10
291.5000000000001
 20
177.5
 30
0.0
 11
324.5000000000001
 21
177.5
 31
0.0
  0
LINE
  5
9B
  8
257
  6
CONTINUOUS
 62
     7
 10
294.1129971222666
 20
177.5
 30
0.0
 11
294.1129971222666
 21
108.5000000000002
 31
0.0
  0
LINE
  5
9C
  8
257
  6
CONTINUOUS
 62
     7
 10
294.1129971222666
 20
246.4999999999998
 30
0.0
 11
291.5
 21
246.4999999999998
 31
0.0
  0
LINE
  5
9D
  8
257
  6
CONTINUOUS
 62
     7
 10
294.1129971222666
 20
108.5000000000002
 30
0.0
 11
291.5
 21
108.5000000000002
 31
0.0
  0
LINE
  5
9E
  8
257
  6
CONTINUOUS
 62
     7
 10
316.8847109215041
 20
189.4557096284378
 30
0.0
 11
316.9664287321538
 21
189.4117735225642
 31
0.0
  0
ARC
  5
9F
  8
257
  6
CONTINUOUS
 62
     7
 10
294.1129971222666
 20
106.5000000000002
 30
0.0
 40
2.000000000000002
 50
7.5
 51
90.0
  0
POLYLINE
  5
A0
  8
257
  6
CONTINUOUS
 62
     7
 66
     1
 10
0.0
 20
0.0
 30
0.0
  0
VERTEX
  5
1AF
  8
257
  6
CONTINUOUS
 62
     7
 10
299.0335712678463
 20
165.5882264774358
 30
0.0
  0
VERTEX
  5
1B0
  8
257
  6
CONTINUOUS
 62
     7
 10
298.8467508213393
 20
165.5624159540876
 30
0.0
  0
VERTEX
  5
1B1
  8
257
  6
CONTINUOUS
 62
     7
 10
298.6666020039497
 20
165.5054962928316
 30
0.0
  0
VERTEX
  5
1B2
  8
257
  6
CONTINUOUS
 62
     7
 10
298.4995581912421
 20
165.41950017733
 30
0.0
  0
VERTEX
  5
1B3
  8
257
  6
CONTINUOUS
 62
     7
 10
298.351584760056
 20
165.3074986535998
 30
0.0
  0
VERTEX
  5
1B4
  8
257
  6
CONTINUOUS
 62
     7
 10
298.2279660562464
 20
165.1734914585056
 30
0.0
  0
VERTEX
  5
1B5
  8
257
  6
CONTINUOUS
 62
     7
 10
298.1331166830283
 20
165.0222641833539
 30
0.0
  0
VERTEX
  5
1B6
  8
257
  6
CONTINUOUS
 62
     7
 10
298.0704238490929
 20
164.8592173734872
 30
0.0
  0
VERTEX
  5
1B7
  8
257
  6
CONTINUOUS
 62
     7
 10
298.0421264064726
 20
164.690173666976
 30
0.0
  0
SEQEND
  5
575
  8
257
  6
CONTINUOUS
 62
     7
  0
LINE
  5
A1
  8
257
  6
CONTINUOUS
 62
     7
 10
321.8870028777334
 20
108.5000000000002
 30
0.0
 11
324.5
 21
108.5000000000002
 31
0.0
  0
LINE
  5
A2
  8
257
  6
CONTINUOUS
 62
     7
 10
318.0752521399369
 20
177.5
 30
0.0
 11
318.0694681691209
 21
166.035693767928
 31
0.0
  0
LINE
  5
A3
  8
257
  6
CONTINUOUS
 62
     7
 10
297.9305318308791
 20
188.9643062320719
 30
0.0
 11
298.0421264064726
 21
190.309826333024
 31
0.0
  0
LINE
  5
A4
  8
257
  6
CONTINUOUS
 62
     7
 10
298.9219766922528
 20
188.9633057519317
 30
0.0
 11
298.9161927214369
 21
177.5
 31
0.0
  0
LINE
  5
A5
  8
257
  6
CONTINUOUS
 62
     7
 10
316.9664287321538
 20
189.4117735225642
 30
0.0
 11
317.0780233077472
 21
188.9633057519317
 31
0.0
  0
LINE
  5
A6
  8
257
  6
CONTINUOUS
 62
     7
 10
317.0780233077471
 20
166.0366942480682
 30
0.0
 11
317.0838072785631
 21
177.5
 31
0.0
  0
POLYLINE
  5
A7
  8
257
  6
CONTINUOUS
 62
     7
 66
     1
 10
0.0
 20
0.0
 30
0.0
  0
VERTEX
  5
1B8
  8
257
  6
CONTINUOUS
 62
     7
 10
317.9578735935274
 20
164.690173666976
 30
0.0
  0
VERTEX
  5
1B9
  8
257
  6
CONTINUOUS
 62
     7
 10
317.9295761509071
 20
164.8592173734871
 30
0.0
  0
VERTEX
  5
1BA
  8
257
  6
CONTINUOUS
 62
     7
 10
317.8668833169717
 20
165.0222641833538
 30
0.0
  0
VERTEX
  5
1BB
  8
257
  6
CONTINUOUS
 62
     7
 10
317.7720339437536
 20
165.1734914585055
 30
0.0
  0
VERTEX
  5
1BC
  8
257
  6
CONTINUOUS
 62
     7
 10
317.648415239944
 20
165.3074986535998
 30
0.0
  0
VERTEX
  5
1BD
  8
257
  6
CONTINUOUS
 62
     7
 10
317.500441808758
 20
165.4195001773299
 30
0.0
  0
VERTEX
  5
1BE
  8
257
  6
CONTINUOUS
 62
     7
 10
317.3333979960505
 20
165.5054962928315
 30
0.0
  0
VERTEX
  5
1BF
  8
257
  6
CONTINUOUS
 62
     7
 10
317.1532491786608
 20
165.5624159540875
 30
0.0
  0
VERTEX
  5
1C0
  8
257
  6
CONTINUOUS
 62
     7
 10
316.9664287321538
 20
165.5882264774357
 30
0.0
  0
SEQEND
  5
576
  8
257
  6
CONTINUOUS
 62
     7
  0
ARC
  5
A8
  8
257
  6
CONTINUOUS
 62
     7
 10
368.007905851971
 20
92.50000000000017
 30
0.0
 40
4.000000000000012
 50
187.4999999999999
 51
269.9999999999999
  0
LINE
  5
A9
  8
257
  6
CONTINUOUS
 62
     7
 10
350.9578735935274
 20
190.309826333024
 30
0.0
 11
350.8489165126611
 21
190.4428097808885
 31
0.0
  0
ARC
  5
AA
  8
257
  6
CONTINUOUS
 62
     7
 10
346.992094148029
 20
92.50000000000017
 30
0.0
 40
4.000000000000012
 50
270.0000000000001
 51
352.5000000000001
  0
LINE
  5
AB
  8
257
  6
CONTINUOUS
 62
     7
 10
364.0421264064726
 20
164.690173666976
 30
0.0
 11
364.1510834873389
 21
164.5571902191115
 31
0.0
  0
LINE
  5
AC
  8
257
  6
CONTINUOUS
 62
     7
 10
383.9578735935273
 20
190.309826333024
 30
0.0
 11
383.9578735935243
 21
263.02210476888
 31
0.0
  0
POLYLINE
  5
AD
  8
257
  6
CONTINUOUS
 62
     7
 66
     1
 10
0.0
 20
0.0
 30
0.0
  0
VERTEX
  5
1C1
  8
257
  6
CONTINUOUS
 62
     7
 10
364.151083487339
 20
190.4428097808885
 30
0.0
  0
VERTEX
  5
1C2
  8
257
  6
CONTINUOUS
 62
     7
 10
364.1766118113208
 20
190.2557341726653
 30
0.0
  0
VERTEX
  5
1C3
  8
257
  6
CONTINUOUS
 62
     7
 10
364.2362354097377
 20
190.07537038589
 30
0.0
  0
VERTEX
  5
1C4
  8
257
  6
CONTINUOUS
 62
     7
 10
364.3277885936762
 20
189.908269716757
 30
0.0
  0
VERTEX
  5
1C5
  8
257
  6
CONTINUOUS
 62
     7
 10
364.4479459060906
 20
189.7605017094768
 30
0.0
  0
VERTEX
  5
1C6
  8
257
  6
CONTINUOUS
 62
     7
 10
364.5923429113165
 20
189.6374336941606
 30
0.0
  0
VERTEX
  5
1C7
  8
257
  6
CONTINUOUS
 62
     7
 10
364.7557347230731
 20
189.5435358310042
 30
0.0
  0
VERTEX
  5
1C8
  8
257
  6
CONTINUOUS
 62
     7
 10
364.9321865127914
 20
189.4822187420873
 30
0.0
  0
VERTEX
  5
1C9
  8
257
  6
CONTINUOUS
 62
     7
 10
365.1152890784961
 20
189.4557096284377
 30
0.0
  0
SEQEND
  5
577
  8
257
  6
CONTINUOUS
 62
     7
  0
ARC
  5
AE
  8
257
  6
CONTINUOUS
 62
     7
 10
379.992094148029
 20
92.50000000000017
 30
0.0
 40
4.000000000000012
 50
270.0000000000001
 51
352.5000000000001
  0
LINE
  5
AF
  8
257
  6
CONTINUOUS
 62
     7
 10
350.9578735935274
 20
164.690173666976
 30
0.0
 11
350.8489165126611
 21
164.5571902191115
 31
0.0
  0
LINE
  5
B0
  8
257
  6
CONTINUOUS
 62
     7
 10
383.9578735935273
 20
190.309826333024
 30
0.0
 11
383.848916512661
 21
190.4428097808885
 31
0.0
  0
LINE
  5
B1
  8
257
  6
CONTINUOUS
 62
     7
 10
383.9578735935273
 20
164.690173666976
 30
0.0
 11
383.848916512661
 21
164.5571902191115
 31
0.0
  0
ARC
  5
B2
  8
257
  6
CONTINUOUS
 62
     7
 10
346.992094148029
 20
262.4999999999998
 30
0.0
 40
4.000000000000012
 50
7.499999999999915
 51
89.99999999999994
  0
ARC
  5
B3
  8
257
  6
CONTINUOUS
 62
     7
 10
379.992094148029
 20
262.4999999999998
 30
0.0
 40
4.000000000000012
 50
7.499999999999915
 51
89.99999999999994
  0
ARC
  5
B4
  8
257
  6
CONTINUOUS
 62
     7
 10
335.007905851971
 20
92.50000000000017
 30
0.0
 40
4.000000000000012
 50
187.4999999999999
 51
269.9999999999999
  0
LINE
  5
B5
  8
257
  6
CONTINUOUS
 62
     7
 10
350.9578735935274
 20
190.309826333024
 30
0.0
 11
350.9578735935243
 21
263.02210476888
 31
0.0
  0
LINE
  5
B6
  8
257
  6
CONTINUOUS
 62
     7
 10
383.9578735935273
 20
164.690173666976
 30
0.0
 11
383.9578735935243
 21
91.97789523111996
 31
0.0
  0
LINE
  5
B7
  8
257
  6
CONTINUOUS
 62
     7
 10
364.0421264064726
 20
164.690173666976
 30
0.0
 11
364.0421264064757
 21
91.97789523111996
 31
0.0
  0
LINE
  5
B8
  8
257
  6
CONTINUOUS
 62
     7
 10
331.0421264064727
 20
164.690173666976
 30
0.0
 11
331.0421264064758
 21
91.97789523111996
 31
0.0
  0
POLYLINE
  5
B9
  8
257
  6
CONTINUOUS
 62
     7
 66
     1
 10
0.0
 20
0.0
 30
0.0
  0
VERTEX
  5
1CA
  8
257
  6
CONTINUOUS
 62
     7
 10
331.151083487339
 20
190.4428097808885
 30
0.0
  0
VERTEX
  5
1CB
  8
257
  6
CONTINUOUS
 62
     7
 10
331.1766118113208
 20
190.2557341726653
 30
0.0
  0
VERTEX
  5
1CC
  8
257
  6
CONTINUOUS
 62
     7
 10
331.2362354097377
 20
190.07537038589
 30
0.0
  0
VERTEX
  5
1CD
  8
257
  6
CONTINUOUS
 62
     7
 10
331.3277885936762
 20
189.908269716757
 30
0.0
  0
VERTEX
  5
1CE
  8
257
  6
CONTINUOUS
 62
     7
 10
331.4479459060906
 20
189.7605017094768
 30
0.0
  0
VERTEX
  5
1CF
  8
257
  6
CONTINUOUS
 62
     7
 10
331.5923429113165
 20
189.6374336941606
 30
0.0
  0
VERTEX
  5
1D0
  8
257
  6
CONTINUOUS
 62
     7
 10
331.7557347230731
 20
189.5435358310042
 30
0.0
  0
VERTEX
  5
1D1
  8
257
  6
CONTINUOUS
 62
     7
 10
331.9321865127914
 20
189.4822187420873
 30
0.0
  0
VERTEX
  5
1D2
  8
257
  6
CONTINUOUS
 62
     7
 10
332.1152890784961
 20
189.4557096284377
 30
0.0
  0
SEQEND
  5
578
  8
257
  6
CONTINUOUS
 62
     7
  0
LINE
  5
BA
  8
257
  6
CONTINUOUS
 62
     7
 10
350.9578735935274
 20
164.690173666976
 30
0.0
 11
350.9578735935243
 21
91.97789523111996
 31
0.0
  0
LINE
  5
BB
  8
257
  6
CONTINUOUS
 62
     7
 10
351.0752521399369
 20
177.5
 30
0.0
 11
351.0694681691209
 21
188.9643062320719
 31
0.0
  0
POLYLINE
  5
BC
  8
257
  6
CONTINUOUS
 62
     7
 66
     1
 10
0.0
 20
0.0
 30
0.0
  0
VERTEX
  5
1D3
  8
257
  6
CONTINUOUS
 62
     7
 10
349.8847109215041
 20
189.4557096284377
 30
0.0
  0
VERTEX
  5
1D4
  8
257
  6
CONTINUOUS
 62
     7
 10
350.0678134872088
 20
189.4822187420873
 30
0.0
  0
VERTEX
  5
1D5
  8
257
  6
CONTINUOUS
 62
     7
 10
350.244265276927
 20
189.5435358310042
 30
0.0
  0
VERTEX
  5
1D6
  8
257
  6
CONTINUOUS
 62
     7
 10
350.4076570886837
 20
189.6374336941606
 30
0.0
  0
VERTEX
  5
1D7
  8
257
  6
CONTINUOUS
 62
     7
 10
350.5520540939095
 20
189.7605017094768
 30
0.0
  0
VERTEX
  5
1D8
  8
257
  6
CONTINUOUS
 62
     7
 10
350.6722114063239
 20
189.908269716757
 30
0.0
  0
VERTEX
  5
1D9
  8
257
  6
CONTINUOUS
 62
     7
 10
350.7637645902624
 20
190.07537038589
 30
0.0
  0
VERTEX
  5
1DA
  8
257
  6
CONTINUOUS
 62
     7
 10
350.8233881886793
 20
190.2557341726653
 30
0.0
  0
VERTEX
  5
1DB
  8
257
  6
CONTINUOUS
 62
     7
 10
350.8489165126612
 20
190.4428097808885
 30
0.0
  0
SEQEND
  5
579
  8
257
  6
CONTINUOUS
 62
     7
  0
POLYLINE
  5
BD
  8
257
  6
CONTINUOUS
 62
     7
 66
     1
 10
0.0
 20
0.0
 30
0.0
  0
VERTEX
  5
1DC
  8
257
  6
CONTINUOUS
 62
     7
 10
382.8847109215041
 20
189.4557096284377
 30
0.0
  0
VERTEX
  5
1DD
  8
257
  6
CONTINUOUS
 62
     7
 10
383.0678134872088
 20
189.4822187420873
 30
0.0
  0
VERTEX
  5
1DE
  8
257
  6
CONTINUOUS
 62
     7
 10
383.244265276927
 20
189.5435358310042
 30
0.0
  0
VERTEX
  5
1DF
  8
257
  6
CONTINUOUS
 62
     7
 10
383.4076570886837
 20
189.6374336941606
 30
0.0
  0
VERTEX
  5
1E0
  8
257
  6
CONTINUOUS
 62
     7
 10
383.5520540939095
 20
189.7605017094768
 30
0.0
  0
VERTEX
  5
1E1
  8
257
  6
CONTINUOUS
 62
     7
 10
383.6722114063239
 20
189.908269716757
 30
0.0
  0
VERTEX
  5
1E2
  8
257
  6
CONTINUOUS
 62
     7
 10
383.7637645902624
 20
190.07537038589
 30
0.0
  0
VERTEX
  5
1E3
  8
257
  6
CONTINUOUS
 62
     7
 10
383.8233881886793
 20
190.2557341726653
 30
0.0
  0
VERTEX
  5
1E4
  8
257
  6
CONTINUOUS
 62
     7
 10
383.8489165126612
 20
190.4428097808885
 30
0.0
  0
SEQEND
  5
57A
  8
257
  6
CONTINUOUS
 62
     7
  0
LINE
  5
BE
  8
257
  6
CONTINUOUS
 62
     7
 10
332.1152890784961
 20
165.5442903715621
 30
0.0
 11
332.0335712678464
 21
165.5882264774358
 31
0.0
  0
LINE
  5
BF
  8
257
  6
CONTINUOUS
 62
     7
 10
330.9247478600631
 20
177.5
 30
0.0
 11
330.9305318308791
 21
188.9643062320719
 31
0.0
  0
LINE
  5
C0
  8
257
  6
CONTINUOUS
 62
     7
 10
365.1152890784961
 20
189.4557096284378
 30
0.0
 11
365.0335712678464
 21
189.4117735225642
 31
0.0
  0
LINE
  5
C1
  8
257
  6
CONTINUOUS
 62
     7
 10
349.8847109215041
 20
165.5442903715621
 30
0.0
 11
349.9664287321538
 21
165.5882264774358
 31
0.0
  0
LINE
  5
C2
  8
257
  6
CONTINUOUS
 62
     7
 10
382.8847109215041
 20
165.5442903715621
 30
0.0
 11
382.9664287321538
 21
165.5882264774358
 31
0.0
  0
LINE
  5
C3
  8
257
  6
CONTINUOUS
 62
     7
 10
365.1152890784961
 20
165.5442903715621
 30
0.0
 11
365.0335712678464
 21
165.5882264774358
 31
0.0
  0
LINE
  5
C4
  8
257
  6
CONTINUOUS
 62
     7
 10
364.0421264064757
 20
91.97789523111996
 30
0.0
 11
362.0958868450142
 21
106.7610523844403
 31
0.0
  0
LINE
  5
C5
  8
257
  6
CONTINUOUS
 62
     7
 10
384.0694681691209
 20
188.9643062320719
 30
0.0
 11
383.9578735935273
 21
190.309826333024
 31
0.0
  0
LINE
  5
C6
  8
257
  6
CONTINUOUS
 62
     7
 10
330.9305318308791
 20
166.035693767928
 30
0.0
 11
331.0421264064727
 21
164.690173666976
 31
0.0
  0
LINE
  5
C7
  8
257
  6
CONTINUOUS
 62
     7
 10
350.9578735935243
 20
91.97789523111996
 30
0.0
 11
352.9041131549858
 21
106.7610523844403
 31
0.0
  0
POLYLINE
  5
C8
  8
257
  6
CONTINUOUS
 62
     7
 66
     1
 10
0.0
 20
0.0
 30
0.0
  0
VERTEX
  5
1E5
  8
257
  6
CONTINUOUS
 62
     7
 10
332.0335712678463
 20
165.5882264774358
 30
0.0
  0
VERTEX
  5
1E6
  8
257
  6
CONTINUOUS
 62
     7
 10
331.8467508213393
 20
165.5624159540876
 30
0.0
  0
VERTEX
  5
1E7
  8
257
  6
CONTINUOUS
 62
     7
 10
331.6666020039497
 20
165.5054962928316
 30
0.0
  0
VERTEX
  5
1E8
  8
257
  6
CONTINUOUS
 62
     7
 10
331.4995581912421
 20
165.41950017733
 30
0.0
  0
VERTEX
  5
1E9
  8
257
  6
CONTINUOUS
 62
     7
 10
331.351584760056
 20
165.3074986535998
 30
0.0
  0
VERTEX
  5
1EA
  8
257
  6
CONTINUOUS
 62
     7
 10
331.2279660562464
 20
165.1734914585056
 30
0.0
  0
VERTEX
  5
1EB
  8
257
  6
CONTINUOUS
 62
     7
 10
331.1331166830283
 20
165.0222641833539
 30
0.0
  0
VERTEX
  5
1EC
  8
257
  6
CONTINUOUS
 62
     7
 10
331.0704238490929
 20
164.8592173734872
 30
0.0
  0
VERTEX
  5
1ED
  8
257
  6
CONTINUOUS
 62
     7
 10
331.0421264064726
 20
164.690173666976
 30
0.0
  0
SEQEND
  5
57B
  8
257
  6
CONTINUOUS
 62
     7
  0
LINE
  5
C9
  8
257
  6
CONTINUOUS
 62
     7
 10
383.9578735935243
 20
263.0221047688801
 30
0.0
 11
385.9041131549858
 21
248.2389476155597
 31
0.0
  0
LINE
  5
CA
  8
257
  6
CONTINUOUS
 62
     7
 10
365.1152890784961
 20
189.4557096284378
 30
0.0
 11
382.8847109215041
 21
189.4557096284378
 31
0.0
  0
LINE
  5
CB
  8
257
  6
CONTINUOUS
 62
     7
 10
384.0752521399369
 20
177.5
 30
0.0
 11
384.0694681691209
 21
188.9643062320719
 31
0.0
  0
LINE
  5
CC
  8
257
  6
CONTINUOUS
 62
     7
 10
350.9578735935243
 20
263.0221047688801
 30
0.0
 11
352.9041131549858
 21
248.2389476155597
 31
0.0
  0
LINE
  5
CD
  8
257
  6
CONTINUOUS
 62
     7
 10
330.9247478600631
 20
177.5
 30
0.0
 11
330.9305318308791
 21
166.035693767928
 31
0.0
  0
LINE
  5
CE
  8
257
  6
CONTINUOUS
 62
     7
 10
363.9247478600631
 20
177.5
 30
0.0
 11
363.9305318308791
 21
166.035693767928
 31
0.0
  0
LINE
  5
CF
  8
257
  6
CONTINUOUS
 62
     7
 10
363.9305318308791
 20
166.035693767928
 30
0.0
 11
364.0421264064726
 21
164.690173666976
 31
0.0
  0
LINE
  5
D0
  8
257
  6
CONTINUOUS
 62
     7
 10
351.0694681691209
 20
188.9643062320719
 30
0.0
 11
350.9578735935274
 21
190.309826333024
 31
0.0
  0
LINE
  5
D1
  8
257
  6
CONTINUOUS
 62
     7
 10
331.0421264064758
 20
91.97789523111996
 30
0.0
 11
329.0958868450142
 21
106.7610523844403
 31
0.0
  0
LINE
  5
D2
  8
257
  6
CONTINUOUS
 62
     7
 10
351.0752521399369
 20
177.5
 30
0.0
 11
351.0694681691209
 21
166.035693767928
 31
0.0
  0
LINE
  5
D3
  8
257
  6
CONTINUOUS
 62
     7
 10
384.0752521399369
 20
177.5
 30
0.0
 11
384.0694681691209
 21
166.035693767928
 31
0.0
  0
LINE
  5
D4
  8
257
  6
CONTINUOUS
 62
     7
 10
331.0421264064758
 20
263.0221047688801
 30
0.0
 11
329.0958868450142
 21
248.2389476155597
 31
0.0
  0
LINE
  5
D5
  8
257
  6
CONTINUOUS
 62
     7
 10
364.0421264064757
 20
263.0221047688801
 30
0.0
 11
362.0958868450142
 21
248.2389476155597
 31
0.0
  0
LINE
  5
D6
  8
257
  6
CONTINUOUS
 62
     7
 10
383.9578735935243
 20
91.97789523111996
 30
0.0
 11
385.9041131549858
 21
106.7610523844403
 31
0.0
  0
LINE
  5
D7
  8
257
  6
CONTINUOUS
 62
     7
 10
330.9305318308791
 20
188.9643062320719
 30
0.0
 11
331.0421264064727
 21
190.309826333024
 31
0.0
  0
LINE
  5
D8
  8
257
  6
CONTINUOUS
 62
     7
 10
363.9247478600631
 20
177.5
 30
0.0
 11
363.9305318308791
 21
188.9643062320719
 31
0.0
  0
LINE
  5
D9
  8
257
  6
CONTINUOUS
 62
     7
 10
332.1152890784961
 20
189.4557096284378
 30
0.0
 11
349.8847109215041
 21
189.4557096284378
 31
0.0
  0
LINE
  5
DA
  8
257
  6
CONTINUOUS
 62
     7
 10
332.1152890784961
 20
165.5442903715621
 30
0.0
 11
349.8847109215041
 21
165.5442903715621
 31
0.0
  0
LINE
  5
DB
  8
257
  6
CONTINUOUS
 62
     7
 10
365.1152890784961
 20
165.5442903715621
 30
0.0
 11
382.8847109215041
 21
165.5442903715621
 31
0.0
  0
LINE
  5
DC
  8
257
  6
CONTINUOUS
 62
     7
 10
363.9305318308791
 20
188.9643062320719
 30
0.0
 11
364.0421264064726
 21
190.309826333024
 31
0.0
  0
LINE
  5
DD
  8
257
  6
CONTINUOUS
 62
     7
 10
332.1152890784961
 20
189.4557096284378
 30
0.0
 11
332.0335712678464
 21
189.4117735225642
 31
0.0
  0
POLYLINE
  5
DE
  8
257
  6
CONTINUOUS
 62
     7
 66
     1
 10
0.0
 20
0.0
 30
0.0
  0
VERTEX
  5
1EE
  8
257
  6
CONTINUOUS
 62
     7
 10
365.0335712678463
 20
165.5882264774358
 30
0.0
  0
VERTEX
  5
1EF
  8
257
  6
CONTINUOUS
 62
     7
 10
364.8467508213393
 20
165.5624159540876
 30
0.0
  0
VERTEX
  5
1F0
  8
257
  6
CONTINUOUS
 62
     7
 10
364.6666020039497
 20
165.5054962928315
 30
0.0
  0
VERTEX
  5
1F1
  8
257
  6
CONTINUOUS
 62
     7
 10
364.4995581912421
 20
165.4195001773299
 30
0.0
  0
VERTEX
  5
1F2
  8
257
  6
CONTINUOUS
 62
     7
 10
364.351584760056
 20
165.3074986535998
 30
0.0
  0
VERTEX
  5
1F3
  8
257
  6
CONTINUOUS
 62
     7
 10
364.2279660562464
 20
165.1734914585056
 30
0.0
  0
VERTEX
  5
1F4
  8
257
  6
CONTINUOUS
 62
     7
 10
364.1331166830283
 20
165.0222641833539
 30
0.0
  0
VERTEX
  5
1F5
  8
257
  6
CONTINUOUS
 62
     7
 10
364.0704238490929
 20
164.8592173734872
 30
0.0
  0
VERTEX
  5
1F6
  8
257
  6
CONTINUOUS
 62
     7
 10
364.0421264064726
 20
164.690173666976
 30
0.0
  0
SEQEND
  5
57C
  8
257
  6
CONTINUOUS
 62
     7
  0
LINE
  5
DF
  8
257
  6
CONTINUOUS
 62
     7
 10
384.0694681691209
 20
166.035693767928
 30
0.0
 11
383.9578735935273
 21
164.690173666976
 31
0.0
  0
LINE
  5
E0
  8
257
  6
CONTINUOUS
 62
     7
 10
351.0694681691209
 20
166.035693767928
 30
0.0
 11
350.9578735935274
 21
164.690173666976
 31
0.0
  0
LINE
  5
E1
  8
257
  6
CONTINUOUS
 62
     7
 10
349.9664287321538
 20
189.4117735225642
 30
0.0
 11
350.0780233077472
 21
188.9633057519317
 31
0.0
  0
LINE
  5
E2
  8
257
  6
CONTINUOUS
 62
     7
 10
383.0780233077471
 20
188.9633057519317
 30
0.0
 11
383.0838072785631
 21
177.5
 31
0.0
  0
LINE
  5
E3
  8
257
  6
CONTINUOUS
 62
     7
 10
382.9664287321538
 20
189.4117735225642
 30
0.0
 11
383.0780233077472
 21
188.9633057519317
 31
0.0
  0
POLYLINE
  5
E4
  8
257
  6
CONTINUOUS
 62
     7
 66
     1
 10
0.0
 20
0.0
 30
0.0
  0
VERTEX
  5
1F7
  8
257
  6
CONTINUOUS
 62
     7
 10
383.9578735935274
 20
164.690173666976
 30
0.0
  0
VERTEX
  5
1F8
  8
257
  6
CONTINUOUS
 62
     7
 10
383.9295761509071
 20
164.8592173734871
 30
0.0
  0
VERTEX
  5
1F9
  8
257
  6
CONTINUOUS
 62
     7
 10
383.8668833169717
 20
165.0222641833538
 30
0.0
  0
VERTEX
  5
1FA
  8
257
  6
CONTINUOUS
 62
     7
 10
383.7720339437536
 20
165.1734914585055
 30
0.0
  0
VERTEX
  5
1FB
  8
257
  6
CONTINUOUS
 62
     7
 10
383.648415239944
 20
165.3074986535997
 30
0.0
  0
VERTEX
  5
1FC
  8
257
  6
CONTINUOUS
 62
     7
 10
383.500441808758
 20
165.4195001773299
 30
0.0
  0
VERTEX
  5
1FD
  8
257
  6
CONTINUOUS
 62
     7
 10
383.3333979960505
 20
165.5054962928315
 30
0.0
  0
VERTEX
  5
1FE
  8
257
  6
CONTINUOUS
 62
     7
 10
383.1532491786608
 20
165.5624159540875
 30
0.0
  0
VERTEX
  5
1FF
  8
257
  6
CONTINUOUS
 62
     7
 10
382.9664287321538
 20
165.5882264774357
 30
0.0
  0
SEQEND
  5
57D
  8
257
  6
CONTINUOUS
 62
     7
  0
LINE
  5
E5
  8
257
  6
CONTINUOUS
 62
     7
 10
365.0335712678464
 20
189.4117735225642
 30
0.0
 11
364.9219766922529
 21
188.9633057519317
 31
0.0
  0
ARC
  5
E6
  8
257
  6
CONTINUOUS
 62
     7
 10
354.8870028777334
 20
106.5000000000002
 30
0.0
 40
2.000000000000002
 50
90.0
 51
172.5
  0
LINE
  5
E7
  8
257
  6
CONTINUOUS
 62
     7
 10
331.9219766922529
 20
166.0366942480682
 30
0.0
 11
331.9161927214369
 21
177.5
 31
0.0
  0
ARC
  5
E8
  8
257
  6
CONTINUOUS
 62
     7
 10
327.1129971222666
 20
106.5000000000002
 30
0.0
 40
2.000000000000002
 50
7.5
 51
90.0
  0
ARC
  5
E9
  8
257
  6
CONTINUOUS
 62
     7
 10
360.1129971222666
 20
106.5000000000002
 30
0.0
 40
2.000000000000002
 50
7.5
 51
90.0
  0
LINE
  5
EA
  8
257
  6
CONTINUOUS
 62
     7
 10
364.9219766922528
 20
166.0366942480682
 30
0.0
 11
364.9161927214369
 21
177.5
 31
0.0
  0
LINE
  5
EB
  8
257
  6
CONTINUOUS
 62
     7
 10
382.8847109215041
 20
189.4557096284378
 30
0.0
 11
382.9664287321538
 21
189.4117735225642
 31
0.0
  0
LINE
  5
EC
  8
257
  6
CONTINUOUS
 62
     7
 10
327.1129971222666
 20
177.5
 30
0.0
 11
327.1129971222666
 21
108.5000000000002
 31
0.0
  0
ARC
  5
ED
  8
257
  6
CONTINUOUS
 62
     7
 10
354.8870028777334
 20
248.4999999999998
 30
0.0
 40
2.000000000000002
 50
187.5
 51
270.0
  0
ARC
  5
EE
  8
257
  6
CONTINUOUS
 62
     7
 10
387.8870028777334
 20
248.4999999999998
 30
0.0
 40
2.000000000000002
 50
187.5
 51
270.0
  0
LINE
  5
EF
  8
257
  6
CONTINUOUS
 62
     7
 10
349.9664287321538
 20
165.5882264774358
 30
0.0
 11
350.0780233077472
 21
166.0366942480682
 31
0.0
  0
ARC
  5
F0
  8
257
  6
CONTINUOUS
 62
     7
 10
327.1129971222666
 20
248.4999999999998
 30
0.0
 40
2.000000000000002
 50
270.0
 51
352.5
  0
LINE
  5
F1
  8
257
  6
CONTINUOUS
 62
     7
 10
354.8870028777334
 20
177.5
 30
0.0
 11
354.8870028777334
 21
108.5000000000002
 31
0.0
  0
LINE
  5
F2
  8
257
  6
CONTINUOUS
 62
     7
 10
360.1129971222666
 20
177.5
 30
0.0
 11
360.1129971222666
 21
108.5000000000002
 31
0.0
  0
LINE
  5
F3
  8
257
  6
CONTINUOUS
 62
     7
 10
327.1129971222666
 20
177.5
 30
0.0
 11
327.1129971222666
 21
246.4999999999998
 31
0.0
  0
LINE
  5
F4
  8
257
  6
CONTINUOUS
 62
     7
 10
349.8847109215041
 20
189.4557096284378
 30
0.0
 11
349.9664287321538
 21
189.4117735225642
 31
0.0
  0
LINE
  5
F5
  8
257
  6
CONTINUOUS
 62
     7
 10
354.8870028777334
 20
177.5
 30
0.0
 11
354.8870028777334
 21
246.4999999999998
 31
0.0
  0
LINE
  5
F6
  8
257
  6
CONTINUOUS
 62
     7
 10
364.9219766922528
 20
188.9633057519317
 30
0.0
 11
364.9161927214369
 21
177.5
 31
0.0
  0
LINE
  5
F7
  8
257
  6
CONTINUOUS
 62
     7
 10
387.8870028777334
 20
177.5
 30
0.0
 11
387.8870028777334
 21
246.4999999999998
 31
0.0
  0
LINE
  5
F8
  8
257
  6
CONTINUOUS
 62
     7
 10
327.1129971222666
 20
246.4999999999998
 30
0.0
 11
324.5
 21
246.4999999999998
 31
0.0
  0
LINE
  5
F9
  8
257
  6
CONTINUOUS
 62
     7
 10
382.9664287321538
 20
165.5882264774358
 30
0.0
 11
383.0780233077472
 21
166.0366942480682
 31
0.0
  0
LINE
  5
FA
  8
257
  6
CONTINUOUS
 62
     7
 10
331.9219766922529
 20
188.9633057519317
 30
0.0
 11
331.9161927214369
 21
177.5
 31
0.0
  0
LINE
  5
FB
  8
257
  6
CONTINUOUS
 62
     7
 10
383.0780233077471
 20
166.0366942480682
 30
0.0
 11
383.0838072785631
 21
177.5
 31
0.0
  0
ARC
  5
FC
  8
257
  6
CONTINUOUS
 62
     7
 10
360.1129971222666
 20
248.4999999999998
 30
0.0
 40
2.000000000000002
 50
270.0
 51
352.5
  0
LINE
  5
FD
  8
257
  6
CONTINUOUS
 62
     7
 10
387.8870028777334
 20
246.4999999999998
 30
0.0
 11
390.5
 21
246.4999999999998
 31
0.0
  0
LINE
  5
FE
  8
257
  6
CONTINUOUS
 62
     7
 10
350.0780233077472
 20
188.9633057519317
 30
0.0
 11
350.0838072785631
 21
177.5
 31
0.0
  0
ARC
  5
FF
  8
257
  6
CONTINUOUS
 62
     7
 10
387.8870028777334
 20
106.5000000000002
 30
0.0
 40
2.000000000000002
 50
90.0
 51
172.5
  0
LINE
  5
100
  8
257
  6
CONTINUOUS
 62
     7
 10
354.8870028777334
 20
246.4999999999998
 30
0.0
 11
357.5000000000001
 21
246.4999999999998
 31
0.0
  0
LINE
  5
101
  8
257
  6
CONTINUOUS
 62
     7
 10
360.1129971222666
 20
246.4999999999998
 30
0.0
 11
357.5
 21
246.4999999999998
 31
0.0
  0
LINE
  5
102
  8
257
  6
CONTINUOUS
 62
     7
 10
360.1129971222666
 20
177.5
 30
0.0
 11
360.1129971222666
 21
246.4999999999998
 31
0.0
  0
LINE
  5
103
  8
257
  6
CONTINUOUS
 62
     7
 10
332.0335712678464
 20
189.4117735225642
 30
0.0
 11
331.9219766922529
 21
188.9633057519317
 31
0.0
  0
POLYLINE
  5
104
  8
257
  6
CONTINUOUS
 62
     7
 66
     1
 10
0.0
 20
0.0
 30
0.0
  0
VERTEX
  5
200
  8
257
  6
CONTINUOUS
 62
     7
 10
350.9578735935274
 20
164.690173666976
 30
0.0
  0
VERTEX
  5
201
  8
257
  6
CONTINUOUS
 62
     7
 10
350.9295761509071
 20
164.8592173734871
 30
0.0
  0
VERTEX
  5
202
  8
257
  6
CONTINUOUS
 62
     7
 10
350.8668833169717
 20
165.0222641833538
 30
0.0
  0
VERTEX
  5
203
  8
257
  6
CONTINUOUS
 62
     7
 10
350.7720339437536
 20
165.1734914585055
 30
0.0
  0
VERTEX
  5
204
  8
257
  6
CONTINUOUS
 62
     7
 10
350.648415239944
 20
165.3074986535997
 30
0.0
  0
VERTEX
  5
205
  8
257
  6
CONTINUOUS
 62
     7
 10
350.500441808758
 20
165.4195001773298
 30
0.0
  0
VERTEX
  5
206
  8
257
  6
CONTINUOUS
 62
     7
 10
350.3333979960505
 20
165.5054962928315
 30
0.0
  0
VERTEX
  5
207
  8
257
  6
CONTINUOUS
 62
     7
 10
350.1532491786608
 20
165.5624159540875
 30
0.0
  0
VERTEX
  5
208
  8
257
  6
CONTINUOUS
 62
     7
 10
349.9664287321538
 20
165.5882264774357
 30
0.0
  0
SEQEND
  5
57E
  8
257
  6
CONTINUOUS
 62
     7
  0
LINE
  5
105
  8
257
  6
CONTINUOUS
 62
     7
 10
332.0335712678464
 20
165.5882264774358
 30
0.0
 11
331.9219766922529
 21
166.0366942480682
 31
0.0
  0
LINE
  5
106
  8
257
  6
CONTINUOUS
 62
     7
 10
350.0780233077472
 20
166.0366942480682
 30
0.0
 11
350.0838072785631
 21
177.5
 31
0.0
  0
LINE
  5
107
  8
257
  6
CONTINUOUS
 62
     7
 10
387.8870028777334
 20
177.5
 30
0.0
 11
387.8870028777334
 21
108.5000000000002
 31
0.0
  0
LINE
  5
108
  8
257
  6
CONTINUOUS
 62
     7
 10
365.0335712678464
 20
165.5882264774358
 30
0.0
 11
364.9219766922529
 21
166.0366942480682
 31
0.0
  0
LINE
  5
109
  8
257
  6
CENTER
 62
     1
 10
357.5000000000001
 20
177.5
 30
0.0
 11
390.5000000000001
 21
177.5
 31
0.0
  0
LINE
  5
10A
  8
257
  6
CONTINUOUS
 62
     7
 10
390.5
 20
246.4999999999998
 30
0.0
 11
390.5
 21
177.5
 31
0.0
  0
LINE
  5
10B
  8
257
  6
CONTINUOUS
 62
     7
 10
327.1129971222666
 20
108.5000000000002
 30
0.0
 11
324.5
 21
108.5000000000002
 31
0.0
  0
LINE
  5
10C
  8
257
  6
CONTINUOUS
 62
     7
 10
354.8870028777334
 20
108.5000000000002
 30
0.0
 11
357.5000000000001
 21
108.5000000000002
 31
0.0
  0
LINE
  5
10D
  8
257
  6
CONTINUOUS
 62
     7
 10
390.5
 20
108.5000000000002
 30
0.0
 11
390.5
 21
177.5
 31
0.0
  0
LINE
  5
10E
  8
257
  6
CENTER
 62
     1
 10
324.5000000000001
 20
177.5
 30
0.0
 11
357.5000000000001
 21
177.5
 31
0.0
  0
LINE
  5
10F
  8
257
  6
CONTINUOUS
 62
     7
 10
360.1129971222666
 20
108.5000000000002
 30
0.0
 11
357.5
 21
108.5000000000002
 31
0.0
  0
LINE
  5
110
  8
257
  6
CONTINUOUS
 62
     7
 10
387.8870028777334
 20
108.5000000000002
 30
0.0
 11
390.5
 21
108.5000000000002
 31
0.0
  0
ARC
  5
111
  8
257
  6
CONTINUOUS
 62
     7
 10
269.007905851971
 20
262.4999999999998
 30
0.0
 40
4.000000000000005
 50
90.0
 51
172.5
  0
LINE
  5
112
  8
257
  6
CONTINUOUS
 62
     7
 10
265.0421264064727
 20
190.309826333024
 30
0.0
 11
265.1510834873389
 21
190.4428097808885
 31
0.0
  0
LINE
  5
113
  8
257
  6
CONTINUOUS
 62
     7
 10
265.0421264064727
 20
190.309826333024
 30
0.0
 11
265.0421264064758
 21
263.02210476888
 31
0.0
  0
ARC
  5
114
  8
257
  6
CONTINUOUS
 62
     7
 10
288.8870028777334
 20
248.4999999999998
 30
0.0
 40
2.000000000000002
 50
187.5
 51
270.0
  0
LINE
  5
115
  8
257
  6
CONTINUOUS
 62
     7
 10
288.8870028777334
 20
177.5
 30
0.0
 11
288.8870028777334
 21
246.4999999999998
 31
0.0
  0
LINE
  5
116
  8
257
  6
CONTINUOUS
 62
     7
 10
264.9305318308791
 20
188.9643062320719
 30
0.0
 11
265.0421264064727
 21
190.309826333024
 31
0.0
  0
ARC
  5
117
  8
257
  6
CONTINUOUS
 62
     7
 10
288.8870028777334
 20
106.5000000000002
 30
0.0
 40
2.000000000000002
 50
90.00000000000006
 51
172.5000000000001
  0
LINE
  5
118
  8
257
  6
CONTINUOUS
 62
     7
 10
265.0421264064758
 20
263.0221047688801
 30
0.0
 11
263.0958868450142
 21
248.2389476155597
 31
0.0
  0
LINE
  5
119
  8
257
  6
CONTINUOUS
 62
     7
 10
261.1129971222666
 20
177.5
 30
0.0
 11
261.1129971222666
 21
246.4999999999998
 31
0.0
  0
LINE
  5
11A
  8
257
  6
CONTINUOUS
 62
     7
 10
258.5
 20
246.4999999999998
 30
0.0
 11
258.5
 21
177.5
 31
0.0
  0
ARC
  5
11B
  8
257
  6
CONTINUOUS
 62
     7
 10
261.1129971222666
 20
248.4999999999998
 30
0.0
 40
2.000000000000002
 50
270.0000000000001
 51
352.5000000000001
  0
LINE
  5
11C
  8
257
  6
CONTINUOUS
 62
     7
 10
261.1129971222666
 20
246.4999999999998
 30
0.0
 11
258.5
 21
246.4999999999998
 31
0.0
  0
LINE
  5
11D
  8
257
  6
CONTINUOUS
 62
     7
 10
265.9219766922529
 20
166.0366942480682
 30
0.0
 11
265.9161927214369
 21
177.5
 31
0.0
  0
LINE
  5
11E
  8
257
  6
CONTINUOUS
 62
     7
 10
275.0
 20
88.50000000000016
 30
0.0
 11
269.007905851971
 21
88.50000000000016
 31
0.0
  0
LINE
  5
11F
  8
257
  6
CONTINUOUS
 62
     7
 10
284.9578735935274
 20
164.690173666976
 30
0.0
 11
284.9578735935243
 21
91.97789523111996
 31
0.0
  0
LINE
  5
120
  8
257
  6
CONTINUOUS
 62
     7
 10
285.0752521399369
 20
177.5
 30
0.0
 11
285.0694681691209
 21
188.9643062320719
 31
0.0
  0
LINE
  5
121
  8
257
  6
CONTINUOUS
 62
     7
 10
284.9578735935243
 20
263.0221047688801
 30
0.0
 11
286.9041131549858
 21
248.2389476155597
 31
0.0
  0
LINE
  5
122
  8
257
  6
CONTINUOUS
 62
     7
 10
266.0335712678463
 20
165.5882264774358
 30
0.0
 11
265.9219766922529
 21
166.0366942480682
 31
0.0
  0
ARC
  5
123
  8
257
  6
CONTINUOUS
 62
     7
 10
269.007905851971
 20
92.50000000000017
 30
0.0
 40
4.000000000000012
 50
187.5000000000001
 51
270.0000000000001
  0
LINE
  5
124
  8
257
  6
CONTINUOUS
 62
     7
 10
265.0421264064727
 20
164.690173666976
 30
0.0
 11
265.1510834873389
 21
164.5571902191115
 31
0.0
  0
POLYLINE
  5
125
  8
257
  6
CONTINUOUS
 62
     7
 66
     1
 10
0.0
 20
0.0
 30
0.0
  0
VERTEX
  5
209
  8
257
  6
CONTINUOUS
 62
     7
 10
265.151083487339
 20
190.4428097808885
 30
0.0
  0
VERTEX
  5
20A
  8
257
  6
CONTINUOUS
 62
     7
 10
265.1766118113208
 20
190.2557341726653
 30
0.0
  0
VERTEX
  5
20B
  8
257
  6
CONTINUOUS
 62
     7
 10
265.2362354097377
 20
190.07537038589
 30
0.0
  0
VERTEX
  5
20C
  8
257
  6
CONTINUOUS
 62
     7
 10
265.3277885936761
 20
189.908269716757
 30
0.0
  0
VERTEX
  5
20D
  8
257
  6
CONTINUOUS
 62
     7
 10
265.4479459060905
 20
189.7605017094768
 30
0.0
  0
VERTEX
  5
20E
  8
257
  6
CONTINUOUS
 62
     7
 10
265.5923429113165
 20
189.6374336941606
 30
0.0
  0
VERTEX
  5
20F
  8
257
  6
CONTINUOUS
 62
     7
 10
265.755734723073
 20
189.5435358310042
 30
0.0
  0
VERTEX
  5
210
  8
257
  6
CONTINUOUS
 62
     7
 10
265.9321865127914
 20
189.4822187420874
 30
0.0
  0
VERTEX
  5
211
  8
257
  6
CONTINUOUS
 62
     7
 10
266.1152890784961
 20
189.4557096284377
 30
0.0
  0
SEQEND
  5
57F
  8
257
  6
CONTINUOUS
 62
     7
  0
LINE
  5
126
  8
257
  6
CONTINUOUS
 62
     7
 10
264.9305318308791
 20
166.035693767928
 30
0.0
 11
265.0421264064727
 21
164.690173666976
 31
0.0
  0
LINE
  5
127
  8
257
  6
CONTINUOUS
 62
     7
 10
284.9578735935274
 20
190.309826333024
 30
0.0
 11
284.8489165126611
 21
190.4428097808885
 31
0.0
  0
LINE
  5
128
  8
257
  6
CONTINUOUS
 62
     7
 10
265.0421264064758
 20
91.97789523111996
 30
0.0
 11
263.0958868450142
 21
106.7610523844403
 31
0.0
  0
LINE
  5
129
  8
257
  6
CONTINUOUS
 62
     7
 10
284.9578735935274
 20
190.309826333024
 30
0.0
 11
284.9578735935243
 21
263.02210476888
 31
0.0
  0
LINE
  5
12A
  8
257
  6
CONTINUOUS
 62
     7
 10
285.0694681691209
 20
188.9643062320719
 30
0.0
 11
284.9578735935274
 21
190.309826333024
 31
0.0
  0
LINE
  5
12B
  8
257
  6
CONTINUOUS
 62
     7
 10
266.115289078496
 20
189.4557096284378
 30
0.0
 11
283.884710921504
 21
189.4557096284378
 31
0.0
  0
LINE
  5
12C
  8
257
  6
CONTINUOUS
 62
     7
 10
266.115289078496
 20
165.5442903715621
 30
0.0
 11
283.884710921504
 21
165.5442903715621
 31
0.0
  0
LINE
  5
12D
  8
257
  6
CONTINUOUS
 62
     7
 10
283.9664287321537
 20
189.4117735225642
 30
0.0
 11
284.0780233077472
 21
188.9633057519317
 31
0.0
  0
LINE
  5
12E
  8
257
  6
CONTINUOUS
 62
     7
 10
283.9664287321537
 20
165.5882264774358
 30
0.0
 11
284.0780233077472
 21
166.0366942480682
 31
0.0
  0
LINE
  5
12F
  8
257
  6
CONTINUOUS
 62
     7
 10
284.9578735935243
 20
91.97789523111996
 30
0.0
 11
286.9041131549858
 21
106.7610523844403
 31
0.0
  0
LINE
  5
130
  8
257
  6
CONTINUOUS
 62
     7
 10
266.115289078496
 20
165.5442903715621
 30
0.0
 11
266.0335712678463
 21
165.5882264774358
 31
0.0
  0
LINE
  5
131
  8
257
  6
CONTINUOUS
 62
     7
 10
266.0335712678463
 20
189.4117735225642
 30
0.0
 11
265.9219766922529
 21
188.9633057519317
 31
0.0
  0
LINE
  5
132
  8
257
  6
CONTINUOUS
 62
     7
 10
283.884710921504
 20
165.5442903715621
 30
0.0
 11
283.9664287321537
 21
165.5882264774358
 31
0.0
  0
POLYLINE
  5
133
  8
257
  6
CONTINUOUS
 62
     7
 66
     1
 10
0.0
 20
0.0
 30
0.0
  0
VERTEX
  5
212
  8
257
  6
CONTINUOUS
 62
     7
 10
266.0335712678462
 20
165.5882264774358
 30
0.0
  0
VERTEX
  5
213
  8
257
  6
CONTINUOUS
 62
     7
 10
265.8467508213392
 20
165.5624159540876
 30
0.0
  0
VERTEX
  5
214
  8
257
  6
CONTINUOUS
 62
     7
 10
265.6666020039495
 20
165.5054962928315
 30
0.0
  0
VERTEX
  5
215
  8
257
  6
CONTINUOUS
 62
     7
 10
265.499558191242
 20
165.4195001773299
 30
0.0
  0
VERTEX
  5
216
  8
257
  6
CONTINUOUS
 62
     7
 10
265.351584760056
 20
165.3074986535998
 30
0.0
  0
VERTEX
  5
217
  8
257
  6
CONTINUOUS
 62
     7
 10
265.2279660562464
 20
165.1734914585055
 30
0.0
  0
VERTEX
  5
218
  8
257
  6
CONTINUOUS
 62
     7
 10
265.1331166830283
 20
165.0222641833539
 30
0.0
  0
VERTEX
  5
219
  8
257
  6
CONTINUOUS
 62
     7
 10
265.0704238490929
 20
164.8592173734872
 30
0.0
  0
VERTEX
  5
21A
  8
257
  6
CONTINUOUS
 62
     7
 10
265.0421264064726
 20
164.690173666976
 30
0.0
  0
SEQEND
  5
580
  8
257
  6
CONTINUOUS
 62
     7
  0
LINE
  5
134
  8
257
  6
CONTINUOUS
 62
     7
 10
285.0752521399369
 20
177.5
 30
0.0
 11
285.0694681691209
 21
166.035693767928
 31
0.0
  0
LINE
  5
135
  8
257
  6
CONTINUOUS
 62
     7
 10
265.9219766922529
 20
188.9633057519317
 30
0.0
 11
265.9161927214369
 21
177.5
 31
0.0
  0
ARC
  5
136
  8
257
  6
CONTINUOUS
 62
     7
 10
280.992094148029
 20
92.50000000000017
 30
0.0
 40
4.000000000000012
 50
270.0
 51
352.5
  0
LINE
  5
137
  8
257
  6
CONTINUOUS
 62
     7
 10
266.115289078496
 20
189.4557096284378
 30
0.0
 11
266.0335712678463
 21
189.4117735225642
 31
0.0
  0
LINE
  5
138
  8
257
  6
CONTINUOUS
 62
     7
 10
264.9247478600631
 20
177.5
 30
0.0
 11
264.9305318308791
 21
188.9643062320719
 31
0.0
  0
LINE
  5
139
  8
257
  6
CONTINUOUS
 62
     7
 10
284.0780233077472
 20
188.9633057519317
 30
0.0
 11
284.0838072785631
 21
177.5
 31
0.0
  0
LINE
  5
13A
  8
257
  6
CONTINUOUS
 62
     7
 10
288.8870028777334
 20
177.5
 30
0.0
 11
288.8870028777334
 21
108.5000000000002
 31
0.0
  0
LINE
  5
13B
  8
257
  6
CONTINUOUS
 62
     7
 10
265.0421264064727
 20
164.690173666976
 30
0.0
 11
265.0421264064758
 21
91.97789523111996
 31
0.0
  0
ARC
  5
13C
  8
257
  6
CONTINUOUS
 62
     7
 10
261.1129971222666
 20
106.5000000000002
 30
0.0
 40
2.000000000000002
 50
7.499999999999942
 51
89.99999999999994
  0
LINE
  5
13D
  8
257
  6
CONTINUOUS
 62
     7
 10
284.9578735935274
 20
164.690173666976
 30
0.0
 11
284.8489165126611
 21
164.5571902191115
 31
0.0
  0
POLYLINE
  5
13E
  8
257
  6
CONTINUOUS
 62
     7
 66
     1
 10
0.0
 20
0.0
 30
0.0
  0
VERTEX
  5
21B
  8
257
  6
CONTINUOUS
 62
     7
 10
283.8847109215039
 20
189.4557096284377
 30
0.0
  0
VERTEX
  5
21C
  8
257
  6
CONTINUOUS
 62
     7
 10
284.0678134872086
 20
189.4822187420874
 30
0.0
  0
VERTEX
  5
21D
  8
257
  6
CONTINUOUS
 62
     7
 10
284.244265276927
 20
189.5435358310042
 30
0.0
  0
VERTEX
  5
21E
  8
257
  6
CONTINUOUS
 62
     7
 10
284.4076570886835
 20
189.6374336941606
 30
0.0
  0
VERTEX
  5
21F
  8
257
  6
CONTINUOUS
 62
     7
 10
284.5520540939095
 20
189.7605017094768
 30
0.0
  0
VERTEX
  5
220
  8
257
  6
CONTINUOUS
 62
     7
 10
284.6722114063239
 20
189.908269716757
 30
0.0
  0
VERTEX
  5
221
  8
257
  6
CONTINUOUS
 62
     7
 10
284.7637645902623
 20
190.07537038589
 30
0.0
  0
VERTEX
  5
222
  8
257
  6
CONTINUOUS
 62
     7
 10
284.8233881886792
 20
190.2557341726653
 30
0.0
  0
VERTEX
  5
223
  8
257
  6
CONTINUOUS
 62
     7
 10
284.848916512661
 20
190.4428097808885
 30
0.0
  0
SEQEND
  5
581
  8
257
  6
CONTINUOUS
 62
     7
  0
POLYLINE
  5
13F
  8
257
  6
CONTINUOUS
 62
     7
 66
     1
 10
0.0
 20
0.0
 30
0.0
  0
VERTEX
  5
224
  8
257
  6
CONTINUOUS
 62
     7
 10
284.9578735935273
 20
164.690173666976
 30
0.0
  0
VERTEX
  5
225
  8
257
  6
CONTINUOUS
 62
     7
 10
284.929576150907
 20
164.8592173734871
 30
0.0
  0
VERTEX
  5
226
  8
257
  6
CONTINUOUS
 62
     7
 10
284.8668833169717
 20
165.0222641833539
 30
0.0
  0
VERTEX
  5
227
  8
257
  6
CONTINUOUS
 62
     7
 10
284.7720339437535
 20
165.1734914585055
 30
0.0
  0
VERTEX
  5
228
  8
257
  6
CONTINUOUS
 62
     7
 10
284.648415239944
 20
165.3074986535998
 30
0.0
  0
VERTEX
  5
229
  8
257
  6
CONTINUOUS
 62
     7
 10
284.500441808758
 20
165.4195001773299
 30
0.0
  0
VERTEX
  5
22A
  8
257
  6
CONTINUOUS
 62
     7
 10
284.3333979960504
 20
165.5054962928315
 30
0.0
  0
VERTEX
  5
22B
  8
257
  6
CONTINUOUS
 62
     7
 10
284.1532491786608
 20
165.5624159540875
 30
0.0
  0
VERTEX
  5
22C
  8
257
  6
CONTINUOUS
 62
     7
 10
283.9664287321538
 20
165.5882264774357
 30
0.0
  0
SEQEND
  5
582
  8
257
  6
CONTINUOUS
 62
     7
  0
LINE
  5
140
  8
257
  6
CONTINUOUS
 62
     7
 10
283.884710921504
 20
189.4557096284378
 30
0.0
 11
283.9664287321537
 21
189.4117735225642
 31
0.0
  0
ARC
  5
141
  8
257
  6
CONTINUOUS
 62
     7
 10
280.992094148029
 20
262.4999999999998
 30
0.0
 40
4.000000000000005
 50
7.500000000000013
 51
90.00000000000004
  0
LINE
  5
142
  8
257
  6
CONTINUOUS
 62
     7
 10
264.9247478600631
 20
177.5
 30
0.0
 11
264.9305318308791
 21
166.035693767928
 31
0.0
  0
LINE
  5
143
  8
257
  6
CONTINUOUS
 62
     7
 10
285.0694681691209
 20
166.035693767928
 30
0.0
 11
284.9578735935274
 21
164.690173666976
 31
0.0
  0
LINE
  5
144
  8
257
  6
CONTINUOUS
 62
     7
 10
284.0780233077472
 20
166.0366942480682
 30
0.0
 11
284.0838072785631
 21
177.5
 31
0.0
  0
LINE
  5
145
  8
257
  6
CONTINUOUS
 62
     7
 10
261.1129971222666
 20
177.5
 30
0.0
 11
261.1129971222666
 21
108.5000000000002
 31
0.0
  0
LINE
  5
146
  8
257
  6
CONTINUOUS
 62
     7
 10
317.9578735935273
 20
190.309826333024
 30
0.0
 11
317.9578735935242
 21
263.02210476888
 31
0.0
  0
LINE
  5
147
  8
257
  6
CONTINUOUS
 62
     7
 10
258.5
 20
108.5000000000002
 30
0.0
 11
258.5
 21
177.5
 31
0.0
  0
ARC
  5
148
  8
257
  6
CONTINUOUS
 62
     7
 10
313.992094148029
 20
262.4999999999998
 30
0.0
 40
4.000000000000012
 50
7.499999999999915
 51
89.99999999999994
  0
LINE
  5
149
  8
257
  6
CONTINUOUS
 62
     7
 10
298.0421264064726
 20
190.309826333024
 30
0.0
 11
298.0421264064757
 21
263.02210476888
 31
0.0
  0
LINE
  5
14A
  8
257
  6
CENTER
 62
     1
 10
258.5
 20
177.5
 30
0.0
 11
291.5000000000001
 21
177.5
 31
0.0
  0
LINE
  5
14B
  8
257
  6
CONTINUOUS
 62
     7
 10
313.992094148029
 20
88.50000000000016
 30
0.0
 11
302.0079058519711
 21
88.50000000000016
 31
0.0
  0
LINE
  5
14C
  8
257
  6
CONTINUOUS
 62
     7
 10
297.9305318308791
 20
166.035693767928
 30
0.0
 11
298.0421264064726
 21
164.690173666976
 31
0.0
  0
ARC
  5
14D
  8
257
  6
CONTINUOUS
 62
     7
 10
302.007905851971
 20
262.4999999999998
 30
0.0
 40
4.000000000000012
 50
90.00000000000011
 51
172.5000000000001
  0
LINE
  5
14E
  8
257
  6
CONTINUOUS
 62
     7
 10
298.0421264064726
 20
164.690173666976
 30
0.0
 11
298.0421264064757
 21
91.97789523111996
 31
0.0
  0
POLYLINE
  5
14F
  8
257
  6
CONTINUOUS
 62
     7
 66
     1
 10
0.0
 20
0.0
 30
0.0
  0
VERTEX
  5
22D
  8
257
  6
CONTINUOUS
 62
     7
 10
316.8847109215041
 20
189.4557096284377
 30
0.0
  0
VERTEX
  5
22E
  8
257
  6
CONTINUOUS
 62
     7
 10
317.0678134872088
 20
189.4822187420873
 30
0.0
  0
VERTEX
  5
22F
  8
257
  6
CONTINUOUS
 62
     7
 10
317.244265276927
 20
189.5435358310042
 30
0.0
  0
VERTEX
  5
230
  8
257
  6
CONTINUOUS
 62
     7
 10
317.4076570886837
 20
189.6374336941606
 30
0.0
  0
VERTEX
  5
231
  8
257
  6
CONTINUOUS
 62
     7
 10
317.5520540939095
 20
189.7605017094768
 30
0.0
  0
VERTEX
  5
232
  8
257
  6
CONTINUOUS
 62
     7
 10
317.6722114063239
 20
189.908269716757
 30
0.0
  0
VERTEX
  5
233
  8
257
  6
CONTINUOUS
 62
     7
 10
317.7637645902624
 20
190.07537038589
 30
0.0
  0
VERTEX
  5
234
  8
257
  6
CONTINUOUS
 62
     7
 10
317.8233881886793
 20
190.2557341726653
 30
0.0
  0
VERTEX
  5
235
  8
257
  6
CONTINUOUS
 62
     7
 10
317.8489165126612
 20
190.4428097808885
 30
0.0
  0
SEQEND
  5
583
  8
257
  6
CONTINUOUS
 62
     7
  0
LINE
  5
150
  8
257
  6
CONTINUOUS
 62
     7
 10
302.007905851971
 20
266.4999999999998
 30
0.0
 11
313.992094148029
 21
266.4999999999998
 31
0.0
  0
LINE
  5
151
  8
257
  6
CONTINUOUS
 62
     7
 10
317.9578735935273
 20
190.309826333024
 30
0.0
 11
317.848916512661
 21
190.4428097808885
 31
0.0
  0
LINE
  5
152
  8
257
  6
CONTINUOUS
 62
     7
 10
288.8870028777334
 20
246.4999999999998
 30
0.0
 11
291.5000000000001
 21
246.4999999999998
 31
0.0
  0
LINE
  5
153
  8
257
  6
CONTINUOUS
 62
     7
 10
261.1129971222666
 20
108.5000000000002
 30
0.0
 11
258.5
 21
108.5000000000002
 31
0.0
  0
LINE
  5
154
  8
257
  6
CONTINUOUS
 62
     7
 10
317.9578735935273
 20
164.690173666976
 30
0.0
 11
317.9578735935242
 21
91.97789523111996
 31
0.0
  0
LINE
  5
155
  8
257
  6
CONTINUOUS
 62
     7
 10
288.8870028777334
 20
108.5000000000002
 30
0.0
 11
291.5000000000001
 21
108.5000000000002
 31
0.0
  0
LINE
  5
156
  8
257
  6
CONTINUOUS
 62
     7
 10
298.0421264064726
 20
190.309826333024
 30
0.0
 11
298.1510834873389
 21
190.4428097808885
 31
0.0
  0
ARC
  5
157
  8
257
  6
CONTINUOUS
 62
     7
 10
313.992094148029
 20
92.50000000000017
 30
0.0
 40
4.000000000000012
 50
270.0000000000001
 51
352.5000000000001
  0
LINE
  5
158
  8
257
  6
CONTINUOUS
 62
     7
 10
298.0421264064726
 20
164.690173666976
 30
0.0
 11
298.1510834873389
 21
164.5571902191115
 31
0.0
  0
ARC
  5
159
  8
257
  6
CONTINUOUS
 62
     7
 10
302.007905851971
 20
92.50000000000017
 30
0.0
 40
4.000000000000012
 50
187.4999999999999
 51
269.9999999999999
  0
LINE
  5
15A
  8
257
  6
CONTINUOUS
 62
     7
 10
317.9578735935273
 20
164.690173666976
 30
0.0
 11
317.848916512661
 21
164.5571902191115
 31
0.0
  0
LINE
  5
15B
  8
257
  6
CONTINUOUS
 62
     7
 10
318.0752521399369
 20
177.5
 30
0.0
 11
318.0694681691209
 21
188.9643062320719
 31
0.0
  0
LINE
  5
15C
  8
257
  6
CONTINUOUS
 62
     7
 10
318.0694681691209
 20
188.9643062320719
 30
0.0
 11
317.9578735935273
 21
190.309826333024
 31
0.0
  0
LINE
  5
15D
  8
257
  6
CONTINUOUS
 62
     7
 10
317.9578735935242
 20
263.0221047688801
 30
0.0
 11
319.9041131549858
 21
248.2389476155597
 31
0.0
  0
LINE
  5
15E
  8
257
  6
CONTINUOUS
 62
     7
 10
297.9247478600631
 20
177.5
 30
0.0
 11
297.9305318308791
 21
166.035693767928
 31
0.0
  0
POLYLINE
  5
15F
  8
257
  6
CONTINUOUS
 62
     7
 66
     1
 10
0.0
 20
0.0
 30
0.0
  0
VERTEX
  5
236
  8
257
  6
CONTINUOUS
 62
     7
 10
298.151083487339
 20
190.4428097808885
 30
0.0
  0
VERTEX
  5
237
  8
257
  6
CONTINUOUS
 62
     7
 10
298.1766118113208
 20
190.2557341726653
 30
0.0
  0
VERTEX
  5
238
  8
257
  6
CONTINUOUS
 62
     7
 10
298.2362354097377
 20
190.07537038589
 30
0.0
  0
VERTEX
  5
239
  8
257
  6
CONTINUOUS
 62
     7
 10
298.3277885936762
 20
189.908269716757
 30
0.0
  0
VERTEX
  5
23A
  8
257
  6
CONTINUOUS
 62
     7
 10
298.4479459060906
 20
189.7605017094768
 30
0.0
  0
VERTEX
  5
23B
  8
257
  6
CONTINUOUS
 62
     7
 10
298.5923429113165
 20
189.6374336941606
 30
0.0
  0
VERTEX
  5
23C
  8
257
  6
CONTINUOUS
 62
     7
 10
298.7557347230731
 20
189.5435358310042
 30
0.0
  0
VERTEX
  5
23D
  8
257
  6
CONTINUOUS
 62
     7
 10
298.9321865127914
 20
189.4822187420873
 30
0.0
  0
VERTEX
  5
23E
  8
257
  6
CONTINUOUS
 62
     7
 10
299.1152890784961
 20
189.4557096284377
 30
0.0
  0
SEQEND
  5
584
  8
257
  6
CONTINUOUS
 62
     7
  0
LINE
  5
160
  8
257
  6
CONTINUOUS
 62
     7
 10
298.0421264064757
 20
91.97789523111996
 30
0.0
 11
296.0958868450142
 21
106.7610523844403
 31
0.0
  0
INSERT
  5
19E
  8
257
  6
DOT
 62
     7
  2
D_FRAME_VIEW_4128
 10
0.0
 20
0.0
 30
0.0
  0
INSERT
  5
1A7
  8
257
  6
DOT
 62
     7
  2
D_FRAME_VIEW_4354
 10
0.0
 20
0.0
 30
0.0
  0
ENDSEC
  0
EOF
