  0
SECTION
  2
HEADER
  9
$ACADVER
  1
AC1006
  9
$DWGCODEPAGE
  3
ansi_932
  9
$INSBASE
 10
0.0
 20
0.0
 30
0.0
  9
$EXTMIN
 10
-471.9999999999998
 20
119.7125109416031
  9
$EXTMAX
 10
-79.49999999999991
 20
357.4999999999999
  9
$LIMMIN
 10
0.0
 20
0.0
  9
$LIMMAX
 10
12.0
 20
9.0
  9
$ORTHOMODE
 70
     0
  9
$REGENMODE
 70
     1
  9
$FILLMODE
 70
     1
  9
$QTEXTMODE
 70
     0
  9
$MIRRTEXT
 70
     1
  9
$DRAGMODE
 70
     2
  9
$LTSCALE
 40
1.0
  9
$OSMODE
 70
    37
  9
$ATTMODE
 70
     1
  9
$TEXTSIZE
 40
0.2
  9
$TRACEWID
 40
0.05
  9
$TEXTSTYLE
  7
STANDARD
  9
$CLAYER
  8
0
  9
$CELTYPE
  6
BYLAYER
  9
$CECOLOR
 62
   256
  9
$DIMSCALE
 40
1.0
  9
$DIMASZ
 40
3.0
  9
$DIMEXO
 40
0.0625
  9
$DIMDLI
 40
0.38
  9
$DIMRND
 40
0.0
  9
$DIMDLE
 40
0.0
  9
$DIMEXE
 40
1.5
  9
$DIMTP
 40
0.0
  9
$DIMTM
 40
0.0
  9
$DIMTXT
 40
3.0
  9
$DIMCEN
 40
0.09
  9
$DIMTSZ
 40
0.0
  9
$DIMTOL
 70
     0
  9
$DIMLIM
 70
     0
  9
$DIMTIH
 70
     1
  9
$DIMTOH
 70
     1
  9
$DIMSE1
 70
     0
  9
$DIMSE2
 70
     0
  9
$DIMTAD
 70
     1
  9
$DIMZIN
 70
     0
  9
$DIMBLK
  1

  9
$DIMASO
 70
     1
  9
$DIMSHO
 70
     1
  9
$DIMPOST
  1

  9
$DIMAPOST
  1

  9
$DIMALT
 70
     0
  9
$DIMALTD
 70
     2
  9
$DIMALTF
 40
25.4
  9
$DIMLFAC
 40
1.0
  9
$DIMTOFL
 70
     0
  9
$DIMTVP
 40
0.0
  9
$DIMTIX
 70
     0
  9
$DIMSOXD
 70
     0
  9
$DIMSAH
 70
     0
  9
$DIMBLK1
  1

  9
$DIMBLK2
  1

  9
$LUNITS
 70
     2
  9
$LUPREC
 70
     4
  9
$SKETCHINC
 40
0.1
  9
$FILLETRAD
 40
0.5
  9
$AUNITS
 70
     0
  9
$AUPREC
 70
     0
  9
$MENU
  1
.
  9
$ELEVATION
 40
0.0
  9
$THICKNESS
 40
0.0
  9
$LIMCHECK
 70
     0
  9
$CHAMFERA
 40
0.0
  9
$CHAMFERB
 40
0.0
  9
$SKPOLY
 70
     0
  9
$TDCREATE
 40
2460608.457149271
  9
$TDUPDATE
 40
2460608.457149491
  9
$TDINDWG
 40
0.0000000116
  9
$TDUSRTIMER
 40
0.0000000116
  9
$USRTIMER
 70
     1
  9
$ANGBASE
 50
0.0
  9
$ANGDIR
 70
     0
  9
$PDMODE
 70
     0
  9
$PDSIZE
 40
0.0
  9
$PLINEWID
 40
0.0
  9
$COORDS
 70
     1
  9
$SPLFRAME
 70
     0
  9
$SPLINETYPE
 70
     6
  9
$SPLINESEGS
 70
     8
  9
$ATTDIA
 70
     0
  9
$ATTREQ
 70
     1
  9
$HANDLING
 70
     1
  9
$HANDSEED
  5
164
  9
$SURFTAB1
 70
     6
  9
$SURFTAB2
 70
     6
  9
$SURFTYPE
 70
     6
  9
$SURFU
 70
     6
  9
$SURFV
 70
     6
  9
$UCSNAME
  2

  9
$UCSORG
 10
0.0
 20
0.0
 30
0.0
  9
$UCSXDIR
 10
1.0
 20
0.0
 30
0.0
  9
$UCSYDIR
 10
0.0
 20
1.0
 30
0.0
  9
$USERI1
 70
     0
  9
$USERI2
 70
     0
  9
$USERI3
 70
     0
  9
$USERI4
 70
     0
  9
$USERI5
 70
     0
  9
$USERR1
 40
0.0
  9
$USERR2
 40
0.0
  9
$USERR3
 40
0.0
  9
$USERR4
 40
0.0
  9
$USERR5
 40
0.0
  9
$WORLDVIEW
 70
     1
  0
ENDSEC
  0
SECTION
  2
TABLES
  0
TABLE
  2
VPORT
 70
     1
  0
VPORT
  2
*ACTIVE
 70
     0
 10
0.0
 20
0.0
 11
1.0
 21
1.0
 12
-275.7499999999999
 22
238.6062554708015
 13
0.0
 23
0.0
 14
0.5
 24
0.5
 15
0.5
 25
0.5
 16
0.0
 26
0.0
 36
1.0
 17
0.0
 27
0.0
 37
0.0
 40
237.7874890583968
 41
1.6
 42
50.0
 43
0.0
 44
0.0
 50
0.0
 51
0.0
 71
     0
 72
   100
 73
     1
 74
     3
 75
     0
 76
     0
 77
     0
 78
     0
  0
ENDTAB
  0
TABLE
  2
LTYPE
 70
     2
  0
LTYPE
  2
CONTINUOUS
 70
     0
  3
Solid line
 72
    65
 73
     0
 40
0.0
  0
LTYPE
  2
CENTER
 70
     0
  3

 72
    65
 73
     0
 40
0.0
  0
ENDTAB
  0
TABLE
  2
LAYER
 70
     2
  0
LAYER
  2
0
 70
     0
 62
     7
  6
CONTINUOUS
  0
LAYER
  2
1
 70
     0
 62
     7
  6
CONTINUOUS
  0
ENDTAB
  0
TABLE
  2
STYLE
 70
     2
  0
STYLE
  2
STANDARD
 70
     0
 40
0.0
 41
1.0
 50
0.0
 71
     0
 42
0.2
  3
txt
  4

  0
STYLE
  2
ＭＳ_ゴシック
 70
     0
 40
0.0
 41
1.0
 50
0.0
 71
     0
 42
0.2
  3
ＭＳ ゴシック.shx
  4

  0
ENDTAB
  0
TABLE
  2
VIEW
 70
     0
  0
ENDTAB
  0
TABLE
  2
UCS
 70
     0
  0
ENDTAB
  0
ENDSEC
  0
SECTION
  2
BLOCKS
  0
ENDSEC
  0
SECTION
  2
ENTITIES
  0
TEXT
  5
70
  8
1
  6
CONTINUOUS
 62
     7
 10
-172.9270351381768
 20
119.3704764286608
 30
0.0
 40
3.0
  1
N-KPRX-150E
  0
ARC
  5
71
  8
1
  6
CONTINUOUS
 62
     7
 10
-408.0040776059469
 20
287.0040776059468
 30
0.0
 40
34.50000000000003
 50
91.3691622432076
 51
178.6308377567914
  0
ARC
  5
72
  8
1
  6
CONTINUOUS
 62
     7
 10
1328.5
 20
245.5
 30
0.0
 40
1771.500000000001
 50
178.6308377567923
 51
181.3691622432076
  0
ARC
  5
73
  8
1
  6
CONTINUOUS
 62
     7
 10
-408.0040776059469
 20
203.9959223940532
 30
0.0
 40
34.50000000000003
 50
181.3691622432086
 51
268.6308377567924
  0
ARC
  5
74
  8
1
  6
CONTINUOUS
 62
     7
 10
-324.995922394053
 20
287.0040776059468
 30
0.0
 40
34.50000000000003
 50
1.36916224320861
 51
88.63083775679242
  0
ARC
  5
75
  8
1
  6
CONTINUOUS
 62
     7
 10
-2061.5
 20
245.5000000000002
 30
0.0
 40
1775.000000000001
 50
358.6308377567925
 51
1.369162243207257
  0
ARC
  5
76
  8
1
  6
CONTINUOUS
 62
     7
 10
-324.995922394053
 20
203.9959223940532
 30
0.0
 40
38.00000000000004
 50
271.3691622432074
 51
358.6308377567914
  0
ARC
  5
77
  8
1
  6
CONTINUOUS
 62
     7
 10
-408.0040776059469
 20
203.9959223940532
 30
0.0
 40
38.00000000000004
 50
181.3691622432086
 51
268.6308377567924
  0
ARC
  5
78
  8
1
  6
CONTINUOUS
 62
     7
 10
1328.5
 20
245.5
 30
0.0
 40
1775.000000000001
 50
178.6308377567927
 51
181.3691622432076
  0
ARC
  5
79
  8
1
  6
CONTINUOUS
 62
     7
 10
-408.0040776059469
 20
287.0040776059468
 30
0.0
 40
38.00000000000004
 50
91.3691622432076
 51
178.6308377567914
  0
ARC
  5
7A
  8
1
  6
CONTINUOUS
 62
     7
 10
-324.995922394053
 20
287.0040776059468
 30
0.0
 40
38.00000000000004
 50
1.369162243208602
 51
88.63083775679242
  0
ARC
  5
7B
  8
1
  6
CONTINUOUS
 62
     7
 10
-2061.5
 20
245.5000000000002
 30
0.0
 40
1771.5
 50
358.6308377567925
 51
1.369162243207768
  0
ARC
  5
7C
  8
1
  6
CONTINUOUS
 62
     7
 10
-324.995922394053
 20
203.9959223940532
 30
0.0
 40
34.50000000000003
 50
271.3691622432074
 51
358.6308377567914
  0
LINE
  5
7D
  8
1
  6
CONTINUOUS
 62
     7
 10
-265.0000000000001
 20
260.0804501844114
 30
0.0
 11
-264.9565574738114
 21
260.2843012896682
 31
0.0
  0
LINE
  5
7E
  8
1
  6
CONTINUOUS
 62
     7
 10
-265.0000000000001
 20
230.9195498155886
 30
0.0
 11
-264.9565574738114
 21
230.7156987103318
 31
0.0
  0
LINE
  5
7F
  8
1
  6
CONTINUOUS
 62
     7
 10
-467.9999999999998
 20
230.9195498155886
 30
0.0
 11
-468.0434425261886
 21
230.7156987103318
 31
0.0
  0
LINE
  5
80
  8
1
  6
CONTINUOUS
 62
     7
 10
-467.9999999999998
 20
260.0804501844114
 30
0.0
 11
-468.0434425261886
 21
260.2843012896682
 31
0.0
  0
ARC
  5
81
  8
1
  6
CONTINUOUS
 62
     7
 10
-2061.5
 20
245.5000000000002
 30
0.0
 40
1800.0
 50
0.5236949741084304
 51
1.36916224320762
  0
LINE
  5
82
  8
1
  6
CONTINUOUS
 62
     7
 10
-264.9565574738114
 20
260.2843012896682
 30
0.0
 11
-264.5868240888333
 21
260.5728540609174
 31
0.0
  0
ARC
  5
83
  8
1
  6
CONTINUOUS
 62
     7
 10
-2061.5
 20
245.5
 30
0.0
 40
1800.0
 50
358.6308377567925
 51
359.4763050258916
  0
LINE
  5
84
  8
1
  6
CONTINUOUS
 62
     7
 10
-264.9565574738114
 20
230.7156987103318
 30
0.0
 11
-264.5868240888333
 21
230.4271459390826
 31
0.0
  0
LINE
  5
85
  8
1
  6
CONTINUOUS
 62
     7
 10
-468.0434425261887
 20
230.7156987103318
 30
0.0
 11
-468.4131759111665
 21
230.4271459390826
 31
0.0
  0
LINE
  5
86
  8
1
  6
CONTINUOUS
 62
     7
 10
-468.0434425261887
 20
260.2843012896682
 30
0.0
 11
-468.4131759111665
 21
260.5728540609174
 31
0.0
  0
ARC
  5
87
  8
1
  6
CONTINUOUS
 62
     7
 10
1328.5
 20
245.5
 30
0.0
 40
1800.0
 50
178.6308377567924
 51
179.4763050258916
  0
ARC
  5
88
  8
1
  6
CONTINUOUS
 62
     7
 10
1328.5
 20
245.4999999999998
 30
0.0
 40
1800.0
 50
180.5236949741084
 51
181.3691622432077
  0
LINE
  5
89
  8
1
  6
CONTINUOUS
 62
     7
 10
-265.0000000000001
 20
230.9195498155886
 30
0.0
 11
-265.0000000000001
 21
260.0804501844114
 31
0.0
  0
LINE
  5
8A
  8
1
  6
CONTINUOUS
 62
     7
 10
-467.9999999999998
 20
230.9195498155886
 30
0.0
 11
-467.9999999999998
 21
260.0804501844114
 31
0.0
  0
ARC
  5
8B
  8
1
  6
CONTINUOUS
 62
     7
 10
-324.995922394053
 20
203.9959223940532
 30
0.0
 40
63.00000000000006
 50
271.3691622432074
 51
358.6308377567914
  0
ARC
  5
8C
  8
1
  6
CONTINUOUS
 62
     7
 10
-324.995922394053
 20
287.0040776059468
 30
0.0
 40
63.00000000000006
 50
1.369162243208601
 51
88.63083775679242
  0
ARC
  5
8D
  8
1
  6
CONTINUOUS
 62
     7
 10
-366.4999999999999
 20
1940.5
 30
0.0
 40
1800.0
 50
268.6308377567924
 51
271.3691622432078
  0
ARC
  5
8E
  8
1
  6
CONTINUOUS
 62
     7
 10
-408.0040776059469
 20
203.9959223940532
 30
0.0
 40
63.00000000000006
 50
181.3691622432086
 51
268.6308377567924
  0
ARC
  5
8F
  8
1
  6
CONTINUOUS
 62
     7
 10
-408.0040776059469
 20
287.0040776059468
 30
0.0
 40
63.00000000000006
 50
91.3691622432076
 51
178.6308377567914
  0
LINE
  5
90
  8
1
  6
CONTINUOUS
 62
     7
 10
-264.5868240888333
 20
230.4271459390826
 30
0.0
 11
-262.4014984838589
 21
230.0418140732926
 31
0.0
  0
ARC
  5
91
  8
1
  6
CONTINUOUS
 62
     7
 10
-262.5751466615258
 20
229.0570063202802
 30
0.0
 40
1.000000000000001
 50
359.476305025892
 51
80.00000000001279
  0
ARC
  5
92
  8
1
  6
CONTINUOUS
 62
     7
 10
-262.5751466615258
 20
261.9429936797198
 30
0.0
 40
1.000000000000001
 50
279.9999999999872
 51
0.5236949741080252
  0
LINE
  5
93
  8
1
  6
CONTINUOUS
 62
     7
 10
-264.5868240888333
 20
260.5728540609174
 30
0.0
 11
-262.4014984838589
 21
260.9581859267074
 31
0.0
  0
ARC
  5
94
  8
1
  6
CONTINUOUS
 62
     7
 10
-470.4248533384742
 20
229.0570063202802
 30
0.0
 40
1.000000000000001
 50
99.99999999998721
 51
180.523694974108
  0
LINE
  5
95
  8
1
  6
CONTINUOUS
 62
     7
 10
-468.4131759111665
 20
230.4271459390826
 30
0.0
 11
-470.5985015161409
 21
230.0418140732926
 31
0.0
  0
LINE
  5
96
  8
1
  6
CONTINUOUS
 62
     7
 10
-468.4131759111665
 20
260.5728540609174
 30
0.0
 11
-470.5985015161409
 21
260.9581859267075
 31
0.0
  0
ARC
  5
97
  8
1
  6
CONTINUOUS
 62
     7
 10
-470.4248533384742
 20
261.9429936797198
 30
0.0
 40
1.000000000000001
 50
179.4763050258921
 51
260.0000000000127
  0
LINE
  5
98
  8
1
  6
CONTINUOUS
 62
   253
 10
-136.2714593908253
 20
230.306527394928
 30
0.0
 11
-136.2714593908253
 21
202.5893178814702
 31
0.0
  0
LINE
  5
99
  8
1
  6
CONTINUOUS
 62
   253
 10
-180.2714593908253
 20
230.306527394928
 30
0.0
 11
-180.2714593908253
 21
202.5893178814702
 31
0.0
  0
LINE
  5
9A
  8
1
  6
CONTINUOUS
 62
   253
 10
-180.2714593908253
 20
260.693472605072
 30
0.0
 11
-180.2714593908253
 21
288.41068211853
 31
0.0
  0
LINE
  5
9B
  8
1
  6
CONTINUOUS
 62
   253
 10
-136.2714593908253
 20
260.693472605072
 30
0.0
 11
-136.2714593908253
 21
288.41068211853
 31
0.0
  0
LINE
  5
9C
  8
1
  6
CONTINUOUS
 62
   253
 10
-92.27145939082527
 20
230.306527394928
 30
0.0
 11
-92.27145939082527
 21
202.5893178814702
 31
0.0
  0
LINE
  5
9D
  8
1
  6
CONTINUOUS
 62
   253
 10
-92.27145939082527
 20
260.693472605072
 30
0.0
 11
-92.27145939082527
 21
288.41068211853
 31
0.0
  0
LINE
  5
9E
  8
1
  6
CONTINUOUS
 62
   253
 10
-206.7285406091746
 20
230.3065273949271
 30
0.0
 11
-206.7285406091746
 21
202.5893178814702
 31
0.0
  0
LINE
  5
9F
  8
1
  6
CONTINUOUS
 62
   253
 10
-118.7285406091745
 20
260.6934726050729
 30
0.0
 11
-118.7285406091745
 21
288.41068211853
 31
0.0
  0
LINE
  5
A0
  8
1
  6
CONTINUOUS
 62
   253
 10
-206.7285406091746
 20
260.6934726050729
 30
0.0
 11
-206.7285406091746
 21
288.41068211853
 31
0.0
  0
LINE
  5
A1
  8
1
  6
CONTINUOUS
 62
   253
 10
-118.7285406091745
 20
230.3065273949271
 30
0.0
 11
-118.7285406091745
 21
202.5893178814702
 31
0.0
  0
LINE
  5
A2
  8
1
  6
CONTINUOUS
 62
   253
 10
-162.7285406091747
 20
230.3065273949271
 30
0.0
 11
-162.7285406091747
 21
202.5893178814702
 31
0.0
  0
LINE
  5
A3
  8
1
  6
CONTINUOUS
 62
   253
 10
-162.7285406091747
 20
260.6934726050729
 30
0.0
 11
-162.7285406091747
 21
288.41068211853
 31
0.0
  0
LINE
  5
A4
  8
1
  6
CONTINUOUS
 62
   253
 10
-180.2714593908253
 20
288.4106821185298
 30
0.0
 11
-180.2714593908253
 21
345.8555113100816
 31
0.0
  0
LINE
  5
A5
  8
1
  6
CONTINUOUS
 62
   253
 10
-136.2714593908253
 20
202.5893178814702
 30
0.0
 11
-136.2714593908253
 21
145.1444886899183
 31
0.0
  0
LINE
  5
A6
  8
1
  6
CONTINUOUS
 62
   253
 10
-92.27145939082527
 20
288.4106821185298
 30
0.0
 11
-92.27145939082527
 21
345.8555113100816
 31
0.0
  0
LINE
  5
A7
  8
1
  6
CONTINUOUS
 62
   253
 10
-180.2714593908253
 20
202.5893178814702
 30
0.0
 11
-180.2714593908253
 21
145.1444886899183
 31
0.0
  0
LINE
  5
A8
  8
1
  6
CONTINUOUS
 62
   253
 10
-136.2714593908253
 20
288.4106821185298
 30
0.0
 11
-136.2714593908253
 21
345.8555113100816
 31
0.0
  0
LINE
  5
A9
  8
1
  6
CONTINUOUS
 62
   253
 10
-92.27145939082527
 20
202.5893178814702
 30
0.0
 11
-92.27145939082527
 21
145.1444886899183
 31
0.0
  0
LINE
  5
AA
  8
1
  6
CONTINUOUS
 62
   253
 10
-162.7285406091747
 20
288.4106821185298
 30
0.0
 11
-162.7285406091747
 21
345.8555113100816
 31
0.0
  0
LINE
  5
AB
  8
1
  6
CONTINUOUS
 62
   253
 10
-118.7285406091745
 20
288.4106821185298
 30
0.0
 11
-118.7285406091745
 21
345.8555113100816
 31
0.0
  0
LINE
  5
AC
  8
1
  6
CONTINUOUS
 62
   253
 10
-118.7285406091745
 20
202.5893178814702
 30
0.0
 11
-118.7285406091745
 21
145.1444886899183
 31
0.0
  0
LINE
  5
AD
  8
1
  6
CONTINUOUS
 62
   253
 10
-206.7285406091746
 20
202.5893178814702
 30
0.0
 11
-206.7285406091746
 21
145.1444886899183
 31
0.0
  0
LINE
  5
AE
  8
1
  6
CONTINUOUS
 62
   253
 10
-206.7285406091746
 20
288.4106821185298
 30
0.0
 11
-206.7285406091746
 21
345.8555113100816
 31
0.0
  0
LINE
  5
AF
  8
1
  6
CONTINUOUS
 62
   253
 10
-162.7285406091747
 20
202.5893178814702
 30
0.0
 11
-162.7285406091747
 21
145.1444886899183
 31
0.0
  0
LINE
  5
B0
  8
1
  6
CONTINUOUS
 62
   253
 10
-181.2323936981609
 20
230.9195498155886
 30
0.0
 11
-205.7676063018391
 21
230.9195498155886
 31
0.0
  0
LINE
  5
B1
  8
1
  6
CONTINUOUS
 62
   253
 10
-137.2562671438375
 20
230.7156987103346
 30
0.0
 11
-137.2323936981609
 21
230.9195498155886
 31
0.0
  0
LINE
  5
B2
  8
1
  6
CONTINUOUS
 62
   253
 10
-161.7676063018391
 20
230.9195498155886
 30
0.0
 11
-161.7437328561675
 21
230.7156987103318
 31
0.0
  0
LINE
  5
B3
  8
1
  6
CONTINUOUS
 62
   253
 10
-137.2323936981609
 20
230.9195498155886
 30
0.0
 11
-161.7676063018391
 21
230.9195498155886
 31
0.0
  0
LINE
  5
B4
  8
1
  6
CONTINUOUS
 62
   253
 10
-93.23239369816095
 20
260.0804501844114
 30
0.0
 11
-117.7676063018393
 21
260.0804501844114
 31
0.0
  0
LINE
  5
B5
  8
1
  6
CONTINUOUS
 62
   253
 10
-93.23239369816095
 20
230.9195498155886
 30
0.0
 11
-117.7676063018393
 21
230.9195498155886
 31
0.0
  0
LINE
  5
B6
  8
1
  6
CONTINUOUS
 62
   253
 10
-181.2323936981609
 20
260.0804501844114
 30
0.0
 11
-205.7676063018391
 21
260.0804501844114
 31
0.0
  0
LINE
  5
B7
  8
1
  6
CONTINUOUS
 62
   253
 10
-137.2323936981609
 20
260.0804501844114
 30
0.0
 11
-161.7676063018391
 21
260.0804501844114
 31
0.0
  0
LINE
  5
B8
  8
1
  6
CONTINUOUS
 62
   253
 10
-92.24758594514849
 20
230.918139743114
 30
0.0
 11
-92.27145939082527
 21
230.306527394928
 31
0.0
  0
LINE
  5
B9
  8
1
  6
CONTINUOUS
 62
   253
 10
-92.24758594514849
 20
230.918139743114
 30
0.0
 11
-93.23239369816095
 21
230.9195498155886
 31
0.0
  0
LINE
  5
BA
  8
1
  6
CONTINUOUS
 62
   253
 10
-136.2475859451485
 20
230.918139743114
 30
0.0
 11
-136.2714593908253
 21
230.306527394928
 31
0.0
  0
LINE
  5
BB
  8
1
  6
CONTINUOUS
 62
   253
 10
-136.2475859451485
 20
230.918139743114
 30
0.0
 11
-137.2323936981609
 21
230.9195498155886
 31
0.0
  0
LINE
  5
BC
  8
1
  6
CONTINUOUS
 62
   253
 10
-136.2475859451485
 20
260.0818602568859
 30
0.0
 11
-136.2714593908253
 21
260.693472605072
 31
0.0
  0
LINE
  5
BD
  8
1
  6
CONTINUOUS
 62
   253
 10
-136.2475859451485
 20
260.0818602568859
 30
0.0
 11
-137.2323936981609
 21
260.0804501844114
 31
0.0
  0
LINE
  5
BE
  8
1
  6
CONTINUOUS
 62
   253
 10
-92.24758594514849
 20
260.0818602568859
 30
0.0
 11
-92.27145939082527
 21
260.693472605072
 31
0.0
  0
LINE
  5
BF
  8
1
  6
CONTINUOUS
 62
   253
 10
-92.24758594514849
 20
260.0818602568859
 30
0.0
 11
-93.23239369816095
 21
260.0804501844114
 31
0.0
  0
LINE
  5
C0
  8
1
  6
CONTINUOUS
 62
   253
 10
-180.2475859451486
 20
230.918139743114
 30
0.0
 11
-180.2714593908253
 21
230.306527394928
 31
0.0
  0
LINE
  5
C1
  8
1
  6
CONTINUOUS
 62
   253
 10
-180.2475859451486
 20
230.918139743114
 30
0.0
 11
-181.2323936981609
 21
230.9195498155886
 31
0.0
  0
LINE
  5
C2
  8
1
  6
CONTINUOUS
 62
   253
 10
-180.2475859451486
 20
260.0818602568859
 30
0.0
 11
-180.2714593908253
 21
260.693472605072
 31
0.0
  0
LINE
  5
C3
  8
1
  6
CONTINUOUS
 62
   253
 10
-180.2475859451486
 20
260.0818602568859
 30
0.0
 11
-181.2323936981609
 21
260.0804501844114
 31
0.0
  0
LINE
  5
C4
  8
1
  6
CONTINUOUS
 62
   253
 10
-162.7285406091747
 20
230.3065273949271
 30
0.0
 11
-162.7524140548513
 21
230.918139743114
 31
0.0
  0
LINE
  5
C5
  8
1
  6
CONTINUOUS
 62
   253
 10
-161.7676063018391
 20
230.9195498155886
 30
0.0
 11
-162.7524140548513
 21
230.918139743114
 31
0.0
  0
LINE
  5
C6
  8
1
  6
CONTINUOUS
 62
   253
 10
-206.7285406091746
 20
260.6934726050729
 30
0.0
 11
-206.7524140548513
 21
260.0818602568859
 31
0.0
  0
LINE
  5
C7
  8
1
  6
CONTINUOUS
 62
   253
 10
-205.7676063018391
 20
260.0804501844114
 30
0.0
 11
-206.7524140548513
 21
260.0818602568859
 31
0.0
  0
LINE
  5
C8
  8
1
  6
CONTINUOUS
 62
   253
 10
-118.7285406091745
 20
230.3065273949271
 30
0.0
 11
-118.7524140548513
 21
230.918139743114
 31
0.0
  0
LINE
  5
C9
  8
1
  6
CONTINUOUS
 62
   253
 10
-117.7676063018393
 20
230.9195498155886
 30
0.0
 11
-118.7524140548513
 21
230.918139743114
 31
0.0
  0
LINE
  5
CA
  8
1
  6
CONTINUOUS
 62
   253
 10
-162.7285406091747
 20
260.6934726050729
 30
0.0
 11
-162.7524140548513
 21
260.0818602568859
 31
0.0
  0
LINE
  5
CB
  8
1
  6
CONTINUOUS
 62
   253
 10
-161.7676063018391
 20
260.0804501844114
 30
0.0
 11
-162.7524140548513
 21
260.0818602568859
 31
0.0
  0
LINE
  5
CC
  8
1
  6
CONTINUOUS
 62
   253
 10
-206.7285406091746
 20
230.3065273949271
 30
0.0
 11
-206.7524140548513
 21
230.918139743114
 31
0.0
  0
LINE
  5
CD
  8
1
  6
CONTINUOUS
 62
   253
 10
-205.7676063018391
 20
230.9195498155886
 30
0.0
 11
-206.7524140548513
 21
230.918139743114
 31
0.0
  0
LINE
  5
CE
  8
1
  6
CONTINUOUS
 62
   253
 10
-118.7285406091745
 20
260.6934726050729
 30
0.0
 11
-118.7524140548513
 21
260.0818602568859
 31
0.0
  0
LINE
  5
CF
  8
1
  6
CONTINUOUS
 62
   253
 10
-117.7676063018393
 20
260.0804501844114
 30
0.0
 11
-118.7524140548513
 21
260.0818602568859
 31
0.0
  0
LINE
  5
D0
  8
1
  6
CONTINUOUS
 62
   253
 10
-206.7524140548513
 20
260.0818602568859
 30
0.0
 11
-206.7524140548513
 21
230.918139743114
 31
0.0
  0
LINE
  5
D1
  8
1
  6
CONTINUOUS
 62
   253
 10
-162.7524140548513
 20
260.0818602568859
 30
0.0
 11
-162.7524140548513
 21
230.918139743114
 31
0.0
  0
LINE
  5
D2
  8
1
  6
CONTINUOUS
 62
   253
 10
-180.2475859451486
 20
230.918139743114
 30
0.0
 11
-180.2475859451486
 21
260.0818602568859
 31
0.0
  0
LINE
  5
D3
  8
1
  6
CONTINUOUS
 62
   253
 10
-136.2475859451485
 20
230.918139743114
 30
0.0
 11
-136.2475859451485
 21
260.0818602568859
 31
0.0
  0
LINE
  5
D4
  8
1
  6
CONTINUOUS
 62
   253
 10
-118.7524140548513
 20
260.0818602568859
 30
0.0
 11
-118.7524140548513
 21
230.918139743114
 31
0.0
  0
LINE
  5
D5
  8
1
  6
CONTINUOUS
 62
   253
 10
-92.24758594514849
 20
230.918139743114
 30
0.0
 11
-92.24758594514849
 21
260.0818602568859
 31
0.0
  0
LINE
  5
D6
  8
1
  6
CONTINUOUS
 62
   253
 10
-136.2714593908253
 20
345.8555113100816
 30
0.0
 11
-132.9560957868757
 21
327.0585181480146
 31
0.0
  0
LINE
  5
D7
  8
1
  6
CONTINUOUS
 62
   253
 10
-168.5059235956549
 20
203.0879460273134
 30
0.0
 11
-168.5059235956549
 21
287.9120539726745
 31
0.0
  0
LINE
  5
D8
  8
1
  6
CONTINUOUS
 62
   253
 10
-212.5059235956547
 20
203.0879460273134
 30
0.0
 11
-212.5059235956547
 21
287.9120539726745
 31
0.0
  0
LINE
  5
D9
  8
1
  6
CONTINUOUS
 62
   253
 10
-174.4940764043451
 20
203.0879460273134
 30
0.0
 11
-174.4940764043451
 21
287.9120539726745
 31
0.0
  0
LINE
  5
DA
  8
1
  6
CONTINUOUS
 62
   253
 10
-130.4940764043451
 20
203.0879460273134
 30
0.0
 11
-130.4940764043451
 21
287.9120539726745
 31
0.0
  0
LINE
  5
DB
  8
1
  6
CONTINUOUS
 62
   253
 10
-124.5059235956549
 20
203.0879460273134
 30
0.0
 11
-124.5059235956549
 21
287.9120539726745
 31
0.0
  0
LINE
  5
DC
  8
1
  6
CONTINUOUS
 62
   253
 10
-86.49407640434505
 20
203.0879460273134
 30
0.0
 11
-86.49407640434505
 21
287.9120539726745
 31
0.0
  0
LINE
  5
DD
  8
1
  6
CONTINUOUS
 62
   253
 10
-124.5059235956549
 20
203.0879460273134
 30
0.0
 11
-124.5059235956549
 21
166.0067715886265
 31
0.0
  0
LINE
  5
DE
  8
1
  6
CONTINUOUS
 62
   253
 10
-168.5059235956549
 20
203.0879460273134
 30
0.0
 11
-168.5059235956549
 21
166.0067715886265
 31
0.0
  0
LINE
  5
DF
  8
1
  6
CONTINUOUS
 62
   253
 10
-124.5059235956549
 20
287.9120539726865
 30
0.0
 11
-124.5059235956549
 21
324.9932284113734
 31
0.0
  0
LINE
  5
E0
  8
1
  6
CONTINUOUS
 62
   253
 10
-168.5059235956549
 20
287.9120539726865
 30
0.0
 11
-168.5059235956549
 21
324.9932284113734
 31
0.0
  0
LINE
  5
E1
  8
1
  6
CONTINUOUS
 62
   253
 10
-212.5059235956547
 20
287.9120539726865
 30
0.0
 11
-212.5059235956547
 21
324.9932284113734
 31
0.0
  0
LINE
  5
E2
  8
1
  6
CONTINUOUS
 62
   253
 10
-212.5059235956547
 20
203.0879460273134
 30
0.0
 11
-212.5059235956547
 21
166.0067715886265
 31
0.0
  0
LINE
  5
E3
  8
1
  6
CONTINUOUS
 62
   253
 10
-130.4940764043451
 20
287.9120539726865
 30
0.0
 11
-130.4940764043451
 21
324.9932284113734
 31
0.0
  0
LINE
  5
E4
  8
1
  6
CONTINUOUS
 62
   253
 10
-174.4940764043451
 20
287.9120539726865
 30
0.0
 11
-174.4940764043451
 21
324.9932284113734
 31
0.0
  0
LINE
  5
E5
  8
1
  6
CONTINUOUS
 62
   253
 10
-86.49407640434505
 20
203.0879460273134
 30
0.0
 11
-86.49407640434505
 21
166.0067715886265
 31
0.0
  0
LINE
  5
E6
  8
1
  6
CONTINUOUS
 62
   253
 10
-174.4940764043451
 20
203.0879460273134
 30
0.0
 11
-174.4940764043451
 21
166.0067715886265
 31
0.0
  0
LINE
  5
E7
  8
1
  6
CONTINUOUS
 62
   253
 10
-130.4940764043451
 20
203.0879460273134
 30
0.0
 11
-130.4940764043451
 21
166.0067715886265
 31
0.0
  0
LINE
  5
E8
  8
1
  6
CONTINUOUS
 62
   253
 10
-86.49407640434505
 20
287.9120539726865
 30
0.0
 11
-86.49407640434505
 21
324.9932284113734
 31
0.0
  0
LINE
  5
E9
  8
1
  6
CONTINUOUS
 62
     7
 10
-215.4999999999999
 20
203.0879460273134
 30
0.0
 11
-215.4999999999999
 21
287.9120539726745
 31
0.0
  0
LINE
  5
EA
  8
1
  6
CONTINUOUS
 62
     7
 10
-83.49999999999991
 20
203.0879460273134
 30
0.0
 11
-83.49999999999991
 21
287.9120539726745
 31
0.0
  0
LINE
  5
EB
  8
1
  6
CONTINUOUS
 62
     7
 10
-215.4999999999999
 20
287.9120539726865
 30
0.0
 11
-215.4999999999999
 21
324.9932284113734
 31
0.0
  0
LINE
  5
EC
  8
1
  6
CONTINUOUS
 62
     7
 10
-83.49999999999991
 20
287.9120539726865
 30
0.0
 11
-83.49999999999991
 21
324.9932284113734
 31
0.0
  0
LINE
  5
ED
  8
1
  6
CONTINUOUS
 62
     7
 10
-215.4999999999999
 20
203.0879460273134
 30
0.0
 11
-215.4999999999999
 21
166.0067715886265
 31
0.0
  0
LINE
  5
EE
  8
1
  6
CONTINUOUS
 62
     7
 10
-83.49999999999991
 20
203.0879460273134
 30
0.0
 11
-83.49999999999991
 21
166.0067715886265
 31
0.0
  0
LINE
  5
EF
  8
1
  6
CONTINUOUS
 62
   253
 10
-92.27145939082527
 20
346.3682408883328
 30
0.0
 11
-92.27145939082527
 21
345.8555113100798
 31
0.0
  0
LINE
  5
F0
  8
1
  6
CONTINUOUS
 62
   253
 10
-180.2714593908253
 20
346.3682408883328
 30
0.0
 11
-180.2714593908253
 21
345.8555113100798
 31
0.0
  0
LINE
  5
F1
  8
1
  6
CONTINUOUS
 62
   253
 10
-118.7285406091745
 20
346.3682408883328
 30
0.0
 11
-118.7285406091745
 21
345.8555113100798
 31
0.0
  0
LINE
  5
F2
  8
1
  6
CONTINUOUS
 62
   253
 10
-136.2714593908253
 20
346.3682408883328
 30
0.0
 11
-136.2714593908253
 21
345.8555113100798
 31
0.0
  0
LINE
  5
F3
  8
1
  6
CONTINUOUS
 62
   253
 10
-206.7285406091746
 20
346.3682408883328
 30
0.0
 11
-206.7285406091746
 21
345.8555113100798
 31
0.0
  0
LINE
  5
F4
  8
1
  6
CONTINUOUS
 62
   253
 10
-162.7285406091747
 20
346.3682408883328
 30
0.0
 11
-162.7285406091747
 21
345.8555113100798
 31
0.0
  0
LINE
  5
F5
  8
1
  6
CONTINUOUS
 62
   253
 10
-162.7285406091747
 20
144.6317591116672
 30
0.0
 11
-162.7285406091747
 21
145.1444886899202
 31
0.0
  0
LINE
  5
F6
  8
1
  6
CONTINUOUS
 62
   253
 10
-185.1954981558863
 20
140.5000000000018
 30
0.0
 11
-185.1954981558863
 21
141.0139092166374
 31
0.0
  0
LINE
  5
F7
  8
1
  6
CONTINUOUS
 62
   253
 10
-180.2714593908253
 20
144.6317591116672
 30
0.0
 11
-180.2714593908253
 21
145.1444886899202
 31
0.0
  0
LINE
  5
F8
  8
1
  6
CONTINUOUS
 62
   253
 10
-92.27145939082527
 20
144.6317591116672
 30
0.0
 11
-92.27145939082527
 21
145.1444886899202
 31
0.0
  0
LINE
  5
F9
  8
1
  6
CONTINUOUS
 62
   253
 10
-118.7285406091745
 20
144.6317591116672
 30
0.0
 11
-118.7285406091745
 21
145.1444886899202
 31
0.0
  0
LINE
  5
FA
  8
1
  6
CONTINUOUS
 62
   253
 10
-206.7285406091746
 20
144.6317591116672
 30
0.0
 11
-206.7285406091746
 21
145.1444886899202
 31
0.0
  0
LINE
  5
FB
  8
1
  6
CONTINUOUS
 62
   253
 10
-201.8045018441135
 20
140.5000000000018
 30
0.0
 11
-201.8045018441135
 21
141.0139092166374
 31
0.0
  0
LINE
  5
FC
  8
1
  6
CONTINUOUS
 62
   253
 10
-136.2714593908253
 20
144.6317591116672
 30
0.0
 11
-136.2714593908253
 21
145.1444886899202
 31
0.0
  0
LINE
  5
FD
  8
1
  6
CONTINUOUS
 62
   253
 10
-122.0439042131243
 20
327.565879555833
 30
0.0
 11
-122.0439042131243
 21
327.058518148015
 31
0.0
  0
LINE
  5
FE
  8
1
  6
CONTINUOUS
 62
   253
 10
-132.9560957868757
 20
327.565879555833
 30
0.0
 11
-132.9560957868757
 21
327.058518148015
 31
0.0
  0
LINE
  5
FF
  8
1
  6
CONTINUOUS
 62
   253
 10
-122.0439042131243
 20
163.4341204441671
 30
0.0
 11
-122.0439042131243
 21
163.941481851985
 31
0.0
  0
LINE
  5
100
  8
1
  6
CONTINUOUS
 62
   253
 10
-132.9560957868757
 20
163.4341204441671
 30
0.0
 11
-132.9560957868757
 21
163.941481851985
 31
0.0
  0
LINE
  5
101
  8
1
  6
CONTINUOUS
 62
   253
 10
-88.9560957868756
 20
163.4341204441671
 30
0.0
 11
-88.9560957868756
 21
163.941481851985
 31
0.0
  0
LINE
  5
102
  8
1
  6
CONTINUOUS
 62
   253
 10
-212.5059235956547
 20
325.499999999998
 30
0.0
 11
-212.5059235956547
 21
324.9932284113713
 31
0.0
  0
LINE
  5
103
  8
1
  6
CONTINUOUS
 62
   253
 10
-130.4940764043451
 20
325.499999999998
 30
0.0
 11
-130.4940764043451
 21
324.9932284113713
 31
0.0
  0
LINE
  5
104
  8
1
  6
CONTINUOUS
 62
   253
 10
-86.49407640434505
 20
325.499999999998
 30
0.0
 11
-86.49407640434505
 21
324.9932284113713
 31
0.0
  0
LINE
  5
105
  8
1
  6
CONTINUOUS
 62
   253
 10
-174.4940764043451
 20
325.499999999998
 30
0.0
 11
-174.4940764043451
 21
324.9932284113713
 31
0.0
  0
LINE
  5
106
  8
1
  6
CONTINUOUS
 62
   253
 10
-168.5059235956549
 20
325.499999999998
 30
0.0
 11
-168.5059235956549
 21
324.9932284113713
 31
0.0
  0
LINE
  5
107
  8
1
  6
CONTINUOUS
 62
   253
 10
-124.5059235956549
 20
325.499999999998
 30
0.0
 11
-124.5059235956549
 21
324.9932284113713
 31
0.0
  0
LINE
  5
108
  8
1
  6
CONTINUOUS
 62
   253
 10
-168.5059235956549
 20
165.500000000002
 30
0.0
 11
-168.5059235956549
 21
166.0067715886286
 31
0.0
  0
LINE
  5
109
  8
1
  6
CONTINUOUS
 62
   253
 10
-124.5059235956549
 20
165.500000000002
 30
0.0
 11
-124.5059235956549
 21
166.0067715886286
 31
0.0
  0
LINE
  5
10A
  8
1
  6
CONTINUOUS
 62
   253
 10
-174.4940764043451
 20
165.500000000002
 30
0.0
 11
-174.4940764043451
 21
166.0067715886286
 31
0.0
  0
LINE
  5
10B
  8
1
  6
CONTINUOUS
 62
   253
 10
-86.49407640434505
 20
165.500000000002
 30
0.0
 11
-86.49407640434505
 21
166.0067715886286
 31
0.0
  0
LINE
  5
10C
  8
1
  6
CONTINUOUS
 62
   253
 10
-212.5059235956547
 20
165.500000000002
 30
0.0
 11
-212.5059235956547
 21
166.0067715886286
 31
0.0
  0
LINE
  5
10D
  8
1
  6
CONTINUOUS
 62
   253
 10
-130.4940764043451
 20
165.500000000002
 30
0.0
 11
-130.4940764043451
 21
166.0067715886286
 31
0.0
  0
LINE
  5
10E
  8
1
  6
CONTINUOUS
 62
     7
 10
-215.4999999999999
 20
325.499999999998
 30
0.0
 11
-215.4999999999999
 21
324.9932284113713
 31
0.0
  0
LINE
  5
10F
  8
1
  6
CONTINUOUS
 62
     7
 10
-83.49999999999991
 20
325.499999999998
 30
0.0
 11
-83.49999999999991
 21
324.9932284113713
 31
0.0
  0
LINE
  5
110
  8
1
  6
CONTINUOUS
 62
     7
 10
-215.4999999999999
 20
165.500000000002
 30
0.0
 11
-215.4999999999999
 21
166.0067715886286
 31
0.0
  0
LINE
  5
111
  8
1
  6
CONTINUOUS
 62
     7
 10
-83.49999999999991
 20
165.500000000002
 30
0.0
 11
-83.49999999999991
 21
166.0067715886286
 31
0.0
  0
LINE
  5
112
  8
1
  6
CONTINUOUS
 62
     7
 10
-97.19549815588637
 20
350.5000000000002
 30
0.0
 11
-113.8045018441135
 21
350.5000000000002
 31
0.0
  0
ARC
  5
113
  8
1
  6
CONTINUOUS
 62
     7
 10
-97.19549815588637
 20
345.5000000000002
 30
0.0
 40
4.999999999999893
 50
10.0000000000006
 51
89.99999999999982
  0
ARC
  5
114
  8
1
  6
CONTINUOUS
 62
     7
 10
-185.1954981558863
 20
345.5000000000002
 30
0.0
 40
5.000000000000004
 50
10.0000000000006
 51
89.99999999999991
  0
ARC
  5
115
  8
1
  6
CONTINUOUS
 62
     7
 10
-113.8045018441135
 20
345.5000000000002
 30
0.0
 40
5.000000000000004
 50
89.99999999999982
 51
169.9999999999994
  0
LINE
  5
116
  8
1
  6
CONTINUOUS
 62
     7
 10
-141.1954981558863
 20
350.5000000000002
 30
0.0
 11
-157.8045018441135
 21
350.5000000000002
 31
0.0
  0
ARC
  5
117
  8
1
  6
CONTINUOUS
 62
     7
 10
-141.1954981558863
 20
345.5000000000002
 30
0.0
 40
5.000000000000004
 50
10.0000000000006
 51
89.99999999999991
  0
ARC
  5
118
  8
1
  6
CONTINUOUS
 62
     7
 10
-201.8045018441135
 20
345.5000000000002
 30
0.0
 40
5.000000000000004
 50
89.9999999999999
 51
169.9999999999994
  0
LINE
  5
119
  8
1
  6
CONTINUOUS
 62
     7
 10
-185.1954981558863
 20
350.5000000000002
 30
0.0
 11
-201.8045018441135
 21
350.5000000000002
 31
0.0
  0
ARC
  5
11A
  8
1
  6
CONTINUOUS
 62
     7
 10
-157.8045018441135
 20
345.5000000000002
 30
0.0
 40
5.000000000000004
 50
89.99999999999991
 51
169.9999999999994
  0
ARC
  5
11B
  8
1
  6
CONTINUOUS
 62
     7
 10
-157.8045018441135
 20
145.5
 30
0.0
 40
5.000000000000004
 50
190.0000000000006
 51
270.0000000000001
  0
ARC
  5
11C
  8
1
  6
CONTINUOUS
 62
     7
 10
-185.1954981558863
 20
145.5
 30
0.0
 40
5.000000000000004
 50
270.0000000000001
 51
349.9999999999994
  0
ARC
  5
11D
  8
1
  6
CONTINUOUS
 62
     7
 10
-97.19549815588637
 20
145.5
 30
0.0
 40
5.000000000000004
 50
270.0000000000002
 51
349.9999999999994
  0
ARC
  5
11E
  8
1
  6
CONTINUOUS
 62
     7
 10
-113.8045018441135
 20
145.5
 30
0.0
 40
5.000000000000004
 50
190.0000000000006
 51
270.0000000000002
  0
LINE
  5
11F
  8
1
  6
CONTINUOUS
 62
     7
 10
-113.8045018441135
 20
140.4999999999997
 30
0.0
 11
-97.19549815588637
 21
140.4999999999997
 31
0.0
  0
ARC
  5
120
  8
1
  6
CONTINUOUS
 62
     7
 10
-201.8045018441135
 20
145.5
 30
0.0
 40
5.000000000000004
 50
190.0000000000006
 51
270.0000000000001
  0
LINE
  5
121
  8
1
  6
CONTINUOUS
 62
     7
 10
-201.8045018441135
 20
140.4999999999997
 30
0.0
 11
-185.1954981558863
 21
140.4999999999997
 31
0.0
  0
LINE
  5
122
  8
1
  6
CONTINUOUS
 62
     7
 10
-157.8045018441135
 20
140.4999999999997
 30
0.0
 11
-141.1954981558863
 21
140.4999999999997
 31
0.0
  0
ARC
  5
123
  8
1
  6
CONTINUOUS
 62
     7
 10
-141.1954981558863
 20
145.5
 30
0.0
 40
5.000000000000004
 50
270.0000000000001
 51
349.9999999999994
  0
LINE
  5
124
  8
1
  6
CONTINUOUS
 62
     7
 10
-118.7285406091745
 20
346.3682408883348
 30
0.0
 11
-122.0439042131243
 21
327.565879555833
 31
0.0
  0
LINE
  5
125
  8
1
  6
CONTINUOUS
 62
     7
 10
-132.9560957868757
 20
327.565879555833
 30
0.0
 11
-136.2714593908253
 21
346.3682408883348
 31
0.0
  0
LINE
  5
126
  8
1
  6
CONTINUOUS
 62
     7
 10
-88.9560957868756
 20
327.565879555833
 30
0.0
 11
-92.27145939082527
 21
346.3682408883348
 31
0.0
  0
LINE
  5
127
  8
1
  6
CONTINUOUS
 62
     7
 10
-176.9560957868757
 20
327.565879555833
 30
0.0
 11
-180.2714593908253
 21
346.3682408883348
 31
0.0
  0
LINE
  5
128
  8
1
  6
CONTINUOUS
 62
     7
 10
-206.7285406091746
 20
346.3682408883348
 30
0.0
 11
-210.0439042131243
 21
327.565879555833
 31
0.0
  0
LINE
  5
129
  8
1
  6
CONTINUOUS
 62
     7
 10
-162.7285406091747
 20
346.3682408883348
 30
0.0
 11
-166.0439042131243
 21
327.565879555833
 31
0.0
  0
LINE
  5
12A
  8
1
  6
CONTINUOUS
 62
     7
 10
-122.0439042131243
 20
163.4341204441671
 30
0.0
 11
-118.7285406091745
 21
144.6317591116651
 31
0.0
  0
LINE
  5
12B
  8
1
  6
CONTINUOUS
 62
     7
 10
-180.2714593908253
 20
144.6317591116651
 30
0.0
 11
-176.9560957868757
 21
163.4341204441671
 31
0.0
  0
LINE
  5
12C
  8
1
  6
CONTINUOUS
 62
     7
 10
-210.0439042131243
 20
163.4341204441671
 30
0.0
 11
-206.7285406091746
 21
144.6317591116651
 31
0.0
  0
LINE
  5
12D
  8
1
  6
CONTINUOUS
 62
     7
 10
-136.2714593908253
 20
144.6317591116651
 30
0.0
 11
-132.9560957868757
 21
163.4341204441671
 31
0.0
  0
LINE
  5
12E
  8
1
  6
CONTINUOUS
 62
     7
 10
-92.27145939082527
 20
144.6317591116651
 30
0.0
 11
-88.9560957868756
 21
163.4341204441671
 31
0.0
  0
LINE
  5
12F
  8
1
  6
CONTINUOUS
 62
     7
 10
-166.0439042131243
 20
163.4341204441671
 30
0.0
 11
-162.7285406091747
 21
144.6317591116651
 31
0.0
  0
ARC
  5
130
  8
1
  6
CONTINUOUS
 62
     7
 10
-212.5059235956547
 20
327.9999999999999
 30
0.0
 40
2.500000000000002
 50
270.0000000000002
 51
350.0000000000044
  0
ARC
  5
131
  8
1
  6
CONTINUOUS
 62
     7
 10
-130.4940764043451
 20
327.9999999999999
 30
0.0
 40
2.500000000000002
 50
189.9999999999956
 51
270.0
  0
ARC
  5
132
  8
1
  6
CONTINUOUS
 62
     7
 10
-86.49407640434505
 20
327.9999999999999
 30
0.0
 40
2.500000000000058
 50
189.9999999999956
 51
270.0
  0
ARC
  5
133
  8
1
  6
CONTINUOUS
 62
     7
 10
-174.4940764043451
 20
327.9999999999999
 30
0.0
 40
2.500000000000002
 50
189.9999999999956
 51
269.9999999999999
  0
ARC
  5
134
  8
1
  6
CONTINUOUS
 62
     7
 10
-168.5059235956549
 20
327.9999999999999
 30
0.0
 40
2.500000000000002
 50
270.0000000000002
 51
350.0000000000044
  0
ARC
  5
135
  8
1
  6
CONTINUOUS
 62
     7
 10
-124.5059235956549
 20
327.9999999999999
 30
0.0
 40
2.500000000000002
 50
270.0000000000005
 51
350.0000000000048
  0
ARC
  5
136
  8
1
  6
CONTINUOUS
 62
     7
 10
-168.5059235956549
 20
163.0
 30
0.0
 40
2.500000000000002
 50
9.999999999995453
 51
89.99999999999977
  0
ARC
  5
137
  8
1
  6
CONTINUOUS
 62
     7
 10
-124.5059235956549
 20
163.0
 30
0.0
 40
2.500000000000002
 50
9.999999999995453
 51
89.99999999999966
  0
ARC
  5
138
  8
1
  6
CONTINUOUS
 62
     7
 10
-174.4940764043451
 20
163.0
 30
0.0
 40
2.500000000000002
 50
90.00000000000011
 51
170.0000000000046
  0
ARC
  5
139
  8
1
  6
CONTINUOUS
 62
     7
 10
-86.49407640434505
 20
163.0
 30
0.0
 40
2.499999999999947
 50
90.00000000000011
 51
170.0000000000047
  0
ARC
  5
13A
  8
1
  6
CONTINUOUS
 62
     7
 10
-212.5059235956547
 20
163.0
 30
0.0
 40
2.500000000000002
 50
9.999999999995453
 51
89.99999999999977
  0
ARC
  5
13B
  8
1
  6
CONTINUOUS
 62
     7
 10
-130.4940764043451
 20
163.0
 30
0.0
 40
2.500000000000002
 50
90.00000000000006
 51
170.0000000000046
  0
LINE
  5
13C
  8
1
  6
CONTINUOUS
 62
     7
 10
-124.5059235956549
 20
325.5
 30
0.0
 11
-130.4940764043451
 21
325.5
 31
0.0
  0
LINE
  5
13D
  8
1
  6
CONTINUOUS
 62
     7
 10
-212.5059235956547
 20
325.5
 30
0.0
 11
-215.4999999999999
 21
325.5
 31
0.0
  0
LINE
  5
13E
  8
1
  6
CONTINUOUS
 62
     7
 10
-83.49999999999991
 20
325.5
 30
0.0
 11
-86.49407640434505
 21
325.5
 31
0.0
  0
LINE
  5
13F
  8
1
  6
CONTINUOUS
 62
     7
 10
-168.5059235956549
 20
325.5
 30
0.0
 11
-174.4940764043451
 21
325.5
 31
0.0
  0
LINE
  5
140
  8
1
  6
CONTINUOUS
 62
     7
 10
-174.4940764043451
 20
165.5
 30
0.0
 11
-168.5059235956549
 21
165.5
 31
0.0
  0
LINE
  5
141
  8
1
  6
CONTINUOUS
 62
     7
 10
-130.4940764043451
 20
165.5
 30
0.0
 11
-124.5059235956549
 21
165.5
 31
0.0
  0
LINE
  5
142
  8
1
  6
CONTINUOUS
 62
     7
 10
-215.4999999999999
 20
165.5
 30
0.0
 11
-212.5059235956547
 21
165.5
 31
0.0
  0
LINE
  5
143
  8
1
  6
CONTINUOUS
 62
     7
 10
-86.49407640434505
 20
165.5
 30
0.0
 11
-83.49999999999991
 21
165.5
 31
0.0
  0
LINE
  5
144
  8
1
  6
CONTINUOUS
 62
     7
 10
-366.9999999999999
 20
321.9999294383276
 30
0.0
 11
-366.9999999999999
 21
350.4999305555543
 31
0.0
  0
ARC
  5
145
  8
1
  6
CONTINUOUS
 62
     7
 10
-366.4999999999999
 20
1940.5
 30
0.0
 40
1794.0
 50
269.9840312764061
 51
270.0159687235939
  0
ARC
  5
146
  8
1
  6
CONTINUOUS
 62
     7
 10
-366.5000000000002
 20
-1449.5
 30
0.0
 40
1775.0
 50
88.63083775679196
 51
89.98386034358568
  0
ARC
  5
147
  8
1
  6
CONTINUOUS
 62
     7
 10
-366.4999999999999
 20
1940.5
 30
0.0
 40
1775.0
 50
270.0161396564143
 51
271.3691622432081
  0
ARC
  5
148
  8
1
  6
CONTINUOUS
 62
     7
 10
-366.5000000000002
 20
-1449.5
 30
0.0
 40
1774.999999999999
 50
90.01613965641434
 51
91.3691622432076
  0
ARC
  5
149
  8
1
  6
CONTINUOUS
 62
     7
 10
-366.4999999999999
 20
1940.5
 30
0.0
 40
1775.0
 50
270.0161396564143
 51
271.3691622432081
  0
ARC
  5
14A
  8
1
  6
CONTINUOUS
 62
     7
 10
-366.5000000000002
 20
-1449.5
 30
0.0
 40
1775.0
 50
90.01613965641434
 51
91.3691622432076
  0
ARC
  5
14B
  8
1
  6
CONTINUOUS
 62
     7
 10
-366.4999999999999
 20
1940.5
 30
0.0
 40
1771.5
 50
270.0161715439667
 51
271.3691622432074
  0
ARC
  5
14C
  8
1
  6
CONTINUOUS
 62
     7
 10
-366.4999999999999
 20
1940.5
 30
0.0
 40
1771.5
 50
270.0161715439667
 51
271.3691622432074
  0
LINE
  5
14D
  8
1
  6
CONTINUOUS
 62
     7
 10
-365.9999999999999
 20
321.9999294383276
 30
0.0
 11
-365.9999999999999
 21
350.4999305555543
 31
0.0
  0
ARC
  5
14E
  8
1
  6
CONTINUOUS
 62
     7
 10
-366.4999999999999
 20
1940.5
 30
0.0
 40
1771.5
 50
268.6308377567924
 51
269.9838284560333
  0
LINE
  5
14F
  8
1
  6
CENTER
 62
    10
 10
-366.4999999999999
 20
133.5
 30
0.0
 11
-366.4999999999999
 21
357.4999999999999
 31
0.0
  0
ARC
  5
151
  8
1
  6
CONTINUOUS
 62
     7
 10
-366.5000000000002
 20
-1449.5
 30
0.0
 40
1775.0
 50
88.63083775679196
 51
89.98386034358568
  0
ARC
  5
152
  8
1
  6
CONTINUOUS
 62
     7
 10
-366.4999999999999
 20
1940.5
 30
0.0
 40
1775.0
 50
268.6308377567924
 51
269.9838603435857
  0
LINE
  5
153
  8
1
  6
CENTER
 62
     1
 10
-79.49999999999991
 20
245.5
 30
0.0
 11
-219.4999999999999
 21
245.5
 31
0.0
  0
ARC
  5
154
  8
1
  6
CONTINUOUS
 62
     7
 10
-366.5000000000002
 20
-1449.5
 30
0.0
 40
1771.5
 50
88.63083775679252
 51
89.98382845603332
  0
LINE
  5
155
  8
1
  6
CENTER
 62
    10
 10
-261.0000000000002
 20
245.5
 30
0.0
 11
-471.9999999999998
 21
245.5
 31
0.0
  0
ARC
  5
156
  8
1
  6
CONTINUOUS
 62
     7
 10
-366.5000000000002
 20
-1449.5
 30
0.0
 40
1800.0
 50
90.01591549451388
 51
91.3691622432076
  0
ARC
  5
157
  8
1
  6
CONTINUOUS
 62
     7
 10
-366.4999999999999
 20
1940.5
 30
0.0
 40
1775.0
 50
268.6308377567924
 51
269.9838603435857
  0
LINE
  5
158
  8
1
  6
CONTINUOUS
 62
     7
 10
-365.9999999999999
 20
146.500069676701
 30
0.0
 11
-365.9999999999999
 21
169.0000705616722
 31
0.0
  0
ARC
  5
159
  8
1
  6
CONTINUOUS
 62
     7
 10
-366.5000000000002
 20
-1449.5
 30
0.0
 40
1771.5
 50
90.01617154396666
 51
91.3691622432076
  0
LINE
  5
15A
  8
1
  6
CONTINUOUS
 62
     7
 10
-366.9999999999999
 20
146.500069676701
 30
0.0
 11
-366.9999999999999
 21
169.0000705616722
 31
0.0
  0
ARC
  5
15B
  8
1
  6
CONTINUOUS
 62
     7
 10
-366.5000000000002
 20
-1449.5
 30
0.0
 40
1800.0
 50
88.63083775679223
 51
89.98408450548614
  0
ARC
  5
15C
  8
1
  6
CONTINUOUS
 62
     7
 10
-366.4999999999999
 20
1940.5
 30
0.0
 40
1771.5
 50
268.6308377567924
 51
269.9838284560333
  0
ENDSEC
  0
EOF
