  0
SECTION
  2
HEADER
  9
$ACADVER
  1
AC1006
  9
$DWGCODEPAGE
  3
ansi_932
  9
$INSBASE
 10
0.0
 20
0.0
 30
0.0
  9
$EXTMIN
 10
-437.0000000129002
 20
203.0000068989032
  9
$EXTMAX
 10
-112.0000000000001
 20
336.9999931010968
  9
$LIMMIN
 10
0.0
 20
0.0
  9
$LIMMAX
 10
12.0
 20
9.0
  9
$ORTHOMODE
 70
     0
  9
$REGENMODE
 70
     1
  9
$FILLMODE
 70
     1
  9
$QTEXTMODE
 70
     0
  9
$MIRRTEXT
 70
     1
  9
$DRAGMODE
 70
     2
  9
$LTSCALE
 40
1.0
  9
$OSMODE
 70
    37
  9
$ATTMODE
 70
     1
  9
$TEXTSIZE
 40
0.2
  9
$TRACEWID
 40
0.05
  9
$TEXTSTYLE
  7
STANDARD
  9
$CLAYER
  8
0
  9
$CELTYPE
  6
BYLAYER
  9
$CECOLOR
 62
   256
  9
$DIMSCALE
 40
1.0
  9
$DIMASZ
 40
3.0
  9
$DIMEXO
 40
0.0625
  9
$DIMDLI
 40
0.38
  9
$DIMRND
 40
0.0
  9
$DIMDLE
 40
0.0
  9
$DIMEXE
 40
1.5
  9
$DIMTP
 40
0.0
  9
$DIMTM
 40
0.0
  9
$DIMTXT
 40
3.0
  9
$DIMCEN
 40
0.09
  9
$DIMTSZ
 40
0.0
  9
$DIMTOL
 70
     0
  9
$DIMLIM
 70
     0
  9
$DIMTIH
 70
     1
  9
$DIMTOH
 70
     1
  9
$DIMSE1
 70
     0
  9
$DIMSE2
 70
     0
  9
$DIMTAD
 70
     1
  9
$DIMZIN
 70
     0
  9
$DIMBLK
  1

  9
$DIMASO
 70
     1
  9
$DIMSHO
 70
     1
  9
$DIMPOST
  1

  9
$DIMAPOST
  1

  9
$DIMALT
 70
     0
  9
$DIMALTD
 70
     2
  9
$DIMALTF
 40
25.4
  9
$DIMLFAC
 40
1.0
  9
$DIMTOFL
 70
     0
  9
$DIMTVP
 40
0.0
  9
$DIMTIX
 70
     0
  9
$DIMSOXD
 70
     0
  9
$DIMSAH
 70
     0
  9
$DIMBLK1
  1

  9
$DIMBLK2
  1

  9
$LUNITS
 70
     2
  9
$LUPREC
 70
     4
  9
$SKETCHINC
 40
0.1
  9
$FILLETRAD
 40
0.5
  9
$AUNITS
 70
     0
  9
$AUPREC
 70
     0
  9
$MENU
  1
.
  9
$ELEVATION
 40
0.0
  9
$THICKNESS
 40
0.0
  9
$LIMCHECK
 70
     0
  9
$CHAMFERA
 40
0.0
  9
$CHAMFERB
 40
0.0
  9
$SKPOLY
 70
     0
  9
$TDCREATE
 40
2460608.451167581
  9
$TDUPDATE
 40
2460608.45116794
  9
$TDINDWG
 40
0.0000000116
  9
$TDUSRTIMER
 40
0.0000000116
  9
$USRTIMER
 70
     1
  9
$ANGBASE
 50
0.0
  9
$ANGDIR
 70
     0
  9
$PDMODE
 70
     0
  9
$PDSIZE
 40
0.0
  9
$PLINEWID
 40
0.0
  9
$COORDS
 70
     1
  9
$SPLFRAME
 70
     0
  9
$SPLINETYPE
 70
     6
  9
$SPLINESEGS
 70
     8
  9
$ATTDIA
 70
     0
  9
$ATTREQ
 70
     1
  9
$HANDLING
 70
     1
  9
$HANDSEED
  5
8D9
  9
$SURFTAB1
 70
     6
  9
$SURFTAB2
 70
     6
  9
$SURFTYPE
 70
     6
  9
$SURFU
 70
     6
  9
$SURFV
 70
     6
  9
$UCSNAME
  2

  9
$UCSORG
 10
0.0
 20
0.0
 30
0.0
  9
$UCSXDIR
 10
1.0
 20
0.0
 30
0.0
  9
$UCSYDIR
 10
0.0
 20
1.0
 30
0.0
  9
$USERI1
 70
     0
  9
$USERI2
 70
     0
  9
$USERI3
 70
     0
  9
$USERI4
 70
     0
  9
$USERI5
 70
     0
  9
$USERR1
 40
0.0
  9
$USERR2
 40
0.0
  9
$USERR3
 40
0.0
  9
$USERR4
 40
0.0
  9
$USERR5
 40
0.0
  9
$WORLDVIEW
 70
     1
  0
ENDSEC
  0
SECTION
  2
TABLES
  0
TABLE
  2
VPORT
 70
     1
  0
VPORT
  2
*ACTIVE
 70
     0
 10
0.0
 20
0.0
 11
1.0
 21
1.0
 12
-274.5000000064501
 22
270.0
 13
0.0
 23
0.0
 14
0.5
 24
0.5
 15
0.5
 25
0.5
 16
0.0
 26
0.0
 36
1.0
 17
0.0
 27
0.0
 37
0.0
 40
133.9999862021936
 41
1.6
 42
50.0
 43
0.0
 44
0.0
 50
0.0
 51
0.0
 71
     0
 72
   100
 73
     1
 74
     3
 75
     0
 76
     0
 77
     0
 78
     0
  0
ENDTAB
  0
TABLE
  2
LTYPE
 70
     2
  0
LTYPE
  2
CONTINUOUS
 70
     0
  3
Solid line
 72
    65
 73
     0
 40
0.0
  0
LTYPE
  2
CENTER
 70
     0
  3

 72
    65
 73
     0
 40
0.0
  0
ENDTAB
  0
TABLE
  2
LAYER
 70
     1
  0
LAYER
  2
0
 70
     0
 62
     7
  6
CONTINUOUS
  0
ENDTAB
  0
TABLE
  2
STYLE
 70
     2
  0
STYLE
  2
STANDARD
 70
     0
 40
0.0
 41
1.0
 50
0.0
 71
     0
 42
0.2
  3
txt
  4

  0
STYLE
  2
ＭＳ_ゴシック
 70
     0
 40
0.0
 41
1.0
 50
0.0
 71
     0
 42
0.2
  3
ＭＳ ゴシック.shx
  4

  0
ENDTAB
  0
TABLE
  2
VIEW
 70
     0
  0
ENDTAB
  0
TABLE
  2
UCS
 70
     0
  0
ENDTAB
  0
ENDSEC
  0
SECTION
  2
BLOCKS
  0
ENDSEC
  0
SECTION
  2
ENTITIES
  0
TEXT
  5
6F
  8
0
  6
CONTINUOUS
 62
     7
 10
-298.6770351381768
 20
203.1204764286608
 30
0.0
 40
3.0
  1
N-KPRX-81E
  0
POINT
  5
70
  8
0
 62
     1
 10
-190.0000000000002
 20
270.0
 30
0.0
  0
LINE
  5
71
  8
0
  6
CONTINUOUS
 62
     7
 10
-379.8429121147313
 20
312.9999930700748
 30
0.0
 11
-370.5000000000001
 21
312.9999912250368
 31
0.0
  0
LINE
  5
72
  8
0
  6
CONTINUOUS
 62
     7
 10
-370.5000000000001
 20
219.000012823304
 30
0.0
 11
-369.5000000000002
 21
219.000012823304
 31
0.0
  0
LINE
  5
73
  8
0
  6
CENTER
 62
     1
 10
-370.0000000000001
 20
203.0000068989032
 30
0.0
 11
-370.0000000000001
 21
336.9999931010968
 31
0.0
  0
LINE
  5
75
  8
0
  6
CONTINUOUS
 62
     7
 10
-379.8428951314512
 20
227.0000069919675
 30
0.0
 11
-370.5000000000001
 21
227.0000125270921
 31
0.0
  0
LINE
  5
76
  8
0
  6
CONTINUOUS
 62
     7
 10
-369.5000000000002
 20
219.000012823304
 30
0.0
 11
-369.5000000000002
 21
229.0000125270732
 31
0.0
  0
LINE
  5
77
  8
0
  6
CONTINUOUS
 62
     7
 10
-370.5000000000001
 20
219.000012823304
 30
0.0
 11
-370.5000000000001
 21
229.0000125270916
 31
0.0
  0
LINE
  5
78
  8
0
  6
CENTER
 62
     1
 10
-437.0000000129002
 20
270.0
 30
0.0
 11
-302.9999999871
 21
270.0
 31
0.0
  0
LINE
  5
79
  8
0
  6
CONTINUOUS
 62
     7
 10
-379.8167308001929
 20
310.9999930649049
 30
0.0
 11
-370.5000000000001
 21
310.9999912250368
 31
0.0
  0
LINE
  5
7A
  8
0
  6
CENTER
 62
     1
 10
-268.0000000000002
 20
270.0
 30
0.0
 11
-112.0000000000001
 21
270.0
 31
0.0
  0
LINE
  5
7B
  8
0
  6
CONTINUOUS
 62
     7
 10
-359.9999999998313
 20
324.9999931010968
 30
0.0
 11
-369.5000000000002
 21
324.9999912250368
 31
0.0
  0
LINE
  5
7C
  8
0
  6
CONTINUOUS
 62
     7
 10
-369.5000000000002
 20
310.9999912250368
 30
0.0
 11
-369.5000000000002
 21
324.9999912250368
 31
0.0
  0
LINE
  5
7D
  8
0
  6
CONTINUOUS
 62
     7
 10
-360.183285393167
 20
229.0000070074785
 30
0.0
 11
-369.5000000000002
 21
229.0000125270732
 31
0.0
  0
LINE
  5
7E
  8
0
  6
CONTINUOUS
 62
     7
 10
-370.5000000000001
 20
310.9999912250368
 30
0.0
 11
-370.5000000000001
 21
324.9999912250368
 31
0.0
  0
LINE
  5
7F
  8
0
  6
CONTINUOUS
 62
     7
 10
-360.1570878852689
 20
312.9999930700748
 30
0.0
 11
-369.5000000000002
 21
312.9999912250368
 31
0.0
  0
LINE
  5
80
  8
0
  6
CONTINUOUS
 62
     7
 10
-380.0000000001689
 20
324.9999931010968
 30
0.0
 11
-370.5000000000001
 21
324.9999912250368
 31
0.0
  0
LINE
  5
81
  8
0
  6
CONTINUOUS
 62
     7
 10
-379.8167146068332
 20
229.0000070074785
 30
0.0
 11
-370.5000000000001
 21
229.0000125270916
 31
0.0
  0
LINE
  5
82
  8
0
  6
CONTINUOUS
 62
     7
 10
-360.157104868549
 20
227.0000069919675
 30
0.0
 11
-369.5000000000002
 21
227.0000125270732
 31
0.0
  0
LINE
  5
83
  8
0
  6
CONTINUOUS
 62
     7
 10
-360.1832691998075
 20
310.9999930649049
 30
0.0
 11
-369.5000000000002
 21
310.9999912250368
 31
0.0
  0
POINT
  5
84
  8
0
 62
     1
 10
-370.0000000000001
 20
270.0
 30
0.0
  0
POINT
  5
85
  8
0
 62
     1
 10
-370.0000000000001
 20
270.0
 30
0.0
  0
LINE
  5
86
  8
0
  6
CONTINUOUS
 62
     7
 10
-194.5438731164413
 20
276.0728451743141
 30
0.0
 11
-194.5628756343978
 21
276.0918476922712
 31
0.0
  0
LINE
  5
87
  8
0
  6
CONTINUOUS
 62
   253
 10
-207.4561268834765
 20
276.0728451743141
 30
0.0
 11
-194.5438731164413
 21
276.0728451743141
 31
0.0
  0
LINE
  5
88
  8
0
  6
CONTINUOUS
 62
     7
 10
-207.4371243654724
 20
276.0918476922888
 30
0.0
 11
-207.4561268834765
 21
276.0728451743141
 31
0.0
  0
LINE
  5
89
  8
0
  6
CONTINUOUS
 62
     7
 10
-150.5438731164412
 20
276.0728451743141
 30
0.0
 11
-150.5628756343977
 21
276.0918476922712
 31
0.0
  0
LINE
  5
8A
  8
0
  6
CONTINUOUS
 62
   253
 10
-163.4561268834764
 20
276.0728451743141
 30
0.0
 11
-150.5438731164412
 21
276.0728451743141
 31
0.0
  0
LINE
  5
8B
  8
0
  6
CONTINUOUS
 62
     7
 10
-163.4371243654724
 20
276.0918476922888
 30
0.0
 11
-163.4561268834764
 21
276.0728451743141
 31
0.0
  0
LINE
  5
8C
  8
0
  6
CONTINUOUS
 62
   253
 10
-207.4371243654724
 20
276.0918476922888
 30
0.0
 11
-207.4371243654724
 21
279.967613816528
 31
0.0
  0
LINE
  5
8D
  8
0
  6
CONTINUOUS
 62
   253
 10
-251.4371243654725
 20
276.0918476922888
 30
0.0
 11
-251.4371243654725
 21
279.967613816528
 31
0.0
  0
LINE
  5
8E
  8
0
  6
CONTINUOUS
 62
     7
 10
-216.5438731164413
 20
276.0728451743141
 30
0.0
 11
-216.5628756343974
 21
276.0918476922712
 31
0.0
  0
LINE
  5
8F
  8
0
  6
CONTINUOUS
 62
   253
 10
-229.4561268834765
 20
276.0728451743141
 30
0.0
 11
-216.5438731164413
 21
276.0728451743141
 31
0.0
  0
LINE
  5
90
  8
0
  6
CONTINUOUS
 62
     7
 10
-229.4371243654725
 20
276.0918476922888
 30
0.0
 11
-229.4561268834765
 21
276.0728451743141
 31
0.0
  0
LINE
  5
91
  8
0
  6
CONTINUOUS
 62
     7
 10
-128.5438731164413
 20
276.0728451743141
 30
0.0
 11
-128.5628756343978
 21
276.0918476922712
 31
0.0
  0
LINE
  5
92
  8
0
  6
CONTINUOUS
 62
   253
 10
-141.4561268834769
 20
276.0728451743141
 30
0.0
 11
-128.5438731164413
 21
276.0728451743141
 31
0.0
  0
LINE
  5
93
  8
0
  6
CONTINUOUS
 62
     7
 10
-141.4371243654726
 20
276.0918476922888
 30
0.0
 11
-141.4561268834769
 21
276.0728451743141
 31
0.0
  0
LINE
  5
94
  8
0
  6
CONTINUOUS
 62
     7
 10
-238.5438731164413
 20
276.0728451743141
 30
0.0
 11
-238.5628756343974
 21
276.0918476922712
 31
0.0
  0
LINE
  5
95
  8
0
  6
CONTINUOUS
 62
   253
 10
-251.4561268834765
 20
276.0728451743141
 30
0.0
 11
-238.5438731164413
 21
276.0728451743141
 31
0.0
  0
LINE
  5
96
  8
0
  6
CONTINUOUS
 62
     7
 10
-251.4371243654725
 20
276.0918476922888
 30
0.0
 11
-251.4561268834765
 21
276.0728451743141
 31
0.0
  0
LINE
  5
97
  8
0
  6
CONTINUOUS
 62
   253
 10
-141.4371243654726
 20
276.0918476922888
 30
0.0
 11
-141.4371243654726
 21
279.967613816528
 31
0.0
  0
LINE
  5
98
  8
0
  6
CONTINUOUS
 62
     7
 10
-172.5438731164413
 20
276.0728451743141
 30
0.0
 11
-172.5628756343978
 21
276.0918476922712
 31
0.0
  0
LINE
  5
99
  8
0
  6
CONTINUOUS
 62
   253
 10
-185.4561268834765
 20
276.0728451743141
 30
0.0
 11
-172.5438731164413
 21
276.0728451743141
 31
0.0
  0
LINE
  5
9A
  8
0
  6
CONTINUOUS
 62
     7
 10
-185.4371243654724
 20
276.0918476922888
 30
0.0
 11
-185.4561268834765
 21
276.0728451743141
 31
0.0
  0
LINE
  5
9B
  8
0
  6
CONTINUOUS
 62
   253
 10
-229.4371243654725
 20
276.0918476922888
 30
0.0
 11
-229.4371243654725
 21
279.967613816528
 31
0.0
  0
LINE
  5
9C
  8
0
  6
CONTINUOUS
 62
   253
 10
-163.4371243654724
 20
276.0918476922888
 30
0.0
 11
-163.4371243654724
 21
279.967613816528
 31
0.0
  0
LINE
  5
9D
  8
0
  6
CONTINUOUS
 62
   253
 10
-185.4371243654724
 20
276.0918476922888
 30
0.0
 11
-185.4371243654724
 21
279.967613816528
 31
0.0
  0
LINE
  5
9E
  8
0
  6
CONTINUOUS
 62
   253
 10
-251.4561268834765
 20
263.9271380741716
 30
0.0
 11
-238.5438731164413
 21
263.9271380741716
 31
0.0
  0
LINE
  5
9F
  8
0
  6
CONTINUOUS
 62
     7
 10
-238.5438731164413
 20
263.9271380741716
 30
0.0
 11
-238.5628756343974
 21
263.90813551365
 31
0.0
  0
LINE
  5
A0
  8
0
  6
CONTINUOUS
 62
     7
 10
-251.4371243654725
 20
263.9081355136328
 30
0.0
 11
-251.4561268834765
 21
263.9271380741716
 31
0.0
  0
LINE
  5
A1
  8
0
  6
CONTINUOUS
 62
   253
 10
-163.4561268834769
 20
263.9271380741716
 30
0.0
 11
-150.5438731164412
 21
263.9271380741716
 31
0.0
  0
LINE
  5
A2
  8
0
  6
CONTINUOUS
 62
     7
 10
-150.5438731164412
 20
263.9271380741716
 30
0.0
 11
-150.5628756343977
 21
263.90813551365
 31
0.0
  0
LINE
  5
A3
  8
0
  6
CONTINUOUS
 62
     7
 10
-163.4371243654724
 20
263.9081355136328
 30
0.0
 11
-163.4561268834769
 21
263.9271380741716
 31
0.0
  0
LINE
  5
A4
  8
0
  6
CONTINUOUS
 62
   253
 10
-251.4371243654725
 20
263.9081355136328
 30
0.0
 11
-251.4371243654725
 21
260.0323693893936
 31
0.0
  0
LINE
  5
A5
  8
0
  6
CONTINUOUS
 62
   253
 10
-163.4371243654724
 20
263.9081355136328
 30
0.0
 11
-163.4371243654724
 21
260.0323693893936
 31
0.0
  0
LINE
  5
A6
  8
0
  6
CONTINUOUS
 62
   253
 10
-185.4371243654724
 20
263.9081355136328
 30
0.0
 11
-185.4371243654724
 21
260.0323693893936
 31
0.0
  0
LINE
  5
A7
  8
0
  6
CONTINUOUS
 62
   253
 10
-141.4561268834769
 20
263.9271380741716
 30
0.0
 11
-128.5438731164413
 21
263.9271380741716
 31
0.0
  0
LINE
  5
A8
  8
0
  6
CONTINUOUS
 62
     7
 10
-128.5438731164413
 20
263.9271380741716
 30
0.0
 11
-128.5628756343978
 21
263.90813551365
 31
0.0
  0
LINE
  5
A9
  8
0
  6
CONTINUOUS
 62
     7
 10
-141.4371243654726
 20
263.9081355136328
 30
0.0
 11
-141.4561268834769
 21
263.9271380741716
 31
0.0
  0
LINE
  5
AA
  8
0
  6
CONTINUOUS
 62
   253
 10
-141.4371243654726
 20
263.9081355136328
 30
0.0
 11
-141.4371243654726
 21
260.0323693893936
 31
0.0
  0
LINE
  5
AB
  8
0
  6
CONTINUOUS
 62
   253
 10
-229.4561268834765
 20
263.9271380741716
 30
0.0
 11
-216.5438731164413
 21
263.9271380741716
 31
0.0
  0
LINE
  5
AC
  8
0
  6
CONTINUOUS
 62
     7
 10
-216.5438731164413
 20
263.9271380741716
 30
0.0
 11
-216.5628756343974
 21
263.90813551365
 31
0.0
  0
LINE
  5
AD
  8
0
  6
CONTINUOUS
 62
     7
 10
-229.4371243654725
 20
263.9081355136328
 30
0.0
 11
-229.4561268834765
 21
263.9271380741716
 31
0.0
  0
LINE
  5
AE
  8
0
  6
CONTINUOUS
 62
   253
 10
-207.4561268834765
 20
263.9271380741716
 30
0.0
 11
-194.5438731164413
 21
263.9271380741716
 31
0.0
  0
LINE
  5
AF
  8
0
  6
CONTINUOUS
 62
     7
 10
-194.5438731164413
 20
263.9271380741716
 30
0.0
 11
-194.5628756343978
 21
263.90813551365
 31
0.0
  0
LINE
  5
B0
  8
0
  6
CONTINUOUS
 62
     7
 10
-207.4371243654724
 20
263.9081355136328
 30
0.0
 11
-207.4561268834765
 21
263.9271380741716
 31
0.0
  0
LINE
  5
B1
  8
0
  6
CONTINUOUS
 62
   253
 10
-185.4561268834765
 20
263.9271380741716
 30
0.0
 11
-172.5438731164413
 21
263.9271380741716
 31
0.0
  0
LINE
  5
B2
  8
0
  6
CONTINUOUS
 62
     7
 10
-172.5438731164413
 20
263.9271380741716
 30
0.0
 11
-172.5628756343978
 21
263.90813551365
 31
0.0
  0
LINE
  5
B3
  8
0
  6
CONTINUOUS
 62
     7
 10
-185.4371243654724
 20
263.9081355136328
 30
0.0
 11
-185.4561268834765
 21
263.9271380741716
 31
0.0
  0
LINE
  5
B4
  8
0
  6
CONTINUOUS
 62
   253
 10
-229.4371243654725
 20
263.9081355136328
 30
0.0
 11
-229.4371243654725
 21
260.0323693893936
 31
0.0
  0
LINE
  5
B5
  8
0
  6
CONTINUOUS
 62
   253
 10
-207.4371243654724
 20
263.9081355136328
 30
0.0
 11
-207.4371243654724
 21
260.0323693893936
 31
0.0
  0
LINE
  5
B6
  8
0
  6
CONTINUOUS
 62
   253
 10
-216.5628756343974
 20
276.0918476922712
 30
0.0
 11
-216.5628756343974
 21
279.9676138165268
 31
0.0
  0
LINE
  5
B7
  8
0
  6
CONTINUOUS
 62
   253
 10
-150.5628756343977
 20
276.0918476922712
 30
0.0
 11
-150.5628756343977
 21
279.9676138165268
 31
0.0
  0
LINE
  5
B8
  8
0
  6
CONTINUOUS
 62
   253
 10
-172.5628756343978
 20
276.0918476922712
 30
0.0
 11
-172.5628756343978
 21
279.9676138165268
 31
0.0
  0
LINE
  5
B9
  8
0
  6
CONTINUOUS
 62
   253
 10
-238.5628756343974
 20
276.0918476922712
 30
0.0
 11
-238.5628756343974
 21
279.9676138165268
 31
0.0
  0
LINE
  5
BA
  8
0
  6
CONTINUOUS
 62
   253
 10
-194.5628756343978
 20
276.0918476922712
 30
0.0
 11
-194.5628756343978
 21
279.9676138165268
 31
0.0
  0
LINE
  5
BB
  8
0
  6
CONTINUOUS
 62
   253
 10
-128.5628756343978
 20
276.0918476922712
 30
0.0
 11
-128.5628756343978
 21
279.9676138165268
 31
0.0
  0
LINE
  5
BC
  8
0
  6
CONTINUOUS
 62
   253
 10
-216.5628756343974
 20
263.90813551365
 30
0.0
 11
-216.5628756343974
 21
260.0323693893949
 31
0.0
  0
LINE
  5
BD
  8
0
  6
CONTINUOUS
 62
   253
 10
-172.5628756343978
 20
263.90813551365
 30
0.0
 11
-172.5628756343978
 21
260.0323693893949
 31
0.0
  0
LINE
  5
BE
  8
0
  6
CONTINUOUS
 62
   253
 10
-150.5628756343977
 20
263.90813551365
 30
0.0
 11
-150.5628756343977
 21
260.0323693893949
 31
0.0
  0
LINE
  5
BF
  8
0
  6
CONTINUOUS
 62
   253
 10
-194.5628756343978
 20
263.90813551365
 30
0.0
 11
-194.5628756343978
 21
260.0323693893949
 31
0.0
  0
LINE
  5
C0
  8
0
  6
CONTINUOUS
 62
   253
 10
-238.5628756343974
 20
263.90813551365
 30
0.0
 11
-238.5628756343974
 21
260.0323693893949
 31
0.0
  0
LINE
  5
C1
  8
0
  6
CONTINUOUS
 62
   253
 10
-128.5628756343978
 20
263.90813551365
 30
0.0
 11
-128.5628756343978
 21
260.0323693893949
 31
0.0
  0
LINE
  5
C2
  8
0
  6
CONTINUOUS
 62
   253
 10
-207.4371243654724
 20
279.967613816528
 30
0.0
 11
-207.4371243654423
 21
300.0708178883093
 31
0.0
  0
LINE
  5
C3
  8
0
  6
CONTINUOUS
 62
   253
 10
-229.4371243654725
 20
279.967613816528
 30
0.0
 11
-229.4371243654418
 21
300.0708178883093
 31
0.0
  0
LINE
  5
C4
  8
0
  6
CONTINUOUS
 62
   253
 10
-141.4371243654726
 20
279.967613816528
 30
0.0
 11
-141.437124365442
 21
300.0708178883093
 31
0.0
  0
LINE
  5
C5
  8
0
  6
CONTINUOUS
 62
   253
 10
-251.4371243654725
 20
279.967613816528
 30
0.0
 11
-251.4371243654416
 21
300.0708178883093
 31
0.0
  0
LINE
  5
C6
  8
0
  6
CONTINUOUS
 62
   253
 10
-185.4371243654724
 20
279.967613816528
 30
0.0
 11
-185.4371243654422
 21
300.0708178883093
 31
0.0
  0
LINE
  5
C7
  8
0
  6
CONTINUOUS
 62
   253
 10
-163.4371243654724
 20
279.967613816528
 30
0.0
 11
-163.4371243654422
 21
300.0708178883093
 31
0.0
  0
LINE
  5
C8
  8
0
  6
CONTINUOUS
 62
   253
 10
-141.4371243654726
 20
260.0323693893936
 30
0.0
 11
-141.437124365442
 21
239.9291655255296
 31
0.0
  0
LINE
  5
C9
  8
0
  6
CONTINUOUS
 62
   253
 10
-251.4371243654725
 20
260.0323693893936
 30
0.0
 11
-251.4371243654416
 21
239.9291655255296
 31
0.0
  0
LINE
  5
CA
  8
0
  6
CONTINUOUS
 62
   253
 10
-207.4371243654724
 20
260.0323693893936
 30
0.0
 11
-207.4371243654423
 21
239.9291655255296
 31
0.0
  0
LINE
  5
CB
  8
0
  6
CONTINUOUS
 62
   253
 10
-163.4371243654724
 20
260.0323693893936
 30
0.0
 11
-163.4371243654422
 21
239.9291655255296
 31
0.0
  0
LINE
  5
CC
  8
0
  6
CONTINUOUS
 62
   253
 10
-185.4371243654724
 20
260.0323693893936
 30
0.0
 11
-185.4371243654422
 21
239.9291655255296
 31
0.0
  0
LINE
  5
CD
  8
0
  6
CONTINUOUS
 62
   253
 10
-229.4371243654725
 20
260.0323693893936
 30
0.0
 11
-229.4371243654423
 21
239.9291655255296
 31
0.0
  0
LINE
  5
CE
  8
0
  6
CONTINUOUS
 62
   253
 10
-216.5628756343974
 20
279.9676138165268
 30
0.0
 11
-216.5628756343974
 21
300.0708178883071
 31
0.0
  0
LINE
  5
CF
  8
0
  6
CONTINUOUS
 62
   253
 10
-172.5628756343978
 20
279.9676138165268
 30
0.0
 11
-172.5628756343978
 21
300.0708178883071
 31
0.0
  0
LINE
  5
D0
  8
0
  6
CONTINUOUS
 62
   253
 10
-150.5628756343977
 20
279.9676138165268
 30
0.0
 11
-150.5628756343977
 21
300.0708178883071
 31
0.0
  0
LINE
  5
D1
  8
0
  6
CONTINUOUS
 62
   253
 10
-128.5628756343978
 20
279.9676138165268
 30
0.0
 11
-128.5628756343978
 21
300.0708178883071
 31
0.0
  0
LINE
  5
D2
  8
0
  6
CONTINUOUS
 62
   253
 10
-238.5628756343974
 20
279.9676138165268
 30
0.0
 11
-238.5628756343974
 21
300.0708178883071
 31
0.0
  0
LINE
  5
D3
  8
0
  6
CONTINUOUS
 62
   253
 10
-194.5628756343978
 20
279.9676138165268
 30
0.0
 11
-194.5628756343978
 21
300.0708178883071
 31
0.0
  0
LINE
  5
D4
  8
0
  6
CONTINUOUS
 62
   253
 10
-172.5628756343978
 20
260.0323693893949
 30
0.0
 11
-172.5628756343978
 21
239.929165525532
 31
0.0
  0
LINE
  5
D5
  8
0
  6
CONTINUOUS
 62
   253
 10
-150.5628756343977
 20
260.0323693893949
 30
0.0
 11
-150.5628756343977
 21
239.929165525532
 31
0.0
  0
LINE
  5
D6
  8
0
  6
CONTINUOUS
 62
   253
 10
-216.5628756343974
 20
260.0323693893949
 30
0.0
 11
-216.5628756343974
 21
239.929165525532
 31
0.0
  0
LINE
  5
D7
  8
0
  6
CONTINUOUS
 62
   253
 10
-238.5628756343974
 20
260.0323693893949
 30
0.0
 11
-238.5628756343974
 21
239.929165525532
 31
0.0
  0
LINE
  5
D8
  8
0
  6
CONTINUOUS
 62
   253
 10
-194.5628756343978
 20
260.0323693893949
 30
0.0
 11
-194.5628756343978
 21
239.929165525532
 31
0.0
  0
LINE
  5
D9
  8
0
  6
CONTINUOUS
 62
   253
 10
-128.5628756343978
 20
260.0323693893949
 30
0.0
 11
-128.5628756343978
 21
239.929165525532
 31
0.0
  0
LINE
  5
DA
  8
0
  6
CONTINUOUS
 62
   253
 10
-163.4371243654422
 20
300.0708178883093
 30
0.0
 11
-163.4371243654422
 21
321.9945132007016
 31
0.0
  0
LINE
  5
DB
  8
0
  6
CONTINUOUS
 62
   253
 10
-185.4371243654422
 20
300.0708178883093
 30
0.0
 11
-185.4371243654422
 21
321.9945132007016
 31
0.0
  0
LINE
  5
DC
  8
0
  6
CONTINUOUS
 62
   253
 10
-229.4371243654418
 20
300.0708178883093
 30
0.0
 11
-229.4371243654418
 21
321.9945132007016
 31
0.0
  0
LINE
  5
DD
  8
0
  6
CONTINUOUS
 62
   253
 10
-207.4371243654423
 20
300.0708178883093
 30
0.0
 11
-207.4371243654423
 21
321.9945132007016
 31
0.0
  0
LINE
  5
DE
  8
0
  6
CONTINUOUS
 62
   253
 10
-141.437124365442
 20
300.0708178883093
 30
0.0
 11
-141.437124365442
 21
321.9945132007016
 31
0.0
  0
LINE
  5
DF
  8
0
  6
CONTINUOUS
 62
   253
 10
-251.4371243654416
 20
300.0708178883093
 30
0.0
 11
-251.4371243654416
 21
321.9945132007016
 31
0.0
  0
LINE
  5
E0
  8
0
  6
CONTINUOUS
 62
   253
 10
-128.5628756343978
 20
300.0708178883071
 30
0.0
 11
-128.5628756343978
 21
321.9945132006141
 31
0.0
  0
LINE
  5
E1
  8
0
  6
CONTINUOUS
 62
   253
 10
-150.5628756343977
 20
300.0708178883071
 30
0.0
 11
-150.5628756343977
 21
321.9945132006141
 31
0.0
  0
LINE
  5
E2
  8
0
  6
CONTINUOUS
 62
   253
 10
-172.5628756343978
 20
300.0708178883071
 30
0.0
 11
-172.5628756343978
 21
321.9945132006141
 31
0.0
  0
LINE
  5
E3
  8
0
  6
CONTINUOUS
 62
   253
 10
-216.5628756343974
 20
300.0708178883071
 30
0.0
 11
-216.5628756343974
 21
321.9945132006141
 31
0.0
  0
LINE
  5
E4
  8
0
  6
CONTINUOUS
 62
   253
 10
-194.5628756343978
 20
300.0708178883071
 30
0.0
 11
-194.5628756343978
 21
321.9945132006141
 31
0.0
  0
LINE
  5
E5
  8
0
  6
CONTINUOUS
 62
   253
 10
-238.5628756343974
 20
300.0708178883071
 30
0.0
 11
-238.5628756343974
 21
321.9945132006141
 31
0.0
  0
LINE
  5
E6
  8
0
  6
CONTINUOUS
 62
   253
 10
-141.437124365442
 20
239.9291655255296
 30
0.0
 11
-141.437124365442
 21
218.0054788721236
 31
0.0
  0
LINE
  5
E7
  8
0
  6
CONTINUOUS
 62
   253
 10
-163.4371243654422
 20
239.9291655255296
 30
0.0
 11
-163.4371243654422
 21
218.0054788721236
 31
0.0
  0
LINE
  5
E8
  8
0
  6
CONTINUOUS
 62
   253
 10
-229.4371243654423
 20
239.9291655255296
 30
0.0
 11
-229.4371243654418
 21
218.0054788721236
 31
0.0
  0
LINE
  5
E9
  8
0
  6
CONTINUOUS
 62
   253
 10
-251.4371243654416
 20
239.9291655255296
 30
0.0
 11
-251.4371243654416
 21
218.0054788721236
 31
0.0
  0
LINE
  5
EA
  8
0
  6
CONTINUOUS
 62
   253
 10
-207.4371243654423
 20
239.9291655255296
 30
0.0
 11
-207.4371243654423
 21
218.0054788721236
 31
0.0
  0
LINE
  5
EB
  8
0
  6
CONTINUOUS
 62
   253
 10
-185.4371243654422
 20
239.9291655255296
 30
0.0
 11
-185.4371243654422
 21
218.0054788721236
 31
0.0
  0
LINE
  5
EC
  8
0
  6
CONTINUOUS
 62
   253
 10
-150.5628756343977
 20
239.929165525532
 30
0.0
 11
-150.5628756343977
 21
218.0054788722112
 31
0.0
  0
LINE
  5
ED
  8
0
  6
CONTINUOUS
 62
   253
 10
-238.5628756343974
 20
239.929165525532
 30
0.0
 11
-238.5628756343974
 21
218.0054788722112
 31
0.0
  0
LINE
  5
EE
  8
0
  6
CONTINUOUS
 62
   253
 10
-128.5628756343978
 20
239.929165525532
 30
0.0
 11
-128.5628756343978
 21
218.0054788722112
 31
0.0
  0
LINE
  5
EF
  8
0
  6
CONTINUOUS
 62
   253
 10
-194.5628756343978
 20
239.929165525532
 30
0.0
 11
-194.5628756343978
 21
218.0054788722112
 31
0.0
  0
LINE
  5
F0
  8
0
  6
CONTINUOUS
 62
   253
 10
-216.5628756343974
 20
239.929165525532
 30
0.0
 11
-216.5628756343974
 21
218.0054788722112
 31
0.0
  0
LINE
  5
F1
  8
0
  6
CONTINUOUS
 62
   253
 10
-172.5628756343978
 20
239.929165525532
 30
0.0
 11
-172.5628756343978
 21
218.0054788722112
 31
0.0
  0
LINE
  5
F2
  8
0
  6
CONTINUOUS
 62
     7
 10
-163.52898094439
 20
264.4195421138656
 30
0.0
 11
-163.52898094439
 21
269.9999917058367
 31
0.0
  0
LINE
  5
F3
  8
0
  6
CONTINUOUS
 62
     7
 10
-163.52898094439
 20
264.4195421138656
 30
0.0
 11
-163.4561268834769
 21
263.9271380741716
 31
0.0
  0
LINE
  5
F4
  8
0
  6
CONTINUOUS
 62
     7
 10
-163.52898094439
 20
275.580441297808
 30
0.0
 11
-163.4561268834764
 21
276.0728451743141
 31
0.0
  0
LINE
  5
F5
  8
0
  6
CONTINUOUS
 62
     7
 10
-163.52898094439
 20
275.580441297808
 30
0.0
 11
-163.52898094439
 21
269.9999917058367
 31
0.0
  0
LINE
  5
F6
  8
0
  6
CONTINUOUS
 62
     7
 10
-207.5289809443901
 20
264.4195421138656
 30
0.0
 11
-207.5289809443901
 21
269.9999917058367
 31
0.0
  0
LINE
  5
F7
  8
0
  6
CONTINUOUS
 62
     7
 10
-207.5289809443901
 20
264.4195421138656
 30
0.0
 11
-207.4561268834765
 21
263.9271380741716
 31
0.0
  0
LINE
  5
F8
  8
0
  6
CONTINUOUS
 62
     7
 10
-207.5289809443901
 20
275.580441297808
 30
0.0
 11
-207.4561268834765
 21
276.0728451743141
 31
0.0
  0
LINE
  5
F9
  8
0
  6
CONTINUOUS
 62
     7
 10
-207.5289809443901
 20
275.580441297808
 30
0.0
 11
-207.5289809443901
 21
269.9999917058367
 31
0.0
  0
LINE
  5
FA
  8
0
  6
CONTINUOUS
 62
     7
 10
-185.5289809443901
 20
264.4195421138656
 30
0.0
 11
-185.5289809443901
 21
269.9999917058367
 31
0.0
  0
LINE
  5
FB
  8
0
  6
CONTINUOUS
 62
     7
 10
-185.5289809443901
 20
264.4195421138656
 30
0.0
 11
-185.4561268834765
 21
263.9271380741716
 31
0.0
  0
LINE
  5
FC
  8
0
  6
CONTINUOUS
 62
     7
 10
-185.5289809443901
 20
275.580441297808
 30
0.0
 11
-185.4561268834765
 21
276.0728451743141
 31
0.0
  0
LINE
  5
FD
  8
0
  6
CONTINUOUS
 62
     7
 10
-185.5289809443901
 20
275.580441297808
 30
0.0
 11
-185.5289809443901
 21
269.9999917058367
 31
0.0
  0
LINE
  5
FE
  8
0
  6
CONTINUOUS
 62
     7
 10
-251.5289809443901
 20
264.4195421138656
 30
0.0
 11
-251.5289809443901
 21
269.9999917058367
 31
0.0
  0
LINE
  5
FF
  8
0
  6
CONTINUOUS
 62
     7
 10
-251.5289809443901
 20
264.4195421138656
 30
0.0
 11
-251.4561268834765
 21
263.9271380741716
 31
0.0
  0
LINE
  5
100
  8
0
  6
CONTINUOUS
 62
     7
 10
-251.5289809443901
 20
275.580441297808
 30
0.0
 11
-251.4561268834765
 21
276.0728451743141
 31
0.0
  0
LINE
  5
101
  8
0
  6
CONTINUOUS
 62
     7
 10
-251.5289809443901
 20
275.580441297808
 30
0.0
 11
-251.5289809443901
 21
269.9999917058367
 31
0.0
  0
LINE
  5
102
  8
0
  6
CONTINUOUS
 62
     7
 10
-141.5289809443903
 20
264.4195421138656
 30
0.0
 11
-141.5289809443903
 21
269.9999917058367
 31
0.0
  0
LINE
  5
103
  8
0
  6
CONTINUOUS
 62
     7
 10
-141.5289809443903
 20
264.4195421138656
 30
0.0
 11
-141.4561268834769
 21
263.9271380741716
 31
0.0
  0
LINE
  5
104
  8
0
  6
CONTINUOUS
 62
     7
 10
-141.5289809443903
 20
275.580441297808
 30
0.0
 11
-141.4561268834764
 21
276.0728451743141
 31
0.0
  0
LINE
  5
105
  8
0
  6
CONTINUOUS
 62
     7
 10
-141.5289809443903
 20
275.580441297808
 30
0.0
 11
-141.5289809443903
 21
269.9999917058367
 31
0.0
  0
LINE
  5
106
  8
0
  6
CONTINUOUS
 62
     7
 10
-229.5289809443901
 20
264.4195421138656
 30
0.0
 11
-229.5289809443901
 21
269.9999917058367
 31
0.0
  0
LINE
  5
107
  8
0
  6
CONTINUOUS
 62
     7
 10
-229.5289809443901
 20
264.4195421138656
 30
0.0
 11
-229.4561268834765
 21
263.9271380741716
 31
0.0
  0
LINE
  5
108
  8
0
  6
CONTINUOUS
 62
     7
 10
-229.5289809443901
 20
275.580441297808
 30
0.0
 11
-229.4561268834765
 21
276.0728451743141
 31
0.0
  0
LINE
  5
109
  8
0
  6
CONTINUOUS
 62
     7
 10
-229.5289809443901
 20
275.580441297808
 30
0.0
 11
-229.5289809443901
 21
269.9999917058367
 31
0.0
  0
LINE
  5
10A
  8
0
  6
CONTINUOUS
 62
     7
 10
-172.5438731164413
 20
276.0728451743141
 30
0.0
 11
-172.4710190555278
 21
275.580441297808
 31
0.0
  0
LINE
  5
10B
  8
0
  6
CONTINUOUS
 62
     7
 10
-172.5438731164413
 20
263.9271380741716
 30
0.0
 11
-172.4710190555278
 21
264.4195421138656
 31
0.0
  0
LINE
  5
10C
  8
0
  6
CONTINUOUS
 62
     7
 10
-172.4710190555278
 20
269.9999917058364
 30
0.0
 11
-172.4710190555278
 21
264.4195421138656
 31
0.0
  0
LINE
  5
10D
  8
0
  6
CONTINUOUS
 62
     7
 10
-172.4710190555278
 20
269.9999917058364
 30
0.0
 11
-172.4710190555278
 21
275.580441297808
 31
0.0
  0
LINE
  5
10E
  8
0
  6
CONTINUOUS
 62
     7
 10
-150.5438731164412
 20
276.0728451743141
 30
0.0
 11
-150.4710190555276
 21
275.580441297808
 31
0.0
  0
LINE
  5
10F
  8
0
  6
CONTINUOUS
 62
     7
 10
-150.5438731164412
 20
263.9271380741716
 30
0.0
 11
-150.4710190555276
 21
264.4195421138656
 31
0.0
  0
LINE
  5
110
  8
0
  6
CONTINUOUS
 62
     7
 10
-150.4710190555276
 20
269.9999917058364
 30
0.0
 11
-150.4710190555276
 21
264.4195421138656
 31
0.0
  0
LINE
  5
111
  8
0
  6
CONTINUOUS
 62
     7
 10
-150.4710190555276
 20
269.9999917058364
 30
0.0
 11
-150.4710190555276
 21
275.580441297808
 31
0.0
  0
LINE
  5
112
  8
0
  6
CONTINUOUS
 62
     7
 10
-216.5438731164413
 20
276.0728451743141
 30
0.0
 11
-216.4710190555279
 21
275.580441297808
 31
0.0
  0
LINE
  5
113
  8
0
  6
CONTINUOUS
 62
     7
 10
-216.5438731164413
 20
263.9271380741716
 30
0.0
 11
-216.4710190555279
 21
264.4195421138656
 31
0.0
  0
LINE
  5
114
  8
0
  6
CONTINUOUS
 62
     7
 10
-216.4710190555279
 20
269.9999917058364
 30
0.0
 11
-216.4710190555279
 21
264.4195421138656
 31
0.0
  0
LINE
  5
115
  8
0
  6
CONTINUOUS
 62
     7
 10
-216.4710190555279
 20
269.9999917058364
 30
0.0
 11
-216.4710190555279
 21
275.580441297808
 31
0.0
  0
LINE
  5
116
  8
0
  6
CONTINUOUS
 62
     7
 10
-128.5438731164413
 20
276.0728451743141
 30
0.0
 11
-128.4710190555277
 21
275.580441297808
 31
0.0
  0
LINE
  5
117
  8
0
  6
CONTINUOUS
 62
     7
 10
-128.5438731164413
 20
263.9271380741716
 30
0.0
 11
-128.4710190555277
 21
264.4195421138656
 31
0.0
  0
LINE
  5
118
  8
0
  6
CONTINUOUS
 62
     7
 10
-128.4710190555277
 20
269.9999917058364
 30
0.0
 11
-128.4710190555277
 21
264.4195421138656
 31
0.0
  0
LINE
  5
119
  8
0
  6
CONTINUOUS
 62
     7
 10
-128.4710190555277
 20
269.9999917058364
 30
0.0
 11
-128.4710190555277
 21
275.580441297808
 31
0.0
  0
LINE
  5
11A
  8
0
  6
CONTINUOUS
 62
     7
 10
-238.5438731164413
 20
276.0728451743141
 30
0.0
 11
-238.4710190555279
 21
275.580441297808
 31
0.0
  0
LINE
  5
11B
  8
0
  6
CONTINUOUS
 62
     7
 10
-238.5438731164413
 20
263.9271380741716
 30
0.0
 11
-238.4710190555279
 21
264.4195421138656
 31
0.0
  0
LINE
  5
11C
  8
0
  6
CONTINUOUS
 62
     7
 10
-238.4710190555279
 20
269.9999917058364
 30
0.0
 11
-238.4710190555279
 21
264.4195421138656
 31
0.0
  0
LINE
  5
11D
  8
0
  6
CONTINUOUS
 62
     7
 10
-238.4710190555279
 20
269.9999917058364
 30
0.0
 11
-238.4710190555279
 21
275.580441297808
 31
0.0
  0
LINE
  5
11E
  8
0
  6
CONTINUOUS
 62
     7
 10
-194.5438731164413
 20
276.0728451743141
 30
0.0
 11
-194.4710190555279
 21
275.580441297808
 31
0.0
  0
LINE
  5
11F
  8
0
  6
CONTINUOUS
 62
     7
 10
-194.5438731164413
 20
263.9271380741716
 30
0.0
 11
-194.4710190555279
 21
264.4195421138656
 31
0.0
  0
LINE
  5
120
  8
0
  6
CONTINUOUS
 62
     7
 10
-194.4710190555279
 20
269.9999917058364
 30
0.0
 11
-194.4710190555279
 21
264.4195421138656
 31
0.0
  0
LINE
  5
121
  8
0
  6
CONTINUOUS
 62
     7
 10
-194.4710190555279
 20
269.9999917058364
 30
0.0
 11
-194.4710190555279
 21
275.580441297808
 31
0.0
  0
LINE
  5
122
  8
0
  6
CONTINUOUS
 62
   253
 10
-169.2058769706002
 20
279.8429774562629
 30
0.0
 11
-169.2058769706002
 21
299.8215897573511
 31
0.0
  0
LINE
  5
123
  8
0
  6
CONTINUOUS
 62
   253
 10
-147.2058769706002
 20
279.8429774562629
 30
0.0
 11
-147.2058769706002
 21
299.8215897573511
 31
0.0
  0
LINE
  5
124
  8
0
  6
CONTINUOUS
 62
   253
 10
-169.2058769706002
 20
269.9999934831569
 30
0.0
 11
-169.2058769706002
 21
279.8429774562629
 31
0.0
  0
LINE
  5
125
  8
0
  6
CONTINUOUS
 62
   253
 10
-147.2058769706002
 20
269.9999934831569
 30
0.0
 11
-147.2058769706002
 21
279.8429774562629
 31
0.0
  0
LINE
  5
126
  8
0
  6
CONTINUOUS
 62
   253
 10
-191.2058769706002
 20
269.9999934831569
 30
0.0
 11
-191.2058769706002
 21
279.8429774562629
 31
0.0
  0
LINE
  5
127
  8
0
  6
CONTINUOUS
 62
   253
 10
-213.2058769706002
 20
269.9999934831569
 30
0.0
 11
-213.2058769706002
 21
279.8429774562629
 31
0.0
  0
LINE
  5
128
  8
0
  6
CONTINUOUS
 62
   253
 10
-235.2058769706002
 20
269.9999934831569
 30
0.0
 11
-235.2058769706002
 21
279.8429774562629
 31
0.0
  0
LINE
  5
129
  8
0
  6
CONTINUOUS
 62
   253
 10
-235.2058769706002
 20
279.8429774562629
 30
0.0
 11
-235.2058769706002
 21
299.8215897573511
 31
0.0
  0
LINE
  5
12A
  8
0
  6
CONTINUOUS
 62
   253
 10
-125.2058769706001
 20
269.9999934831569
 30
0.0
 11
-125.2058769706001
 21
279.8429774562629
 31
0.0
  0
LINE
  5
12B
  8
0
  6
CONTINUOUS
 62
   253
 10
-191.2058769706002
 20
279.8429774562629
 30
0.0
 11
-191.2058769706002
 21
299.8215897573511
 31
0.0
  0
LINE
  5
12C
  8
0
  6
CONTINUOUS
 62
   253
 10
-125.2058769706001
 20
279.8429774562629
 30
0.0
 11
-125.2058769706001
 21
299.8215897573511
 31
0.0
  0
LINE
  5
12D
  8
0
  6
CONTINUOUS
 62
   253
 10
-213.2058769706002
 20
279.8429774562629
 30
0.0
 11
-213.2058769706002
 21
299.8215897573511
 31
0.0
  0
LINE
  5
12E
  8
0
  6
CONTINUOUS
 62
   253
 10
-125.2058769706001
 20
269.9999934831569
 30
0.0
 11
-125.2058769706001
 21
260.1570095100516
 31
0.0
  0
LINE
  5
12F
  8
0
  6
CONTINUOUS
 62
   253
 10
-125.2058769706001
 20
260.1570095100516
 30
0.0
 11
-125.2058769706001
 21
240.1783974155924
 31
0.0
  0
LINE
  5
130
  8
0
  6
CONTINUOUS
 62
   253
 10
-213.2058769706002
 20
260.1570095100516
 30
0.0
 11
-213.2058769706002
 21
240.1783974155924
 31
0.0
  0
LINE
  5
131
  8
0
  6
CONTINUOUS
 62
   253
 10
-213.2058769706002
 20
269.9999934831569
 30
0.0
 11
-213.2058769706002
 21
260.1570095100516
 31
0.0
  0
LINE
  5
132
  8
0
  6
CONTINUOUS
 62
   253
 10
-235.2058769706002
 20
269.9999934831569
 30
0.0
 11
-235.2058769706002
 21
260.1570095100516
 31
0.0
  0
LINE
  5
133
  8
0
  6
CONTINUOUS
 62
   253
 10
-235.2058769706002
 20
260.1570095100516
 30
0.0
 11
-235.2058769706002
 21
240.1783974155924
 31
0.0
  0
LINE
  5
134
  8
0
  6
CONTINUOUS
 62
   253
 10
-169.2058769706002
 20
269.9999934831569
 30
0.0
 11
-169.2058769706002
 21
260.1570095100516
 31
0.0
  0
LINE
  5
135
  8
0
  6
CONTINUOUS
 62
   253
 10
-191.2058769706002
 20
269.9999934831569
 30
0.0
 11
-191.2058769706002
 21
260.1570095100516
 31
0.0
  0
LINE
  5
136
  8
0
  6
CONTINUOUS
 62
   253
 10
-147.2058769706002
 20
260.1570095100516
 30
0.0
 11
-147.2058769706002
 21
240.1783974155924
 31
0.0
  0
LINE
  5
137
  8
0
  6
CONTINUOUS
 62
   253
 10
-147.2058769706002
 20
269.9999934831569
 30
0.0
 11
-147.2058769706002
 21
260.1570095100516
 31
0.0
  0
LINE
  5
138
  8
0
  6
CONTINUOUS
 62
   253
 10
-191.2058769706002
 20
260.1570095100516
 30
0.0
 11
-191.2058769706002
 21
240.1783974155924
 31
0.0
  0
LINE
  5
139
  8
0
  6
CONTINUOUS
 62
   253
 10
-169.2058769706002
 20
260.1570095100516
 30
0.0
 11
-169.2058769706002
 21
240.1783974155924
 31
0.0
  0
LINE
  5
13A
  8
0
  6
CONTINUOUS
 62
   253
 10
-232.7941230354464
 20
279.84297745623
 30
0.0
 11
-232.7941230354464
 21
299.8215897572856
 31
0.0
  0
LINE
  5
13B
  8
0
  6
CONTINUOUS
 62
   253
 10
-144.7941230354466
 20
279.84297745623
 30
0.0
 11
-144.7941230354466
 21
299.8215897572856
 31
0.0
  0
LINE
  5
13C
  8
0
  6
CONTINUOUS
 62
   253
 10
-188.7941230354464
 20
269.9999934831569
 30
0.0
 11
-188.7941230354464
 21
279.84297745623
 31
0.0
  0
LINE
  5
13D
  8
0
  6
CONTINUOUS
 62
   253
 10
-144.7941230354466
 20
269.9999934831569
 30
0.0
 11
-144.7941230354466
 21
279.84297745623
 31
0.0
  0
LINE
  5
13E
  8
0
  6
CONTINUOUS
 62
   253
 10
-254.7941230354465
 20
279.84297745623
 30
0.0
 11
-254.7941230354465
 21
299.8215897572856
 31
0.0
  0
LINE
  5
13F
  8
0
  6
CONTINUOUS
 62
   253
 10
-166.7941230354464
 20
279.84297745623
 30
0.0
 11
-166.7941230354464
 21
299.8215897572856
 31
0.0
  0
LINE
  5
140
  8
0
  6
CONTINUOUS
 62
   253
 10
-210.7941230354464
 20
279.84297745623
 30
0.0
 11
-210.7941230354464
 21
299.8215897572856
 31
0.0
  0
LINE
  5
141
  8
0
  6
CONTINUOUS
 62
   253
 10
-254.7941230354465
 20
269.9999934831569
 30
0.0
 11
-254.7941230354465
 21
279.84297745623
 31
0.0
  0
LINE
  5
142
  8
0
  6
CONTINUOUS
 62
   253
 10
-166.7941230354464
 20
269.9999934831569
 30
0.0
 11
-166.7941230354464
 21
279.84297745623
 31
0.0
  0
LINE
  5
143
  8
0
  6
CONTINUOUS
 62
   253
 10
-210.7941230354464
 20
269.9999934831569
 30
0.0
 11
-210.7941230354464
 21
279.84297745623
 31
0.0
  0
LINE
  5
144
  8
0
  6
CONTINUOUS
 62
   253
 10
-188.7941230354464
 20
279.84297745623
 30
0.0
 11
-188.7941230354464
 21
299.8215897572856
 31
0.0
  0
LINE
  5
145
  8
0
  6
CONTINUOUS
 62
   253
 10
-232.7941230354464
 20
269.9999934831569
 30
0.0
 11
-232.7941230354464
 21
279.84297745623
 31
0.0
  0
LINE
  5
146
  8
0
  6
CONTINUOUS
 62
   253
 10
-210.7941230354464
 20
269.9999934831569
 30
0.0
 11
-210.7941230354464
 21
260.1570095100844
 31
0.0
  0
LINE
  5
147
  8
0
  6
CONTINUOUS
 62
   253
 10
-166.7941230354464
 20
260.1570095100844
 30
0.0
 11
-166.7941230354464
 21
240.1783974156576
 31
0.0
  0
LINE
  5
148
  8
0
  6
CONTINUOUS
 62
   253
 10
-144.7941230354466
 20
269.9999934831569
 30
0.0
 11
-144.7941230354466
 21
260.1570095100844
 31
0.0
  0
LINE
  5
149
  8
0
  6
CONTINUOUS
 62
   253
 10
-166.7941230354464
 20
269.9999934831569
 30
0.0
 11
-166.7941230354464
 21
260.1570095100844
 31
0.0
  0
LINE
  5
14A
  8
0
  6
CONTINUOUS
 62
   253
 10
-188.7941230354464
 20
269.9999934831569
 30
0.0
 11
-188.7941230354464
 21
260.1570095100844
 31
0.0
  0
LINE
  5
14B
  8
0
  6
CONTINUOUS
 62
   253
 10
-210.7941230354464
 20
260.1570095100844
 30
0.0
 11
-210.7941230354464
 21
240.1783974156576
 31
0.0
  0
LINE
  5
14C
  8
0
  6
CONTINUOUS
 62
   253
 10
-254.7941230354465
 20
269.9999934831569
 30
0.0
 11
-254.7941230354465
 21
260.1570095100844
 31
0.0
  0
LINE
  5
14D
  8
0
  6
CONTINUOUS
 62
   253
 10
-232.7941230354464
 20
269.9999934831569
 30
0.0
 11
-232.7941230354464
 21
260.1570095100844
 31
0.0
  0
LINE
  5
14E
  8
0
  6
CONTINUOUS
 62
   253
 10
-144.7941230354466
 20
260.1570095100844
 30
0.0
 11
-144.7941230354466
 21
240.1783974156576
 31
0.0
  0
LINE
  5
14F
  8
0
  6
CONTINUOUS
 62
   253
 10
-188.7941230354464
 20
260.1570095100844
 30
0.0
 11
-188.7941230354464
 21
240.1783974156576
 31
0.0
  0
LINE
  5
150
  8
0
  6
CONTINUOUS
 62
   253
 10
-254.7941230354465
 20
260.1570095100844
 30
0.0
 11
-254.7941230354465
 21
240.1783974156576
 31
0.0
  0
LINE
  5
151
  8
0
  6
CONTINUOUS
 62
   253
 10
-232.7941230354464
 20
260.1570095100844
 30
0.0
 11
-232.7941230354464
 21
240.1783974156576
 31
0.0
  0
LINE
  5
152
  8
0
  6
CONTINUOUS
 62
   253
 10
-213.2058769706002
 20
299.8215897573511
 30
0.0
 11
-213.2058769706002
 21
312.4768313261644
 31
0.0
  0
LINE
  5
153
  8
0
  6
CONTINUOUS
 62
   253
 10
-235.2058769706002
 20
299.8215897573511
 30
0.0
 11
-235.2058769706002
 21
312.4768313261644
 31
0.0
  0
LINE
  5
154
  8
0
  6
CONTINUOUS
 62
   253
 10
-125.2058769706001
 20
299.8215897573511
 30
0.0
 11
-125.2058769706001
 21
312.4768313261644
 31
0.0
  0
LINE
  5
155
  8
0
  6
CONTINUOUS
 62
   253
 10
-147.2058769706002
 20
299.8215897573511
 30
0.0
 11
-147.2058769706002
 21
312.4768313261644
 31
0.0
  0
LINE
  5
156
  8
0
  6
CONTINUOUS
 62
   253
 10
-191.2058769706002
 20
299.8215897573511
 30
0.0
 11
-191.2058769706002
 21
312.4768313261644
 31
0.0
  0
LINE
  5
157
  8
0
  6
CONTINUOUS
 62
   253
 10
-169.2058769706002
 20
299.8215897573511
 30
0.0
 11
-169.2058769706002
 21
312.4768313261644
 31
0.0
  0
LINE
  5
158
  8
0
  6
CONTINUOUS
 62
   253
 10
-254.7941230354465
 20
299.8215897572856
 30
0.0
 11
-254.7941230354465
 21
312.4768313236652
 31
0.0
  0
LINE
  5
159
  8
0
  6
CONTINUOUS
 62
   253
 10
-188.7941230354464
 20
299.8215897572856
 30
0.0
 11
-188.7941230354464
 21
312.4768313236652
 31
0.0
  0
LINE
  5
15A
  8
0
  6
CONTINUOUS
 62
   253
 10
-232.7941230354464
 20
299.8215897572856
 30
0.0
 11
-232.7941230354464
 21
312.4768313236652
 31
0.0
  0
LINE
  5
15B
  8
0
  6
CONTINUOUS
 62
   253
 10
-144.7941230354466
 20
299.8215897572856
 30
0.0
 11
-144.7941230354466
 21
312.4768313236652
 31
0.0
  0
LINE
  5
15C
  8
0
  6
CONTINUOUS
 62
   253
 10
-210.7941230354464
 20
299.8215897572856
 30
0.0
 11
-210.7941230354464
 21
312.4768313236652
 31
0.0
  0
LINE
  5
15D
  8
0
  6
CONTINUOUS
 62
   253
 10
-166.7941230354464
 20
299.8215897572856
 30
0.0
 11
-166.7941230354464
 21
312.4768313236652
 31
0.0
  0
LINE
  5
15E
  8
0
  6
CONTINUOUS
 62
   253
 10
-235.2058769706002
 20
240.1783974155924
 30
0.0
 11
-235.2058769706002
 21
227.5231608450967
 31
0.0
  0
LINE
  5
15F
  8
0
  6
CONTINUOUS
 62
   253
 10
-213.2058769706002
 20
240.1783974155924
 30
0.0
 11
-213.2058769706002
 21
227.5231608450967
 31
0.0
  0
LINE
  5
160
  8
0
  6
CONTINUOUS
 62
   253
 10
-169.2058769706002
 20
240.1783974155924
 30
0.0
 11
-169.2058769706002
 21
227.5231608450967
 31
0.0
  0
LINE
  5
161
  8
0
  6
CONTINUOUS
 62
   253
 10
-191.2058769706002
 20
240.1783974155924
 30
0.0
 11
-191.2058769706002
 21
227.5231608450967
 31
0.0
  0
LINE
  5
162
  8
0
  6
CONTINUOUS
 62
   253
 10
-125.2058769706001
 20
240.1783974155924
 30
0.0
 11
-125.2058769706001
 21
227.5231608450967
 31
0.0
  0
LINE
  5
163
  8
0
  6
CONTINUOUS
 62
   253
 10
-147.2058769706002
 20
240.1783974155924
 30
0.0
 11
-147.2058769706002
 21
227.5231608450967
 31
0.0
  0
LINE
  5
164
  8
0
  6
CONTINUOUS
 62
   253
 10
-144.7941230354466
 20
240.1783974156576
 30
0.0
 11
-144.7941230354466
 21
227.523160847596
 31
0.0
  0
LINE
  5
165
  8
0
  6
CONTINUOUS
 62
   253
 10
-232.7941230354464
 20
240.1783974156576
 30
0.0
 11
-232.7941230354464
 21
227.523160847596
 31
0.0
  0
LINE
  5
166
  8
0
  6
CONTINUOUS
 62
   253
 10
-254.7941230354465
 20
240.1783974156576
 30
0.0
 11
-254.7941230354465
 21
227.523160847596
 31
0.0
  0
LINE
  5
167
  8
0
  6
CONTINUOUS
 62
   253
 10
-210.7941230354464
 20
240.1783974156576
 30
0.0
 11
-210.7941230354464
 21
227.523160847596
 31
0.0
  0
LINE
  5
168
  8
0
  6
CONTINUOUS
 62
   253
 10
-166.7941230354464
 20
240.1783974156576
 30
0.0
 11
-166.7941230354464
 21
227.523160847596
 31
0.0
  0
LINE
  5
169
  8
0
  6
CONTINUOUS
 62
   253
 10
-188.7941230354464
 20
240.1783974156576
 30
0.0
 11
-188.7941230354464
 21
227.523160847596
 31
0.0
  0
LINE
  5
16A
  8
0
  6
CONTINUOUS
 62
     7
 10
-256.0000000000002
 20
269.9999934831569
 30
0.0
 11
-256.0000000000002
 21
279.8429774562629
 31
0.0
  0
LINE
  5
16B
  8
0
  6
CONTINUOUS
 62
     7
 10
-256.0000000000002
 20
269.9999934831569
 30
0.0
 11
-256.0000000000002
 21
260.1570095100516
 31
0.0
  0
LINE
  5
16C
  8
0
  6
CONTINUOUS
 62
     7
 10
-124.0000000000001
 20
269.9999934831564
 30
0.0
 11
-124.0000000000001
 21
260.1570095100516
 31
0.0
  0
LINE
  5
16D
  8
0
  6
CONTINUOUS
 62
     7
 10
-124.0000000000001
 20
269.9999934831564
 30
0.0
 11
-124.0000000000001
 21
279.8429774562629
 31
0.0
  0
LINE
  5
16E
  8
0
  6
CONTINUOUS
 62
     7
 10
-256.0000000000002
 20
279.8429774562629
 30
0.0
 11
-256.0000000000002
 21
299.8215897573511
 31
0.0
  0
LINE
  5
16F
  8
0
  6
CONTINUOUS
 62
     7
 10
-124.0000000000001
 20
279.8429774562629
 30
0.0
 11
-124.0000000000001
 21
299.8215897573511
 31
0.0
  0
LINE
  5
170
  8
0
  6
CONTINUOUS
 62
     7
 10
-256.0000000000002
 20
260.1570095100516
 30
0.0
 11
-256.0000000000002
 21
240.1783974155924
 31
0.0
  0
LINE
  5
171
  8
0
  6
CONTINUOUS
 62
     7
 10
-124.0000000000001
 20
260.1570095100516
 30
0.0
 11
-124.0000000000001
 21
240.1783974155924
 31
0.0
  0
LINE
  5
172
  8
0
  6
CONTINUOUS
 62
     7
 10
-256.0000000000002
 20
299.8215897573511
 30
0.0
 11
-256.0000000000002
 21
312.4768313261644
 31
0.0
  0
LINE
  5
173
  8
0
  6
CONTINUOUS
 62
     7
 10
-124.0000000000001
 20
299.8215897573511
 30
0.0
 11
-124.0000000000001
 21
312.4768313261644
 31
0.0
  0
LINE
  5
174
  8
0
  6
CONTINUOUS
 62
     7
 10
-256.0000000000002
 20
240.1783974155924
 30
0.0
 11
-256.0000000000002
 21
227.5231608450967
 31
0.0
  0
LINE
  5
175
  8
0
  6
CONTINUOUS
 62
     7
 10
-124.0000000000001
 20
240.1783974155924
 30
0.0
 11
-124.0000000000001
 21
227.5231608450967
 31
0.0
  0
LINE
  5
176
  8
0
  6
CONTINUOUS
 62
     7
 10
-219.5172988935001
 20
324.9999931009968
 30
0.0
 11
-226.4827011064003
 21
324.9999931010968
 31
0.0
  0
LINE
  5
177
  8
0
  6
CONTINUOUS
 62
   253
 10
-251.4371243654416
 20
321.9945132007016
 30
0.0
 11
-251.4371243654725
 21
322.5209376276652
 31
0.0
  0
LINE
  5
178
  8
0
  6
CONTINUOUS
 62
     7
 10
-248.4827011064001
 20
324.9999931010968
 30
0.0
 11
-248.6068202272269
 21
324.9974244087009
 31
0.0
  0
LINE
  5
179
  8
0
  6
CONTINUOUS
 62
     7
 10
-248.6068202272269
 20
324.9974244087009
 30
0.0
 11
-248.7309393480537
 21
324.9897050897709
 31
0.0
  0
LINE
  5
17A
  8
0
  6
CONTINUOUS
 62
     7
 10
-248.7309393480537
 20
324.9897050897709
 30
0.0
 11
-248.8552745755035
 21
324.9767680354448
 31
0.0
  0
LINE
  5
17B
  8
0
  6
CONTINUOUS
 62
     7
 10
-248.8552745755035
 20
324.9767680354448
 30
0.0
 11
-248.9791775897068
 21
324.9586264174932
 31
0.0
  0
LINE
  5
17C
  8
0
  6
CONTINUOUS
 62
     7
 10
-248.9791775897068
 20
324.9586264174932
 30
0.0
 11
-249.1011591507146
 21
324.9355526127476
 31
0.0
  0
LINE
  5
17D
  8
0
  6
CONTINUOUS
 62
     7
 10
-249.1011591507146
 20
324.9355526127476
 30
0.0
 11
-249.2226017786341
 21
324.9073183802836
 31
0.0
  0
LINE
  5
17E
  8
0
  6
CONTINUOUS
 62
     7
 10
-249.2226017786341
 20
324.9073183802836
 30
0.0
 11
-249.3427667420835
 21
324.8740646208133
 31
0.0
  0
LINE
  5
17F
  8
0
  6
CONTINUOUS
 62
     7
 10
-249.3427667420835
 20
324.8740646208133
 30
0.0
 11
-249.4619576173318
 21
324.8356688024751
 31
0.0
  0
LINE
  5
180
  8
0
  6
CONTINUOUS
 62
     7
 10
-249.4619576173318
 20
324.8356688024751
 30
0.0
 11
-249.5784378813357
 21
324.7927266933071
 31
0.0
  0
LINE
  5
181
  8
0
  6
CONTINUOUS
 62
     7
 10
-249.5784378813357
 20
324.7927266933071
 30
0.0
 11
-249.6935325305989
 21
324.7447846313273
 31
0.0
  0
LINE
  5
182
  8
0
  6
CONTINUOUS
 62
     7
 10
-249.6935325305989
 20
324.7447846313273
 30
0.0
 11
-249.8065363834965
 21
324.6921038259424
 31
0.0
  0
LINE
  5
183
  8
0
  6
CONTINUOUS
 62
     7
 10
-249.8065363834965
 20
324.6921038259424
 30
0.0
 11
-249.917728540485
 21
324.634513220292
 31
0.0
  0
LINE
  5
184
  8
0
  6
CONTINUOUS
 62
     7
 10
-249.917728540485
 20
324.634513220292
 30
0.0
 11
-250.0254951242298
 21
324.572887699184
 31
0.0
  0
LINE
  5
185
  8
0
  6
CONTINUOUS
 62
     7
 10
-250.0254951242298
 20
324.572887699184
 30
0.0
 11
-250.1310677100801
 21
324.5065606386509
 31
0.0
  0
LINE
  5
186
  8
0
  6
CONTINUOUS
 62
     7
 10
-250.1310677100801
 20
324.5065606386509
 30
0.0
 11
-250.2337941251409
 21
324.4359063246357
 31
0.0
  0
LINE
  5
187
  8
0
  6
CONTINUOUS
 62
     7
 10
-250.2337941251409
 20
324.4359063246357
 30
0.0
 11
-250.3339212979168
 21
324.360709897902
 31
0.0
  0
LINE
  5
188
  8
0
  6
CONTINUOUS
 62
     7
 10
-250.3339212979168
 20
324.360709897902
 30
0.0
 11
-250.4300025138297
 21
324.2821011660561
 31
0.0
  0
LINE
  5
189
  8
0
  6
CONTINUOUS
 62
     7
 10
-250.4300025138297
 20
324.2821011660561
 30
0.0
 11
-250.5231419581893
 21
324.1992189669881
 31
0.0
  0
LINE
  5
18A
  8
0
  6
CONTINUOUS
 62
     7
 10
-250.5231419581893
 20
324.1992189669881
 30
0.0
 11
-250.612758448431
 21
324.1125403100292
 31
0.0
  0
LINE
  5
18B
  8
0
  6
CONTINUOUS
 62
     7
 10
-250.612758448431
 20
324.1125403100292
 30
0.0
 11
-250.6990599348309
 21
324.0218124633081
 31
0.0
  0
LINE
  5
18C
  8
0
  6
CONTINUOUS
 62
     7
 10
-250.6990599348309
 20
324.0218124633081
 30
0.0
 11
-250.7808067383834
 21
323.9283889353497
 31
0.0
  0
LINE
  5
18D
  8
0
  6
CONTINUOUS
 62
     7
 10
-250.7808067383834
 20
323.9283889353497
 30
0.0
 11
-250.8589452191574
 21
323.8312378129332
 31
0.0
  0
LINE
  5
18E
  8
0
  6
CONTINUOUS
 62
     7
 10
-250.8589452191574
 20
323.8312378129332
 30
0.0
 11
-250.9329811938235
 21
323.7309256479688
 31
0.0
  0
LINE
  5
18F
  8
0
  6
CONTINUOUS
 62
     7
 10
-250.9329811938235
 20
323.7309256479688
 30
0.0
 11
-251.0030779050238
 21
323.6271688080844
 31
0.0
  0
LINE
  5
190
  8
0
  6
CONTINUOUS
 62
     7
 10
-251.0030779050238
 20
323.6271688080844
 30
0.0
 11
-251.0682368434116
 21
323.5215071302812
 31
0.0
  0
LINE
  5
191
  8
0
  6
CONTINUOUS
 62
     7
 10
-251.0682368434116
 20
323.5215071302812
 30
0.0
 11
-251.1292204784217
 21
323.4127664346772
 31
0.0
  0
LINE
  5
192
  8
0
  6
CONTINUOUS
 62
     7
 10
-251.1292204784217
 20
323.4127664346772
 30
0.0
 11
-251.1856352249366
 21
323.3015871773824
 31
0.0
  0
LINE
  5
193
  8
0
  6
CONTINUOUS
 62
     7
 10
-251.1856352249366
 20
323.3015871773824
 30
0.0
 11
-251.2375951222312
 21
323.1876626470601
 31
0.0
  0
LINE
  5
194
  8
0
  6
CONTINUOUS
 62
     7
 10
-251.2375951222312
 20
323.1876626470601
 30
0.0
 11
-251.2706725046449
 21
323.107789978028
 31
0.0
  0
LINE
  5
195
  8
0
  6
CONTINUOUS
 62
     7
 10
-251.2706725046449
 20
323.107789978028
 30
0.0
 11
-251.3014351371703
 21
323.0269977034732
 31
0.0
  0
LINE
  5
196
  8
0
  6
CONTINUOUS
 62
     7
 10
-251.3014351371703
 20
323.0269977034732
 30
0.0
 11
-251.3299475232986
 21
322.9450784197076
 31
0.0
  0
LINE
  5
197
  8
0
  6
CONTINUOUS
 62
     7
 10
-251.3299475232986
 20
322.9450784197076
 30
0.0
 11
-251.356080158363
 21
322.8623693613288
 31
0.0
  0
LINE
  5
198
  8
0
  6
CONTINUOUS
 62
     7
 10
-251.356080158363
 20
322.8623693613288
 30
0.0
 11
-251.3800404528557
 21
322.7780824695661
 31
0.0
  0
LINE
  5
199
  8
0
  6
CONTINUOUS
 62
     7
 10
-251.3800404528557
 20
322.7780824695661
 30
0.0
 11
-251.401529375241
 21
322.6931319968093
 31
0.0
  0
LINE
  5
19A
  8
0
  6
CONTINUOUS
 62
     7
 10
-251.401529375241
 20
322.6931319968093
 30
0.0
 11
-251.4205884532619
 21
322.6072955544676
 31
0.0
  0
LINE
  5
19B
  8
0
  6
CONTINUOUS
 62
     7
 10
-251.4205884532619
 20
322.6072955544676
 30
0.0
 11
-251.4371243654725
 21
322.5209376276652
 31
0.0
  0
LINE
  5
19C
  8
0
  6
CONTINUOUS
 62
     7
 10
-197.5172988935006
 20
324.9999931009968
 30
0.0
 11
-204.4827011064003
 21
324.9999931010968
 31
0.0
  0
LINE
  5
19D
  8
0
  6
CONTINUOUS
 62
   253
 10
-229.4371243654418
 20
321.9945132007016
 30
0.0
 11
-229.4371243654725
 21
322.5209376276652
 31
0.0
  0
LINE
  5
19E
  8
0
  6
CONTINUOUS
 62
     7
 10
-226.4827011064003
 20
324.9999931010968
 30
0.0
 11
-226.6068202272269
 21
324.9974244087009
 31
0.0
  0
LINE
  5
19F
  8
0
  6
CONTINUOUS
 62
     7
 10
-226.6068202272269
 20
324.9974244087009
 30
0.0
 11
-226.7309393480534
 21
324.9897050897709
 31
0.0
  0
LINE
  5
1A0
  8
0
  6
CONTINUOUS
 62
     7
 10
-226.7309393480534
 20
324.9897050897709
 30
0.0
 11
-226.8552745755035
 21
324.9767680354448
 31
0.0
  0
LINE
  5
1A1
  8
0
  6
CONTINUOUS
 62
     7
 10
-226.8552745755035
 20
324.9767680354448
 30
0.0
 11
-226.9791775897065
 21
324.9586264174932
 31
0.0
  0
LINE
  5
1A2
  8
0
  6
CONTINUOUS
 62
     7
 10
-226.9791775897065
 20
324.9586264174932
 30
0.0
 11
-227.1011591507146
 21
324.9355526127476
 31
0.0
  0
LINE
  5
1A3
  8
0
  6
CONTINUOUS
 62
     7
 10
-227.1011591507146
 20
324.9355526127476
 30
0.0
 11
-227.2226017786343
 21
324.9073183802836
 31
0.0
  0
LINE
  5
1A4
  8
0
  6
CONTINUOUS
 62
     7
 10
-227.2226017786343
 20
324.9073183802836
 30
0.0
 11
-227.3427667420835
 21
324.8740646208133
 31
0.0
  0
LINE
  5
1A5
  8
0
  6
CONTINUOUS
 62
     7
 10
-227.3427667420835
 20
324.8740646208133
 30
0.0
 11
-227.4619576173318
 21
324.8356688024751
 31
0.0
  0
LINE
  5
1A6
  8
0
  6
CONTINUOUS
 62
     7
 10
-227.4619576173318
 20
324.8356688024751
 30
0.0
 11
-227.5784378813357
 21
324.7927266933071
 31
0.0
  0
LINE
  5
1A7
  8
0
  6
CONTINUOUS
 62
     7
 10
-227.5784378813357
 20
324.7927266933071
 30
0.0
 11
-227.6935325305989
 21
324.7447846313273
 31
0.0
  0
LINE
  5
1A8
  8
0
  6
CONTINUOUS
 62
     7
 10
-227.6935325305989
 20
324.7447846313273
 30
0.0
 11
-227.8065363834967
 21
324.6921038259424
 31
0.0
  0
LINE
  5
1A9
  8
0
  6
CONTINUOUS
 62
     7
 10
-227.8065363834967
 20
324.6921038259424
 30
0.0
 11
-227.917728540485
 21
324.634513220292
 31
0.0
  0
LINE
  5
1AA
  8
0
  6
CONTINUOUS
 62
     7
 10
-227.917728540485
 20
324.634513220292
 30
0.0
 11
-228.0254951242298
 21
324.572887699184
 31
0.0
  0
LINE
  5
1AB
  8
0
  6
CONTINUOUS
 62
     7
 10
-228.0254951242298
 20
324.572887699184
 30
0.0
 11
-228.1310677100803
 21
324.5065606386509
 31
0.0
  0
LINE
  5
1AC
  8
0
  6
CONTINUOUS
 62
     7
 10
-228.1310677100803
 20
324.5065606386509
 30
0.0
 11
-228.2337941251413
 21
324.4359063246357
 31
0.0
  0
LINE
  5
1AD
  8
0
  6
CONTINUOUS
 62
     7
 10
-228.2337941251413
 20
324.4359063246357
 30
0.0
 11
-228.3339212979167
 21
324.360709897902
 31
0.0
  0
LINE
  5
1AE
  8
0
  6
CONTINUOUS
 62
     7
 10
-228.3339212979167
 20
324.360709897902
 30
0.0
 11
-228.4300025138297
 21
324.2821011660561
 31
0.0
  0
LINE
  5
1AF
  8
0
  6
CONTINUOUS
 62
     7
 10
-228.4300025138297
 20
324.2821011660561
 30
0.0
 11
-228.5231419581892
 21
324.1992189669881
 31
0.0
  0
LINE
  5
1B0
  8
0
  6
CONTINUOUS
 62
     7
 10
-228.5231419581892
 20
324.1992189669881
 30
0.0
 11
-228.612758448431
 21
324.1125403100292
 31
0.0
  0
LINE
  5
1B1
  8
0
  6
CONTINUOUS
 62
     7
 10
-228.612758448431
 20
324.1125403100292
 30
0.0
 11
-228.6990599348309
 21
324.0218124633081
 31
0.0
  0
LINE
  5
1B2
  8
0
  6
CONTINUOUS
 62
     7
 10
-228.6990599348309
 20
324.0218124633081
 30
0.0
 11
-228.7808067383834
 21
323.9283889353497
 31
0.0
  0
LINE
  5
1B3
  8
0
  6
CONTINUOUS
 62
     7
 10
-228.7808067383834
 20
323.9283889353497
 30
0.0
 11
-228.8589452191574
 21
323.8312378129332
 31
0.0
  0
LINE
  5
1B4
  8
0
  6
CONTINUOUS
 62
     7
 10
-228.8589452191574
 20
323.8312378129332
 30
0.0
 11
-228.9329811938234
 21
323.7309256479688
 31
0.0
  0
LINE
  5
1B5
  8
0
  6
CONTINUOUS
 62
     7
 10
-228.9329811938234
 20
323.7309256479688
 30
0.0
 11
-229.0030779050238
 21
323.6271688080844
 31
0.0
  0
LINE
  5
1B6
  8
0
  6
CONTINUOUS
 62
     7
 10
-229.0030779050238
 20
323.6271688080844
 30
0.0
 11
-229.0682368434116
 21
323.5215071302812
 31
0.0
  0
LINE
  5
1B7
  8
0
  6
CONTINUOUS
 62
     7
 10
-229.0682368434116
 20
323.5215071302812
 30
0.0
 11
-229.1292204784216
 21
323.4127664346772
 31
0.0
  0
LINE
  5
1B8
  8
0
  6
CONTINUOUS
 62
     7
 10
-229.1292204784216
 20
323.4127664346772
 30
0.0
 11
-229.1856352249366
 21
323.3015871773824
 31
0.0
  0
LINE
  5
1B9
  8
0
  6
CONTINUOUS
 62
     7
 10
-229.1856352249366
 20
323.3015871773824
 30
0.0
 11
-229.2375951222312
 21
323.1876626470601
 31
0.0
  0
LINE
  5
1BA
  8
0
  6
CONTINUOUS
 62
     7
 10
-229.2375951222312
 20
323.1876626470601
 30
0.0
 11
-229.2706725046449
 21
323.107789978028
 31
0.0
  0
LINE
  5
1BB
  8
0
  6
CONTINUOUS
 62
     7
 10
-229.2706725046449
 20
323.107789978028
 30
0.0
 11
-229.3014351371703
 21
323.0269977034732
 31
0.0
  0
LINE
  5
1BC
  8
0
  6
CONTINUOUS
 62
     7
 10
-229.3014351371703
 20
323.0269977034732
 30
0.0
 11
-229.3299475232986
 21
322.9450784197076
 31
0.0
  0
LINE
  5
1BD
  8
0
  6
CONTINUOUS
 62
     7
 10
-229.3299475232986
 20
322.9450784197076
 30
0.0
 11
-229.3560801583629
 21
322.8623693613288
 31
0.0
  0
LINE
  5
1BE
  8
0
  6
CONTINUOUS
 62
     7
 10
-229.3560801583629
 20
322.8623693613288
 30
0.0
 11
-229.3800404528556
 21
322.7780824695661
 31
0.0
  0
LINE
  5
1BF
  8
0
  6
CONTINUOUS
 62
     7
 10
-229.3800404528556
 20
322.7780824695661
 30
0.0
 11
-229.4015293752409
 21
322.6931319968093
 31
0.0
  0
LINE
  5
1C0
  8
0
  6
CONTINUOUS
 62
     7
 10
-229.4015293752409
 20
322.6931319968093
 30
0.0
 11
-229.4205884532618
 21
322.6072955544676
 31
0.0
  0
LINE
  5
1C1
  8
0
  6
CONTINUOUS
 62
     7
 10
-229.4205884532618
 20
322.6072955544676
 30
0.0
 11
-229.4371243654725
 21
322.5209376276652
 31
0.0
  0
LINE
  5
1C2
  8
0
  6
CONTINUOUS
 62
     7
 10
-131.5172988935001
 20
324.9999931009968
 30
0.0
 11
-138.4827011064
 21
324.9999931010968
 31
0.0
  0
LINE
  5
1C3
  8
0
  6
CONTINUOUS
 62
     7
 10
-175.5172988935003
 20
324.9999931009968
 30
0.0
 11
-182.4827011064003
 21
324.9999931010968
 31
0.0
  0
LINE
  5
1C4
  8
0
  6
CONTINUOUS
 62
   253
 10
-163.4371243654422
 20
321.9945132007016
 30
0.0
 11
-163.4371243654724
 21
322.5209376276652
 31
0.0
  0
LINE
  5
1C5
  8
0
  6
CONTINUOUS
 62
     7
 10
-160.4827011064003
 20
324.9999931010968
 30
0.0
 11
-160.6068202272268
 21
324.9974244087009
 31
0.0
  0
LINE
  5
1C6
  8
0
  6
CONTINUOUS
 62
     7
 10
-160.6068202272268
 20
324.9974244087009
 30
0.0
 11
-160.7309393480534
 21
324.9897050897709
 31
0.0
  0
LINE
  5
1C7
  8
0
  6
CONTINUOUS
 62
     7
 10
-160.7309393480534
 20
324.9897050897709
 30
0.0
 11
-160.8552745755034
 21
324.9767680354448
 31
0.0
  0
LINE
  5
1C8
  8
0
  6
CONTINUOUS
 62
     7
 10
-160.8552745755034
 20
324.9767680354448
 30
0.0
 11
-160.9791775897065
 21
324.9586264174932
 31
0.0
  0
LINE
  5
1C9
  8
0
  6
CONTINUOUS
 62
     7
 10
-160.9791775897065
 20
324.9586264174932
 30
0.0
 11
-161.1011591507148
 21
324.9355526127476
 31
0.0
  0
LINE
  5
1CA
  8
0
  6
CONTINUOUS
 62
     7
 10
-161.1011591507148
 20
324.9355526127476
 30
0.0
 11
-161.2226017786338
 21
324.9073183802836
 31
0.0
  0
LINE
  5
1CB
  8
0
  6
CONTINUOUS
 62
     7
 10
-161.2226017786338
 20
324.9073183802836
 30
0.0
 11
-161.3427667420835
 21
324.8740646208133
 31
0.0
  0
LINE
  5
1CC
  8
0
  6
CONTINUOUS
 62
     7
 10
-161.3427667420835
 20
324.8740646208133
 30
0.0
 11
-161.4619576173317
 21
324.8356688024751
 31
0.0
  0
LINE
  5
1CD
  8
0
  6
CONTINUOUS
 62
     7
 10
-161.4619576173317
 20
324.8356688024751
 30
0.0
 11
-161.5784378813356
 21
324.7927266933071
 31
0.0
  0
LINE
  5
1CE
  8
0
  6
CONTINUOUS
 62
     7
 10
-161.5784378813356
 20
324.7927266933071
 30
0.0
 11
-161.6935325305988
 21
324.7447846313273
 31
0.0
  0
LINE
  5
1CF
  8
0
  6
CONTINUOUS
 62
     7
 10
-161.6935325305988
 20
324.7447846313273
 30
0.0
 11
-161.8065363834966
 21
324.6921038259424
 31
0.0
  0
LINE
  5
1D0
  8
0
  6
CONTINUOUS
 62
     7
 10
-161.8065363834966
 20
324.6921038259424
 30
0.0
 11
-161.9177285404849
 21
324.634513220292
 31
0.0
  0
LINE
  5
1D1
  8
0
  6
CONTINUOUS
 62
     7
 10
-161.9177285404849
 20
324.634513220292
 30
0.0
 11
-162.0254951242297
 21
324.572887699184
 31
0.0
  0
LINE
  5
1D2
  8
0
  6
CONTINUOUS
 62
     7
 10
-162.0254951242297
 20
324.572887699184
 30
0.0
 11
-162.1310677100802
 21
324.5065606386509
 31
0.0
  0
LINE
  5
1D3
  8
0
  6
CONTINUOUS
 62
     7
 10
-162.1310677100802
 20
324.5065606386509
 30
0.0
 11
-162.2337941251413
 21
324.4359063246357
 31
0.0
  0
LINE
  5
1D4
  8
0
  6
CONTINUOUS
 62
     7
 10
-162.2337941251413
 20
324.4359063246357
 30
0.0
 11
-162.3339212979167
 21
324.360709897902
 31
0.0
  0
LINE
  5
1D5
  8
0
  6
CONTINUOUS
 62
     7
 10
-162.3339212979167
 20
324.360709897902
 30
0.0
 11
-162.4300025138297
 21
324.2821011660561
 31
0.0
  0
LINE
  5
1D6
  8
0
  6
CONTINUOUS
 62
     7
 10
-162.4300025138297
 20
324.2821011660561
 30
0.0
 11
-162.5231419581894
 21
324.1992189669881
 31
0.0
  0
LINE
  5
1D7
  8
0
  6
CONTINUOUS
 62
     7
 10
-162.5231419581894
 20
324.1992189669881
 30
0.0
 11
-162.6127584484309
 21
324.1125403100292
 31
0.0
  0
LINE
  5
1D8
  8
0
  6
CONTINUOUS
 62
     7
 10
-162.6127584484309
 20
324.1125403100292
 30
0.0
 11
-162.6990599348308
 21
324.0218124633081
 31
0.0
  0
LINE
  5
1D9
  8
0
  6
CONTINUOUS
 62
     7
 10
-162.6990599348308
 20
324.0218124633081
 30
0.0
 11
-162.7808067383833
 21
323.9283889353497
 31
0.0
  0
LINE
  5
1DA
  8
0
  6
CONTINUOUS
 62
     7
 10
-162.7808067383833
 20
323.9283889353497
 30
0.0
 11
-162.8589452191573
 21
323.8312378129332
 31
0.0
  0
LINE
  5
1DB
  8
0
  6
CONTINUOUS
 62
     7
 10
-162.8589452191573
 20
323.8312378129332
 30
0.0
 11
-162.9329811938234
 21
323.7309256479688
 31
0.0
  0
LINE
  5
1DC
  8
0
  6
CONTINUOUS
 62
     7
 10
-162.9329811938234
 20
323.7309256479688
 30
0.0
 11
-163.0030779050238
 21
323.6271688080844
 31
0.0
  0
LINE
  5
1DD
  8
0
  6
CONTINUOUS
 62
     7
 10
-163.0030779050238
 20
323.6271688080844
 30
0.0
 11
-163.0682368434118
 21
323.5215071302812
 31
0.0
  0
LINE
  5
1DE
  8
0
  6
CONTINUOUS
 62
     7
 10
-163.0682368434118
 20
323.5215071302812
 30
0.0
 11
-163.1292204784216
 21
323.4127664346772
 31
0.0
  0
LINE
  5
1DF
  8
0
  6
CONTINUOUS
 62
     7
 10
-163.1292204784216
 20
323.4127664346772
 30
0.0
 11
-163.1856352249366
 21
323.3015871773824
 31
0.0
  0
LINE
  5
1E0
  8
0
  6
CONTINUOUS
 62
     7
 10
-163.1856352249366
 20
323.3015871773824
 30
0.0
 11
-163.2375951222313
 21
323.1876626470601
 31
0.0
  0
LINE
  5
1E1
  8
0
  6
CONTINUOUS
 62
     7
 10
-163.2375951222313
 20
323.1876626470601
 30
0.0
 11
-163.2706725046449
 21
323.107789978028
 31
0.0
  0
LINE
  5
1E2
  8
0
  6
CONTINUOUS
 62
     7
 10
-163.2706725046449
 20
323.107789978028
 30
0.0
 11
-163.3014351371702
 21
323.0269977034732
 31
0.0
  0
LINE
  5
1E3
  8
0
  6
CONTINUOUS
 62
     7
 10
-163.3014351371702
 20
323.0269977034732
 30
0.0
 11
-163.3299475232986
 21
322.9450784197076
 31
0.0
  0
LINE
  5
1E4
  8
0
  6
CONTINUOUS
 62
     7
 10
-163.3299475232986
 20
322.9450784197076
 30
0.0
 11
-163.3560801583629
 21
322.8623693613288
 31
0.0
  0
LINE
  5
1E5
  8
0
  6
CONTINUOUS
 62
     7
 10
-163.3560801583629
 20
322.8623693613288
 30
0.0
 11
-163.3800404528554
 21
322.7780824695661
 31
0.0
  0
LINE
  5
1E6
  8
0
  6
CONTINUOUS
 62
     7
 10
-163.3800404528554
 20
322.7780824695661
 30
0.0
 11
-163.4015293752411
 21
322.6931319968093
 31
0.0
  0
LINE
  5
1E7
  8
0
  6
CONTINUOUS
 62
     7
 10
-163.4015293752411
 20
322.6931319968093
 30
0.0
 11
-163.4205884532618
 21
322.6072955544676
 31
0.0
  0
LINE
  5
1E8
  8
0
  6
CONTINUOUS
 62
     7
 10
-163.4205884532618
 20
322.6072955544676
 30
0.0
 11
-163.4371243654724
 21
322.5209376276652
 31
0.0
  0
LINE
  5
1E9
  8
0
  6
CONTINUOUS
 62
     7
 10
-241.5172988935001
 20
324.9999931009968
 30
0.0
 11
-248.4827011064001
 21
324.9999931010968
 31
0.0
  0
LINE
  5
1EA
  8
0
  6
CONTINUOUS
 62
   253
 10
-141.437124365442
 20
321.9945132007016
 30
0.0
 11
-141.4371243654726
 21
322.5209376276652
 31
0.0
  0
LINE
  5
1EB
  8
0
  6
CONTINUOUS
 62
     7
 10
-138.4827011064
 20
324.9999931010968
 30
0.0
 11
-138.6068202272268
 21
324.9974244087009
 31
0.0
  0
LINE
  5
1EC
  8
0
  6
CONTINUOUS
 62
     7
 10
-138.6068202272268
 20
324.9974244087009
 30
0.0
 11
-138.7309393480538
 21
324.9897050897709
 31
0.0
  0
LINE
  5
1ED
  8
0
  6
CONTINUOUS
 62
     7
 10
-138.7309393480538
 20
324.9897050897709
 30
0.0
 11
-138.8552745755034
 21
324.9767680354448
 31
0.0
  0
LINE
  5
1EE
  8
0
  6
CONTINUOUS
 62
     7
 10
-138.8552745755034
 20
324.9767680354448
 30
0.0
 11
-138.9791775897065
 21
324.9586264174932
 31
0.0
  0
LINE
  5
1EF
  8
0
  6
CONTINUOUS
 62
     7
 10
-138.9791775897065
 20
324.9586264174932
 30
0.0
 11
-139.1011591507145
 21
324.9355526127476
 31
0.0
  0
LINE
  5
1F0
  8
0
  6
CONTINUOUS
 62
     7
 10
-139.1011591507145
 20
324.9355526127476
 30
0.0
 11
-139.2226017786338
 21
324.9073183802836
 31
0.0
  0
LINE
  5
1F1
  8
0
  6
CONTINUOUS
 62
     7
 10
-139.2226017786338
 20
324.9073183802836
 30
0.0
 11
-139.3427667420832
 21
324.8740646208133
 31
0.0
  0
LINE
  5
1F2
  8
0
  6
CONTINUOUS
 62
     7
 10
-139.3427667420832
 20
324.8740646208133
 30
0.0
 11
-139.4619576173317
 21
324.8356688024751
 31
0.0
  0
LINE
  5
1F3
  8
0
  6
CONTINUOUS
 62
     7
 10
-139.4619576173317
 20
324.8356688024751
 30
0.0
 11
-139.5784378813358
 21
324.7927266933071
 31
0.0
  0
LINE
  5
1F4
  8
0
  6
CONTINUOUS
 62
     7
 10
-139.5784378813358
 20
324.7927266933071
 30
0.0
 11
-139.6935325305988
 21
324.7447846313273
 31
0.0
  0
LINE
  5
1F5
  8
0
  6
CONTINUOUS
 62
     7
 10
-139.6935325305988
 20
324.7447846313273
 30
0.0
 11
-139.8065363834966
 21
324.6921038259424
 31
0.0
  0
LINE
  5
1F6
  8
0
  6
CONTINUOUS
 62
     7
 10
-139.8065363834966
 20
324.6921038259424
 30
0.0
 11
-139.9177285404849
 21
324.634513220292
 31
0.0
  0
LINE
  5
1F7
  8
0
  6
CONTINUOUS
 62
     7
 10
-139.9177285404849
 20
324.634513220292
 30
0.0
 11
-140.0254951242297
 21
324.572887699184
 31
0.0
  0
LINE
  5
1F8
  8
0
  6
CONTINUOUS
 62
     7
 10
-140.0254951242297
 20
324.572887699184
 30
0.0
 11
-140.13106771008
 21
324.5065606386509
 31
0.0
  0
LINE
  5
1F9
  8
0
  6
CONTINUOUS
 62
     7
 10
-140.13106771008
 20
324.5065606386509
 30
0.0
 11
-140.2337941251408
 21
324.4359063246357
 31
0.0
  0
LINE
  5
1FA
  8
0
  6
CONTINUOUS
 62
     7
 10
-140.2337941251408
 20
324.4359063246357
 30
0.0
 11
-140.3339212979164
 21
324.360709897902
 31
0.0
  0
LINE
  5
1FB
  8
0
  6
CONTINUOUS
 62
     7
 10
-140.3339212979164
 20
324.360709897902
 30
0.0
 11
-140.4300025138296
 21
324.2821011660561
 31
0.0
  0
LINE
  5
1FC
  8
0
  6
CONTINUOUS
 62
     7
 10
-140.4300025138296
 20
324.2821011660561
 30
0.0
 11
-140.5231419581894
 21
324.1992189669881
 31
0.0
  0
LINE
  5
1FD
  8
0
  6
CONTINUOUS
 62
     7
 10
-140.5231419581894
 20
324.1992189669881
 30
0.0
 11
-140.6127584484307
 21
324.1125403100292
 31
0.0
  0
LINE
  5
1FE
  8
0
  6
CONTINUOUS
 62
     7
 10
-140.6127584484307
 20
324.1125403100292
 30
0.0
 11
-140.6990599348308
 21
324.0218124633081
 31
0.0
  0
LINE
  5
1FF
  8
0
  6
CONTINUOUS
 62
     7
 10
-140.6990599348308
 20
324.0218124633081
 30
0.0
 11
-140.7808067383833
 21
323.9283889353497
 31
0.0
  0
LINE
  5
200
  8
0
  6
CONTINUOUS
 62
     7
 10
-140.7808067383833
 20
323.9283889353497
 30
0.0
 11
-140.8589452191569
 21
323.8312378129332
 31
0.0
  0
LINE
  5
201
  8
0
  6
CONTINUOUS
 62
     7
 10
-140.8589452191569
 20
323.8312378129332
 30
0.0
 11
-140.9329811938234
 21
323.7309256479688
 31
0.0
  0
LINE
  5
202
  8
0
  6
CONTINUOUS
 62
     7
 10
-140.9329811938234
 20
323.7309256479688
 30
0.0
 11
-141.0030779050238
 21
323.6271688080844
 31
0.0
  0
LINE
  5
203
  8
0
  6
CONTINUOUS
 62
     7
 10
-141.0030779050238
 20
323.6271688080844
 30
0.0
 11
-141.0682368434117
 21
323.5215071302812
 31
0.0
  0
LINE
  5
204
  8
0
  6
CONTINUOUS
 62
     7
 10
-141.0682368434117
 20
323.5215071302812
 30
0.0
 11
-141.129220478422
 21
323.4127664346772
 31
0.0
  0
LINE
  5
205
  8
0
  6
CONTINUOUS
 62
     7
 10
-141.129220478422
 20
323.4127664346772
 30
0.0
 11
-141.1856352249365
 21
323.3015871773824
 31
0.0
  0
LINE
  5
206
  8
0
  6
CONTINUOUS
 62
     7
 10
-141.1856352249365
 20
323.3015871773824
 30
0.0
 11
-141.2375951222313
 21
323.1876626470601
 31
0.0
  0
LINE
  5
207
  8
0
  6
CONTINUOUS
 62
     7
 10
-141.2375951222313
 20
323.1876626470601
 30
0.0
 11
-141.2706725046449
 21
323.107789978028
 31
0.0
  0
LINE
  5
208
  8
0
  6
CONTINUOUS
 62
     7
 10
-141.2706725046449
 20
323.107789978028
 30
0.0
 11
-141.3014351371702
 21
323.0269977034732
 31
0.0
  0
LINE
  5
209
  8
0
  6
CONTINUOUS
 62
     7
 10
-141.3014351371702
 20
323.0269977034732
 30
0.0
 11
-141.3299475232985
 21
322.9450784197076
 31
0.0
  0
LINE
  5
20A
  8
0
  6
CONTINUOUS
 62
     7
 10
-141.3299475232985
 20
322.9450784197076
 30
0.0
 11
-141.3560801583624
 21
322.8623693613288
 31
0.0
  0
LINE
  5
20B
  8
0
  6
CONTINUOUS
 62
     7
 10
-141.3560801583624
 20
322.8623693613288
 30
0.0
 11
-141.3800404528554
 21
322.7780824695661
 31
0.0
  0
LINE
  5
20C
  8
0
  6
CONTINUOUS
 62
     7
 10
-141.3800404528554
 20
322.7780824695661
 30
0.0
 11
-141.4015293752409
 21
322.6931319968093
 31
0.0
  0
LINE
  5
20D
  8
0
  6
CONTINUOUS
 62
     7
 10
-141.4015293752409
 20
322.6931319968093
 30
0.0
 11
-141.4205884532618
 21
322.6072955544676
 31
0.0
  0
LINE
  5
20E
  8
0
  6
CONTINUOUS
 62
     7
 10
-141.4205884532618
 20
322.6072955544676
 30
0.0
 11
-141.4371243654726
 21
322.5209376276652
 31
0.0
  0
LINE
  5
20F
  8
0
  6
CONTINUOUS
 62
   253
 10
-207.4371243654423
 20
321.9945132007016
 30
0.0
 11
-207.4371243654724
 21
322.5209376276652
 31
0.0
  0
LINE
  5
210
  8
0
  6
CONTINUOUS
 62
     7
 10
-204.4827011064003
 20
324.9999931010968
 30
0.0
 11
-204.6068202272269
 21
324.9974244087009
 31
0.0
  0
LINE
  5
211
  8
0
  6
CONTINUOUS
 62
     7
 10
-204.6068202272269
 20
324.9974244087009
 30
0.0
 11
-204.7309393480534
 21
324.9897050897709
 31
0.0
  0
LINE
  5
212
  8
0
  6
CONTINUOUS
 62
     7
 10
-204.7309393480534
 20
324.9897050897709
 30
0.0
 11
-204.8552745755034
 21
324.9767680354448
 31
0.0
  0
LINE
  5
213
  8
0
  6
CONTINUOUS
 62
     7
 10
-204.8552745755034
 20
324.9767680354448
 30
0.0
 11
-204.9791775897065
 21
324.9586264174932
 31
0.0
  0
LINE
  5
214
  8
0
  6
CONTINUOUS
 62
     7
 10
-204.9791775897065
 20
324.9586264174932
 30
0.0
 11
-205.1011591507146
 21
324.9355526127476
 31
0.0
  0
LINE
  5
215
  8
0
  6
CONTINUOUS
 62
     7
 10
-205.1011591507146
 20
324.9355526127476
 30
0.0
 11
-205.2226017786338
 21
324.9073183802836
 31
0.0
  0
LINE
  5
216
  8
0
  6
CONTINUOUS
 62
     7
 10
-205.2226017786338
 20
324.9073183802836
 30
0.0
 11
-205.3427667420835
 21
324.8740646208133
 31
0.0
  0
LINE
  5
217
  8
0
  6
CONTINUOUS
 62
     7
 10
-205.3427667420835
 20
324.8740646208133
 30
0.0
 11
-205.4619576173318
 21
324.8356688024751
 31
0.0
  0
LINE
  5
218
  8
0
  6
CONTINUOUS
 62
     7
 10
-205.4619576173318
 20
324.8356688024751
 30
0.0
 11
-205.5784378813357
 21
324.7927266933071
 31
0.0
  0
LINE
  5
219
  8
0
  6
CONTINUOUS
 62
     7
 10
-205.5784378813357
 20
324.7927266933071
 30
0.0
 11
-205.6935325305988
 21
324.7447846313273
 31
0.0
  0
LINE
  5
21A
  8
0
  6
CONTINUOUS
 62
     7
 10
-205.6935325305988
 20
324.7447846313273
 30
0.0
 11
-205.8065363834966
 21
324.6921038259424
 31
0.0
  0
LINE
  5
21B
  8
0
  6
CONTINUOUS
 62
     7
 10
-205.8065363834966
 20
324.6921038259424
 30
0.0
 11
-205.9177285404849
 21
324.634513220292
 31
0.0
  0
LINE
  5
21C
  8
0
  6
CONTINUOUS
 62
     7
 10
-205.9177285404849
 20
324.634513220292
 30
0.0
 11
-206.0254951242297
 21
324.572887699184
 31
0.0
  0
LINE
  5
21D
  8
0
  6
CONTINUOUS
 62
     7
 10
-206.0254951242297
 20
324.572887699184
 30
0.0
 11
-206.1310677100803
 21
324.5065606386509
 31
0.0
  0
LINE
  5
21E
  8
0
  6
CONTINUOUS
 62
     7
 10
-206.1310677100803
 20
324.5065606386509
 30
0.0
 11
-206.2337941251413
 21
324.4359063246357
 31
0.0
  0
LINE
  5
21F
  8
0
  6
CONTINUOUS
 62
     7
 10
-206.2337941251413
 20
324.4359063246357
 30
0.0
 11
-206.3339212979167
 21
324.360709897902
 31
0.0
  0
LINE
  5
220
  8
0
  6
CONTINUOUS
 62
     7
 10
-206.3339212979167
 20
324.360709897902
 30
0.0
 11
-206.4300025138297
 21
324.2821011660561
 31
0.0
  0
LINE
  5
221
  8
0
  6
CONTINUOUS
 62
     7
 10
-206.4300025138297
 20
324.2821011660561
 30
0.0
 11
-206.5231419581892
 21
324.1992189669881
 31
0.0
  0
LINE
  5
222
  8
0
  6
CONTINUOUS
 62
     7
 10
-206.5231419581892
 20
324.1992189669881
 30
0.0
 11
-206.612758448431
 21
324.1125403100292
 31
0.0
  0
LINE
  5
223
  8
0
  6
CONTINUOUS
 62
     7
 10
-206.612758448431
 20
324.1125403100292
 30
0.0
 11
-206.6990599348308
 21
324.0218124633081
 31
0.0
  0
LINE
  5
224
  8
0
  6
CONTINUOUS
 62
     7
 10
-206.6990599348308
 20
324.0218124633081
 30
0.0
 11
-206.7808067383834
 21
323.9283889353497
 31
0.0
  0
LINE
  5
225
  8
0
  6
CONTINUOUS
 62
     7
 10
-206.7808067383834
 20
323.9283889353497
 30
0.0
 11
-206.8589452191574
 21
323.8312378129332
 31
0.0
  0
LINE
  5
226
  8
0
  6
CONTINUOUS
 62
     7
 10
-206.8589452191574
 20
323.8312378129332
 30
0.0
 11
-206.9329811938234
 21
323.7309256479688
 31
0.0
  0
LINE
  5
227
  8
0
  6
CONTINUOUS
 62
     7
 10
-206.9329811938234
 20
323.7309256479688
 30
0.0
 11
-207.0030779050238
 21
323.6271688080844
 31
0.0
  0
LINE
  5
228
  8
0
  6
CONTINUOUS
 62
     7
 10
-207.0030779050238
 20
323.6271688080844
 30
0.0
 11
-207.0682368434118
 21
323.5215071302812
 31
0.0
  0
LINE
  5
229
  8
0
  6
CONTINUOUS
 62
     7
 10
-207.0682368434118
 20
323.5215071302812
 30
0.0
 11
-207.1292204784216
 21
323.4127664346772
 31
0.0
  0
LINE
  5
22A
  8
0
  6
CONTINUOUS
 62
     7
 10
-207.1292204784216
 20
323.4127664346772
 30
0.0
 11
-207.1856352249366
 21
323.3015871773824
 31
0.0
  0
LINE
  5
22B
  8
0
  6
CONTINUOUS
 62
     7
 10
-207.1856352249366
 20
323.3015871773824
 30
0.0
 11
-207.2375951222314
 21
323.1876626470601
 31
0.0
  0
LINE
  5
22C
  8
0
  6
CONTINUOUS
 62
     7
 10
-207.2375951222314
 20
323.1876626470601
 30
0.0
 11
-207.2706725046449
 21
323.107789978028
 31
0.0
  0
LINE
  5
22D
  8
0
  6
CONTINUOUS
 62
     7
 10
-207.2706725046449
 20
323.107789978028
 30
0.0
 11
-207.3014351371702
 21
323.0269977034732
 31
0.0
  0
LINE
  5
22E
  8
0
  6
CONTINUOUS
 62
     7
 10
-207.3014351371702
 20
323.0269977034732
 30
0.0
 11
-207.3299475232986
 21
322.9450784197076
 31
0.0
  0
LINE
  5
22F
  8
0
  6
CONTINUOUS
 62
     7
 10
-207.3299475232986
 20
322.9450784197076
 30
0.0
 11
-207.3560801583629
 21
322.8623693613288
 31
0.0
  0
LINE
  5
230
  8
0
  6
CONTINUOUS
 62
     7
 10
-207.3560801583629
 20
322.8623693613288
 30
0.0
 11
-207.3800404528552
 21
322.7780824695661
 31
0.0
  0
LINE
  5
231
  8
0
  6
CONTINUOUS
 62
     7
 10
-207.3800404528552
 20
322.7780824695661
 30
0.0
 11
-207.4015293752412
 21
322.6931319968093
 31
0.0
  0
LINE
  5
232
  8
0
  6
CONTINUOUS
 62
     7
 10
-207.4015293752412
 20
322.6931319968093
 30
0.0
 11
-207.4205884532618
 21
322.6072955544676
 31
0.0
  0
LINE
  5
233
  8
0
  6
CONTINUOUS
 62
     7
 10
-207.4205884532618
 20
322.6072955544676
 30
0.0
 11
-207.4371243654724
 21
322.5209376276652
 31
0.0
  0
LINE
  5
234
  8
0
  6
CONTINUOUS
 62
     7
 10
-153.5172988935001
 20
324.9999931009968
 30
0.0
 11
-160.4827011064003
 21
324.9999931010968
 31
0.0
  0
LINE
  5
235
  8
0
  6
CONTINUOUS
 62
   253
 10
-185.4371243654422
 20
321.9945132007016
 30
0.0
 11
-185.4371243654724
 21
322.5209376276652
 31
0.0
  0
LINE
  5
236
  8
0
  6
CONTINUOUS
 62
     7
 10
-182.4827011064003
 20
324.9999931010968
 30
0.0
 11
-182.6068202272268
 21
324.9974244087009
 31
0.0
  0
LINE
  5
237
  8
0
  6
CONTINUOUS
 62
     7
 10
-182.6068202272268
 20
324.9974244087009
 30
0.0
 11
-182.7309393480534
 21
324.9897050897709
 31
0.0
  0
LINE
  5
238
  8
0
  6
CONTINUOUS
 62
     7
 10
-182.7309393480534
 20
324.9897050897709
 30
0.0
 11
-182.8552745755034
 21
324.9767680354448
 31
0.0
  0
LINE
  5
239
  8
0
  6
CONTINUOUS
 62
     7
 10
-182.8552745755034
 20
324.9767680354448
 30
0.0
 11
-182.9791775897065
 21
324.9586264174932
 31
0.0
  0
LINE
  5
23A
  8
0
  6
CONTINUOUS
 62
     7
 10
-182.9791775897065
 20
324.9586264174932
 30
0.0
 11
-183.1011591507146
 21
324.9355526127476
 31
0.0
  0
LINE
  5
23B
  8
0
  6
CONTINUOUS
 62
     7
 10
-183.1011591507146
 20
324.9355526127476
 30
0.0
 11
-183.2226017786338
 21
324.9073183802836
 31
0.0
  0
LINE
  5
23C
  8
0
  6
CONTINUOUS
 62
     7
 10
-183.2226017786338
 20
324.9073183802836
 30
0.0
 11
-183.3427667420835
 21
324.8740646208133
 31
0.0
  0
LINE
  5
23D
  8
0
  6
CONTINUOUS
 62
     7
 10
-183.3427667420835
 20
324.8740646208133
 30
0.0
 11
-183.4619576173317
 21
324.8356688024751
 31
0.0
  0
LINE
  5
23E
  8
0
  6
CONTINUOUS
 62
     7
 10
-183.4619576173317
 20
324.8356688024751
 30
0.0
 11
-183.5784378813356
 21
324.7927266933071
 31
0.0
  0
LINE
  5
23F
  8
0
  6
CONTINUOUS
 62
     7
 10
-183.5784378813356
 20
324.7927266933071
 30
0.0
 11
-183.6935325305988
 21
324.7447846313273
 31
0.0
  0
LINE
  5
240
  8
0
  6
CONTINUOUS
 62
     7
 10
-183.6935325305988
 20
324.7447846313273
 30
0.0
 11
-183.8065363834966
 21
324.6921038259424
 31
0.0
  0
LINE
  5
241
  8
0
  6
CONTINUOUS
 62
     7
 10
-183.8065363834966
 20
324.6921038259424
 30
0.0
 11
-183.9177285404849
 21
324.634513220292
 31
0.0
  0
LINE
  5
242
  8
0
  6
CONTINUOUS
 62
     7
 10
-183.9177285404849
 20
324.634513220292
 30
0.0
 11
-184.0254951242297
 21
324.572887699184
 31
0.0
  0
LINE
  5
243
  8
0
  6
CONTINUOUS
 62
     7
 10
-184.0254951242297
 20
324.572887699184
 30
0.0
 11
-184.1310677100803
 21
324.5065606386509
 31
0.0
  0
LINE
  5
244
  8
0
  6
CONTINUOUS
 62
     7
 10
-184.1310677100803
 20
324.5065606386509
 30
0.0
 11
-184.2337941251413
 21
324.4359063246357
 31
0.0
  0
LINE
  5
245
  8
0
  6
CONTINUOUS
 62
     7
 10
-184.2337941251413
 20
324.4359063246357
 30
0.0
 11
-184.3339212979167
 21
324.360709897902
 31
0.0
  0
LINE
  5
246
  8
0
  6
CONTINUOUS
 62
     7
 10
-184.3339212979167
 20
324.360709897902
 30
0.0
 11
-184.4300025138297
 21
324.2821011660561
 31
0.0
  0
LINE
  5
247
  8
0
  6
CONTINUOUS
 62
     7
 10
-184.4300025138297
 20
324.2821011660561
 30
0.0
 11
-184.5231419581894
 21
324.1992189669881
 31
0.0
  0
LINE
  5
248
  8
0
  6
CONTINUOUS
 62
     7
 10
-184.5231419581894
 20
324.1992189669881
 30
0.0
 11
-184.612758448431
 21
324.1125403100292
 31
0.0
  0
LINE
  5
249
  8
0
  6
CONTINUOUS
 62
     7
 10
-184.612758448431
 20
324.1125403100292
 30
0.0
 11
-184.6990599348308
 21
324.0218124633081
 31
0.0
  0
LINE
  5
24A
  8
0
  6
CONTINUOUS
 62
     7
 10
-184.6990599348308
 20
324.0218124633081
 30
0.0
 11
-184.7808067383834
 21
323.9283889353497
 31
0.0
  0
LINE
  5
24B
  8
0
  6
CONTINUOUS
 62
     7
 10
-184.7808067383834
 20
323.9283889353497
 30
0.0
 11
-184.8589452191574
 21
323.8312378129332
 31
0.0
  0
LINE
  5
24C
  8
0
  6
CONTINUOUS
 62
     7
 10
-184.8589452191574
 20
323.8312378129332
 30
0.0
 11
-184.9329811938234
 21
323.7309256479688
 31
0.0
  0
LINE
  5
24D
  8
0
  6
CONTINUOUS
 62
     7
 10
-184.9329811938234
 20
323.7309256479688
 30
0.0
 11
-185.0030779050238
 21
323.6271688080844
 31
0.0
  0
LINE
  5
24E
  8
0
  6
CONTINUOUS
 62
     7
 10
-185.0030779050238
 20
323.6271688080844
 30
0.0
 11
-185.0682368434118
 21
323.5215071302812
 31
0.0
  0
LINE
  5
24F
  8
0
  6
CONTINUOUS
 62
     7
 10
-185.0682368434118
 20
323.5215071302812
 30
0.0
 11
-185.1292204784216
 21
323.4127664346772
 31
0.0
  0
LINE
  5
250
  8
0
  6
CONTINUOUS
 62
     7
 10
-185.1292204784216
 20
323.4127664346772
 30
0.0
 11
-185.1856352249366
 21
323.3015871773824
 31
0.0
  0
LINE
  5
251
  8
0
  6
CONTINUOUS
 62
     7
 10
-185.1856352249366
 20
323.3015871773824
 30
0.0
 11
-185.2375951222314
 21
323.1876626470601
 31
0.0
  0
LINE
  5
252
  8
0
  6
CONTINUOUS
 62
     7
 10
-185.2375951222314
 20
323.1876626470601
 30
0.0
 11
-185.2706725046449
 21
323.107789978028
 31
0.0
  0
LINE
  5
253
  8
0
  6
CONTINUOUS
 62
     7
 10
-185.2706725046449
 20
323.107789978028
 30
0.0
 11
-185.3014351371702
 21
323.0269977034732
 31
0.0
  0
LINE
  5
254
  8
0
  6
CONTINUOUS
 62
     7
 10
-185.3014351371702
 20
323.0269977034732
 30
0.0
 11
-185.3299475232986
 21
322.9450784197076
 31
0.0
  0
LINE
  5
255
  8
0
  6
CONTINUOUS
 62
     7
 10
-185.3299475232986
 20
322.9450784197076
 30
0.0
 11
-185.3560801583629
 21
322.8623693613288
 31
0.0
  0
LINE
  5
256
  8
0
  6
CONTINUOUS
 62
     7
 10
-185.3560801583629
 20
322.8623693613288
 30
0.0
 11
-185.3800404528554
 21
322.7780824695661
 31
0.0
  0
LINE
  5
257
  8
0
  6
CONTINUOUS
 62
     7
 10
-185.3800404528554
 20
322.7780824695661
 30
0.0
 11
-185.4015293752411
 21
322.6931319968093
 31
0.0
  0
LINE
  5
258
  8
0
  6
CONTINUOUS
 62
     7
 10
-185.4015293752411
 20
322.6931319968093
 30
0.0
 11
-185.4205884532618
 21
322.6072955544676
 31
0.0
  0
LINE
  5
259
  8
0
  6
CONTINUOUS
 62
     7
 10
-185.4205884532618
 20
322.6072955544676
 30
0.0
 11
-185.4371243654724
 21
322.5209376276652
 31
0.0
  0
LINE
  5
25A
  8
0
  6
CONTINUOUS
 62
   253
 10
-150.5628756343977
 20
321.9945132006141
 30
0.0
 11
-150.5628756343977
 21
322.5209376275724
 31
0.0
  0
LINE
  5
25B
  8
0
  6
CONTINUOUS
 62
     7
 10
-150.5628756343977
 20
322.5209376275724
 30
0.0
 11
-150.5869611488453
 21
322.6427377582428
 31
0.0
  0
LINE
  5
25C
  8
0
  6
CONTINUOUS
 62
     7
 10
-150.5869611488453
 20
322.6427377582428
 30
0.0
 11
-150.6161201443161
 21
322.7636434506011
 31
0.0
  0
LINE
  5
25D
  8
0
  6
CONTINUOUS
 62
     7
 10
-150.6161201443161
 20
322.7636434506011
 30
0.0
 11
-150.6504562756641
 21
322.8838558702593
 31
0.0
  0
LINE
  5
25E
  8
0
  6
CONTINUOUS
 62
     7
 10
-150.6504562756641
 20
322.8838558702593
 30
0.0
 11
-150.6898440306985
 21
323.0027388257269
 31
0.0
  0
LINE
  5
25F
  8
0
  6
CONTINUOUS
 62
     7
 10
-150.6898440306985
 20
323.0027388257269
 30
0.0
 11
-150.7337568232605
 21
323.1188735826941
 31
0.0
  0
LINE
  5
260
  8
0
  6
CONTINUOUS
 62
     7
 10
-150.7337568232605
 20
323.1188735826941
 30
0.0
 11
-150.7826593991794
 21
323.2335814075828
 31
0.0
  0
LINE
  5
261
  8
0
  6
CONTINUOUS
 62
     7
 10
-150.7826593991794
 20
323.2335814075828
 30
0.0
 11
-150.8362847383433
 21
323.3461591711156
 31
0.0
  0
LINE
  5
262
  8
0
  6
CONTINUOUS
 62
     7
 10
-150.8362847383433
 20
323.3461591711156
 30
0.0
 11
-150.8948063260709
 21
323.4568845596012
 31
0.0
  0
LINE
  5
263
  8
0
  6
CONTINUOUS
 62
     7
 10
-150.8948063260709
 20
323.4568845596012
 30
0.0
 11
-150.9573337638193
 21
323.5641473527268
 31
0.0
  0
LINE
  5
264
  8
0
  6
CONTINUOUS
 62
     7
 10
-150.9573337638193
 20
323.5641473527268
 30
0.0
 11
-151.0245458596082
 21
323.6691772087932
 31
0.0
  0
LINE
  5
265
  8
0
  6
CONTINUOUS
 62
     7
 10
-151.0245458596082
 20
323.6691772087932
 30
0.0
 11
-151.096062914015
 21
323.7713248938559
 31
0.0
  0
LINE
  5
266
  8
0
  6
CONTINUOUS
 62
     7
 10
-151.096062914015
 20
323.7713248938559
 30
0.0
 11
-151.1721019845902
 21
323.87083554426
 31
0.0
  0
LINE
  5
267
  8
0
  6
CONTINUOUS
 62
     7
 10
-151.1721019845902
 20
323.87083554426
 30
0.0
 11
-151.2515176580409
 21
323.9662675941768
 31
0.0
  0
LINE
  5
268
  8
0
  6
CONTINUOUS
 62
     7
 10
-151.2515176580409
 20
323.9662675941768
 30
0.0
 11
-151.3351836173373
 21
324.0587223684568
 31
0.0
  0
LINE
  5
269
  8
0
  6
CONTINUOUS
 62
     7
 10
-151.3351836173373
 20
324.0587223684568
 30
0.0
 11
-151.4226179638263
 21
324.1476224436428
 31
0.0
  0
LINE
  5
26A
  8
0
  6
CONTINUOUS
 62
     7
 10
-151.4226179638263
 20
324.1476224436428
 30
0.0
 11
-151.5140753279713
 21
324.2331736440016
 31
0.0
  0
LINE
  5
26B
  8
0
  6
CONTINUOUS
 62
     7
 10
-151.5140753279713
 20
324.2331736440016
 30
0.0
 11
-151.6081874683934
 21
324.3141438217409
 31
0.0
  0
LINE
  5
26C
  8
0
  6
CONTINUOUS
 62
     7
 10
-151.6081874683934
 20
324.3141438217409
 30
0.0
 11
-151.7059983364937
 21
324.3914745602263
 31
0.0
  0
LINE
  5
26D
  8
0
  6
CONTINUOUS
 62
     7
 10
-151.7059983364937
 20
324.3914745602263
 30
0.0
 11
-151.8069371288189
 21
324.4646761692824
 31
0.0
  0
LINE
  5
26E
  8
0
  6
CONTINUOUS
 62
     7
 10
-151.8069371288189
 20
324.4646761692824
 30
0.0
 11
-151.9112890182237
 21
324.5339094915684
 31
0.0
  0
LINE
  5
26F
  8
0
  6
CONTINUOUS
 62
     7
 10
-151.9112890182237
 20
324.5339094915684
 30
0.0
 11
-152.0175011624036
 21
324.5981860808196
 31
0.0
  0
LINE
  5
270
  8
0
  6
CONTINUOUS
 62
     7
 10
-152.0175011624036
 20
324.5981860808196
 30
0.0
 11
-152.1267585252262
 21
324.6582614780935
 31
0.0
  0
LINE
  5
271
  8
0
  6
CONTINUOUS
 62
     7
 10
-152.1267585252262
 20
324.6582614780935
 30
0.0
 11
-152.2384171430229
 21
324.713747228452
 31
0.0
  0
LINE
  5
272
  8
0
  6
CONTINUOUS
 62
     7
 10
-152.2384171430229
 20
324.713747228452
 30
0.0
 11
-152.3527848625601
 21
324.7647547667431
 31
0.0
  0
LINE
  5
273
  8
0
  6
CONTINUOUS
 62
     7
 10
-152.3527848625601
 20
324.7647547667431
 30
0.0
 11
-152.4681676427566
 21
324.8105666396113
 31
0.0
  0
LINE
  5
274
  8
0
  6
CONTINUOUS
 62
     7
 10
-152.4681676427566
 20
324.8105666396113
 30
0.0
 11
-152.5858582128816
 21
324.8517314377784
 31
0.0
  0
LINE
  5
275
  8
0
  6
CONTINUOUS
 62
     7
 10
-152.5858582128816
 20
324.8517314377784
 30
0.0
 11
-152.7051572092841
 21
324.88797265132
 31
0.0
  0
LINE
  5
276
  8
0
  6
CONTINUOUS
 62
     7
 10
-152.7051572092841
 20
324.88797265132
 30
0.0
 11
-152.8263866639621
 21
324.9193492440283
 31
0.0
  0
LINE
  5
277
  8
0
  6
CONTINUOUS
 62
     7
 10
-152.8263866639621
 20
324.9193492440283
 30
0.0
 11
-152.9107503107425
 21
324.9380362025832
 31
0.0
  0
LINE
  5
278
  8
0
  6
CONTINUOUS
 62
     7
 10
-152.9107503107425
 20
324.9380362025832
 30
0.0
 11
-152.9956171308373
 21
324.9542862715888
 31
0.0
  0
LINE
  5
279
  8
0
  6
CONTINUOUS
 62
     7
 10
-152.9956171308373
 20
324.9542862715888
 30
0.0
 11
-153.0812023309143
 21
324.9681268947731
 31
0.0
  0
LINE
  5
27A
  8
0
  6
CONTINUOUS
 62
     7
 10
-153.0812023309143
 20
324.9681268947731
 30
0.0
 11
-153.1671517242017
 21
324.9794891925392
 31
0.0
  0
LINE
  5
27B
  8
0
  6
CONTINUOUS
 62
     7
 10
-153.1671517242017
 20
324.9794891925392
 30
0.0
 11
-153.2542764720561
 21
324.9884404521456
 31
0.0
  0
LINE
  5
27C
  8
0
  6
CONTINUOUS
 62
     7
 10
-153.2542764720561
 20
324.9884404521456
 30
0.0
 11
-153.3416253886284
 21
324.994845154038
 31
0.0
  0
LINE
  5
27D
  8
0
  6
CONTINUOUS
 62
     7
 10
-153.3416253886284
 20
324.994845154038
 30
0.0
 11
-153.4294244368637
 21
324.9987055617436
 31
0.0
  0
LINE
  5
27E
  8
0
  6
CONTINUOUS
 62
     7
 10
-153.4294244368637
 20
324.9987055617436
 30
0.0
 11
-153.5172988935001
 21
324.9999931009968
 31
0.0
  0
LINE
  5
27F
  8
0
  6
CONTINUOUS
 62
   253
 10
-238.5628756343974
 20
321.9945132006141
 30
0.0
 11
-238.5628756343974
 21
322.5209376275724
 31
0.0
  0
LINE
  5
280
  8
0
  6
CONTINUOUS
 62
     7
 10
-238.5628756343974
 20
322.5209376275724
 30
0.0
 11
-238.5869611488454
 21
322.6427377582428
 31
0.0
  0
LINE
  5
281
  8
0
  6
CONTINUOUS
 62
     7
 10
-238.5869611488454
 20
322.6427377582428
 30
0.0
 11
-238.6161201443162
 21
322.7636434506011
 31
0.0
  0
LINE
  5
282
  8
0
  6
CONTINUOUS
 62
     7
 10
-238.6161201443162
 20
322.7636434506011
 30
0.0
 11
-238.6504562756642
 21
322.8838558702593
 31
0.0
  0
LINE
  5
283
  8
0
  6
CONTINUOUS
 62
     7
 10
-238.6504562756642
 20
322.8838558702593
 30
0.0
 11
-238.6898440306986
 21
323.0027388257269
 31
0.0
  0
LINE
  5
284
  8
0
  6
CONTINUOUS
 62
     7
 10
-238.6898440306986
 20
323.0027388257269
 30
0.0
 11
-238.7337568232601
 21
323.1188735826941
 31
0.0
  0
LINE
  5
285
  8
0
  6
CONTINUOUS
 62
     7
 10
-238.7337568232601
 20
323.1188735826941
 30
0.0
 11
-238.7826593991797
 21
323.2335814075828
 31
0.0
  0
LINE
  5
286
  8
0
  6
CONTINUOUS
 62
     7
 10
-238.7826593991797
 20
323.2335814075828
 30
0.0
 11
-238.8362847383438
 21
323.3461591711156
 31
0.0
  0
LINE
  5
287
  8
0
  6
CONTINUOUS
 62
     7
 10
-238.8362847383438
 20
323.3461591711156
 30
0.0
 11
-238.8948063260712
 21
323.4568845596012
 31
0.0
  0
LINE
  5
288
  8
0
  6
CONTINUOUS
 62
     7
 10
-238.8948063260712
 20
323.4568845596012
 30
0.0
 11
-238.9573337638193
 21
323.5641473527268
 31
0.0
  0
LINE
  5
289
  8
0
  6
CONTINUOUS
 62
     7
 10
-238.9573337638193
 20
323.5641473527268
 30
0.0
 11
-239.0245458596081
 21
323.6691772087932
 31
0.0
  0
LINE
  5
28A
  8
0
  6
CONTINUOUS
 62
     7
 10
-239.0245458596081
 20
323.6691772087932
 30
0.0
 11
-239.0960629140149
 21
323.7713248938559
 31
0.0
  0
LINE
  5
28B
  8
0
  6
CONTINUOUS
 62
     7
 10
-239.0960629140149
 20
323.7713248938559
 30
0.0
 11
-239.17210198459
 21
323.87083554426
 31
0.0
  0
LINE
  5
28C
  8
0
  6
CONTINUOUS
 62
     7
 10
-239.17210198459
 20
323.87083554426
 30
0.0
 11
-239.2515176580407
 21
323.9662675941768
 31
0.0
  0
LINE
  5
28D
  8
0
  6
CONTINUOUS
 62
     7
 10
-239.2515176580407
 20
323.9662675941768
 30
0.0
 11
-239.335183617337
 21
324.0587223684568
 31
0.0
  0
LINE
  5
28E
  8
0
  6
CONTINUOUS
 62
     7
 10
-239.335183617337
 20
324.0587223684568
 30
0.0
 11
-239.4226179638261
 21
324.1476224436428
 31
0.0
  0
LINE
  5
28F
  8
0
  6
CONTINUOUS
 62
     7
 10
-239.4226179638261
 20
324.1476224436428
 30
0.0
 11
-239.5140753279712
 21
324.2331736440016
 31
0.0
  0
LINE
  5
290
  8
0
  6
CONTINUOUS
 62
     7
 10
-239.5140753279712
 20
324.2331736440016
 30
0.0
 11
-239.6081874683937
 21
324.3141438217409
 31
0.0
  0
LINE
  5
291
  8
0
  6
CONTINUOUS
 62
     7
 10
-239.6081874683937
 20
324.3141438217409
 30
0.0
 11
-239.7059983364942
 21
324.3914745602263
 31
0.0
  0
LINE
  5
292
  8
0
  6
CONTINUOUS
 62
     7
 10
-239.7059983364942
 20
324.3914745602263
 30
0.0
 11
-239.8069371288194
 21
324.4646761692824
 31
0.0
  0
LINE
  5
293
  8
0
  6
CONTINUOUS
 62
     7
 10
-239.8069371288194
 20
324.4646761692824
 30
0.0
 11
-239.9112890182238
 21
324.5339094915684
 31
0.0
  0
LINE
  5
294
  8
0
  6
CONTINUOUS
 62
     7
 10
-239.9112890182238
 20
324.5339094915684
 30
0.0
 11
-240.0175011624037
 21
324.5981860808196
 31
0.0
  0
LINE
  5
295
  8
0
  6
CONTINUOUS
 62
     7
 10
-240.0175011624037
 20
324.5981860808196
 30
0.0
 11
-240.1267585252258
 21
324.6582614780935
 31
0.0
  0
LINE
  5
296
  8
0
  6
CONTINUOUS
 62
     7
 10
-240.1267585252258
 20
324.6582614780935
 30
0.0
 11
-240.238417143023
 21
324.713747228452
 31
0.0
  0
LINE
  5
297
  8
0
  6
CONTINUOUS
 62
     7
 10
-240.238417143023
 20
324.713747228452
 30
0.0
 11
-240.3527848625602
 21
324.7647547667431
 31
0.0
  0
LINE
  5
298
  8
0
  6
CONTINUOUS
 62
     7
 10
-240.3527848625602
 20
324.7647547667431
 30
0.0
 11
-240.4681676427567
 21
324.8105666396113
 31
0.0
  0
LINE
  5
299
  8
0
  6
CONTINUOUS
 62
     7
 10
-240.4681676427567
 20
324.8105666396113
 30
0.0
 11
-240.5858582128819
 21
324.8517314377784
 31
0.0
  0
LINE
  5
29A
  8
0
  6
CONTINUOUS
 62
     7
 10
-240.5858582128819
 20
324.8517314377784
 30
0.0
 11
-240.705157209284
 21
324.88797265132
 31
0.0
  0
LINE
  5
29B
  8
0
  6
CONTINUOUS
 62
     7
 10
-240.705157209284
 20
324.88797265132
 30
0.0
 11
-240.8263866639617
 21
324.9193492440283
 31
0.0
  0
LINE
  5
29C
  8
0
  6
CONTINUOUS
 62
     7
 10
-240.8263866639617
 20
324.9193492440283
 30
0.0
 11
-240.9107503107424
 21
324.9380362025832
 31
0.0
  0
LINE
  5
29D
  8
0
  6
CONTINUOUS
 62
     7
 10
-240.9107503107424
 20
324.9380362025832
 30
0.0
 11
-240.9956171308374
 21
324.9542862715888
 31
0.0
  0
LINE
  5
29E
  8
0
  6
CONTINUOUS
 62
     7
 10
-240.9956171308374
 20
324.9542862715888
 30
0.0
 11
-241.0812023309141
 21
324.9681268947731
 31
0.0
  0
LINE
  5
29F
  8
0
  6
CONTINUOUS
 62
     7
 10
-241.0812023309141
 20
324.9681268947731
 30
0.0
 11
-241.1671517242018
 21
324.9794891925392
 31
0.0
  0
LINE
  5
2A0
  8
0
  6
CONTINUOUS
 62
     7
 10
-241.1671517242018
 20
324.9794891925392
 30
0.0
 11
-241.2542764720562
 21
324.9884404521456
 31
0.0
  0
LINE
  5
2A1
  8
0
  6
CONTINUOUS
 62
     7
 10
-241.2542764720562
 20
324.9884404521456
 30
0.0
 11
-241.3416253886282
 21
324.994845154038
 31
0.0
  0
LINE
  5
2A2
  8
0
  6
CONTINUOUS
 62
     7
 10
-241.3416253886282
 20
324.994845154038
 30
0.0
 11
-241.4294244368638
 21
324.9987055617436
 31
0.0
  0
LINE
  5
2A3
  8
0
  6
CONTINUOUS
 62
     7
 10
-241.4294244368638
 20
324.9987055617436
 30
0.0
 11
-241.5172988935001
 21
324.9999931009968
 31
0.0
  0
LINE
  5
2A4
  8
0
  6
CONTINUOUS
 62
   253
 10
-216.5628756343974
 20
321.9945132006141
 30
0.0
 11
-216.5628756343974
 21
322.5209376275724
 31
0.0
  0
LINE
  5
2A5
  8
0
  6
CONTINUOUS
 62
     7
 10
-216.5628756343974
 20
322.5209376275724
 30
0.0
 11
-216.5869611488453
 21
322.6427377582428
 31
0.0
  0
LINE
  5
2A6
  8
0
  6
CONTINUOUS
 62
     7
 10
-216.5869611488453
 20
322.6427377582428
 30
0.0
 11
-216.6161201443162
 21
322.7636434506011
 31
0.0
  0
LINE
  5
2A7
  8
0
  6
CONTINUOUS
 62
     7
 10
-216.6161201443162
 20
322.7636434506011
 30
0.0
 11
-216.6504562756641
 21
322.8838558702593
 31
0.0
  0
LINE
  5
2A8
  8
0
  6
CONTINUOUS
 62
     7
 10
-216.6504562756641
 20
322.8838558702593
 30
0.0
 11
-216.6898440306986
 21
323.0027388257269
 31
0.0
  0
LINE
  5
2A9
  8
0
  6
CONTINUOUS
 62
     7
 10
-216.6898440306986
 20
323.0027388257269
 30
0.0
 11
-216.7337568232601
 21
323.1188735826941
 31
0.0
  0
LINE
  5
2AA
  8
0
  6
CONTINUOUS
 62
     7
 10
-216.7337568232601
 20
323.1188735826941
 30
0.0
 11
-216.7826593991797
 21
323.2335814075828
 31
0.0
  0
LINE
  5
2AB
  8
0
  6
CONTINUOUS
 62
     7
 10
-216.7826593991797
 20
323.2335814075828
 30
0.0
 11
-216.8362847383438
 21
323.3461591711156
 31
0.0
  0
LINE
  5
2AC
  8
0
  6
CONTINUOUS
 62
     7
 10
-216.8362847383438
 20
323.3461591711156
 30
0.0
 11
-216.8948063260707
 21
323.4568845596012
 31
0.0
  0
LINE
  5
2AD
  8
0
  6
CONTINUOUS
 62
     7
 10
-216.8948063260707
 20
323.4568845596012
 30
0.0
 11
-216.9573337638193
 21
323.5641473527268
 31
0.0
  0
LINE
  5
2AE
  8
0
  6
CONTINUOUS
 62
     7
 10
-216.9573337638193
 20
323.5641473527268
 30
0.0
 11
-217.0245458596081
 21
323.6691772087932
 31
0.0
  0
LINE
  5
2AF
  8
0
  6
CONTINUOUS
 62
     7
 10
-217.0245458596081
 20
323.6691772087932
 30
0.0
 11
-217.0960629140149
 21
323.7713248938559
 31
0.0
  0
LINE
  5
2B0
  8
0
  6
CONTINUOUS
 62
     7
 10
-217.0960629140149
 20
323.7713248938559
 30
0.0
 11
-217.17210198459
 21
323.87083554426
 31
0.0
  0
LINE
  5
2B1
  8
0
  6
CONTINUOUS
 62
     7
 10
-217.17210198459
 20
323.87083554426
 30
0.0
 11
-217.251517658041
 21
323.9662675941768
 31
0.0
  0
LINE
  5
2B2
  8
0
  6
CONTINUOUS
 62
     7
 10
-217.251517658041
 20
323.9662675941768
 30
0.0
 11
-217.3351836173374
 21
324.0587223684568
 31
0.0
  0
LINE
  5
2B3
  8
0
  6
CONTINUOUS
 62
     7
 10
-217.3351836173374
 20
324.0587223684568
 30
0.0
 11
-217.4226179638261
 21
324.1476224436428
 31
0.0
  0
LINE
  5
2B4
  8
0
  6
CONTINUOUS
 62
     7
 10
-217.4226179638261
 20
324.1476224436428
 30
0.0
 11
-217.5140753279712
 21
324.2331736440016
 31
0.0
  0
LINE
  5
2B5
  8
0
  6
CONTINUOUS
 62
     7
 10
-217.5140753279712
 20
324.2331736440016
 30
0.0
 11
-217.6081874683937
 21
324.3141438217409
 31
0.0
  0
LINE
  5
2B6
  8
0
  6
CONTINUOUS
 62
     7
 10
-217.6081874683937
 20
324.3141438217409
 30
0.0
 11
-217.7059983364942
 21
324.3914745602263
 31
0.0
  0
LINE
  5
2B7
  8
0
  6
CONTINUOUS
 62
     7
 10
-217.7059983364942
 20
324.3914745602263
 30
0.0
 11
-217.8069371288194
 21
324.4646761692824
 31
0.0
  0
LINE
  5
2B8
  8
0
  6
CONTINUOUS
 62
     7
 10
-217.8069371288194
 20
324.4646761692824
 30
0.0
 11
-217.9112890182238
 21
324.5339094915684
 31
0.0
  0
LINE
  5
2B9
  8
0
  6
CONTINUOUS
 62
     7
 10
-217.9112890182238
 20
324.5339094915684
 30
0.0
 11
-218.0175011624037
 21
324.5981860808196
 31
0.0
  0
LINE
  5
2BA
  8
0
  6
CONTINUOUS
 62
     7
 10
-218.0175011624037
 20
324.5981860808196
 30
0.0
 11
-218.1267585252258
 21
324.6582614780935
 31
0.0
  0
LINE
  5
2BB
  8
0
  6
CONTINUOUS
 62
     7
 10
-218.1267585252258
 20
324.6582614780935
 30
0.0
 11
-218.2384171430229
 21
324.713747228452
 31
0.0
  0
LINE
  5
2BC
  8
0
  6
CONTINUOUS
 62
     7
 10
-218.2384171430229
 20
324.713747228452
 30
0.0
 11
-218.3527848625602
 21
324.7647547667431
 31
0.0
  0
LINE
  5
2BD
  8
0
  6
CONTINUOUS
 62
     7
 10
-218.3527848625602
 20
324.7647547667431
 30
0.0
 11
-218.4681676427567
 21
324.8105666396113
 31
0.0
  0
LINE
  5
2BE
  8
0
  6
CONTINUOUS
 62
     7
 10
-218.4681676427567
 20
324.8105666396113
 30
0.0
 11
-218.5858582128819
 21
324.8517314377784
 31
0.0
  0
LINE
  5
2BF
  8
0
  6
CONTINUOUS
 62
     7
 10
-218.5858582128819
 20
324.8517314377784
 30
0.0
 11
-218.705157209284
 21
324.88797265132
 31
0.0
  0
LINE
  5
2C0
  8
0
  6
CONTINUOUS
 62
     7
 10
-218.705157209284
 20
324.88797265132
 30
0.0
 11
-218.8263866639617
 21
324.9193492440283
 31
0.0
  0
LINE
  5
2C1
  8
0
  6
CONTINUOUS
 62
     7
 10
-218.8263866639617
 20
324.9193492440283
 30
0.0
 11
-218.9107503107424
 21
324.9380362025832
 31
0.0
  0
LINE
  5
2C2
  8
0
  6
CONTINUOUS
 62
     7
 10
-218.9107503107424
 20
324.9380362025832
 30
0.0
 11
-218.9956171308374
 21
324.9542862715888
 31
0.0
  0
LINE
  5
2C3
  8
0
  6
CONTINUOUS
 62
     7
 10
-218.9956171308374
 20
324.9542862715888
 30
0.0
 11
-219.0812023309141
 21
324.9681268947731
 31
0.0
  0
LINE
  5
2C4
  8
0
  6
CONTINUOUS
 62
     7
 10
-219.0812023309141
 20
324.9681268947731
 30
0.0
 11
-219.1671517242017
 21
324.9794891925392
 31
0.0
  0
LINE
  5
2C5
  8
0
  6
CONTINUOUS
 62
     7
 10
-219.1671517242017
 20
324.9794891925392
 30
0.0
 11
-219.2542764720562
 21
324.9884404521456
 31
0.0
  0
LINE
  5
2C6
  8
0
  6
CONTINUOUS
 62
     7
 10
-219.2542764720562
 20
324.9884404521456
 30
0.0
 11
-219.3416253886282
 21
324.994845154038
 31
0.0
  0
LINE
  5
2C7
  8
0
  6
CONTINUOUS
 62
     7
 10
-219.3416253886282
 20
324.994845154038
 30
0.0
 11
-219.4294244368637
 21
324.9987055617436
 31
0.0
  0
LINE
  5
2C8
  8
0
  6
CONTINUOUS
 62
     7
 10
-219.4294244368637
 20
324.9987055617436
 30
0.0
 11
-219.5172988935001
 21
324.9999931009968
 31
0.0
  0
LINE
  5
2C9
  8
0
  6
CONTINUOUS
 62
   253
 10
-194.5628756343978
 20
321.9945132006141
 30
0.0
 11
-194.5628756343978
 21
322.5209376275724
 31
0.0
  0
LINE
  5
2CA
  8
0
  6
CONTINUOUS
 62
     7
 10
-194.5628756343978
 20
322.5209376275724
 30
0.0
 11
-194.5869611488453
 21
322.6427377582428
 31
0.0
  0
LINE
  5
2CB
  8
0
  6
CONTINUOUS
 62
     7
 10
-194.5869611488453
 20
322.6427377582428
 30
0.0
 11
-194.6161201443162
 21
322.7636434506011
 31
0.0
  0
LINE
  5
2CC
  8
0
  6
CONTINUOUS
 62
     7
 10
-194.6161201443162
 20
322.7636434506011
 30
0.0
 11
-194.6504562756641
 21
322.8838558702593
 31
0.0
  0
LINE
  5
2CD
  8
0
  6
CONTINUOUS
 62
     7
 10
-194.6504562756641
 20
322.8838558702593
 30
0.0
 11
-194.6898440306985
 21
323.0027388257269
 31
0.0
  0
LINE
  5
2CE
  8
0
  6
CONTINUOUS
 62
     7
 10
-194.6898440306985
 20
323.0027388257269
 30
0.0
 11
-194.7337568232605
 21
323.1188735826941
 31
0.0
  0
LINE
  5
2CF
  8
0
  6
CONTINUOUS
 62
     7
 10
-194.7337568232605
 20
323.1188735826941
 30
0.0
 11
-194.7826593991799
 21
323.2335814075828
 31
0.0
  0
LINE
  5
2D0
  8
0
  6
CONTINUOUS
 62
     7
 10
-194.7826593991799
 20
323.2335814075828
 30
0.0
 11
-194.8362847383438
 21
323.3461591711156
 31
0.0
  0
LINE
  5
2D1
  8
0
  6
CONTINUOUS
 62
     7
 10
-194.8362847383438
 20
323.3461591711156
 30
0.0
 11
-194.8948063260709
 21
323.4568845596012
 31
0.0
  0
LINE
  5
2D2
  8
0
  6
CONTINUOUS
 62
     7
 10
-194.8948063260709
 20
323.4568845596012
 30
0.0
 11
-194.9573337638193
 21
323.5641473527268
 31
0.0
  0
LINE
  5
2D3
  8
0
  6
CONTINUOUS
 62
     7
 10
-194.9573337638193
 20
323.5641473527268
 30
0.0
 11
-195.0245458596081
 21
323.6691772087932
 31
0.0
  0
LINE
  5
2D4
  8
0
  6
CONTINUOUS
 62
     7
 10
-195.0245458596081
 20
323.6691772087932
 30
0.0
 11
-195.0960629140148
 21
323.7713248938559
 31
0.0
  0
LINE
  5
2D5
  8
0
  6
CONTINUOUS
 62
     7
 10
-195.0960629140148
 20
323.7713248938559
 30
0.0
 11
-195.17210198459
 21
323.87083554426
 31
0.0
  0
LINE
  5
2D6
  8
0
  6
CONTINUOUS
 62
     7
 10
-195.17210198459
 20
323.87083554426
 30
0.0
 11
-195.2515176580409
 21
323.9662675941768
 31
0.0
  0
LINE
  5
2D7
  8
0
  6
CONTINUOUS
 62
     7
 10
-195.2515176580409
 20
323.9662675941768
 30
0.0
 11
-195.3351836173374
 21
324.0587223684568
 31
0.0
  0
LINE
  5
2D8
  8
0
  6
CONTINUOUS
 62
     7
 10
-195.3351836173374
 20
324.0587223684568
 30
0.0
 11
-195.4226179638261
 21
324.1476224436428
 31
0.0
  0
LINE
  5
2D9
  8
0
  6
CONTINUOUS
 62
     7
 10
-195.4226179638261
 20
324.1476224436428
 30
0.0
 11
-195.5140753279711
 21
324.2331736440016
 31
0.0
  0
LINE
  5
2DA
  8
0
  6
CONTINUOUS
 62
     7
 10
-195.5140753279711
 20
324.2331736440016
 30
0.0
 11
-195.6081874683939
 21
324.3141438217409
 31
0.0
  0
LINE
  5
2DB
  8
0
  6
CONTINUOUS
 62
     7
 10
-195.6081874683939
 20
324.3141438217409
 30
0.0
 11
-195.7059983364942
 21
324.3914745602263
 31
0.0
  0
LINE
  5
2DC
  8
0
  6
CONTINUOUS
 62
     7
 10
-195.7059983364942
 20
324.3914745602263
 30
0.0
 11
-195.8069371288194
 21
324.4646761692824
 31
0.0
  0
LINE
  5
2DD
  8
0
  6
CONTINUOUS
 62
     7
 10
-195.8069371288194
 20
324.4646761692824
 30
0.0
 11
-195.9112890182237
 21
324.5339094915684
 31
0.0
  0
LINE
  5
2DE
  8
0
  6
CONTINUOUS
 62
     7
 10
-195.9112890182237
 20
324.5339094915684
 30
0.0
 11
-196.0175011624037
 21
324.5981860808196
 31
0.0
  0
LINE
  5
2DF
  8
0
  6
CONTINUOUS
 62
     7
 10
-196.0175011624037
 20
324.5981860808196
 30
0.0
 11
-196.1267585252262
 21
324.6582614780935
 31
0.0
  0
LINE
  5
2E0
  8
0
  6
CONTINUOUS
 62
     7
 10
-196.1267585252262
 20
324.6582614780935
 30
0.0
 11
-196.2384171430234
 21
324.713747228452
 31
0.0
  0
LINE
  5
2E1
  8
0
  6
CONTINUOUS
 62
     7
 10
-196.2384171430234
 20
324.713747228452
 30
0.0
 11
-196.3527848625601
 21
324.7647547667431
 31
0.0
  0
LINE
  5
2E2
  8
0
  6
CONTINUOUS
 62
     7
 10
-196.3527848625601
 20
324.7647547667431
 30
0.0
 11
-196.4681676427566
 21
324.8105666396113
 31
0.0
  0
LINE
  5
2E3
  8
0
  6
CONTINUOUS
 62
     7
 10
-196.4681676427566
 20
324.8105666396113
 30
0.0
 11
-196.5858582128819
 21
324.8517314377784
 31
0.0
  0
LINE
  5
2E4
  8
0
  6
CONTINUOUS
 62
     7
 10
-196.5858582128819
 20
324.8517314377784
 30
0.0
 11
-196.7051572092842
 21
324.88797265132
 31
0.0
  0
LINE
  5
2E5
  8
0
  6
CONTINUOUS
 62
     7
 10
-196.7051572092842
 20
324.88797265132
 30
0.0
 11
-196.8263866639621
 21
324.9193492440283
 31
0.0
  0
LINE
  5
2E6
  8
0
  6
CONTINUOUS
 62
     7
 10
-196.8263866639621
 20
324.9193492440283
 30
0.0
 11
-196.9107503107423
 21
324.9380362025832
 31
0.0
  0
LINE
  5
2E7
  8
0
  6
CONTINUOUS
 62
     7
 10
-196.9107503107423
 20
324.9380362025832
 30
0.0
 11
-196.9956171308374
 21
324.9542862715888
 31
0.0
  0
LINE
  5
2E8
  8
0
  6
CONTINUOUS
 62
     7
 10
-196.9956171308374
 20
324.9542862715888
 30
0.0
 11
-197.0812023309141
 21
324.9681268947731
 31
0.0
  0
LINE
  5
2E9
  8
0
  6
CONTINUOUS
 62
     7
 10
-197.0812023309141
 20
324.9681268947731
 30
0.0
 11
-197.1671517242017
 21
324.9794891925392
 31
0.0
  0
LINE
  5
2EA
  8
0
  6
CONTINUOUS
 62
     7
 10
-197.1671517242017
 20
324.9794891925392
 30
0.0
 11
-197.2542764720562
 21
324.9884404521456
 31
0.0
  0
LINE
  5
2EB
  8
0
  6
CONTINUOUS
 62
     7
 10
-197.2542764720562
 20
324.9884404521456
 30
0.0
 11
-197.3416253886286
 21
324.994845154038
 31
0.0
  0
LINE
  5
2EC
  8
0
  6
CONTINUOUS
 62
     7
 10
-197.3416253886286
 20
324.994845154038
 30
0.0
 11
-197.4294244368637
 21
324.9987055617436
 31
0.0
  0
LINE
  5
2ED
  8
0
  6
CONTINUOUS
 62
     7
 10
-197.4294244368637
 20
324.9987055617436
 30
0.0
 11
-197.5172988935006
 21
324.9999931009968
 31
0.0
  0
LINE
  5
2EE
  8
0
  6
CONTINUOUS
 62
   253
 10
-128.5628756343978
 20
321.9945132006141
 30
0.0
 11
-128.5628756343978
 21
322.5209376275724
 31
0.0
  0
LINE
  5
2EF
  8
0
  6
CONTINUOUS
 62
     7
 10
-128.5628756343978
 20
322.5209376275724
 30
0.0
 11
-128.5869611488457
 21
322.6427377582432
 31
0.0
  0
LINE
  5
2F0
  8
0
  6
CONTINUOUS
 62
     7
 10
-128.5869611488457
 20
322.6427377582432
 30
0.0
 11
-128.6161201443161
 21
322.7636434506011
 31
0.0
  0
LINE
  5
2F1
  8
0
  6
CONTINUOUS
 62
     7
 10
-128.6161201443161
 20
322.7636434506011
 30
0.0
 11
-128.6504562756642
 21
322.8838558702593
 31
0.0
  0
LINE
  5
2F2
  8
0
  6
CONTINUOUS
 62
     7
 10
-128.6504562756642
 20
322.8838558702593
 30
0.0
 11
-128.6898440306985
 21
323.0027388257269
 31
0.0
  0
LINE
  5
2F3
  8
0
  6
CONTINUOUS
 62
     7
 10
-128.6898440306985
 20
323.0027388257269
 30
0.0
 11
-128.7337568232605
 21
323.1188735826941
 31
0.0
  0
LINE
  5
2F4
  8
0
  6
CONTINUOUS
 62
     7
 10
-128.7337568232605
 20
323.1188735826941
 30
0.0
 11
-128.7826593991793
 21
323.2335814075828
 31
0.0
  0
LINE
  5
2F5
  8
0
  6
CONTINUOUS
 62
     7
 10
-128.7826593991793
 20
323.2335814075828
 30
0.0
 11
-128.8362847383437
 21
323.3461591711156
 31
0.0
  0
LINE
  5
2F6
  8
0
  6
CONTINUOUS
 62
     7
 10
-128.8362847383437
 20
323.3461591711156
 30
0.0
 11
-128.894806326071
 21
323.4568845596012
 31
0.0
  0
LINE
  5
2F7
  8
0
  6
CONTINUOUS
 62
     7
 10
-128.894806326071
 20
323.4568845596012
 30
0.0
 11
-128.9573337638193
 21
323.5641473527268
 31
0.0
  0
LINE
  5
2F8
  8
0
  6
CONTINUOUS
 62
     7
 10
-128.9573337638193
 20
323.5641473527268
 30
0.0
 11
-129.0245458596081
 21
323.6691772087932
 31
0.0
  0
LINE
  5
2F9
  8
0
  6
CONTINUOUS
 62
     7
 10
-129.0245458596081
 20
323.6691772087932
 30
0.0
 11
-129.096062914015
 21
323.7713248938559
 31
0.0
  0
LINE
  5
2FA
  8
0
  6
CONTINUOUS
 62
     7
 10
-129.096062914015
 20
323.7713248938559
 30
0.0
 11
-129.1721019845901
 21
323.87083554426
 31
0.0
  0
LINE
  5
2FB
  8
0
  6
CONTINUOUS
 62
     7
 10
-129.1721019845901
 20
323.87083554426
 30
0.0
 11
-129.251517658041
 21
323.9662675941768
 31
0.0
  0
LINE
  5
2FC
  8
0
  6
CONTINUOUS
 62
     7
 10
-129.251517658041
 20
323.9662675941768
 30
0.0
 11
-129.3351836173373
 21
324.0587223684568
 31
0.0
  0
LINE
  5
2FD
  8
0
  6
CONTINUOUS
 62
     7
 10
-129.3351836173373
 20
324.0587223684568
 30
0.0
 11
-129.4226179638262
 21
324.1476224436428
 31
0.0
  0
LINE
  5
2FE
  8
0
  6
CONTINUOUS
 62
     7
 10
-129.4226179638262
 20
324.1476224436428
 30
0.0
 11
-129.5140753279713
 21
324.2331736440016
 31
0.0
  0
LINE
  5
2FF
  8
0
  6
CONTINUOUS
 62
     7
 10
-129.5140753279713
 20
324.2331736440016
 30
0.0
 11
-129.6081874683933
 21
324.3141438217409
 31
0.0
  0
LINE
  5
300
  8
0
  6
CONTINUOUS
 62
     7
 10
-129.6081874683933
 20
324.3141438217409
 30
0.0
 11
-129.7059983364941
 21
324.3914745602263
 31
0.0
  0
LINE
  5
301
  8
0
  6
CONTINUOUS
 62
     7
 10
-129.7059983364941
 20
324.3914745602263
 30
0.0
 11
-129.806937128819
 21
324.4646761692824
 31
0.0
  0
LINE
  5
302
  8
0
  6
CONTINUOUS
 62
     7
 10
-129.806937128819
 20
324.4646761692824
 30
0.0
 11
-129.9112890182237
 21
324.5339094915684
 31
0.0
  0
LINE
  5
303
  8
0
  6
CONTINUOUS
 62
     7
 10
-129.9112890182237
 20
324.5339094915684
 30
0.0
 11
-130.0175011624038
 21
324.5981860808196
 31
0.0
  0
LINE
  5
304
  8
0
  6
CONTINUOUS
 62
     7
 10
-130.0175011624038
 20
324.5981860808196
 30
0.0
 11
-130.1267585252261
 21
324.6582614780935
 31
0.0
  0
LINE
  5
305
  8
0
  6
CONTINUOUS
 62
     7
 10
-130.1267585252261
 20
324.6582614780935
 30
0.0
 11
-130.2384171430231
 21
324.713747228452
 31
0.0
  0
LINE
  5
306
  8
0
  6
CONTINUOUS
 62
     7
 10
-130.2384171430231
 20
324.713747228452
 30
0.0
 11
-130.3527848625601
 21
324.7647547667431
 31
0.0
  0
LINE
  5
307
  8
0
  6
CONTINUOUS
 62
     7
 10
-130.3527848625601
 20
324.7647547667431
 30
0.0
 11
-130.4681676427566
 21
324.8105666396113
 31
0.0
  0
LINE
  5
308
  8
0
  6
CONTINUOUS
 62
     7
 10
-130.4681676427566
 20
324.8105666396113
 30
0.0
 11
-130.5858582128818
 21
324.8517314377784
 31
0.0
  0
LINE
  5
309
  8
0
  6
CONTINUOUS
 62
     7
 10
-130.5858582128818
 20
324.8517314377784
 30
0.0
 11
-130.7051572092841
 21
324.88797265132
 31
0.0
  0
LINE
  5
30A
  8
0
  6
CONTINUOUS
 62
     7
 10
-130.7051572092841
 20
324.88797265132
 30
0.0
 11
-130.8263866639621
 21
324.9193492440283
 31
0.0
  0
LINE
  5
30B
  8
0
  6
CONTINUOUS
 62
     7
 10
-130.8263866639621
 20
324.9193492440283
 30
0.0
 11
-130.9107503107429
 21
324.9380362025832
 31
0.0
  0
LINE
  5
30C
  8
0
  6
CONTINUOUS
 62
     7
 10
-130.9107503107429
 20
324.9380362025832
 30
0.0
 11
-130.9956171308373
 21
324.9542862715888
 31
0.0
  0
LINE
  5
30D
  8
0
  6
CONTINUOUS
 62
     7
 10
-130.9956171308373
 20
324.9542862715888
 30
0.0
 11
-131.0812023309142
 21
324.9681268947731
 31
0.0
  0
LINE
  5
30E
  8
0
  6
CONTINUOUS
 62
     7
 10
-131.0812023309142
 20
324.9681268947731
 30
0.0
 11
-131.1671517242017
 21
324.9794891925392
 31
0.0
  0
LINE
  5
30F
  8
0
  6
CONTINUOUS
 62
     7
 10
-131.1671517242017
 20
324.9794891925392
 30
0.0
 11
-131.2542764720557
 21
324.9884404521456
 31
0.0
  0
LINE
  5
310
  8
0
  6
CONTINUOUS
 62
     7
 10
-131.2542764720557
 20
324.9884404521456
 30
0.0
 11
-131.3416253886286
 21
324.994845154038
 31
0.0
  0
LINE
  5
311
  8
0
  6
CONTINUOUS
 62
     7
 10
-131.3416253886286
 20
324.994845154038
 30
0.0
 11
-131.4294244368639
 21
324.9987055617436
 31
0.0
  0
LINE
  5
312
  8
0
  6
CONTINUOUS
 62
     7
 10
-131.4294244368639
 20
324.9987055617436
 30
0.0
 11
-131.5172988935001
 21
324.9999931009968
 31
0.0
  0
LINE
  5
313
  8
0
  6
CONTINUOUS
 62
   253
 10
-172.5628756343978
 20
321.9945132006141
 30
0.0
 11
-172.5628756343978
 21
322.5209376275724
 31
0.0
  0
LINE
  5
314
  8
0
  6
CONTINUOUS
 62
     7
 10
-172.5628756343978
 20
322.5209376275724
 30
0.0
 11
-172.5869611488453
 21
322.6427377582428
 31
0.0
  0
LINE
  5
315
  8
0
  6
CONTINUOUS
 62
     7
 10
-172.5869611488453
 20
322.6427377582428
 30
0.0
 11
-172.6161201443161
 21
322.7636434506011
 31
0.0
  0
LINE
  5
316
  8
0
  6
CONTINUOUS
 62
     7
 10
-172.6161201443161
 20
322.7636434506011
 30
0.0
 11
-172.6504562756641
 21
322.8838558702593
 31
0.0
  0
LINE
  5
317
  8
0
  6
CONTINUOUS
 62
     7
 10
-172.6504562756641
 20
322.8838558702593
 30
0.0
 11
-172.6898440306985
 21
323.0027388257269
 31
0.0
  0
LINE
  5
318
  8
0
  6
CONTINUOUS
 62
     7
 10
-172.6898440306985
 20
323.0027388257269
 30
0.0
 11
-172.7337568232605
 21
323.1188735826941
 31
0.0
  0
LINE
  5
319
  8
0
  6
CONTINUOUS
 62
     7
 10
-172.7337568232605
 20
323.1188735826941
 30
0.0
 11
-172.7826593991795
 21
323.2335814075828
 31
0.0
  0
LINE
  5
31A
  8
0
  6
CONTINUOUS
 62
     7
 10
-172.7826593991795
 20
323.2335814075828
 30
0.0
 11
-172.8362847383438
 21
323.3461591711156
 31
0.0
  0
LINE
  5
31B
  8
0
  6
CONTINUOUS
 62
     7
 10
-172.8362847383438
 20
323.3461591711156
 30
0.0
 11
-172.8948063260709
 21
323.4568845596012
 31
0.0
  0
LINE
  5
31C
  8
0
  6
CONTINUOUS
 62
     7
 10
-172.8948063260709
 20
323.4568845596012
 30
0.0
 11
-172.9573337638193
 21
323.5641473527268
 31
0.0
  0
LINE
  5
31D
  8
0
  6
CONTINUOUS
 62
     7
 10
-172.9573337638193
 20
323.5641473527268
 30
0.0
 11
-173.024545859608
 21
323.6691772087932
 31
0.0
  0
LINE
  5
31E
  8
0
  6
CONTINUOUS
 62
     7
 10
-173.024545859608
 20
323.6691772087932
 30
0.0
 11
-173.0960629140148
 21
323.7713248938559
 31
0.0
  0
LINE
  5
31F
  8
0
  6
CONTINUOUS
 62
     7
 10
-173.0960629140148
 20
323.7713248938559
 30
0.0
 11
-173.1721019845895
 21
323.87083554426
 31
0.0
  0
LINE
  5
320
  8
0
  6
CONTINUOUS
 62
     7
 10
-173.1721019845895
 20
323.87083554426
 30
0.0
 11
-173.2515176580409
 21
323.9662675941768
 31
0.0
  0
LINE
  5
321
  8
0
  6
CONTINUOUS
 62
     7
 10
-173.2515176580409
 20
323.9662675941768
 30
0.0
 11
-173.3351836173373
 21
324.0587223684568
 31
0.0
  0
LINE
  5
322
  8
0
  6
CONTINUOUS
 62
     7
 10
-173.3351836173373
 20
324.0587223684568
 30
0.0
 11
-173.4226179638261
 21
324.1476224436428
 31
0.0
  0
LINE
  5
323
  8
0
  6
CONTINUOUS
 62
     7
 10
-173.4226179638261
 20
324.1476224436428
 30
0.0
 11
-173.5140753279711
 21
324.2331736440016
 31
0.0
  0
LINE
  5
324
  8
0
  6
CONTINUOUS
 62
     7
 10
-173.5140753279711
 20
324.2331736440016
 30
0.0
 11
-173.6081874683935
 21
324.3141438217409
 31
0.0
  0
LINE
  5
325
  8
0
  6
CONTINUOUS
 62
     7
 10
-173.6081874683935
 20
324.3141438217409
 30
0.0
 11
-173.7059983364941
 21
324.3914745602263
 31
0.0
  0
LINE
  5
326
  8
0
  6
CONTINUOUS
 62
     7
 10
-173.7059983364941
 20
324.3914745602263
 30
0.0
 11
-173.8069371288193
 21
324.4646761692824
 31
0.0
  0
LINE
  5
327
  8
0
  6
CONTINUOUS
 62
     7
 10
-173.8069371288193
 20
324.4646761692824
 30
0.0
 11
-173.9112890182237
 21
324.5339094915684
 31
0.0
  0
LINE
  5
328
  8
0
  6
CONTINUOUS
 62
     7
 10
-173.9112890182237
 20
324.5339094915684
 30
0.0
 11
-174.0175011624036
 21
324.5981860808196
 31
0.0
  0
LINE
  5
329
  8
0
  6
CONTINUOUS
 62
     7
 10
-174.0175011624036
 20
324.5981860808196
 30
0.0
 11
-174.1267585252262
 21
324.6582614780935
 31
0.0
  0
LINE
  5
32A
  8
0
  6
CONTINUOUS
 62
     7
 10
-174.1267585252262
 20
324.6582614780935
 30
0.0
 11
-174.2384171430234
 21
324.713747228452
 31
0.0
  0
LINE
  5
32B
  8
0
  6
CONTINUOUS
 62
     7
 10
-174.2384171430234
 20
324.713747228452
 30
0.0
 11
-174.3527848625601
 21
324.7647547667431
 31
0.0
  0
LINE
  5
32C
  8
0
  6
CONTINUOUS
 62
     7
 10
-174.3527848625601
 20
324.7647547667431
 30
0.0
 11
-174.4681676427566
 21
324.8105666396113
 31
0.0
  0
LINE
  5
32D
  8
0
  6
CONTINUOUS
 62
     7
 10
-174.4681676427566
 20
324.8105666396113
 30
0.0
 11
-174.5858582128818
 21
324.8517314377784
 31
0.0
  0
LINE
  5
32E
  8
0
  6
CONTINUOUS
 62
     7
 10
-174.5858582128818
 20
324.8517314377784
 30
0.0
 11
-174.7051572092842
 21
324.88797265132
 31
0.0
  0
LINE
  5
32F
  8
0
  6
CONTINUOUS
 62
     7
 10
-174.7051572092842
 20
324.88797265132
 30
0.0
 11
-174.8263866639621
 21
324.9193492440283
 31
0.0
  0
LINE
  5
330
  8
0
  6
CONTINUOUS
 62
     7
 10
-174.8263866639621
 20
324.9193492440283
 30
0.0
 11
-174.9107503107423
 21
324.9380362025832
 31
0.0
  0
LINE
  5
331
  8
0
  6
CONTINUOUS
 62
     7
 10
-174.9107503107423
 20
324.9380362025832
 30
0.0
 11
-174.9956171308373
 21
324.9542862715888
 31
0.0
  0
LINE
  5
332
  8
0
  6
CONTINUOUS
 62
     7
 10
-174.9956171308373
 20
324.9542862715888
 30
0.0
 11
-175.0812023309141
 21
324.9681268947731
 31
0.0
  0
LINE
  5
333
  8
0
  6
CONTINUOUS
 62
     7
 10
-175.0812023309141
 20
324.9681268947731
 30
0.0
 11
-175.1671517242017
 21
324.9794891925392
 31
0.0
  0
LINE
  5
334
  8
0
  6
CONTINUOUS
 62
     7
 10
-175.1671517242017
 20
324.9794891925392
 30
0.0
 11
-175.2542764720561
 21
324.9884404521456
 31
0.0
  0
LINE
  5
335
  8
0
  6
CONTINUOUS
 62
     7
 10
-175.2542764720561
 20
324.9884404521456
 30
0.0
 11
-175.3416253886286
 21
324.994845154038
 31
0.0
  0
LINE
  5
336
  8
0
  6
CONTINUOUS
 62
     7
 10
-175.3416253886286
 20
324.994845154038
 30
0.0
 11
-175.4294244368637
 21
324.9987055617436
 31
0.0
  0
LINE
  5
337
  8
0
  6
CONTINUOUS
 62
     7
 10
-175.4294244368637
 20
324.9987055617436
 30
0.0
 11
-175.5172988935003
 21
324.9999931009968
 31
0.0
  0
LINE
  5
338
  8
0
  6
CONTINUOUS
 62
   253
 10
-185.4371243654422
 20
218.0054788721236
 30
0.0
 11
-185.4371243654724
 21
217.479062385152
 31
0.0
  0
LINE
  5
339
  8
0
  6
CONTINUOUS
 62
     7
 10
-182.4827011064003
 20
215.0000068989032
 30
0.0
 11
-182.6068202272268
 21
215.0025755913124
 31
0.0
  0
LINE
  5
33A
  8
0
  6
CONTINUOUS
 62
     7
 10
-182.6068202272268
 20
215.0025755913124
 30
0.0
 11
-182.7309393480534
 21
215.0102949102823
 31
0.0
  0
LINE
  5
33B
  8
0
  6
CONTINUOUS
 62
     7
 10
-182.7309393480534
 20
215.0102949102823
 30
0.0
 11
-182.8552745755034
 21
215.0232319646755
 31
0.0
  0
LINE
  5
33C
  8
0
  6
CONTINUOUS
 62
     7
 10
-182.8552745755034
 20
215.0232319646755
 30
0.0
 11
-182.9791775897065
 21
215.0413735827208
 31
0.0
  0
LINE
  5
33D
  8
0
  6
CONTINUOUS
 62
     7
 10
-182.9791775897065
 20
215.0413735827208
 30
0.0
 11
-183.1011591507148
 21
215.0644473875856
 31
0.0
  0
LINE
  5
33E
  8
0
  6
CONTINUOUS
 62
     7
 10
-183.1011591507148
 20
215.0644473875856
 30
0.0
 11
-183.2226017786338
 21
215.0926816201956
 31
0.0
  0
LINE
  5
33F
  8
0
  6
CONTINUOUS
 62
     7
 10
-183.2226017786338
 20
215.0926816201956
 30
0.0
 11
-183.3427667420835
 21
215.125935379838
 31
0.0
  0
LINE
  5
340
  8
0
  6
CONTINUOUS
 62
     7
 10
-183.3427667420835
 20
215.125935379838
 30
0.0
 11
-183.4619576173317
 21
215.1643311983744
 31
0.0
  0
LINE
  5
341
  8
0
  6
CONTINUOUS
 62
     7
 10
-183.4619576173317
 20
215.1643311983744
 30
0.0
 11
-183.5784378813356
 21
215.2072733077644
 31
0.0
  0
LINE
  5
342
  8
0
  6
CONTINUOUS
 62
     7
 10
-183.5784378813356
 20
215.2072733077644
 30
0.0
 11
-183.6935325305988
 21
215.2552153699924
 31
0.0
  0
LINE
  5
343
  8
0
  6
CONTINUOUS
 62
     7
 10
-183.6935325305988
 20
215.2552153699924
 30
0.0
 11
-183.8065363834966
 21
215.3078961756491
 31
0.0
  0
LINE
  5
344
  8
0
  6
CONTINUOUS
 62
     7
 10
-183.8065363834966
 20
215.3078961756491
 30
0.0
 11
-183.9177285404849
 21
215.3654867815976
 31
0.0
  0
LINE
  5
345
  8
0
  6
CONTINUOUS
 62
     7
 10
-183.9177285404849
 20
215.3654867815976
 30
0.0
 11
-184.0254951242297
 21
215.4271123030244
 31
0.0
  0
LINE
  5
346
  8
0
  6
CONTINUOUS
 62
     7
 10
-184.0254951242297
 20
215.4271123030244
 30
0.0
 11
-184.1310677100803
 21
215.4934393639004
 31
0.0
  0
LINE
  5
347
  8
0
  6
CONTINUOUS
 62
     7
 10
-184.1310677100803
 20
215.4934393639004
 30
0.0
 11
-184.2337941251413
 21
215.5640936782808
 31
0.0
  0
LINE
  5
348
  8
0
  6
CONTINUOUS
 62
     7
 10
-184.2337941251413
 20
215.5640936782808
 30
0.0
 11
-184.3339212979167
 21
215.6392901054033
 31
0.0
  0
LINE
  5
349
  8
0
  6
CONTINUOUS
 62
     7
 10
-184.3339212979167
 20
215.6392901054033
 30
0.0
 11
-184.4300025138297
 21
215.7178988376557
 31
0.0
  0
LINE
  5
34A
  8
0
  6
CONTINUOUS
 62
     7
 10
-184.4300025138297
 20
215.7178988376557
 30
0.0
 11
-184.5231419581894
 21
215.8007810371525
 31
0.0
  0
LINE
  5
34B
  8
0
  6
CONTINUOUS
 62
     7
 10
-184.5231419581894
 20
215.8007810371525
 30
0.0
 11
-184.612758448431
 21
215.8874596945593
 31
0.0
  0
LINE
  5
34C
  8
0
  6
CONTINUOUS
 62
     7
 10
-184.612758448431
 20
215.8874596945593
 30
0.0
 11
-184.6990599348308
 21
215.9781875417496
 31
0.0
  0
LINE
  5
34D
  8
0
  6
CONTINUOUS
 62
     7
 10
-184.6990599348308
 20
215.9781875417496
 30
0.0
 11
-184.7808067383834
 21
216.0716110701908
 31
0.0
  0
LINE
  5
34E
  8
0
  6
CONTINUOUS
 62
     7
 10
-184.7808067383834
 20
216.0716110701908
 30
0.0
 11
-184.8589452191574
 21
216.1687621931096
 31
0.0
  0
LINE
  5
34F
  8
0
  6
CONTINUOUS
 62
     7
 10
-184.8589452191574
 20
216.1687621931096
 30
0.0
 11
-184.9329811938234
 21
216.2690743585928
 31
0.0
  0
LINE
  5
350
  8
0
  6
CONTINUOUS
 62
     7
 10
-184.9329811938234
 20
216.2690743585928
 30
0.0
 11
-185.0030779050238
 21
216.3728311990132
 31
0.0
  0
LINE
  5
351
  8
0
  6
CONTINUOUS
 62
     7
 10
-185.0030779050238
 20
216.3728311990132
 30
0.0
 11
-185.0682368434118
 21
216.4784928773632
 31
0.0
  0
LINE
  5
352
  8
0
  6
CONTINUOUS
 62
     7
 10
-185.0682368434118
 20
216.4784928773632
 30
0.0
 11
-185.1292204784216
 21
216.5872335735291
 31
0.0
  0
LINE
  5
353
  8
0
  6
CONTINUOUS
 62
     7
 10
-185.1292204784216
 20
216.5872335735291
 30
0.0
 11
-185.1856352249366
 21
216.6984128313989
 31
0.0
  0
LINE
  5
354
  8
0
  6
CONTINUOUS
 62
     7
 10
-185.1856352249366
 20
216.6984128313989
 30
0.0
 11
-185.2375951222314
 21
216.8123373623104
 31
0.0
  0
LINE
  5
355
  8
0
  6
CONTINUOUS
 62
     7
 10
-185.2375951222314
 20
216.8123373623104
 30
0.0
 11
-185.2706725046449
 21
216.8922100317547
 31
0.0
  0
LINE
  5
356
  8
0
  6
CONTINUOUS
 62
     7
 10
-185.2706725046449
 20
216.8922100317547
 30
0.0
 11
-185.3014351371702
 21
216.9730023067277
 31
0.0
  0
LINE
  5
357
  8
0
  6
CONTINUOUS
 62
     7
 10
-185.3014351371702
 20
216.9730023067277
 30
0.0
 11
-185.3299475232986
 21
217.0549215909169
 31
0.0
  0
LINE
  5
358
  8
0
  6
CONTINUOUS
 62
     7
 10
-185.3299475232986
 20
217.0549215909169
 30
0.0
 11
-185.3560801583629
 21
217.1376306497232
 31
0.0
  0
LINE
  5
359
  8
0
  6
CONTINUOUS
 62
     7
 10
-185.3560801583629
 20
217.1376306497232
 30
0.0
 11
-185.3800404528554
 21
217.2219175419221
 31
0.0
  0
LINE
  5
35A
  8
0
  6
CONTINUOUS
 62
     7
 10
-185.3800404528554
 20
217.2219175419221
 30
0.0
 11
-185.4015293752411
 21
217.3068680151177
 31
0.0
  0
LINE
  5
35B
  8
0
  6
CONTINUOUS
 62
     7
 10
-185.4015293752411
 20
217.3068680151177
 30
0.0
 11
-185.4205884532618
 21
217.3927044579031
 31
0.0
  0
LINE
  5
35C
  8
0
  6
CONTINUOUS
 62
     7
 10
-185.4205884532618
 20
217.3927044579031
 30
0.0
 11
-185.4371243654724
 21
217.479062385152
 31
0.0
  0
LINE
  5
35D
  8
0
  6
CONTINUOUS
 62
   253
 10
-141.437124365442
 20
218.0054788721236
 30
0.0
 11
-141.4371243654726
 21
217.479062385152
 31
0.0
  0
LINE
  5
35E
  8
0
  6
CONTINUOUS
 62
     7
 10
-138.4827011064
 20
215.0000068989032
 30
0.0
 11
-138.6068202272268
 21
215.0025755913124
 31
0.0
  0
LINE
  5
35F
  8
0
  6
CONTINUOUS
 62
     7
 10
-138.6068202272268
 20
215.0025755913124
 30
0.0
 11
-138.7309393480538
 21
215.0102949102823
 31
0.0
  0
LINE
  5
360
  8
0
  6
CONTINUOUS
 62
     7
 10
-138.7309393480538
 20
215.0102949102823
 30
0.0
 11
-138.8552745755036
 21
215.0232319646755
 31
0.0
  0
LINE
  5
361
  8
0
  6
CONTINUOUS
 62
     7
 10
-138.8552745755036
 20
215.0232319646755
 30
0.0
 11
-138.9791775897065
 21
215.0413735827208
 31
0.0
  0
LINE
  5
362
  8
0
  6
CONTINUOUS
 62
     7
 10
-138.9791775897065
 20
215.0413735827208
 30
0.0
 11
-139.1011591507145
 21
215.0644473875856
 31
0.0
  0
LINE
  5
363
  8
0
  6
CONTINUOUS
 62
     7
 10
-139.1011591507145
 20
215.0644473875856
 30
0.0
 11
-139.2226017786338
 21
215.0926816201956
 31
0.0
  0
LINE
  5
364
  8
0
  6
CONTINUOUS
 62
     7
 10
-139.2226017786338
 20
215.0926816201956
 30
0.0
 11
-139.3427667420832
 21
215.125935379838
 31
0.0
  0
LINE
  5
365
  8
0
  6
CONTINUOUS
 62
     7
 10
-139.3427667420832
 20
215.125935379838
 30
0.0
 11
-139.4619576173317
 21
215.1643311983744
 31
0.0
  0
LINE
  5
366
  8
0
  6
CONTINUOUS
 62
     7
 10
-139.4619576173317
 20
215.1643311983744
 30
0.0
 11
-139.5784378813358
 21
215.2072733077644
 31
0.0
  0
LINE
  5
367
  8
0
  6
CONTINUOUS
 62
     7
 10
-139.5784378813358
 20
215.2072733077644
 30
0.0
 11
-139.6935325305988
 21
215.2552153699924
 31
0.0
  0
LINE
  5
368
  8
0
  6
CONTINUOUS
 62
     7
 10
-139.6935325305988
 20
215.2552153699924
 30
0.0
 11
-139.8065363834966
 21
215.3078961756491
 31
0.0
  0
LINE
  5
369
  8
0
  6
CONTINUOUS
 62
     7
 10
-139.8065363834966
 20
215.3078961756491
 30
0.0
 11
-139.9177285404849
 21
215.3654867815976
 31
0.0
  0
LINE
  5
36A
  8
0
  6
CONTINUOUS
 62
     7
 10
-139.9177285404849
 20
215.3654867815976
 30
0.0
 11
-140.0254951242297
 21
215.4271123030244
 31
0.0
  0
LINE
  5
36B
  8
0
  6
CONTINUOUS
 62
     7
 10
-140.0254951242297
 20
215.4271123030244
 30
0.0
 11
-140.13106771008
 21
215.4934393639004
 31
0.0
  0
LINE
  5
36C
  8
0
  6
CONTINUOUS
 62
     7
 10
-140.13106771008
 20
215.4934393639004
 30
0.0
 11
-140.2337941251408
 21
215.5640936782808
 31
0.0
  0
LINE
  5
36D
  8
0
  6
CONTINUOUS
 62
     7
 10
-140.2337941251408
 20
215.5640936782808
 30
0.0
 11
-140.3339212979169
 21
215.6392901054033
 31
0.0
  0
LINE
  5
36E
  8
0
  6
CONTINUOUS
 62
     7
 10
-140.3339212979169
 20
215.6392901054033
 30
0.0
 11
-140.4300025138296
 21
215.7178988376557
 31
0.0
  0
LINE
  5
36F
  8
0
  6
CONTINUOUS
 62
     7
 10
-140.4300025138296
 20
215.7178988376557
 30
0.0
 11
-140.5231419581894
 21
215.8007810371525
 31
0.0
  0
LINE
  5
370
  8
0
  6
CONTINUOUS
 62
     7
 10
-140.5231419581894
 20
215.8007810371525
 30
0.0
 11
-140.6127584484307
 21
215.8874596945593
 31
0.0
  0
LINE
  5
371
  8
0
  6
CONTINUOUS
 62
     7
 10
-140.6127584484307
 20
215.8874596945593
 30
0.0
 11
-140.6990599348308
 21
215.9781875417496
 31
0.0
  0
LINE
  5
372
  8
0
  6
CONTINUOUS
 62
     7
 10
-140.6990599348308
 20
215.9781875417496
 30
0.0
 11
-140.7808067383833
 21
216.0716110701908
 31
0.0
  0
LINE
  5
373
  8
0
  6
CONTINUOUS
 62
     7
 10
-140.7808067383833
 20
216.0716110701908
 30
0.0
 11
-140.8589452191569
 21
216.1687621931096
 31
0.0
  0
LINE
  5
374
  8
0
  6
CONTINUOUS
 62
     7
 10
-140.8589452191569
 20
216.1687621931096
 30
0.0
 11
-140.9329811938234
 21
216.2690743585928
 31
0.0
  0
LINE
  5
375
  8
0
  6
CONTINUOUS
 62
     7
 10
-140.9329811938234
 20
216.2690743585928
 30
0.0
 11
-141.0030779050238
 21
216.3728311990132
 31
0.0
  0
LINE
  5
376
  8
0
  6
CONTINUOUS
 62
     7
 10
-141.0030779050238
 20
216.3728311990132
 30
0.0
 11
-141.0682368434117
 21
216.4784928773632
 31
0.0
  0
LINE
  5
377
  8
0
  6
CONTINUOUS
 62
     7
 10
-141.0682368434117
 20
216.4784928773632
 30
0.0
 11
-141.129220478422
 21
216.5872335735291
 31
0.0
  0
LINE
  5
378
  8
0
  6
CONTINUOUS
 62
     7
 10
-141.129220478422
 20
216.5872335735291
 30
0.0
 11
-141.1856352249365
 21
216.6984128313989
 31
0.0
  0
LINE
  5
379
  8
0
  6
CONTINUOUS
 62
     7
 10
-141.1856352249365
 20
216.6984128313989
 30
0.0
 11
-141.2375951222313
 21
216.8123373623104
 31
0.0
  0
LINE
  5
37A
  8
0
  6
CONTINUOUS
 62
     7
 10
-141.2375951222313
 20
216.8123373623104
 30
0.0
 11
-141.2706725046449
 21
216.8922100317547
 31
0.0
  0
LINE
  5
37B
  8
0
  6
CONTINUOUS
 62
     7
 10
-141.2706725046449
 20
216.8922100317547
 30
0.0
 11
-141.3014351371702
 21
216.9730023067277
 31
0.0
  0
LINE
  5
37C
  8
0
  6
CONTINUOUS
 62
     7
 10
-141.3014351371702
 20
216.9730023067277
 30
0.0
 11
-141.3299475232985
 21
217.0549215909169
 31
0.0
  0
LINE
  5
37D
  8
0
  6
CONTINUOUS
 62
     7
 10
-141.3299475232985
 20
217.0549215909169
 30
0.0
 11
-141.3560801583624
 21
217.1376306497232
 31
0.0
  0
LINE
  5
37E
  8
0
  6
CONTINUOUS
 62
     7
 10
-141.3560801583624
 20
217.1376306497232
 30
0.0
 11
-141.3800404528554
 21
217.2219175419221
 31
0.0
  0
LINE
  5
37F
  8
0
  6
CONTINUOUS
 62
     7
 10
-141.3800404528554
 20
217.2219175419221
 30
0.0
 11
-141.4015293752409
 21
217.3068680151177
 31
0.0
  0
LINE
  5
380
  8
0
  6
CONTINUOUS
 62
     7
 10
-141.4015293752409
 20
217.3068680151177
 30
0.0
 11
-141.4205884532618
 21
217.3927044579031
 31
0.0
  0
LINE
  5
381
  8
0
  6
CONTINUOUS
 62
     7
 10
-141.4205884532618
 20
217.3927044579031
 30
0.0
 11
-141.4371243654726
 21
217.479062385152
 31
0.0
  0
LINE
  5
382
  8
0
  6
CONTINUOUS
 62
     7
 10
-175.5172988935003
 20
215.0000068990036
 30
0.0
 11
-182.4827011064003
 21
215.0000068989032
 31
0.0
  0
LINE
  5
383
  8
0
  6
CONTINUOUS
 62
   253
 10
-229.4371243654423
 20
218.0054788721236
 30
0.0
 11
-229.4371243654725
 21
217.479062385152
 31
0.0
  0
LINE
  5
384
  8
0
  6
CONTINUOUS
 62
     7
 10
-226.4827011064003
 20
215.0000068989032
 30
0.0
 11
-226.6068202272269
 21
215.0025755913124
 31
0.0
  0
LINE
  5
385
  8
0
  6
CONTINUOUS
 62
     7
 10
-226.6068202272269
 20
215.0025755913124
 30
0.0
 11
-226.7309393480534
 21
215.0102949102823
 31
0.0
  0
LINE
  5
386
  8
0
  6
CONTINUOUS
 62
     7
 10
-226.7309393480534
 20
215.0102949102823
 30
0.0
 11
-226.8552745755035
 21
215.0232319646755
 31
0.0
  0
LINE
  5
387
  8
0
  6
CONTINUOUS
 62
     7
 10
-226.8552745755035
 20
215.0232319646755
 30
0.0
 11
-226.9791775897065
 21
215.0413735827208
 31
0.0
  0
LINE
  5
388
  8
0
  6
CONTINUOUS
 62
     7
 10
-226.9791775897065
 20
215.0413735827208
 30
0.0
 11
-227.1011591507146
 21
215.0644473875856
 31
0.0
  0
LINE
  5
389
  8
0
  6
CONTINUOUS
 62
     7
 10
-227.1011591507146
 20
215.0644473875856
 30
0.0
 11
-227.2226017786343
 21
215.0926816201956
 31
0.0
  0
LINE
  5
38A
  8
0
  6
CONTINUOUS
 62
     7
 10
-227.2226017786343
 20
215.0926816201956
 30
0.0
 11
-227.3427667420835
 21
215.125935379838
 31
0.0
  0
LINE
  5
38B
  8
0
  6
CONTINUOUS
 62
     7
 10
-227.3427667420835
 20
215.125935379838
 30
0.0
 11
-227.4619576173318
 21
215.1643311983744
 31
0.0
  0
LINE
  5
38C
  8
0
  6
CONTINUOUS
 62
     7
 10
-227.4619576173318
 20
215.1643311983744
 30
0.0
 11
-227.5784378813357
 21
215.2072733077644
 31
0.0
  0
LINE
  5
38D
  8
0
  6
CONTINUOUS
 62
     7
 10
-227.5784378813357
 20
215.2072733077644
 30
0.0
 11
-227.6935325305989
 21
215.2552153699924
 31
0.0
  0
LINE
  5
38E
  8
0
  6
CONTINUOUS
 62
     7
 10
-227.6935325305989
 20
215.2552153699924
 30
0.0
 11
-227.8065363834967
 21
215.3078961756491
 31
0.0
  0
LINE
  5
38F
  8
0
  6
CONTINUOUS
 62
     7
 10
-227.8065363834967
 20
215.3078961756491
 30
0.0
 11
-227.917728540485
 21
215.3654867815976
 31
0.0
  0
LINE
  5
390
  8
0
  6
CONTINUOUS
 62
     7
 10
-227.917728540485
 20
215.3654867815976
 30
0.0
 11
-228.0254951242298
 21
215.4271123030244
 31
0.0
  0
LINE
  5
391
  8
0
  6
CONTINUOUS
 62
     7
 10
-228.0254951242298
 20
215.4271123030244
 30
0.0
 11
-228.1310677100803
 21
215.4934393639004
 31
0.0
  0
LINE
  5
392
  8
0
  6
CONTINUOUS
 62
     7
 10
-228.1310677100803
 20
215.4934393639004
 30
0.0
 11
-228.2337941251413
 21
215.5640936782808
 31
0.0
  0
LINE
  5
393
  8
0
  6
CONTINUOUS
 62
     7
 10
-228.2337941251413
 20
215.5640936782808
 30
0.0
 11
-228.3339212979167
 21
215.6392901054033
 31
0.0
  0
LINE
  5
394
  8
0
  6
CONTINUOUS
 62
     7
 10
-228.3339212979167
 20
215.6392901054033
 30
0.0
 11
-228.4300025138297
 21
215.7178988376557
 31
0.0
  0
LINE
  5
395
  8
0
  6
CONTINUOUS
 62
     7
 10
-228.4300025138297
 20
215.7178988376557
 30
0.0
 11
-228.5231419581892
 21
215.8007810371525
 31
0.0
  0
LINE
  5
396
  8
0
  6
CONTINUOUS
 62
     7
 10
-228.5231419581892
 20
215.8007810371525
 30
0.0
 11
-228.612758448431
 21
215.8874596945593
 31
0.0
  0
LINE
  5
397
  8
0
  6
CONTINUOUS
 62
     7
 10
-228.612758448431
 20
215.8874596945593
 30
0.0
 11
-228.6990599348309
 21
215.9781875417496
 31
0.0
  0
LINE
  5
398
  8
0
  6
CONTINUOUS
 62
     7
 10
-228.6990599348309
 20
215.9781875417496
 30
0.0
 11
-228.7808067383834
 21
216.0716110701912
 31
0.0
  0
LINE
  5
399
  8
0
  6
CONTINUOUS
 62
     7
 10
-228.7808067383834
 20
216.0716110701912
 30
0.0
 11
-228.8589452191574
 21
216.1687621931096
 31
0.0
  0
LINE
  5
39A
  8
0
  6
CONTINUOUS
 62
     7
 10
-228.8589452191574
 20
216.1687621931096
 30
0.0
 11
-228.9329811938234
 21
216.2690743585928
 31
0.0
  0
LINE
  5
39B
  8
0
  6
CONTINUOUS
 62
     7
 10
-228.9329811938234
 20
216.2690743585928
 30
0.0
 11
-229.0030779050238
 21
216.3728311990132
 31
0.0
  0
LINE
  5
39C
  8
0
  6
CONTINUOUS
 62
     7
 10
-229.0030779050238
 20
216.3728311990132
 30
0.0
 11
-229.0682368434116
 21
216.4784928773632
 31
0.0
  0
LINE
  5
39D
  8
0
  6
CONTINUOUS
 62
     7
 10
-229.0682368434116
 20
216.4784928773632
 30
0.0
 11
-229.1292204784216
 21
216.5872335735291
 31
0.0
  0
LINE
  5
39E
  8
0
  6
CONTINUOUS
 62
     7
 10
-229.1292204784216
 20
216.5872335735291
 30
0.0
 11
-229.1856352249366
 21
216.6984128313989
 31
0.0
  0
LINE
  5
39F
  8
0
  6
CONTINUOUS
 62
     7
 10
-229.1856352249366
 20
216.6984128313989
 30
0.0
 11
-229.2375951222312
 21
216.8123373623104
 31
0.0
  0
LINE
  5
3A0
  8
0
  6
CONTINUOUS
 62
     7
 10
-229.2375951222312
 20
216.8123373623104
 30
0.0
 11
-229.2706725046449
 21
216.8922100317547
 31
0.0
  0
LINE
  5
3A1
  8
0
  6
CONTINUOUS
 62
     7
 10
-229.2706725046449
 20
216.8922100317547
 30
0.0
 11
-229.3014351371703
 21
216.9730023067277
 31
0.0
  0
LINE
  5
3A2
  8
0
  6
CONTINUOUS
 62
     7
 10
-229.3014351371703
 20
216.9730023067277
 30
0.0
 11
-229.3299475232986
 21
217.0549215909169
 31
0.0
  0
LINE
  5
3A3
  8
0
  6
CONTINUOUS
 62
     7
 10
-229.3299475232986
 20
217.0549215909169
 30
0.0
 11
-229.3560801583629
 21
217.1376306497232
 31
0.0
  0
LINE
  5
3A4
  8
0
  6
CONTINUOUS
 62
     7
 10
-229.3560801583629
 20
217.1376306497232
 30
0.0
 11
-229.3800404528556
 21
217.2219175419221
 31
0.0
  0
LINE
  5
3A5
  8
0
  6
CONTINUOUS
 62
     7
 10
-229.3800404528556
 20
217.2219175419221
 30
0.0
 11
-229.4015293752409
 21
217.3068680151177
 31
0.0
  0
LINE
  5
3A6
  8
0
  6
CONTINUOUS
 62
     7
 10
-229.4015293752409
 20
217.3068680151177
 30
0.0
 11
-229.4205884532618
 21
217.3927044579031
 31
0.0
  0
LINE
  5
3A7
  8
0
  6
CONTINUOUS
 62
     7
 10
-229.4205884532618
 20
217.3927044579031
 30
0.0
 11
-229.4371243654725
 21
217.479062385152
 31
0.0
  0
LINE
  5
3A8
  8
0
  6
CONTINUOUS
 62
   253
 10
-207.4371243654423
 20
218.0054788721236
 30
0.0
 11
-207.4371243654724
 21
217.479062385152
 31
0.0
  0
LINE
  5
3A9
  8
0
  6
CONTINUOUS
 62
     7
 10
-204.4827011064003
 20
215.0000068989032
 30
0.0
 11
-204.6068202272269
 21
215.0025755913124
 31
0.0
  0
LINE
  5
3AA
  8
0
  6
CONTINUOUS
 62
     7
 10
-204.6068202272269
 20
215.0025755913124
 30
0.0
 11
-204.7309393480534
 21
215.0102949102823
 31
0.0
  0
LINE
  5
3AB
  8
0
  6
CONTINUOUS
 62
     7
 10
-204.7309393480534
 20
215.0102949102823
 30
0.0
 11
-204.8552745755034
 21
215.0232319646755
 31
0.0
  0
LINE
  5
3AC
  8
0
  6
CONTINUOUS
 62
     7
 10
-204.8552745755034
 20
215.0232319646755
 30
0.0
 11
-204.9791775897065
 21
215.0413735827208
 31
0.0
  0
LINE
  5
3AD
  8
0
  6
CONTINUOUS
 62
     7
 10
-204.9791775897065
 20
215.0413735827208
 30
0.0
 11
-205.1011591507146
 21
215.0644473875856
 31
0.0
  0
LINE
  5
3AE
  8
0
  6
CONTINUOUS
 62
     7
 10
-205.1011591507146
 20
215.0644473875856
 30
0.0
 11
-205.2226017786338
 21
215.0926816201956
 31
0.0
  0
LINE
  5
3AF
  8
0
  6
CONTINUOUS
 62
     7
 10
-205.2226017786338
 20
215.0926816201956
 30
0.0
 11
-205.3427667420835
 21
215.125935379838
 31
0.0
  0
LINE
  5
3B0
  8
0
  6
CONTINUOUS
 62
     7
 10
-205.3427667420835
 20
215.125935379838
 30
0.0
 11
-205.4619576173318
 21
215.1643311983744
 31
0.0
  0
LINE
  5
3B1
  8
0
  6
CONTINUOUS
 62
     7
 10
-205.4619576173318
 20
215.1643311983744
 30
0.0
 11
-205.5784378813357
 21
215.2072733077644
 31
0.0
  0
LINE
  5
3B2
  8
0
  6
CONTINUOUS
 62
     7
 10
-205.5784378813357
 20
215.2072733077644
 30
0.0
 11
-205.6935325305988
 21
215.2552153699924
 31
0.0
  0
LINE
  5
3B3
  8
0
  6
CONTINUOUS
 62
     7
 10
-205.6935325305988
 20
215.2552153699924
 30
0.0
 11
-205.8065363834966
 21
215.3078961756491
 31
0.0
  0
LINE
  5
3B4
  8
0
  6
CONTINUOUS
 62
     7
 10
-205.8065363834966
 20
215.3078961756491
 30
0.0
 11
-205.9177285404849
 21
215.3654867815976
 31
0.0
  0
LINE
  5
3B5
  8
0
  6
CONTINUOUS
 62
     7
 10
-205.9177285404849
 20
215.3654867815976
 30
0.0
 11
-206.0254951242297
 21
215.4271123030244
 31
0.0
  0
LINE
  5
3B6
  8
0
  6
CONTINUOUS
 62
     7
 10
-206.0254951242297
 20
215.4271123030244
 30
0.0
 11
-206.1310677100803
 21
215.4934393639004
 31
0.0
  0
LINE
  5
3B7
  8
0
  6
CONTINUOUS
 62
     7
 10
-206.1310677100803
 20
215.4934393639004
 30
0.0
 11
-206.2337941251413
 21
215.5640936782808
 31
0.0
  0
LINE
  5
3B8
  8
0
  6
CONTINUOUS
 62
     7
 10
-206.2337941251413
 20
215.5640936782808
 30
0.0
 11
-206.3339212979167
 21
215.6392901054033
 31
0.0
  0
LINE
  5
3B9
  8
0
  6
CONTINUOUS
 62
     7
 10
-206.3339212979167
 20
215.6392901054033
 30
0.0
 11
-206.4300025138297
 21
215.7178988376557
 31
0.0
  0
LINE
  5
3BA
  8
0
  6
CONTINUOUS
 62
     7
 10
-206.4300025138297
 20
215.7178988376557
 30
0.0
 11
-206.5231419581892
 21
215.8007810371525
 31
0.0
  0
LINE
  5
3BB
  8
0
  6
CONTINUOUS
 62
     7
 10
-206.5231419581892
 20
215.8007810371525
 30
0.0
 11
-206.612758448431
 21
215.8874596945593
 31
0.0
  0
LINE
  5
3BC
  8
0
  6
CONTINUOUS
 62
     7
 10
-206.612758448431
 20
215.8874596945593
 30
0.0
 11
-206.6990599348308
 21
215.9781875417496
 31
0.0
  0
LINE
  5
3BD
  8
0
  6
CONTINUOUS
 62
     7
 10
-206.6990599348308
 20
215.9781875417496
 30
0.0
 11
-206.7808067383834
 21
216.0716110701908
 31
0.0
  0
LINE
  5
3BE
  8
0
  6
CONTINUOUS
 62
     7
 10
-206.7808067383834
 20
216.0716110701908
 30
0.0
 11
-206.8589452191574
 21
216.1687621931096
 31
0.0
  0
LINE
  5
3BF
  8
0
  6
CONTINUOUS
 62
     7
 10
-206.8589452191574
 20
216.1687621931096
 30
0.0
 11
-206.9329811938234
 21
216.2690743585928
 31
0.0
  0
LINE
  5
3C0
  8
0
  6
CONTINUOUS
 62
     7
 10
-206.9329811938234
 20
216.2690743585928
 30
0.0
 11
-207.0030779050238
 21
216.3728311990132
 31
0.0
  0
LINE
  5
3C1
  8
0
  6
CONTINUOUS
 62
     7
 10
-207.0030779050238
 20
216.3728311990132
 30
0.0
 11
-207.0682368434118
 21
216.4784928773632
 31
0.0
  0
LINE
  5
3C2
  8
0
  6
CONTINUOUS
 62
     7
 10
-207.0682368434118
 20
216.4784928773632
 30
0.0
 11
-207.1292204784216
 21
216.5872335735291
 31
0.0
  0
LINE
  5
3C3
  8
0
  6
CONTINUOUS
 62
     7
 10
-207.1292204784216
 20
216.5872335735291
 30
0.0
 11
-207.1856352249366
 21
216.6984128313989
 31
0.0
  0
LINE
  5
3C4
  8
0
  6
CONTINUOUS
 62
     7
 10
-207.1856352249366
 20
216.6984128313989
 30
0.0
 11
-207.2375951222314
 21
216.8123373623104
 31
0.0
  0
LINE
  5
3C5
  8
0
  6
CONTINUOUS
 62
     7
 10
-207.2375951222314
 20
216.8123373623104
 30
0.0
 11
-207.2706725046449
 21
216.8922100317547
 31
0.0
  0
LINE
  5
3C6
  8
0
  6
CONTINUOUS
 62
     7
 10
-207.2706725046449
 20
216.8922100317547
 30
0.0
 11
-207.3014351371702
 21
216.9730023067277
 31
0.0
  0
LINE
  5
3C7
  8
0
  6
CONTINUOUS
 62
     7
 10
-207.3014351371702
 20
216.9730023067277
 30
0.0
 11
-207.3299475232986
 21
217.0549215909169
 31
0.0
  0
LINE
  5
3C8
  8
0
  6
CONTINUOUS
 62
     7
 10
-207.3299475232986
 20
217.0549215909169
 30
0.0
 11
-207.3560801583629
 21
217.1376306497232
 31
0.0
  0
LINE
  5
3C9
  8
0
  6
CONTINUOUS
 62
     7
 10
-207.3560801583629
 20
217.1376306497232
 30
0.0
 11
-207.3800404528552
 21
217.2219175419221
 31
0.0
  0
LINE
  5
3CA
  8
0
  6
CONTINUOUS
 62
     7
 10
-207.3800404528552
 20
217.2219175419221
 30
0.0
 11
-207.4015293752412
 21
217.3068680151177
 31
0.0
  0
LINE
  5
3CB
  8
0
  6
CONTINUOUS
 62
     7
 10
-207.4015293752412
 20
217.3068680151177
 30
0.0
 11
-207.4205884532618
 21
217.3927044579031
 31
0.0
  0
LINE
  5
3CC
  8
0
  6
CONTINUOUS
 62
     7
 10
-207.4205884532618
 20
217.3927044579031
 30
0.0
 11
-207.4371243654724
 21
217.479062385152
 31
0.0
  0
LINE
  5
3CD
  8
0
  6
CONTINUOUS
 62
     7
 10
-197.5172988935006
 20
215.0000068990036
 30
0.0
 11
-204.4827011064003
 21
215.0000068989032
 31
0.0
  0
LINE
  5
3CE
  8
0
  6
CONTINUOUS
 62
   253
 10
-251.4371243654416
 20
218.0054788721236
 30
0.0
 11
-251.4371243654725
 21
217.479062385152
 31
0.0
  0
LINE
  5
3CF
  8
0
  6
CONTINUOUS
 62
     7
 10
-248.4827011064001
 20
215.0000068989032
 30
0.0
 11
-248.6068202272269
 21
215.0025755913124
 31
0.0
  0
LINE
  5
3D0
  8
0
  6
CONTINUOUS
 62
     7
 10
-248.6068202272269
 20
215.0025755913124
 30
0.0
 11
-248.7309393480537
 21
215.0102949102823
 31
0.0
  0
LINE
  5
3D1
  8
0
  6
CONTINUOUS
 62
     7
 10
-248.7309393480537
 20
215.0102949102823
 30
0.0
 11
-248.8552745755035
 21
215.0232319646755
 31
0.0
  0
LINE
  5
3D2
  8
0
  6
CONTINUOUS
 62
     7
 10
-248.8552745755035
 20
215.0232319646755
 30
0.0
 11
-248.9791775897068
 21
215.0413735827208
 31
0.0
  0
LINE
  5
3D3
  8
0
  6
CONTINUOUS
 62
     7
 10
-248.9791775897068
 20
215.0413735827208
 30
0.0
 11
-249.1011591507146
 21
215.0644473875856
 31
0.0
  0
LINE
  5
3D4
  8
0
  6
CONTINUOUS
 62
     7
 10
-249.1011591507146
 20
215.0644473875856
 30
0.0
 11
-249.2226017786341
 21
215.0926816201956
 31
0.0
  0
LINE
  5
3D5
  8
0
  6
CONTINUOUS
 62
     7
 10
-249.2226017786341
 20
215.0926816201956
 30
0.0
 11
-249.3427667420835
 21
215.125935379838
 31
0.0
  0
LINE
  5
3D6
  8
0
  6
CONTINUOUS
 62
     7
 10
-249.3427667420835
 20
215.125935379838
 30
0.0
 11
-249.4619576173318
 21
215.1643311983744
 31
0.0
  0
LINE
  5
3D7
  8
0
  6
CONTINUOUS
 62
     7
 10
-249.4619576173318
 20
215.1643311983744
 30
0.0
 11
-249.5784378813357
 21
215.2072733077644
 31
0.0
  0
LINE
  5
3D8
  8
0
  6
CONTINUOUS
 62
     7
 10
-249.5784378813357
 20
215.2072733077644
 30
0.0
 11
-249.6935325305989
 21
215.2552153699924
 31
0.0
  0
LINE
  5
3D9
  8
0
  6
CONTINUOUS
 62
     7
 10
-249.6935325305989
 20
215.2552153699924
 30
0.0
 11
-249.8065363834965
 21
215.3078961756491
 31
0.0
  0
LINE
  5
3DA
  8
0
  6
CONTINUOUS
 62
     7
 10
-249.8065363834965
 20
215.3078961756491
 30
0.0
 11
-249.917728540485
 21
215.3654867815976
 31
0.0
  0
LINE
  5
3DB
  8
0
  6
CONTINUOUS
 62
     7
 10
-249.917728540485
 20
215.3654867815976
 30
0.0
 11
-250.0254951242298
 21
215.4271123030244
 31
0.0
  0
LINE
  5
3DC
  8
0
  6
CONTINUOUS
 62
     7
 10
-250.0254951242298
 20
215.4271123030244
 30
0.0
 11
-250.1310677100801
 21
215.4934393639004
 31
0.0
  0
LINE
  5
3DD
  8
0
  6
CONTINUOUS
 62
     7
 10
-250.1310677100801
 20
215.4934393639004
 30
0.0
 11
-250.2337941251413
 21
215.5640936782808
 31
0.0
  0
LINE
  5
3DE
  8
0
  6
CONTINUOUS
 62
     7
 10
-250.2337941251413
 20
215.5640936782808
 30
0.0
 11
-250.3339212979168
 21
215.6392901054033
 31
0.0
  0
LINE
  5
3DF
  8
0
  6
CONTINUOUS
 62
     7
 10
-250.3339212979168
 20
215.6392901054033
 30
0.0
 11
-250.4300025138297
 21
215.7178988376557
 31
0.0
  0
LINE
  5
3E0
  8
0
  6
CONTINUOUS
 62
     7
 10
-250.4300025138297
 20
215.7178988376557
 30
0.0
 11
-250.5231419581893
 21
215.8007810371525
 31
0.0
  0
LINE
  5
3E1
  8
0
  6
CONTINUOUS
 62
     7
 10
-250.5231419581893
 20
215.8007810371525
 30
0.0
 11
-250.612758448431
 21
215.8874596945593
 31
0.0
  0
LINE
  5
3E2
  8
0
  6
CONTINUOUS
 62
     7
 10
-250.612758448431
 20
215.8874596945593
 30
0.0
 11
-250.6990599348309
 21
215.9781875417496
 31
0.0
  0
LINE
  5
3E3
  8
0
  6
CONTINUOUS
 62
     7
 10
-250.6990599348309
 20
215.9781875417496
 30
0.0
 11
-250.7808067383834
 21
216.0716110701912
 31
0.0
  0
LINE
  5
3E4
  8
0
  6
CONTINUOUS
 62
     7
 10
-250.7808067383834
 20
216.0716110701912
 30
0.0
 11
-250.8589452191574
 21
216.1687621931096
 31
0.0
  0
LINE
  5
3E5
  8
0
  6
CONTINUOUS
 62
     7
 10
-250.8589452191574
 20
216.1687621931096
 30
0.0
 11
-250.9329811938235
 21
216.2690743585928
 31
0.0
  0
LINE
  5
3E6
  8
0
  6
CONTINUOUS
 62
     7
 10
-250.9329811938235
 20
216.2690743585928
 30
0.0
 11
-251.0030779050238
 21
216.3728311990132
 31
0.0
  0
LINE
  5
3E7
  8
0
  6
CONTINUOUS
 62
     7
 10
-251.0030779050238
 20
216.3728311990132
 30
0.0
 11
-251.0682368434116
 21
216.4784928773632
 31
0.0
  0
LINE
  5
3E8
  8
0
  6
CONTINUOUS
 62
     7
 10
-251.0682368434116
 20
216.4784928773632
 30
0.0
 11
-251.1292204784217
 21
216.5872335735291
 31
0.0
  0
LINE
  5
3E9
  8
0
  6
CONTINUOUS
 62
     7
 10
-251.1292204784217
 20
216.5872335735291
 30
0.0
 11
-251.1856352249366
 21
216.6984128313989
 31
0.0
  0
LINE
  5
3EA
  8
0
  6
CONTINUOUS
 62
     7
 10
-251.1856352249366
 20
216.6984128313989
 30
0.0
 11
-251.2375951222312
 21
216.8123373623104
 31
0.0
  0
LINE
  5
3EB
  8
0
  6
CONTINUOUS
 62
     7
 10
-251.2375951222312
 20
216.8123373623104
 30
0.0
 11
-251.2706725046449
 21
216.8922100317547
 31
0.0
  0
LINE
  5
3EC
  8
0
  6
CONTINUOUS
 62
     7
 10
-251.2706725046449
 20
216.8922100317547
 30
0.0
 11
-251.3014351371703
 21
216.9730023067277
 31
0.0
  0
LINE
  5
3ED
  8
0
  6
CONTINUOUS
 62
     7
 10
-251.3014351371703
 20
216.9730023067277
 30
0.0
 11
-251.3299475232986
 21
217.0549215909169
 31
0.0
  0
LINE
  5
3EE
  8
0
  6
CONTINUOUS
 62
     7
 10
-251.3299475232986
 20
217.0549215909169
 30
0.0
 11
-251.356080158363
 21
217.1376306497232
 31
0.0
  0
LINE
  5
3EF
  8
0
  6
CONTINUOUS
 62
     7
 10
-251.356080158363
 20
217.1376306497232
 30
0.0
 11
-251.3800404528557
 21
217.2219175419221
 31
0.0
  0
LINE
  5
3F0
  8
0
  6
CONTINUOUS
 62
     7
 10
-251.3800404528557
 20
217.2219175419221
 30
0.0
 11
-251.401529375241
 21
217.3068680151177
 31
0.0
  0
LINE
  5
3F1
  8
0
  6
CONTINUOUS
 62
     7
 10
-251.401529375241
 20
217.3068680151177
 30
0.0
 11
-251.4205884532619
 21
217.3927044579031
 31
0.0
  0
LINE
  5
3F2
  8
0
  6
CONTINUOUS
 62
     7
 10
-251.4205884532619
 20
217.3927044579031
 30
0.0
 11
-251.4371243654725
 21
217.479062385152
 31
0.0
  0
LINE
  5
3F3
  8
0
  6
CONTINUOUS
 62
     7
 10
-219.5172988935001
 20
215.0000068990036
 30
0.0
 11
-226.4827011064003
 21
215.0000068989032
 31
0.0
  0
LINE
  5
3F4
  8
0
  6
CONTINUOUS
 62
     7
 10
-131.5172988935001
 20
215.0000068990036
 30
0.0
 11
-138.4827011064
 21
215.0000068989032
 31
0.0
  0
LINE
  5
3F5
  8
0
  6
CONTINUOUS
 62
     7
 10
-153.5172988935001
 20
215.0000068990036
 30
0.0
 11
-160.4827011064003
 21
215.0000068989032
 31
0.0
  0
LINE
  5
3F6
  8
0
  6
CONTINUOUS
 62
     7
 10
-241.5172988935001
 20
215.0000068990036
 30
0.0
 11
-248.4827011064001
 21
215.0000068989032
 31
0.0
  0
LINE
  5
3F7
  8
0
  6
CONTINUOUS
 62
   253
 10
-163.4371243654422
 20
218.0054788721236
 30
0.0
 11
-163.4371243654724
 21
217.479062385152
 31
0.0
  0
LINE
  5
3F8
  8
0
  6
CONTINUOUS
 62
     7
 10
-160.4827011064003
 20
215.0000068989032
 30
0.0
 11
-160.6068202272268
 21
215.0025755913124
 31
0.0
  0
LINE
  5
3F9
  8
0
  6
CONTINUOUS
 62
     7
 10
-160.6068202272268
 20
215.0025755913124
 30
0.0
 11
-160.7309393480538
 21
215.0102949102823
 31
0.0
  0
LINE
  5
3FA
  8
0
  6
CONTINUOUS
 62
     7
 10
-160.7309393480538
 20
215.0102949102823
 30
0.0
 11
-160.8552745755034
 21
215.0232319646755
 31
0.0
  0
LINE
  5
3FB
  8
0
  6
CONTINUOUS
 62
     7
 10
-160.8552745755034
 20
215.0232319646755
 30
0.0
 11
-160.9791775897065
 21
215.0413735827208
 31
0.0
  0
LINE
  5
3FC
  8
0
  6
CONTINUOUS
 62
     7
 10
-160.9791775897065
 20
215.0413735827208
 30
0.0
 11
-161.1011591507148
 21
215.0644473875856
 31
0.0
  0
LINE
  5
3FD
  8
0
  6
CONTINUOUS
 62
     7
 10
-161.1011591507148
 20
215.0644473875856
 30
0.0
 11
-161.2226017786338
 21
215.0926816201956
 31
0.0
  0
LINE
  5
3FE
  8
0
  6
CONTINUOUS
 62
     7
 10
-161.2226017786338
 20
215.0926816201956
 30
0.0
 11
-161.3427667420835
 21
215.125935379838
 31
0.0
  0
LINE
  5
3FF
  8
0
  6
CONTINUOUS
 62
     7
 10
-161.3427667420835
 20
215.125935379838
 30
0.0
 11
-161.4619576173317
 21
215.1643311983744
 31
0.0
  0
LINE
  5
400
  8
0
  6
CONTINUOUS
 62
     7
 10
-161.4619576173317
 20
215.1643311983744
 30
0.0
 11
-161.5784378813356
 21
215.2072733077644
 31
0.0
  0
LINE
  5
401
  8
0
  6
CONTINUOUS
 62
     7
 10
-161.5784378813356
 20
215.2072733077644
 30
0.0
 11
-161.6935325305988
 21
215.2552153699924
 31
0.0
  0
LINE
  5
402
  8
0
  6
CONTINUOUS
 62
     7
 10
-161.6935325305988
 20
215.2552153699924
 30
0.0
 11
-161.8065363834966
 21
215.3078961756491
 31
0.0
  0
LINE
  5
403
  8
0
  6
CONTINUOUS
 62
     7
 10
-161.8065363834966
 20
215.3078961756491
 30
0.0
 11
-161.9177285404849
 21
215.3654867815976
 31
0.0
  0
LINE
  5
404
  8
0
  6
CONTINUOUS
 62
     7
 10
-161.9177285404849
 20
215.3654867815976
 30
0.0
 11
-162.0254951242297
 21
215.4271123030244
 31
0.0
  0
LINE
  5
405
  8
0
  6
CONTINUOUS
 62
     7
 10
-162.0254951242297
 20
215.4271123030244
 30
0.0
 11
-162.1310677100802
 21
215.4934393639004
 31
0.0
  0
LINE
  5
406
  8
0
  6
CONTINUOUS
 62
     7
 10
-162.1310677100802
 20
215.4934393639004
 30
0.0
 11
-162.2337941251413
 21
215.5640936782808
 31
0.0
  0
LINE
  5
407
  8
0
  6
CONTINUOUS
 62
     7
 10
-162.2337941251413
 20
215.5640936782808
 30
0.0
 11
-162.3339212979167
 21
215.6392901054033
 31
0.0
  0
LINE
  5
408
  8
0
  6
CONTINUOUS
 62
     7
 10
-162.3339212979167
 20
215.6392901054033
 30
0.0
 11
-162.4300025138297
 21
215.7178988376557
 31
0.0
  0
LINE
  5
409
  8
0
  6
CONTINUOUS
 62
     7
 10
-162.4300025138297
 20
215.7178988376557
 30
0.0
 11
-162.5231419581894
 21
215.8007810371525
 31
0.0
  0
LINE
  5
40A
  8
0
  6
CONTINUOUS
 62
     7
 10
-162.5231419581894
 20
215.8007810371525
 30
0.0
 11
-162.6127584484309
 21
215.8874596945593
 31
0.0
  0
LINE
  5
40B
  8
0
  6
CONTINUOUS
 62
     7
 10
-162.6127584484309
 20
215.8874596945593
 30
0.0
 11
-162.6990599348308
 21
215.9781875417496
 31
0.0
  0
LINE
  5
40C
  8
0
  6
CONTINUOUS
 62
     7
 10
-162.6990599348308
 20
215.9781875417496
 30
0.0
 11
-162.7808067383833
 21
216.0716110701908
 31
0.0
  0
LINE
  5
40D
  8
0
  6
CONTINUOUS
 62
     7
 10
-162.7808067383833
 20
216.0716110701908
 30
0.0
 11
-162.8589452191573
 21
216.1687621931096
 31
0.0
  0
LINE
  5
40E
  8
0
  6
CONTINUOUS
 62
     7
 10
-162.8589452191573
 20
216.1687621931096
 30
0.0
 11
-162.9329811938234
 21
216.2690743585928
 31
0.0
  0
LINE
  5
40F
  8
0
  6
CONTINUOUS
 62
     7
 10
-162.9329811938234
 20
216.2690743585928
 30
0.0
 11
-163.0030779050238
 21
216.3728311990132
 31
0.0
  0
LINE
  5
410
  8
0
  6
CONTINUOUS
 62
     7
 10
-163.0030779050238
 20
216.3728311990132
 30
0.0
 11
-163.0682368434118
 21
216.4784928773632
 31
0.0
  0
LINE
  5
411
  8
0
  6
CONTINUOUS
 62
     7
 10
-163.0682368434118
 20
216.4784928773632
 30
0.0
 11
-163.129220478422
 21
216.5872335735291
 31
0.0
  0
LINE
  5
412
  8
0
  6
CONTINUOUS
 62
     7
 10
-163.129220478422
 20
216.5872335735291
 30
0.0
 11
-163.1856352249366
 21
216.6984128313989
 31
0.0
  0
LINE
  5
413
  8
0
  6
CONTINUOUS
 62
     7
 10
-163.1856352249366
 20
216.6984128313989
 30
0.0
 11
-163.2375951222313
 21
216.8123373623104
 31
0.0
  0
LINE
  5
414
  8
0
  6
CONTINUOUS
 62
     7
 10
-163.2375951222313
 20
216.8123373623104
 30
0.0
 11
-163.2706725046449
 21
216.8922100317547
 31
0.0
  0
LINE
  5
415
  8
0
  6
CONTINUOUS
 62
     7
 10
-163.2706725046449
 20
216.8922100317547
 30
0.0
 11
-163.3014351371702
 21
216.9730023067277
 31
0.0
  0
LINE
  5
416
  8
0
  6
CONTINUOUS
 62
     7
 10
-163.3014351371702
 20
216.9730023067277
 30
0.0
 11
-163.3299475232986
 21
217.0549215909169
 31
0.0
  0
LINE
  5
417
  8
0
  6
CONTINUOUS
 62
     7
 10
-163.3299475232986
 20
217.0549215909169
 30
0.0
 11
-163.3560801583629
 21
217.1376306497232
 31
0.0
  0
LINE
  5
418
  8
0
  6
CONTINUOUS
 62
     7
 10
-163.3560801583629
 20
217.1376306497232
 30
0.0
 11
-163.3800404528554
 21
217.2219175419221
 31
0.0
  0
LINE
  5
419
  8
0
  6
CONTINUOUS
 62
     7
 10
-163.3800404528554
 20
217.2219175419221
 30
0.0
 11
-163.4015293752411
 21
217.3068680151177
 31
0.0
  0
LINE
  5
41A
  8
0
  6
CONTINUOUS
 62
     7
 10
-163.4015293752411
 20
217.3068680151177
 30
0.0
 11
-163.4205884532618
 21
217.3927044579031
 31
0.0
  0
LINE
  5
41B
  8
0
  6
CONTINUOUS
 62
     7
 10
-163.4205884532618
 20
217.3927044579031
 30
0.0
 11
-163.4371243654724
 21
217.479062385152
 31
0.0
  0
LINE
  5
41C
  8
0
  6
CONTINUOUS
 62
   253
 10
-194.5628756343978
 20
218.0054788722112
 30
0.0
 11
-194.5628756343978
 21
217.4790623852453
 31
0.0
  0
LINE
  5
41D
  8
0
  6
CONTINUOUS
 62
     7
 10
-194.5628756343978
 20
217.4790623852453
 30
0.0
 11
-194.5869611488453
 21
217.3572622539445
 31
0.0
  0
LINE
  5
41E
  8
0
  6
CONTINUOUS
 62
     7
 10
-194.5869611488453
 20
217.3572622539445
 30
0.0
 11
-194.6161201443162
 21
217.2363565609612
 31
0.0
  0
LINE
  5
41F
  8
0
  6
CONTINUOUS
 62
     7
 10
-194.6161201443162
 20
217.2363565609612
 30
0.0
 11
-194.6504562756641
 21
217.116144140682
 31
0.0
  0
LINE
  5
420
  8
0
  6
CONTINUOUS
 62
     7
 10
-194.6504562756641
 20
217.116144140682
 30
0.0
 11
-194.6898440306985
 21
216.9972611845993
 31
0.0
  0
LINE
  5
421
  8
0
  6
CONTINUOUS
 62
     7
 10
-194.6898440306985
 20
216.9972611845993
 30
0.0
 11
-194.7337568232605
 21
216.8811264270319
 31
0.0
  0
LINE
  5
422
  8
0
  6
CONTINUOUS
 62
     7
 10
-194.7337568232605
 20
216.8811264270319
 30
0.0
 11
-194.7826593991799
 21
216.76641860155
 31
0.0
  0
LINE
  5
423
  8
0
  6
CONTINUOUS
 62
     7
 10
-194.7826593991799
 20
216.76641860155
 30
0.0
 11
-194.8362847383438
 21
216.6538408374352
 31
0.0
  0
LINE
  5
424
  8
0
  6
CONTINUOUS
 62
     7
 10
-194.8362847383438
 20
216.6538408374352
 30
0.0
 11
-194.8948063260709
 21
216.5431154483769
 31
0.0
  0
LINE
  5
425
  8
0
  6
CONTINUOUS
 62
     7
 10
-194.8948063260709
 20
216.5431154483769
 30
0.0
 11
-194.9573337638193
 21
216.4358526546968
 31
0.0
  0
LINE
  5
426
  8
0
  6
CONTINUOUS
 62
     7
 10
-194.9573337638193
 20
216.4358526546968
 30
0.0
 11
-195.0245458596081
 21
216.3308227980877
 31
0.0
  0
LINE
  5
427
  8
0
  6
CONTINUOUS
 62
     7
 10
-195.0245458596081
 20
216.3308227980877
 30
0.0
 11
-195.0960629140148
 21
216.2286751124969
 31
0.0
  0
LINE
  5
428
  8
0
  6
CONTINUOUS
 62
     7
 10
-195.0960629140148
 20
216.2286751124969
 30
0.0
 11
-195.17210198459
 21
216.1291644615779
 31
0.0
  0
LINE
  5
429
  8
0
  6
CONTINUOUS
 62
     7
 10
-195.17210198459
 20
216.1291644615779
 30
0.0
 11
-195.2515176580409
 21
216.0337324111676
 31
0.0
  0
LINE
  5
42A
  8
0
  6
CONTINUOUS
 62
     7
 10
-195.2515176580409
 20
216.0337324111676
 30
0.0
 11
-195.3351836173374
 21
215.9412776364099
 31
0.0
  0
LINE
  5
42B
  8
0
  6
CONTINUOUS
 62
     7
 10
-195.3351836173374
 20
215.9412776364099
 30
0.0
 11
-195.4226179638261
 21
215.852377560764
 31
0.0
  0
LINE
  5
42C
  8
0
  6
CONTINUOUS
 62
     7
 10
-195.4226179638261
 20
215.852377560764
 30
0.0
 11
-195.5140753279711
 21
215.7668263599631
 31
0.0
  0
LINE
  5
42D
  8
0
  6
CONTINUOUS
 62
     7
 10
-195.5140753279711
 20
215.7668263599631
 30
0.0
 11
-195.6081874683939
 21
215.6858561818052
 31
0.0
  0
LINE
  5
42E
  8
0
  6
CONTINUOUS
 62
     7
 10
-195.6081874683939
 20
215.6858561818052
 30
0.0
 11
-195.7059983364942
 21
215.6085254429196
 31
0.0
  0
LINE
  5
42F
  8
0
  6
CONTINUOUS
 62
     7
 10
-195.7059983364942
 20
215.6085254429196
 30
0.0
 11
-195.8069371288194
 21
215.5353238334853
 31
0.0
  0
LINE
  5
430
  8
0
  6
CONTINUOUS
 62
     7
 10
-195.8069371288194
 20
215.5353238334853
 30
0.0
 11
-195.9112890182237
 21
215.4660905108412
 31
0.0
  0
LINE
  5
431
  8
0
  6
CONTINUOUS
 62
     7
 10
-195.9112890182237
 20
215.4660905108412
 30
0.0
 11
-196.0175011624037
 21
215.401813921258
 31
0.0
  0
LINE
  5
432
  8
0
  6
CONTINUOUS
 62
     7
 10
-196.0175011624037
 20
215.401813921258
 30
0.0
 11
-196.1267585252262
 21
215.3417385236731
 31
0.0
  0
LINE
  5
433
  8
0
  6
CONTINUOUS
 62
     7
 10
-196.1267585252262
 20
215.3417385236731
 30
0.0
 11
-196.2384171430234
 21
215.2862527730279
 31
0.0
  0
LINE
  5
434
  8
0
  6
CONTINUOUS
 62
     7
 10
-196.2384171430234
 20
215.2862527730279
 30
0.0
 11
-196.3527848625601
 21
215.2352452344731
 31
0.0
  0
LINE
  5
435
  8
0
  6
CONTINUOUS
 62
     7
 10
-196.3527848625601
 20
215.2352452344731
 30
0.0
 11
-196.4681676427566
 21
215.189433361368
 31
0.0
  0
LINE
  5
436
  8
0
  6
CONTINUOUS
 62
     7
 10
-196.4681676427566
 20
215.189433361368
 30
0.0
 11
-196.5858582128819
 21
215.1482685629881
 31
0.0
  0
LINE
  5
437
  8
0
  6
CONTINUOUS
 62
     7
 10
-196.5858582128819
 20
215.1482685629881
 30
0.0
 11
-196.7051572092842
 21
215.1120273492592
 31
0.0
  0
LINE
  5
438
  8
0
  6
CONTINUOUS
 62
     7
 10
-196.7051572092842
 20
215.1120273492592
 30
0.0
 11
-196.8263866639621
 21
215.0806507563884
 31
0.0
  0
LINE
  5
439
  8
0
  6
CONTINUOUS
 62
     7
 10
-196.8263866639621
 20
215.0806507563884
 30
0.0
 11
-196.9107503107423
 21
215.0619637977372
 31
0.0
  0
LINE
  5
43A
  8
0
  6
CONTINUOUS
 62
     7
 10
-196.9107503107423
 20
215.0619637977372
 30
0.0
 11
-196.9956171308374
 21
215.0457137286475
 31
0.0
  0
LINE
  5
43B
  8
0
  6
CONTINUOUS
 62
     7
 10
-196.9956171308374
 20
215.0457137286475
 30
0.0
 11
-197.0812023309141
 21
215.0318731053916
 31
0.0
  0
LINE
  5
43C
  8
0
  6
CONTINUOUS
 62
     7
 10
-197.0812023309141
 20
215.0318731053916
 30
0.0
 11
-197.1671517242017
 21
215.0205108075672
 31
0.0
  0
LINE
  5
43D
  8
0
  6
CONTINUOUS
 62
     7
 10
-197.1671517242017
 20
215.0205108075672
 30
0.0
 11
-197.2542764720562
 21
215.0115595479144
 31
0.0
  0
LINE
  5
43E
  8
0
  6
CONTINUOUS
 62
     7
 10
-197.2542764720562
 20
215.0115595479144
 30
0.0
 11
-197.3416253886286
 21
215.0051548459888
 31
0.0
  0
LINE
  5
43F
  8
0
  6
CONTINUOUS
 62
     7
 10
-197.3416253886286
 20
215.0051548459888
 30
0.0
 11
-197.4294244368637
 21
215.0012944382632
 31
0.0
  0
LINE
  5
440
  8
0
  6
CONTINUOUS
 62
     7
 10
-197.4294244368637
 20
215.0012944382632
 30
0.0
 11
-197.5172988935006
 21
215.0000068990036
 31
0.0
  0
LINE
  5
441
  8
0
  6
CONTINUOUS
 62
   253
 10
-150.5628756343977
 20
218.0054788722112
 30
0.0
 11
-150.5628756343977
 21
217.4790623852453
 31
0.0
  0
LINE
  5
442
  8
0
  6
CONTINUOUS
 62
     7
 10
-150.5628756343977
 20
217.4790623852453
 30
0.0
 11
-150.5869611488453
 21
217.3572622539445
 31
0.0
  0
LINE
  5
443
  8
0
  6
CONTINUOUS
 62
     7
 10
-150.5869611488453
 20
217.3572622539445
 30
0.0
 11
-150.6161201443161
 21
217.2363565609612
 31
0.0
  0
LINE
  5
444
  8
0
  6
CONTINUOUS
 62
     7
 10
-150.6161201443161
 20
217.2363565609612
 30
0.0
 11
-150.6504562756641
 21
217.116144140682
 31
0.0
  0
LINE
  5
445
  8
0
  6
CONTINUOUS
 62
     7
 10
-150.6504562756641
 20
217.116144140682
 30
0.0
 11
-150.6898440306985
 21
216.9972611845993
 31
0.0
  0
LINE
  5
446
  8
0
  6
CONTINUOUS
 62
     7
 10
-150.6898440306985
 20
216.9972611845993
 30
0.0
 11
-150.7337568232605
 21
216.8811264270319
 31
0.0
  0
LINE
  5
447
  8
0
  6
CONTINUOUS
 62
     7
 10
-150.7337568232605
 20
216.8811264270319
 30
0.0
 11
-150.7826593991797
 21
216.76641860155
 31
0.0
  0
LINE
  5
448
  8
0
  6
CONTINUOUS
 62
     7
 10
-150.7826593991797
 20
216.76641860155
 30
0.0
 11
-150.8362847383433
 21
216.6538408374352
 31
0.0
  0
LINE
  5
449
  8
0
  6
CONTINUOUS
 62
     7
 10
-150.8362847383433
 20
216.6538408374352
 30
0.0
 11
-150.8948063260709
 21
216.5431154483769
 31
0.0
  0
LINE
  5
44A
  8
0
  6
CONTINUOUS
 62
     7
 10
-150.8948063260709
 20
216.5431154483769
 30
0.0
 11
-150.9573337638193
 21
216.4358526546968
 31
0.0
  0
LINE
  5
44B
  8
0
  6
CONTINUOUS
 62
     7
 10
-150.9573337638193
 20
216.4358526546968
 30
0.0
 11
-151.0245458596082
 21
216.3308227980877
 31
0.0
  0
LINE
  5
44C
  8
0
  6
CONTINUOUS
 62
     7
 10
-151.0245458596082
 20
216.3308227980877
 30
0.0
 11
-151.096062914015
 21
216.2286751124969
 31
0.0
  0
LINE
  5
44D
  8
0
  6
CONTINUOUS
 62
     7
 10
-151.096062914015
 20
216.2286751124969
 30
0.0
 11
-151.1721019845902
 21
216.1291644615779
 31
0.0
  0
LINE
  5
44E
  8
0
  6
CONTINUOUS
 62
     7
 10
-151.1721019845902
 20
216.1291644615779
 30
0.0
 11
-151.2515176580409
 21
216.0337324111676
 31
0.0
  0
LINE
  5
44F
  8
0
  6
CONTINUOUS
 62
     7
 10
-151.2515176580409
 20
216.0337324111676
 30
0.0
 11
-151.3351836173373
 21
215.9412776364099
 31
0.0
  0
LINE
  5
450
  8
0
  6
CONTINUOUS
 62
     7
 10
-151.3351836173373
 20
215.9412776364099
 30
0.0
 11
-151.4226179638263
 21
215.852377560764
 31
0.0
  0
LINE
  5
451
  8
0
  6
CONTINUOUS
 62
     7
 10
-151.4226179638263
 20
215.852377560764
 30
0.0
 11
-151.5140753279713
 21
215.7668263599631
 31
0.0
  0
LINE
  5
452
  8
0
  6
CONTINUOUS
 62
     7
 10
-151.5140753279713
 20
215.7668263599631
 30
0.0
 11
-151.6081874683934
 21
215.6858561818052
 31
0.0
  0
LINE
  5
453
  8
0
  6
CONTINUOUS
 62
     7
 10
-151.6081874683934
 20
215.6858561818052
 30
0.0
 11
-151.7059983364937
 21
215.6085254429196
 31
0.0
  0
LINE
  5
454
  8
0
  6
CONTINUOUS
 62
     7
 10
-151.7059983364937
 20
215.6085254429196
 30
0.0
 11
-151.8069371288189
 21
215.5353238334853
 31
0.0
  0
LINE
  5
455
  8
0
  6
CONTINUOUS
 62
     7
 10
-151.8069371288189
 20
215.5353238334853
 30
0.0
 11
-151.9112890182237
 21
215.4660905108412
 31
0.0
  0
LINE
  5
456
  8
0
  6
CONTINUOUS
 62
     7
 10
-151.9112890182237
 20
215.4660905108412
 30
0.0
 11
-152.0175011624036
 21
215.401813921258
 31
0.0
  0
LINE
  5
457
  8
0
  6
CONTINUOUS
 62
     7
 10
-152.0175011624036
 20
215.401813921258
 30
0.0
 11
-152.1267585252262
 21
215.3417385236731
 31
0.0
  0
LINE
  5
458
  8
0
  6
CONTINUOUS
 62
     7
 10
-152.1267585252262
 20
215.3417385236731
 30
0.0
 11
-152.2384171430229
 21
215.2862527730279
 31
0.0
  0
LINE
  5
459
  8
0
  6
CONTINUOUS
 62
     7
 10
-152.2384171430229
 20
215.2862527730279
 30
0.0
 11
-152.3527848625601
 21
215.2352452344731
 31
0.0
  0
LINE
  5
45A
  8
0
  6
CONTINUOUS
 62
     7
 10
-152.3527848625601
 20
215.2352452344731
 30
0.0
 11
-152.4681676427566
 21
215.189433361368
 31
0.0
  0
LINE
  5
45B
  8
0
  6
CONTINUOUS
 62
     7
 10
-152.4681676427566
 20
215.189433361368
 30
0.0
 11
-152.5858582128816
 21
215.1482685629881
 31
0.0
  0
LINE
  5
45C
  8
0
  6
CONTINUOUS
 62
     7
 10
-152.5858582128816
 20
215.1482685629881
 30
0.0
 11
-152.7051572092841
 21
215.1120273492592
 31
0.0
  0
LINE
  5
45D
  8
0
  6
CONTINUOUS
 62
     7
 10
-152.7051572092841
 20
215.1120273492592
 30
0.0
 11
-152.8263866639621
 21
215.0806507563884
 31
0.0
  0
LINE
  5
45E
  8
0
  6
CONTINUOUS
 62
     7
 10
-152.8263866639621
 20
215.0806507563884
 30
0.0
 11
-152.9107503107425
 21
215.0619637977372
 31
0.0
  0
LINE
  5
45F
  8
0
  6
CONTINUOUS
 62
     7
 10
-152.9107503107425
 20
215.0619637977372
 30
0.0
 11
-152.9956171308373
 21
215.0457137286475
 31
0.0
  0
LINE
  5
460
  8
0
  6
CONTINUOUS
 62
     7
 10
-152.9956171308373
 20
215.0457137286475
 30
0.0
 11
-153.0812023309143
 21
215.0318731053916
 31
0.0
  0
LINE
  5
461
  8
0
  6
CONTINUOUS
 62
     7
 10
-153.0812023309143
 20
215.0318731053916
 30
0.0
 11
-153.1671517242017
 21
215.0205108075672
 31
0.0
  0
LINE
  5
462
  8
0
  6
CONTINUOUS
 62
     7
 10
-153.1671517242017
 20
215.0205108075672
 30
0.0
 11
-153.2542764720561
 21
215.0115595479144
 31
0.0
  0
LINE
  5
463
  8
0
  6
CONTINUOUS
 62
     7
 10
-153.2542764720561
 20
215.0115595479144
 30
0.0
 11
-153.3416253886284
 21
215.0051548459888
 31
0.0
  0
LINE
  5
464
  8
0
  6
CONTINUOUS
 62
     7
 10
-153.3416253886284
 20
215.0051548459888
 30
0.0
 11
-153.4294244368637
 21
215.0012944382632
 31
0.0
  0
LINE
  5
465
  8
0
  6
CONTINUOUS
 62
     7
 10
-153.4294244368637
 20
215.0012944382632
 30
0.0
 11
-153.5172988935001
 21
215.0000068990036
 31
0.0
  0
LINE
  5
466
  8
0
  6
CONTINUOUS
 62
   253
 10
-172.5628756343978
 20
218.0054788722112
 30
0.0
 11
-172.5628756343978
 21
217.4790623852453
 31
0.0
  0
LINE
  5
467
  8
0
  6
CONTINUOUS
 62
     7
 10
-172.5628756343978
 20
217.4790623852453
 30
0.0
 11
-172.5869611488453
 21
217.3572622539445
 31
0.0
  0
LINE
  5
468
  8
0
  6
CONTINUOUS
 62
     7
 10
-172.5869611488453
 20
217.3572622539445
 30
0.0
 11
-172.6161201443161
 21
217.2363565609612
 31
0.0
  0
LINE
  5
469
  8
0
  6
CONTINUOUS
 62
     7
 10
-172.6161201443161
 20
217.2363565609612
 30
0.0
 11
-172.6504562756641
 21
217.116144140682
 31
0.0
  0
LINE
  5
46A
  8
0
  6
CONTINUOUS
 62
     7
 10
-172.6504562756641
 20
217.116144140682
 30
0.0
 11
-172.6898440306985
 21
216.9972611845993
 31
0.0
  0
LINE
  5
46B
  8
0
  6
CONTINUOUS
 62
     7
 10
-172.6898440306985
 20
216.9972611845993
 30
0.0
 11
-172.7337568232605
 21
216.8811264270319
 31
0.0
  0
LINE
  5
46C
  8
0
  6
CONTINUOUS
 62
     7
 10
-172.7337568232605
 20
216.8811264270319
 30
0.0
 11
-172.7826593991795
 21
216.76641860155
 31
0.0
  0
LINE
  5
46D
  8
0
  6
CONTINUOUS
 62
     7
 10
-172.7826593991795
 20
216.76641860155
 30
0.0
 11
-172.8362847383438
 21
216.6538408374352
 31
0.0
  0
LINE
  5
46E
  8
0
  6
CONTINUOUS
 62
     7
 10
-172.8362847383438
 20
216.6538408374352
 30
0.0
 11
-172.8948063260709
 21
216.5431154483769
 31
0.0
  0
LINE
  5
46F
  8
0
  6
CONTINUOUS
 62
     7
 10
-172.8948063260709
 20
216.5431154483769
 30
0.0
 11
-172.9573337638193
 21
216.4358526546968
 31
0.0
  0
LINE
  5
470
  8
0
  6
CONTINUOUS
 62
     7
 10
-172.9573337638193
 20
216.4358526546968
 30
0.0
 11
-173.024545859608
 21
216.3308227980877
 31
0.0
  0
LINE
  5
471
  8
0
  6
CONTINUOUS
 62
     7
 10
-173.024545859608
 20
216.3308227980877
 30
0.0
 11
-173.0960629140148
 21
216.2286751124969
 31
0.0
  0
LINE
  5
472
  8
0
  6
CONTINUOUS
 62
     7
 10
-173.0960629140148
 20
216.2286751124969
 30
0.0
 11
-173.1721019845895
 21
216.1291644615779
 31
0.0
  0
LINE
  5
473
  8
0
  6
CONTINUOUS
 62
     7
 10
-173.1721019845895
 20
216.1291644615779
 30
0.0
 11
-173.2515176580409
 21
216.0337324111676
 31
0.0
  0
LINE
  5
474
  8
0
  6
CONTINUOUS
 62
     7
 10
-173.2515176580409
 20
216.0337324111676
 30
0.0
 11
-173.3351836173373
 21
215.9412776364099
 31
0.0
  0
LINE
  5
475
  8
0
  6
CONTINUOUS
 62
     7
 10
-173.3351836173373
 20
215.9412776364099
 30
0.0
 11
-173.4226179638261
 21
215.852377560764
 31
0.0
  0
LINE
  5
476
  8
0
  6
CONTINUOUS
 62
     7
 10
-173.4226179638261
 20
215.852377560764
 30
0.0
 11
-173.5140753279711
 21
215.7668263599631
 31
0.0
  0
LINE
  5
477
  8
0
  6
CONTINUOUS
 62
     7
 10
-173.5140753279711
 20
215.7668263599631
 30
0.0
 11
-173.6081874683935
 21
215.6858561818052
 31
0.0
  0
LINE
  5
478
  8
0
  6
CONTINUOUS
 62
     7
 10
-173.6081874683935
 20
215.6858561818052
 30
0.0
 11
-173.7059983364941
 21
215.6085254429196
 31
0.0
  0
LINE
  5
479
  8
0
  6
CONTINUOUS
 62
     7
 10
-173.7059983364941
 20
215.6085254429196
 30
0.0
 11
-173.8069371288193
 21
215.5353238334853
 31
0.0
  0
LINE
  5
47A
  8
0
  6
CONTINUOUS
 62
     7
 10
-173.8069371288193
 20
215.5353238334853
 30
0.0
 11
-173.9112890182237
 21
215.4660905108412
 31
0.0
  0
LINE
  5
47B
  8
0
  6
CONTINUOUS
 62
     7
 10
-173.9112890182237
 20
215.4660905108412
 30
0.0
 11
-174.0175011624036
 21
215.401813921258
 31
0.0
  0
LINE
  5
47C
  8
0
  6
CONTINUOUS
 62
     7
 10
-174.0175011624036
 20
215.401813921258
 30
0.0
 11
-174.1267585252262
 21
215.3417385236731
 31
0.0
  0
LINE
  5
47D
  8
0
  6
CONTINUOUS
 62
     7
 10
-174.1267585252262
 20
215.3417385236731
 30
0.0
 11
-174.2384171430234
 21
215.2862527730279
 31
0.0
  0
LINE
  5
47E
  8
0
  6
CONTINUOUS
 62
     7
 10
-174.2384171430234
 20
215.2862527730279
 30
0.0
 11
-174.3527848625601
 21
215.2352452344731
 31
0.0
  0
LINE
  5
47F
  8
0
  6
CONTINUOUS
 62
     7
 10
-174.3527848625601
 20
215.2352452344731
 30
0.0
 11
-174.4681676427566
 21
215.189433361368
 31
0.0
  0
LINE
  5
480
  8
0
  6
CONTINUOUS
 62
     7
 10
-174.4681676427566
 20
215.189433361368
 30
0.0
 11
-174.5858582128818
 21
215.1482685629881
 31
0.0
  0
LINE
  5
481
  8
0
  6
CONTINUOUS
 62
     7
 10
-174.5858582128818
 20
215.1482685629881
 30
0.0
 11
-174.7051572092842
 21
215.1120273492592
 31
0.0
  0
LINE
  5
482
  8
0
  6
CONTINUOUS
 62
     7
 10
-174.7051572092842
 20
215.1120273492592
 30
0.0
 11
-174.8263866639621
 21
215.0806507563884
 31
0.0
  0
LINE
  5
483
  8
0
  6
CONTINUOUS
 62
     7
 10
-174.8263866639621
 20
215.0806507563884
 30
0.0
 11
-174.9107503107423
 21
215.0619637977372
 31
0.0
  0
LINE
  5
484
  8
0
  6
CONTINUOUS
 62
     7
 10
-174.9107503107423
 20
215.0619637977372
 30
0.0
 11
-174.9956171308373
 21
215.0457137286475
 31
0.0
  0
LINE
  5
485
  8
0
  6
CONTINUOUS
 62
     7
 10
-174.9956171308373
 20
215.0457137286475
 30
0.0
 11
-175.0812023309141
 21
215.0318731053916
 31
0.0
  0
LINE
  5
486
  8
0
  6
CONTINUOUS
 62
     7
 10
-175.0812023309141
 20
215.0318731053916
 30
0.0
 11
-175.1671517242017
 21
215.0205108075672
 31
0.0
  0
LINE
  5
487
  8
0
  6
CONTINUOUS
 62
     7
 10
-175.1671517242017
 20
215.0205108075672
 30
0.0
 11
-175.2542764720561
 21
215.0115595479144
 31
0.0
  0
LINE
  5
488
  8
0
  6
CONTINUOUS
 62
     7
 10
-175.2542764720561
 20
215.0115595479144
 30
0.0
 11
-175.3416253886286
 21
215.0051548459888
 31
0.0
  0
LINE
  5
489
  8
0
  6
CONTINUOUS
 62
     7
 10
-175.3416253886286
 20
215.0051548459888
 30
0.0
 11
-175.4294244368637
 21
215.0012944382632
 31
0.0
  0
LINE
  5
48A
  8
0
  6
CONTINUOUS
 62
     7
 10
-175.4294244368637
 20
215.0012944382632
 30
0.0
 11
-175.5172988935003
 21
215.0000068990036
 31
0.0
  0
LINE
  5
48B
  8
0
  6
CONTINUOUS
 62
   253
 10
-238.5628756343974
 20
218.0054788722112
 30
0.0
 11
-238.5628756343974
 21
217.4790623852453
 31
0.0
  0
LINE
  5
48C
  8
0
  6
CONTINUOUS
 62
     7
 10
-238.5628756343974
 20
217.4790623852453
 30
0.0
 11
-238.5869611488454
 21
217.3572622539445
 31
0.0
  0
LINE
  5
48D
  8
0
  6
CONTINUOUS
 62
     7
 10
-238.5869611488454
 20
217.3572622539445
 30
0.0
 11
-238.6161201443162
 21
217.2363565609612
 31
0.0
  0
LINE
  5
48E
  8
0
  6
CONTINUOUS
 62
     7
 10
-238.6161201443162
 20
217.2363565609612
 30
0.0
 11
-238.6504562756642
 21
217.116144140682
 31
0.0
  0
LINE
  5
48F
  8
0
  6
CONTINUOUS
 62
     7
 10
-238.6504562756642
 20
217.116144140682
 30
0.0
 11
-238.6898440306986
 21
216.9972611845993
 31
0.0
  0
LINE
  5
490
  8
0
  6
CONTINUOUS
 62
     7
 10
-238.6898440306986
 20
216.9972611845993
 30
0.0
 11
-238.7337568232601
 21
216.8811264270319
 31
0.0
  0
LINE
  5
491
  8
0
  6
CONTINUOUS
 62
     7
 10
-238.7337568232601
 20
216.8811264270319
 30
0.0
 11
-238.7826593991797
 21
216.76641860155
 31
0.0
  0
LINE
  5
492
  8
0
  6
CONTINUOUS
 62
     7
 10
-238.7826593991797
 20
216.76641860155
 30
0.0
 11
-238.8362847383438
 21
216.6538408374352
 31
0.0
  0
LINE
  5
493
  8
0
  6
CONTINUOUS
 62
     7
 10
-238.8362847383438
 20
216.6538408374352
 30
0.0
 11
-238.8948063260712
 21
216.5431154483769
 31
0.0
  0
LINE
  5
494
  8
0
  6
CONTINUOUS
 62
     7
 10
-238.8948063260712
 20
216.5431154483769
 30
0.0
 11
-238.9573337638193
 21
216.4358526546968
 31
0.0
  0
LINE
  5
495
  8
0
  6
CONTINUOUS
 62
     7
 10
-238.9573337638193
 20
216.4358526546968
 30
0.0
 11
-239.0245458596081
 21
216.3308227980877
 31
0.0
  0
LINE
  5
496
  8
0
  6
CONTINUOUS
 62
     7
 10
-239.0245458596081
 20
216.3308227980877
 30
0.0
 11
-239.0960629140149
 21
216.2286751124969
 31
0.0
  0
LINE
  5
497
  8
0
  6
CONTINUOUS
 62
     7
 10
-239.0960629140149
 20
216.2286751124969
 30
0.0
 11
-239.17210198459
 21
216.1291644615779
 31
0.0
  0
LINE
  5
498
  8
0
  6
CONTINUOUS
 62
     7
 10
-239.17210198459
 20
216.1291644615779
 30
0.0
 11
-239.2515176580407
 21
216.0337324111676
 31
0.0
  0
LINE
  5
499
  8
0
  6
CONTINUOUS
 62
     7
 10
-239.2515176580407
 20
216.0337324111676
 30
0.0
 11
-239.335183617337
 21
215.9412776364099
 31
0.0
  0
LINE
  5
49A
  8
0
  6
CONTINUOUS
 62
     7
 10
-239.335183617337
 20
215.9412776364099
 30
0.0
 11
-239.4226179638261
 21
215.852377560764
 31
0.0
  0
LINE
  5
49B
  8
0
  6
CONTINUOUS
 62
     7
 10
-239.4226179638261
 20
215.852377560764
 30
0.0
 11
-239.5140753279712
 21
215.7668263599631
 31
0.0
  0
LINE
  5
49C
  8
0
  6
CONTINUOUS
 62
     7
 10
-239.5140753279712
 20
215.7668263599631
 30
0.0
 11
-239.6081874683937
 21
215.6858561818052
 31
0.0
  0
LINE
  5
49D
  8
0
  6
CONTINUOUS
 62
     7
 10
-239.6081874683937
 20
215.6858561818052
 30
0.0
 11
-239.7059983364942
 21
215.6085254429196
 31
0.0
  0
LINE
  5
49E
  8
0
  6
CONTINUOUS
 62
     7
 10
-239.7059983364942
 20
215.6085254429196
 30
0.0
 11
-239.8069371288194
 21
215.5353238334853
 31
0.0
  0
LINE
  5
49F
  8
0
  6
CONTINUOUS
 62
     7
 10
-239.8069371288194
 20
215.5353238334853
 30
0.0
 11
-239.9112890182238
 21
215.4660905108412
 31
0.0
  0
LINE
  5
4A0
  8
0
  6
CONTINUOUS
 62
     7
 10
-239.9112890182238
 20
215.4660905108412
 30
0.0
 11
-240.0175011624037
 21
215.401813921258
 31
0.0
  0
LINE
  5
4A1
  8
0
  6
CONTINUOUS
 62
     7
 10
-240.0175011624037
 20
215.401813921258
 30
0.0
 11
-240.1267585252258
 21
215.3417385236731
 31
0.0
  0
LINE
  5
4A2
  8
0
  6
CONTINUOUS
 62
     7
 10
-240.1267585252258
 20
215.3417385236731
 30
0.0
 11
-240.238417143023
 21
215.2862527730279
 31
0.0
  0
LINE
  5
4A3
  8
0
  6
CONTINUOUS
 62
     7
 10
-240.238417143023
 20
215.2862527730279
 30
0.0
 11
-240.3527848625602
 21
215.2352452344731
 31
0.0
  0
LINE
  5
4A4
  8
0
  6
CONTINUOUS
 62
     7
 10
-240.3527848625602
 20
215.2352452344731
 30
0.0
 11
-240.4681676427567
 21
215.189433361368
 31
0.0
  0
LINE
  5
4A5
  8
0
  6
CONTINUOUS
 62
     7
 10
-240.4681676427567
 20
215.189433361368
 30
0.0
 11
-240.5858582128819
 21
215.1482685629881
 31
0.0
  0
LINE
  5
4A6
  8
0
  6
CONTINUOUS
 62
     7
 10
-240.5858582128819
 20
215.1482685629881
 30
0.0
 11
-240.705157209284
 21
215.1120273492592
 31
0.0
  0
LINE
  5
4A7
  8
0
  6
CONTINUOUS
 62
     7
 10
-240.705157209284
 20
215.1120273492592
 30
0.0
 11
-240.8263866639617
 21
215.0806507563884
 31
0.0
  0
LINE
  5
4A8
  8
0
  6
CONTINUOUS
 62
     7
 10
-240.8263866639617
 20
215.0806507563884
 30
0.0
 11
-240.9107503107424
 21
215.0619637977372
 31
0.0
  0
LINE
  5
4A9
  8
0
  6
CONTINUOUS
 62
     7
 10
-240.9107503107424
 20
215.0619637977372
 30
0.0
 11
-240.9956171308374
 21
215.0457137286475
 31
0.0
  0
LINE
  5
4AA
  8
0
  6
CONTINUOUS
 62
     7
 10
-240.9956171308374
 20
215.0457137286475
 30
0.0
 11
-241.0812023309141
 21
215.0318731053916
 31
0.0
  0
LINE
  5
4AB
  8
0
  6
CONTINUOUS
 62
     7
 10
-241.0812023309141
 20
215.0318731053916
 30
0.0
 11
-241.1671517242018
 21
215.0205108075672
 31
0.0
  0
LINE
  5
4AC
  8
0
  6
CONTINUOUS
 62
     7
 10
-241.1671517242018
 20
215.0205108075672
 30
0.0
 11
-241.2542764720562
 21
215.0115595479144
 31
0.0
  0
LINE
  5
4AD
  8
0
  6
CONTINUOUS
 62
     7
 10
-241.2542764720562
 20
215.0115595479144
 30
0.0
 11
-241.3416253886282
 21
215.0051548459888
 31
0.0
  0
LINE
  5
4AE
  8
0
  6
CONTINUOUS
 62
     7
 10
-241.3416253886282
 20
215.0051548459888
 30
0.0
 11
-241.4294244368638
 21
215.0012944382632
 31
0.0
  0
LINE
  5
4AF
  8
0
  6
CONTINUOUS
 62
     7
 10
-241.4294244368638
 20
215.0012944382632
 30
0.0
 11
-241.5172988935001
 21
215.0000068990036
 31
0.0
  0
LINE
  5
4B0
  8
0
  6
CONTINUOUS
 62
   253
 10
-216.5628756343974
 20
218.0054788722112
 30
0.0
 11
-216.5628756343974
 21
217.4790623852453
 31
0.0
  0
LINE
  5
4B1
  8
0
  6
CONTINUOUS
 62
   253
 10
-128.5628756343978
 20
218.0054788722112
 30
0.0
 11
-128.5628756343978
 21
217.4790623852453
 31
0.0
  0
LINE
  5
4B2
  8
0
  6
CONTINUOUS
 62
     7
 10
-128.5628756343978
 20
217.4790623852453
 30
0.0
 11
-128.5869611488457
 21
217.3572622539445
 31
0.0
  0
LINE
  5
4B3
  8
0
  6
CONTINUOUS
 62
     7
 10
-128.5869611488457
 20
217.3572622539445
 30
0.0
 11
-128.6161201443161
 21
217.2363565609612
 31
0.0
  0
LINE
  5
4B4
  8
0
  6
CONTINUOUS
 62
     7
 10
-128.6161201443161
 20
217.2363565609612
 30
0.0
 11
-128.6504562756642
 21
217.116144140682
 31
0.0
  0
LINE
  5
4B5
  8
0
  6
CONTINUOUS
 62
     7
 10
-128.6504562756642
 20
217.116144140682
 30
0.0
 11
-128.6898440306985
 21
216.9972611845993
 31
0.0
  0
LINE
  5
4B6
  8
0
  6
CONTINUOUS
 62
     7
 10
-128.6898440306985
 20
216.9972611845993
 30
0.0
 11
-128.7337568232605
 21
216.8811264270319
 31
0.0
  0
LINE
  5
4B7
  8
0
  6
CONTINUOUS
 62
     7
 10
-128.7337568232605
 20
216.8811264270319
 30
0.0
 11
-128.7826593991793
 21
216.76641860155
 31
0.0
  0
LINE
  5
4B8
  8
0
  6
CONTINUOUS
 62
     7
 10
-128.7826593991793
 20
216.76641860155
 30
0.0
 11
-128.8362847383437
 21
216.6538408374352
 31
0.0
  0
LINE
  5
4B9
  8
0
  6
CONTINUOUS
 62
     7
 10
-128.8362847383437
 20
216.6538408374352
 30
0.0
 11
-128.894806326071
 21
216.5431154483769
 31
0.0
  0
LINE
  5
4BA
  8
0
  6
CONTINUOUS
 62
     7
 10
-128.894806326071
 20
216.5431154483769
 30
0.0
 11
-128.9573337638193
 21
216.4358526546968
 31
0.0
  0
LINE
  5
4BB
  8
0
  6
CONTINUOUS
 62
     7
 10
-128.9573337638193
 20
216.4358526546968
 30
0.0
 11
-129.0245458596081
 21
216.3308227980877
 31
0.0
  0
LINE
  5
4BC
  8
0
  6
CONTINUOUS
 62
     7
 10
-129.0245458596081
 20
216.3308227980877
 30
0.0
 11
-129.096062914015
 21
216.2286751124969
 31
0.0
  0
LINE
  5
4BD
  8
0
  6
CONTINUOUS
 62
     7
 10
-129.096062914015
 20
216.2286751124969
 30
0.0
 11
-129.1721019845901
 21
216.1291644615779
 31
0.0
  0
LINE
  5
4BE
  8
0
  6
CONTINUOUS
 62
     7
 10
-129.1721019845901
 20
216.1291644615779
 30
0.0
 11
-129.251517658041
 21
216.0337324111676
 31
0.0
  0
LINE
  5
4BF
  8
0
  6
CONTINUOUS
 62
     7
 10
-129.251517658041
 20
216.0337324111676
 30
0.0
 11
-129.3351836173373
 21
215.9412776364099
 31
0.0
  0
LINE
  5
4C0
  8
0
  6
CONTINUOUS
 62
     7
 10
-129.3351836173373
 20
215.9412776364099
 30
0.0
 11
-129.4226179638262
 21
215.852377560764
 31
0.0
  0
LINE
  5
4C1
  8
0
  6
CONTINUOUS
 62
     7
 10
-129.4226179638262
 20
215.852377560764
 30
0.0
 11
-129.5140753279713
 21
215.7668263599631
 31
0.0
  0
LINE
  5
4C2
  8
0
  6
CONTINUOUS
 62
     7
 10
-129.5140753279713
 20
215.7668263599631
 30
0.0
 11
-129.6081874683933
 21
215.6858561818052
 31
0.0
  0
LINE
  5
4C3
  8
0
  6
CONTINUOUS
 62
     7
 10
-129.6081874683933
 20
215.6858561818052
 30
0.0
 11
-129.7059983364941
 21
215.6085254429196
 31
0.0
  0
LINE
  5
4C4
  8
0
  6
CONTINUOUS
 62
     7
 10
-129.7059983364941
 20
215.6085254429196
 30
0.0
 11
-129.806937128819
 21
215.5353238334853
 31
0.0
  0
LINE
  5
4C5
  8
0
  6
CONTINUOUS
 62
     7
 10
-129.806937128819
 20
215.5353238334853
 30
0.0
 11
-129.9112890182237
 21
215.4660905108412
 31
0.0
  0
LINE
  5
4C6
  8
0
  6
CONTINUOUS
 62
     7
 10
-129.9112890182237
 20
215.4660905108412
 30
0.0
 11
-130.0175011624038
 21
215.401813921258
 31
0.0
  0
LINE
  5
4C7
  8
0
  6
CONTINUOUS
 62
     7
 10
-130.0175011624038
 20
215.401813921258
 30
0.0
 11
-130.1267585252261
 21
215.3417385236731
 31
0.0
  0
LINE
  5
4C8
  8
0
  6
CONTINUOUS
 62
     7
 10
-130.1267585252261
 20
215.3417385236731
 30
0.0
 11
-130.2384171430231
 21
215.2862527730279
 31
0.0
  0
LINE
  5
4C9
  8
0
  6
CONTINUOUS
 62
     7
 10
-130.2384171430231
 20
215.2862527730279
 30
0.0
 11
-130.3527848625601
 21
215.2352452344731
 31
0.0
  0
LINE
  5
4CA
  8
0
  6
CONTINUOUS
 62
     7
 10
-130.3527848625601
 20
215.2352452344731
 30
0.0
 11
-130.4681676427566
 21
215.189433361368
 31
0.0
  0
LINE
  5
4CB
  8
0
  6
CONTINUOUS
 62
     7
 10
-130.4681676427566
 20
215.189433361368
 30
0.0
 11
-130.5858582128818
 21
215.1482685629881
 31
0.0
  0
LINE
  5
4CC
  8
0
  6
CONTINUOUS
 62
     7
 10
-130.5858582128818
 20
215.1482685629881
 30
0.0
 11
-130.7051572092841
 21
215.1120273492592
 31
0.0
  0
LINE
  5
4CD
  8
0
  6
CONTINUOUS
 62
     7
 10
-130.7051572092841
 20
215.1120273492592
 30
0.0
 11
-130.8263866639621
 21
215.0806507563884
 31
0.0
  0
LINE
  5
4CE
  8
0
  6
CONTINUOUS
 62
     7
 10
-130.8263866639621
 20
215.0806507563884
 30
0.0
 11
-130.9107503107429
 21
215.0619637977372
 31
0.0
  0
LINE
  5
4CF
  8
0
  6
CONTINUOUS
 62
     7
 10
-130.9107503107429
 20
215.0619637977372
 30
0.0
 11
-130.9956171308373
 21
215.0457137286475
 31
0.0
  0
LINE
  5
4D0
  8
0
  6
CONTINUOUS
 62
     7
 10
-130.9956171308373
 20
215.0457137286475
 30
0.0
 11
-131.0812023309142
 21
215.0318731053916
 31
0.0
  0
LINE
  5
4D1
  8
0
  6
CONTINUOUS
 62
     7
 10
-131.0812023309142
 20
215.0318731053916
 30
0.0
 11
-131.1671517242017
 21
215.0205108075672
 31
0.0
  0
LINE
  5
4D2
  8
0
  6
CONTINUOUS
 62
     7
 10
-131.1671517242017
 20
215.0205108075672
 30
0.0
 11
-131.2542764720557
 21
215.0115595479144
 31
0.0
  0
LINE
  5
4D3
  8
0
  6
CONTINUOUS
 62
     7
 10
-131.2542764720557
 20
215.0115595479144
 30
0.0
 11
-131.3416253886286
 21
215.0051548459888
 31
0.0
  0
LINE
  5
4D4
  8
0
  6
CONTINUOUS
 62
     7
 10
-131.3416253886286
 20
215.0051548459888
 30
0.0
 11
-131.4294244368639
 21
215.0012944382632
 31
0.0
  0
LINE
  5
4D5
  8
0
  6
CONTINUOUS
 62
     7
 10
-131.4294244368639
 20
215.0012944382632
 30
0.0
 11
-131.5172988935001
 21
215.0000068990036
 31
0.0
  0
LINE
  5
4D6
  8
0
  6
CONTINUOUS
 62
     7
 10
-251.4371243654725
 20
322.5209376276652
 30
0.0
 11
-252.8245075252724
 21
314.6526967165328
 31
0.0
  0
LINE
  5
4D7
  8
0
  6
CONTINUOUS
 62
     7
 10
-163.4371243654724
 20
322.5209376276652
 30
0.0
 11
-164.8245075252723
 21
314.6526967165328
 31
0.0
  0
LINE
  5
4D8
  8
0
  6
CONTINUOUS
 62
     7
 10
-141.4371243654726
 20
322.5209376276652
 30
0.0
 11
-142.8245075252725
 21
314.6526967165328
 31
0.0
  0
LINE
  5
4D9
  8
0
  6
CONTINUOUS
 62
     7
 10
-229.4371243654725
 20
322.5209376276652
 30
0.0
 11
-230.8245075252724
 21
314.6526967165328
 31
0.0
  0
LINE
  5
4DA
  8
0
  6
CONTINUOUS
 62
     7
 10
-185.4371243654724
 20
322.5209376276652
 30
0.0
 11
-186.8245075252723
 21
314.6526967165328
 31
0.0
  0
LINE
  5
4DB
  8
0
  6
CONTINUOUS
 62
     7
 10
-207.4371243654724
 20
322.5209376276652
 30
0.0
 11
-208.8245075252724
 21
314.6526967165328
 31
0.0
  0
LINE
  5
4DC
  8
0
  6
CONTINUOUS
 62
     7
 10
-193.1754924766134
 20
314.6526967271345
 30
0.0
 11
-194.5628756343978
 21
322.5209376275724
 31
0.0
  0
LINE
  5
4DD
  8
0
  6
CONTINUOUS
 62
     7
 10
-127.175492476613
 20
314.6526967271345
 30
0.0
 11
-128.5628756343978
 21
322.5209376275724
 31
0.0
  0
LINE
  5
4DE
  8
0
  6
CONTINUOUS
 62
     7
 10
-237.1754924766134
 20
314.6526967271345
 30
0.0
 11
-238.5628756343974
 21
322.5209376275724
 31
0.0
  0
LINE
  5
4DF
  8
0
  6
CONTINUOUS
 62
     7
 10
-171.1754924766133
 20
314.6526967271345
 30
0.0
 11
-172.5628756343978
 21
322.5209376275724
 31
0.0
  0
LINE
  5
4E0
  8
0
  6
CONTINUOUS
 62
     7
 10
-149.1754924766129
 20
314.6526967271345
 30
0.0
 11
-150.5628756343977
 21
322.5209376275724
 31
0.0
  0
LINE
  5
4E1
  8
0
  6
CONTINUOUS
 62
     7
 10
-215.1754924766134
 20
314.6526967271345
 30
0.0
 11
-216.5628756343974
 21
322.5209376275724
 31
0.0
  0
LINE
  5
4E2
  8
0
  6
CONTINUOUS
 62
     7
 10
-207.4371243654724
 20
217.479062385152
 30
0.0
 11
-208.8245075252724
 21
225.3473033369648
 31
0.0
  0
LINE
  5
4E3
  8
0
  6
CONTINUOUS
 62
     7
 10
-141.4371243654726
 20
217.479062385152
 30
0.0
 11
-142.8245075252725
 21
225.3473033369648
 31
0.0
  0
LINE
  5
4E4
  8
0
  6
CONTINUOUS
 62
     7
 10
-251.4371243654725
 20
217.479062385152
 30
0.0
 11
-252.8245075252724
 21
225.3473033369648
 31
0.0
  0
LINE
  5
4E5
  8
0
  6
CONTINUOUS
 62
     7
 10
-185.4371243654724
 20
217.479062385152
 30
0.0
 11
-186.8245075252723
 21
225.3473033369648
 31
0.0
  0
LINE
  5
4E6
  8
0
  6
CONTINUOUS
 62
     7
 10
-163.4371243654724
 20
217.479062385152
 30
0.0
 11
-164.8245075252723
 21
225.3473033369648
 31
0.0
  0
LINE
  5
4E7
  8
0
  6
CONTINUOUS
 62
   253
 10
-230.8245075251876
 20
225.8710235379968
 30
0.0
 11
-230.8245075252724
 21
225.3473033369648
 31
0.0
  0
LINE
  5
4E8
  8
0
  6
CONTINUOUS
 62
     7
 10
-229.4371243654725
 20
217.479062385152
 30
0.0
 11
-230.8245075252724
 21
225.3473033369648
 31
0.0
  0
LINE
  5
4E9
  8
0
  6
CONTINUOUS
 62
     7
 10
-215.1754924766134
 20
225.3473033263632
 30
0.0
 11
-216.5628756343974
 21
217.4790623852453
 31
0.0
  0
LINE
  5
4EA
  8
0
  6
CONTINUOUS
 62
     7
 10
-193.1754924766134
 20
225.3473033263632
 30
0.0
 11
-194.5628756343978
 21
217.4790623852453
 31
0.0
  0
LINE
  5
4EB
  8
0
  6
CONTINUOUS
 62
     7
 10
-237.1754924766134
 20
225.3473033263632
 30
0.0
 11
-238.5628756343974
 21
217.4790623852453
 31
0.0
  0
LINE
  5
4EC
  8
0
  6
CONTINUOUS
 62
     7
 10
-171.1754924766133
 20
225.3473033263632
 30
0.0
 11
-172.5628756343978
 21
217.4790623852453
 31
0.0
  0
LINE
  5
4ED
  8
0
  6
CONTINUOUS
 62
     7
 10
-149.1754924766129
 20
225.3473033263632
 30
0.0
 11
-150.5628756343977
 21
217.4790623852453
 31
0.0
  0
LINE
  5
4EE
  8
0
  6
CONTINUOUS
 62
     7
 10
-127.175492476613
 20
225.3473033263632
 30
0.0
 11
-128.5628756343978
 21
217.4790623852453
 31
0.0
  0
LINE
  5
4EF
  8
0
  6
CONTINUOUS
 62
   253
 10
-147.2058769706002
 20
312.4768313261644
 30
0.0
 11
-147.2058769706002
 21
312.9999930700748
 31
0.0
  0
LINE
  5
4F0
  8
0
  6
CONTINUOUS
 62
     7
 10
-147.2058769706002
 20
312.9999930700748
 30
0.0
 11
-147.2886230511512
 21
313.0017055397723
 31
0.0
  0
LINE
  5
4F1
  8
0
  6
CONTINUOUS
 62
     7
 10
-147.2886230511512
 20
313.0017055397723
 30
0.0
 11
-147.3713691317025
 21
313.0068517523924
 31
0.0
  0
LINE
  5
4F2
  8
0
  6
CONTINUOUS
 62
     7
 10
-147.3713691317025
 20
313.0068517523924
 30
0.0
 11
-147.4542592833357
 21
313.0154764552764
 31
0.0
  0
LINE
  5
4F3
  8
0
  6
CONTINUOUS
 62
     7
 10
-147.4542592833357
 20
313.0154764552764
 30
0.0
 11
-147.5368612928045
 21
313.027570867244
 31
0.0
  0
LINE
  5
4F4
  8
0
  6
CONTINUOUS
 62
     7
 10
-147.5368612928045
 20
313.027570867244
 30
0.0
 11
-147.6181823334766
 21
313.0429534037409
 31
0.0
  0
LINE
  5
4F5
  8
0
  6
CONTINUOUS
 62
     7
 10
-147.6181823334766
 20
313.0429534037409
 30
0.0
 11
-147.6991440854229
 21
313.0617762253835
 31
0.0
  0
LINE
  5
4F6
  8
0
  6
CONTINUOUS
 62
     7
 10
-147.6991440854229
 20
313.0617762253835
 30
0.0
 11
-147.7792540610556
 21
313.0839453983641
 31
0.0
  0
LINE
  5
4F7
  8
0
  6
CONTINUOUS
 62
     7
 10
-147.7792540610556
 20
313.0839453983641
 30
0.0
 11
-147.8587146445545
 21
313.1095426105892
 31
0.0
  0
LINE
  5
4F8
  8
0
  6
CONTINUOUS
 62
     7
 10
-147.8587146445545
 20
313.1095426105892
 30
0.0
 11
-147.9363681538906
 21
313.138170683368
 31
0.0
  0
LINE
  5
4F9
  8
0
  6
CONTINUOUS
 62
     7
 10
-147.9363681538906
 20
313.138170683368
 30
0.0
 11
-148.0130979200662
 21
313.1701320580212
 31
0.0
  0
LINE
  5
4FA
  8
0
  6
CONTINUOUS
 62
     7
 10
-148.0130979200662
 20
313.1701320580212
 30
0.0
 11
-148.0884338219977
 21
313.2052525949445
 31
0.0
  0
LINE
  5
4FB
  8
0
  6
CONTINUOUS
 62
     7
 10
-148.0884338219977
 20
313.2052525949445
 30
0.0
 11
-148.1625619266565
 21
313.2436463320444
 31
0.0
  0
LINE
  5
4FC
  8
0
  6
CONTINUOUS
 62
     7
 10
-148.1625619266565
 20
313.2436463320444
 30
0.0
 11
-148.2344063158201
 21
313.2847300127832
 31
0.0
  0
LINE
  5
4FD
  8
0
  6
CONTINUOUS
 62
     7
 10
-148.2344063158201
 20
313.2847300127832
 30
0.0
 11
-148.3047880397201
 21
313.3289480531388
 31
0.0
  0
LINE
  5
4FE
  8
0
  6
CONTINUOUS
 62
     7
 10
-148.3047880397201
 20
313.3289480531388
 30
0.0
 11
-148.3732723164273
 21
313.3760509291489
 31
0.0
  0
LINE
  5
4FF
  8
0
  6
CONTINUOUS
 62
     7
 10
-148.3732723164273
 20
313.3760509291489
 30
0.0
 11
-148.4400237649446
 21
313.4261818803049
 31
0.0
  0
LINE
  5
500
  8
0
  6
CONTINUOUS
 62
     7
 10
-148.4400237649446
 20
313.4261818803049
 30
0.0
 11
-148.5040779088866
 21
313.4785877015356
 31
0.0
  0
LINE
  5
501
  8
0
  6
CONTINUOUS
 62
     7
 10
-148.5040779088866
 20
313.4785877015356
 30
0.0
 11
-148.5661708717929
 21
313.5338425009141
 31
0.0
  0
LINE
  5
502
  8
0
  6
CONTINUOUS
 62
     7
 10
-148.5661708717929
 20
313.5338425009141
 30
0.0
 11
-148.6259151986204
 21
313.59162827222
 31
0.0
  0
LINE
  5
503
  8
0
  6
CONTINUOUS
 62
     7
 10
-148.6259151986204
 20
313.59162827222
 30
0.0
 11
-148.6834495228873
 21
313.6521135033675
 31
0.0
  0
LINE
  5
504
  8
0
  6
CONTINUOUS
 62
     7
 10
-148.6834495228873
 20
313.6521135033675
 30
0.0
 11
-148.7379473919221
 21
313.7143958553397
 31
0.0
  0
LINE
  5
505
  8
0
  6
CONTINUOUS
 62
     7
 10
-148.7379473919221
 20
313.7143958553397
 30
0.0
 11
-148.7900397124382
 21
313.779163270284
 31
0.0
  0
LINE
  5
506
  8
0
  6
CONTINUOUS
 62
     7
 10
-148.7900397124382
 20
313.779163270284
 30
0.0
 11
-148.8393970288822
 21
313.8460380469268
 31
0.0
  0
LINE
  5
507
  8
0
  6
CONTINUOUS
 62
     7
 10
-148.8393970288822
 20
313.8460380469268
 30
0.0
 11
-148.8861281696825
 21
313.9152092735164
 31
0.0
  0
LINE
  5
508
  8
0
  6
CONTINUOUS
 62
     7
 10
-148.8861281696825
 20
313.9152092735164
 30
0.0
 11
-148.9295674619413
 21
313.9856503920519
 31
0.0
  0
LINE
  5
509
  8
0
  6
CONTINUOUS
 62
     7
 10
-148.9295674619413
 20
313.9856503920519
 30
0.0
 11
-148.9702232186145
 21
314.0581441891213
 31
0.0
  0
LINE
  5
50A
  8
0
  6
CONTINUOUS
 62
     7
 10
-148.9702232186145
 20
314.0581441891213
 30
0.0
 11
-149.0078330496245
 21
314.1322636939845
 31
0.0
  0
LINE
  5
50B
  8
0
  6
CONTINUOUS
 62
     7
 10
-149.0078330496245
 20
314.1322636939845
 30
0.0
 11
-149.0424729811546
 21
314.208213380866
 31
0.0
  0
LINE
  5
50C
  8
0
  6
CONTINUOUS
 62
     7
 10
-149.0424729811546
 20
314.208213380866
 30
0.0
 11
-149.0645245694302
 21
314.2614618268872
 31
0.0
  0
LINE
  5
50D
  8
0
  6
CONTINUOUS
 62
     7
 10
-149.0645245694302
 20
314.2614618268872
 30
0.0
 11
-149.0850329911133
 21
314.3153233432571
 31
0.0
  0
LINE
  5
50E
  8
0
  6
CONTINUOUS
 62
     7
 10
-149.0850329911133
 20
314.3153233432571
 30
0.0
 11
-149.104041248532
 21
314.3699361991008
 31
0.0
  0
LINE
  5
50F
  8
0
  6
CONTINUOUS
 62
     7
 10
-149.104041248532
 20
314.3699361991008
 30
0.0
 11
-149.1214630052418
 21
314.4250755713528
 31
0.0
  0
LINE
  5
510
  8
0
  6
CONTINUOUS
 62
     7
 10
-149.1214630052418
 20
314.4250755713528
 30
0.0
 11
-149.1374365349036
 21
314.4812668325281
 31
0.0
  0
LINE
  5
511
  8
0
  6
CONTINUOUS
 62
     7
 10
-149.1374365349036
 20
314.4812668325281
 30
0.0
 11
-149.1517624831604
 21
314.5379004810324
 31
0.0
  0
LINE
  5
512
  8
0
  6
CONTINUOUS
 62
     7
 10
-149.1517624831604
 20
314.5379004810324
 30
0.0
 11
-149.1644685351741
 21
314.5951247759269
 31
0.0
  0
LINE
  5
513
  8
0
  6
CONTINUOUS
 62
     7
 10
-149.1644685351741
 20
314.5951247759269
 30
0.0
 11
-149.1754924766129
 21
314.6526967271345
 31
0.0
  0
LINE
  5
514
  8
0
  6
CONTINUOUS
 62
   253
 10
-213.2058769706002
 20
312.4768313261644
 30
0.0
 11
-213.2058769706002
 21
312.9999930700748
 31
0.0
  0
LINE
  5
515
  8
0
  6
CONTINUOUS
 62
     7
 10
-213.2058769706002
 20
312.9999930700748
 30
0.0
 11
-213.2886230511515
 21
313.0017055397723
 31
0.0
  0
LINE
  5
516
  8
0
  6
CONTINUOUS
 62
     7
 10
-213.2886230511515
 20
313.0017055397723
 30
0.0
 11
-213.3713691317023
 21
313.0068517523924
 31
0.0
  0
LINE
  5
517
  8
0
  6
CONTINUOUS
 62
     7
 10
-213.3713691317023
 20
313.0068517523924
 30
0.0
 11
-213.4542592833357
 21
313.0154764552764
 31
0.0
  0
LINE
  5
518
  8
0
  6
CONTINUOUS
 62
     7
 10
-213.4542592833357
 20
313.0154764552764
 30
0.0
 11
-213.5368612928046
 21
313.027570867244
 31
0.0
  0
LINE
  5
519
  8
0
  6
CONTINUOUS
 62
     7
 10
-213.5368612928046
 20
313.027570867244
 30
0.0
 11
-213.6181823334762
 21
313.0429534037409
 31
0.0
  0
LINE
  5
51A
  8
0
  6
CONTINUOUS
 62
     7
 10
-213.6181823334762
 20
313.0429534037409
 30
0.0
 11
-213.6991440854226
 21
313.0617762253835
 31
0.0
  0
LINE
  5
51B
  8
0
  6
CONTINUOUS
 62
     7
 10
-213.6991440854226
 20
313.0617762253835
 30
0.0
 11
-213.7792540610557
 21
313.0839453983641
 31
0.0
  0
LINE
  5
51C
  8
0
  6
CONTINUOUS
 62
     7
 10
-213.7792540610557
 20
313.0839453983641
 30
0.0
 11
-213.8587146445545
 21
313.1095426105892
 31
0.0
  0
LINE
  5
51D
  8
0
  6
CONTINUOUS
 62
     7
 10
-213.8587146445545
 20
313.1095426105892
 30
0.0
 11
-213.9363681538906
 21
313.138170683368
 31
0.0
  0
LINE
  5
51E
  8
0
  6
CONTINUOUS
 62
     7
 10
-213.9363681538906
 20
313.138170683368
 30
0.0
 11
-214.0130979200661
 21
313.1701320580212
 31
0.0
  0
LINE
  5
51F
  8
0
  6
CONTINUOUS
 62
     7
 10
-214.0130979200661
 20
313.1701320580212
 30
0.0
 11
-214.0884338219977
 21
313.2052525949445
 31
0.0
  0
LINE
  5
520
  8
0
  6
CONTINUOUS
 62
     7
 10
-214.0884338219977
 20
313.2052525949445
 30
0.0
 11
-214.1625619266567
 21
313.2436463320444
 31
0.0
  0
LINE
  5
521
  8
0
  6
CONTINUOUS
 62
     7
 10
-214.1625619266567
 20
313.2436463320444
 30
0.0
 11
-214.2344063158201
 21
313.2847300127832
 31
0.0
  0
LINE
  5
522
  8
0
  6
CONTINUOUS
 62
     7
 10
-214.2344063158201
 20
313.2847300127832
 30
0.0
 11
-214.3047880397202
 21
313.3289480531388
 31
0.0
  0
LINE
  5
523
  8
0
  6
CONTINUOUS
 62
     7
 10
-214.3047880397202
 20
313.3289480531388
 30
0.0
 11
-214.3732723164273
 21
313.3760509291489
 31
0.0
  0
LINE
  5
524
  8
0
  6
CONTINUOUS
 62
     7
 10
-214.3732723164273
 20
313.3760509291489
 30
0.0
 11
-214.4400237649446
 21
313.4261818803049
 31
0.0
  0
LINE
  5
525
  8
0
  6
CONTINUOUS
 62
     7
 10
-214.4400237649446
 20
313.4261818803049
 30
0.0
 11
-214.5040779088865
 21
313.4785877015356
 31
0.0
  0
LINE
  5
526
  8
0
  6
CONTINUOUS
 62
     7
 10
-214.5040779088865
 20
313.4785877015356
 30
0.0
 11
-214.566170871793
 21
313.5338425009141
 31
0.0
  0
LINE
  5
527
  8
0
  6
CONTINUOUS
 62
     7
 10
-214.566170871793
 20
313.5338425009141
 30
0.0
 11
-214.6259151986205
 21
313.59162827222
 31
0.0
  0
LINE
  5
528
  8
0
  6
CONTINUOUS
 62
     7
 10
-214.6259151986205
 20
313.59162827222
 30
0.0
 11
-214.6834495228873
 21
313.6521135033675
 31
0.0
  0
LINE
  5
529
  8
0
  6
CONTINUOUS
 62
     7
 10
-214.6834495228873
 20
313.6521135033675
 30
0.0
 11
-214.7379473919222
 21
313.7143958553397
 31
0.0
  0
LINE
  5
52A
  8
0
  6
CONTINUOUS
 62
     7
 10
-214.7379473919222
 20
313.7143958553397
 30
0.0
 11
-214.7900397124383
 21
313.779163270284
 31
0.0
  0
LINE
  5
52B
  8
0
  6
CONTINUOUS
 62
     7
 10
-214.7900397124383
 20
313.779163270284
 30
0.0
 11
-214.8393970288822
 21
313.8460380469268
 31
0.0
  0
LINE
  5
52C
  8
0
  6
CONTINUOUS
 62
     7
 10
-214.8393970288822
 20
313.8460380469268
 30
0.0
 11
-214.8861281696826
 21
313.9152092735164
 31
0.0
  0
LINE
  5
52D
  8
0
  6
CONTINUOUS
 62
     7
 10
-214.8861281696826
 20
313.9152092735164
 30
0.0
 11
-214.9295674619414
 21
313.9856503920519
 31
0.0
  0
LINE
  5
52E
  8
0
  6
CONTINUOUS
 62
     7
 10
-214.9295674619414
 20
313.9856503920519
 30
0.0
 11
-214.9702232186146
 21
314.0581441891213
 31
0.0
  0
LINE
  5
52F
  8
0
  6
CONTINUOUS
 62
     7
 10
-214.9702232186146
 20
314.0581441891213
 30
0.0
 11
-215.0078330496246
 21
314.1322636939845
 31
0.0
  0
LINE
  5
530
  8
0
  6
CONTINUOUS
 62
     7
 10
-215.0078330496246
 20
314.1322636939845
 30
0.0
 11
-215.0424729811544
 21
314.208213380866
 31
0.0
  0
LINE
  5
531
  8
0
  6
CONTINUOUS
 62
     7
 10
-215.0424729811544
 20
314.208213380866
 30
0.0
 11
-215.06452456943
 21
314.2614618268872
 31
0.0
  0
LINE
  5
532
  8
0
  6
CONTINUOUS
 62
     7
 10
-215.06452456943
 20
314.2614618268872
 30
0.0
 11
-215.0850329911134
 21
314.3153233432571
 31
0.0
  0
LINE
  5
533
  8
0
  6
CONTINUOUS
 62
     7
 10
-215.0850329911134
 20
314.3153233432571
 30
0.0
 11
-215.1040412485326
 21
314.3699361991008
 31
0.0
  0
LINE
  5
534
  8
0
  6
CONTINUOUS
 62
     7
 10
-215.1040412485326
 20
314.3699361991008
 30
0.0
 11
-215.1214630052418
 21
314.4250755713528
 31
0.0
  0
LINE
  5
535
  8
0
  6
CONTINUOUS
 62
     7
 10
-215.1214630052418
 20
314.4250755713528
 30
0.0
 11
-215.1374365349037
 21
314.4812668325281
 31
0.0
  0
LINE
  5
536
  8
0
  6
CONTINUOUS
 62
     7
 10
-215.1374365349037
 20
314.4812668325281
 30
0.0
 11
-215.1517624831605
 21
314.5379004810324
 31
0.0
  0
LINE
  5
537
  8
0
  6
CONTINUOUS
 62
     7
 10
-215.1517624831605
 20
314.5379004810324
 30
0.0
 11
-215.1644685351741
 21
314.5951247759269
 31
0.0
  0
LINE
  5
538
  8
0
  6
CONTINUOUS
 62
     7
 10
-215.1644685351741
 20
314.5951247759269
 30
0.0
 11
-215.1754924766134
 21
314.6526967271345
 31
0.0
  0
LINE
  5
539
  8
0
  6
CONTINUOUS
 62
   253
 10
-235.2058769706002
 20
312.4768313261644
 30
0.0
 11
-235.2058769706002
 21
312.9999930700748
 31
0.0
  0
LINE
  5
53A
  8
0
  6
CONTINUOUS
 62
     7
 10
-235.2058769706002
 20
312.9999930700748
 30
0.0
 11
-235.2886230511515
 21
313.0017055397723
 31
0.0
  0
LINE
  5
53B
  8
0
  6
CONTINUOUS
 62
     7
 10
-235.2886230511515
 20
313.0017055397723
 30
0.0
 11
-235.3713691317023
 21
313.0068517523924
 31
0.0
  0
LINE
  5
53C
  8
0
  6
CONTINUOUS
 62
     7
 10
-235.3713691317023
 20
313.0068517523924
 30
0.0
 11
-235.4542592833357
 21
313.0154764552764
 31
0.0
  0
LINE
  5
53D
  8
0
  6
CONTINUOUS
 62
     7
 10
-235.4542592833357
 20
313.0154764552764
 30
0.0
 11
-235.5368612928046
 21
313.027570867244
 31
0.0
  0
LINE
  5
53E
  8
0
  6
CONTINUOUS
 62
     7
 10
-235.5368612928046
 20
313.027570867244
 30
0.0
 11
-235.6181823334767
 21
313.0429534037409
 31
0.0
  0
LINE
  5
53F
  8
0
  6
CONTINUOUS
 62
     7
 10
-235.6181823334767
 20
313.0429534037409
 30
0.0
 11
-235.6991440854226
 21
313.0617762253835
 31
0.0
  0
LINE
  5
540
  8
0
  6
CONTINUOUS
 62
     7
 10
-235.6991440854226
 20
313.0617762253835
 30
0.0
 11
-235.7792540610557
 21
313.0839453983641
 31
0.0
  0
LINE
  5
541
  8
0
  6
CONTINUOUS
 62
     7
 10
-235.7792540610557
 20
313.0839453983641
 30
0.0
 11
-235.8587146445545
 21
313.1095426105892
 31
0.0
  0
LINE
  5
542
  8
0
  6
CONTINUOUS
 62
     7
 10
-235.8587146445545
 20
313.1095426105892
 30
0.0
 11
-235.9363681538906
 21
313.138170683368
 31
0.0
  0
LINE
  5
543
  8
0
  6
CONTINUOUS
 62
     7
 10
-235.9363681538906
 20
313.138170683368
 30
0.0
 11
-236.0130979200661
 21
313.1701320580212
 31
0.0
  0
LINE
  5
544
  8
0
  6
CONTINUOUS
 62
     7
 10
-236.0130979200661
 20
313.1701320580212
 30
0.0
 11
-236.0884338219977
 21
313.2052525949445
 31
0.0
  0
LINE
  5
545
  8
0
  6
CONTINUOUS
 62
     7
 10
-236.0884338219977
 20
313.2052525949445
 30
0.0
 11
-236.1625619266567
 21
313.2436463320444
 31
0.0
  0
LINE
  5
546
  8
0
  6
CONTINUOUS
 62
     7
 10
-236.1625619266567
 20
313.2436463320444
 30
0.0
 11
-236.2344063158197
 21
313.2847300127832
 31
0.0
  0
LINE
  5
547
  8
0
  6
CONTINUOUS
 62
     7
 10
-236.2344063158197
 20
313.2847300127832
 30
0.0
 11
-236.3047880397202
 21
313.3289480531388
 31
0.0
  0
LINE
  5
548
  8
0
  6
CONTINUOUS
 62
     7
 10
-236.3047880397202
 20
313.3289480531388
 30
0.0
 11
-236.3732723164273
 21
313.3760509291489
 31
0.0
  0
LINE
  5
549
  8
0
  6
CONTINUOUS
 62
     7
 10
-236.3732723164273
 20
313.3760509291489
 30
0.0
 11
-236.4400237649447
 21
313.4261818803049
 31
0.0
  0
LINE
  5
54A
  8
0
  6
CONTINUOUS
 62
     7
 10
-236.4400237649447
 20
313.4261818803049
 30
0.0
 11
-236.5040779088865
 21
313.4785877015356
 31
0.0
  0
LINE
  5
54B
  8
0
  6
CONTINUOUS
 62
     7
 10
-236.5040779088865
 20
313.4785877015356
 30
0.0
 11
-236.566170871793
 21
313.5338425009141
 31
0.0
  0
LINE
  5
54C
  8
0
  6
CONTINUOUS
 62
     7
 10
-236.566170871793
 20
313.5338425009141
 30
0.0
 11
-236.6259151986205
 21
313.59162827222
 31
0.0
  0
LINE
  5
54D
  8
0
  6
CONTINUOUS
 62
     7
 10
-236.6259151986205
 20
313.59162827222
 30
0.0
 11
-236.6834495228873
 21
313.6521135033675
 31
0.0
  0
LINE
  5
54E
  8
0
  6
CONTINUOUS
 62
     7
 10
-236.6834495228873
 20
313.6521135033675
 30
0.0
 11
-236.7379473919222
 21
313.7143958553397
 31
0.0
  0
LINE
  5
54F
  8
0
  6
CONTINUOUS
 62
     7
 10
-236.7379473919222
 20
313.7143958553397
 30
0.0
 11
-236.7900397124383
 21
313.779163270284
 31
0.0
  0
LINE
  5
550
  8
0
  6
CONTINUOUS
 62
     7
 10
-236.7900397124383
 20
313.779163270284
 30
0.0
 11
-236.8393970288822
 21
313.8460380469268
 31
0.0
  0
LINE
  5
551
  8
0
  6
CONTINUOUS
 62
     7
 10
-236.8393970288822
 20
313.8460380469268
 30
0.0
 11
-236.8861281696826
 21
313.9152092735164
 31
0.0
  0
LINE
  5
552
  8
0
  6
CONTINUOUS
 62
     7
 10
-236.8861281696826
 20
313.9152092735164
 30
0.0
 11
-236.9295674619414
 21
313.9856503920519
 31
0.0
  0
LINE
  5
553
  8
0
  6
CONTINUOUS
 62
     7
 10
-236.9295674619414
 20
313.9856503920519
 30
0.0
 11
-236.9702232186146
 21
314.0581441891213
 31
0.0
  0
LINE
  5
554
  8
0
  6
CONTINUOUS
 62
     7
 10
-236.9702232186146
 20
314.0581441891213
 30
0.0
 11
-237.0078330496246
 21
314.1322636939845
 31
0.0
  0
LINE
  5
555
  8
0
  6
CONTINUOUS
 62
     7
 10
-237.0078330496246
 20
314.1322636939845
 30
0.0
 11
-237.0424729811544
 21
314.208213380866
 31
0.0
  0
LINE
  5
556
  8
0
  6
CONTINUOUS
 62
     7
 10
-237.0424729811544
 20
314.208213380866
 30
0.0
 11
-237.0645245694301
 21
314.2614618268872
 31
0.0
  0
LINE
  5
557
  8
0
  6
CONTINUOUS
 62
     7
 10
-237.0645245694301
 20
314.2614618268872
 30
0.0
 11
-237.0850329911134
 21
314.3153233432571
 31
0.0
  0
LINE
  5
558
  8
0
  6
CONTINUOUS
 62
     7
 10
-237.0850329911134
 20
314.3153233432571
 30
0.0
 11
-237.1040412485326
 21
314.3699361991008
 31
0.0
  0
LINE
  5
559
  8
0
  6
CONTINUOUS
 62
     7
 10
-237.1040412485326
 20
314.3699361991008
 30
0.0
 11
-237.1214630052412
 21
314.4250755713528
 31
0.0
  0
LINE
  5
55A
  8
0
  6
CONTINUOUS
 62
     7
 10
-237.1214630052412
 20
314.4250755713528
 30
0.0
 11
-237.1374365349037
 21
314.4812668325281
 31
0.0
  0
LINE
  5
55B
  8
0
  6
CONTINUOUS
 62
     7
 10
-237.1374365349037
 20
314.4812668325281
 30
0.0
 11
-237.1517624831605
 21
314.5379004810324
 31
0.0
  0
LINE
  5
55C
  8
0
  6
CONTINUOUS
 62
     7
 10
-237.1517624831605
 20
314.5379004810324
 30
0.0
 11
-237.1644685351741
 21
314.5951247759269
 31
0.0
  0
LINE
  5
55D
  8
0
  6
CONTINUOUS
 62
     7
 10
-237.1644685351741
 20
314.5951247759269
 30
0.0
 11
-237.1754924766134
 21
314.6526967271345
 31
0.0
  0
LINE
  5
55E
  8
0
  6
CONTINUOUS
 62
   253
 10
-169.2058769706002
 20
312.4768313261644
 30
0.0
 11
-169.2058769706002
 21
312.9999930700748
 31
0.0
  0
LINE
  5
55F
  8
0
  6
CONTINUOUS
 62
     7
 10
-169.2058769706002
 20
312.9999930700748
 30
0.0
 11
-169.2886230511514
 21
313.0017055397723
 31
0.0
  0
LINE
  5
560
  8
0
  6
CONTINUOUS
 62
     7
 10
-169.2886230511514
 20
313.0017055397723
 30
0.0
 11
-169.3713691317025
 21
313.0068517523924
 31
0.0
  0
LINE
  5
561
  8
0
  6
CONTINUOUS
 62
     7
 10
-169.3713691317025
 20
313.0068517523924
 30
0.0
 11
-169.4542592833359
 21
313.0154764552764
 31
0.0
  0
LINE
  5
562
  8
0
  6
CONTINUOUS
 62
     7
 10
-169.4542592833359
 20
313.0154764552764
 30
0.0
 11
-169.5368612928045
 21
313.027570867244
 31
0.0
  0
LINE
  5
563
  8
0
  6
CONTINUOUS
 62
     7
 10
-169.5368612928045
 20
313.027570867244
 30
0.0
 11
-169.6181823334766
 21
313.0429534037409
 31
0.0
  0
LINE
  5
564
  8
0
  6
CONTINUOUS
 62
     7
 10
-169.6181823334766
 20
313.0429534037409
 30
0.0
 11
-169.6991440854225
 21
313.0617762253835
 31
0.0
  0
LINE
  5
565
  8
0
  6
CONTINUOUS
 62
     7
 10
-169.6991440854225
 20
313.0617762253835
 30
0.0
 11
-169.7792540610556
 21
313.0839453983641
 31
0.0
  0
LINE
  5
566
  8
0
  6
CONTINUOUS
 62
     7
 10
-169.7792540610556
 20
313.0839453983641
 30
0.0
 11
-169.8587146445545
 21
313.1095426105892
 31
0.0
  0
LINE
  5
567
  8
0
  6
CONTINUOUS
 62
     7
 10
-169.8587146445545
 20
313.1095426105892
 30
0.0
 11
-169.9363681538906
 21
313.138170683368
 31
0.0
  0
LINE
  5
568
  8
0
  6
CONTINUOUS
 62
     7
 10
-169.9363681538906
 20
313.138170683368
 30
0.0
 11
-170.0130979200656
 21
313.1701320580212
 31
0.0
  0
LINE
  5
569
  8
0
  6
CONTINUOUS
 62
     7
 10
-170.0130979200656
 20
313.1701320580212
 30
0.0
 11
-170.0884338219977
 21
313.2052525949445
 31
0.0
  0
LINE
  5
56A
  8
0
  6
CONTINUOUS
 62
     7
 10
-170.0884338219977
 20
313.2052525949445
 30
0.0
 11
-170.1625619266567
 21
313.2436463320444
 31
0.0
  0
LINE
  5
56B
  8
0
  6
CONTINUOUS
 62
     7
 10
-170.1625619266567
 20
313.2436463320444
 30
0.0
 11
-170.2344063158201
 21
313.2847300127832
 31
0.0
  0
LINE
  5
56C
  8
0
  6
CONTINUOUS
 62
     7
 10
-170.2344063158201
 20
313.2847300127832
 30
0.0
 11
-170.3047880397202
 21
313.3289480531388
 31
0.0
  0
LINE
  5
56D
  8
0
  6
CONTINUOUS
 62
     7
 10
-170.3047880397202
 20
313.3289480531388
 30
0.0
 11
-170.3732723164273
 21
313.3760509291489
 31
0.0
  0
LINE
  5
56E
  8
0
  6
CONTINUOUS
 62
     7
 10
-170.3732723164273
 20
313.3760509291489
 30
0.0
 11
-170.4400237649446
 21
313.4261818803049
 31
0.0
  0
LINE
  5
56F
  8
0
  6
CONTINUOUS
 62
     7
 10
-170.4400237649446
 20
313.4261818803049
 30
0.0
 11
-170.5040779088864
 21
313.4785877015356
 31
0.0
  0
LINE
  5
570
  8
0
  6
CONTINUOUS
 62
     7
 10
-170.5040779088864
 20
313.4785877015356
 30
0.0
 11
-170.5661708717929
 21
313.5338425009141
 31
0.0
  0
LINE
  5
571
  8
0
  6
CONTINUOUS
 62
     7
 10
-170.5661708717929
 20
313.5338425009141
 30
0.0
 11
-170.6259151986205
 21
313.59162827222
 31
0.0
  0
LINE
  5
572
  8
0
  6
CONTINUOUS
 62
     7
 10
-170.6259151986205
 20
313.59162827222
 30
0.0
 11
-170.6834495228875
 21
313.6521135033675
 31
0.0
  0
LINE
  5
573
  8
0
  6
CONTINUOUS
 62
     7
 10
-170.6834495228875
 20
313.6521135033675
 30
0.0
 11
-170.7379473919221
 21
313.7143958553397
 31
0.0
  0
LINE
  5
574
  8
0
  6
CONTINUOUS
 62
     7
 10
-170.7379473919221
 20
313.7143958553397
 30
0.0
 11
-170.7900397124382
 21
313.779163270284
 31
0.0
  0
LINE
  5
575
  8
0
  6
CONTINUOUS
 62
     7
 10
-170.7900397124382
 20
313.779163270284
 30
0.0
 11
-170.8393970288822
 21
313.8460380469268
 31
0.0
  0
LINE
  5
576
  8
0
  6
CONTINUOUS
 62
     7
 10
-170.8393970288822
 20
313.8460380469268
 30
0.0
 11
-170.8861281696825
 21
313.9152092735164
 31
0.0
  0
LINE
  5
577
  8
0
  6
CONTINUOUS
 62
     7
 10
-170.8861281696825
 20
313.9152092735164
 30
0.0
 11
-170.9295674619413
 21
313.9856503920519
 31
0.0
  0
LINE
  5
578
  8
0
  6
CONTINUOUS
 62
     7
 10
-170.9295674619413
 20
313.9856503920519
 30
0.0
 11
-170.9702232186145
 21
314.0581441891213
 31
0.0
  0
LINE
  5
579
  8
0
  6
CONTINUOUS
 62
     7
 10
-170.9702232186145
 20
314.0581441891213
 30
0.0
 11
-171.0078330496245
 21
314.1322636939845
 31
0.0
  0
LINE
  5
57A
  8
0
  6
CONTINUOUS
 62
     7
 10
-171.0078330496245
 20
314.1322636939845
 30
0.0
 11
-171.0424729811544
 21
314.208213380866
 31
0.0
  0
LINE
  5
57B
  8
0
  6
CONTINUOUS
 62
     7
 10
-171.0424729811544
 20
314.208213380866
 30
0.0
 11
-171.0645245694296
 21
314.2614618268872
 31
0.0
  0
LINE
  5
57C
  8
0
  6
CONTINUOUS
 62
     7
 10
-171.0645245694296
 20
314.2614618268872
 30
0.0
 11
-171.0850329911133
 21
314.3153233432571
 31
0.0
  0
LINE
  5
57D
  8
0
  6
CONTINUOUS
 62
     7
 10
-171.0850329911133
 20
314.3153233432571
 30
0.0
 11
-171.1040412485325
 21
314.3699361991008
 31
0.0
  0
LINE
  5
57E
  8
0
  6
CONTINUOUS
 62
     7
 10
-171.1040412485325
 20
314.3699361991008
 30
0.0
 11
-171.1214630052418
 21
314.4250755713528
 31
0.0
  0
LINE
  5
57F
  8
0
  6
CONTINUOUS
 62
     7
 10
-171.1214630052418
 20
314.4250755713528
 30
0.0
 11
-171.1374365349037
 21
314.4812668325281
 31
0.0
  0
LINE
  5
580
  8
0
  6
CONTINUOUS
 62
     7
 10
-171.1374365349037
 20
314.4812668325281
 30
0.0
 11
-171.1517624831604
 21
314.5379004810324
 31
0.0
  0
LINE
  5
581
  8
0
  6
CONTINUOUS
 62
     7
 10
-171.1517624831604
 20
314.5379004810324
 30
0.0
 11
-171.1644685351741
 21
314.5951247759269
 31
0.0
  0
LINE
  5
582
  8
0
  6
CONTINUOUS
 62
     7
 10
-171.1644685351741
 20
314.5951247759269
 30
0.0
 11
-171.1754924766133
 21
314.6526967271345
 31
0.0
  0
LINE
  5
583
  8
0
  6
CONTINUOUS
 62
   253
 10
-191.2058769706002
 20
312.4768313261644
 30
0.0
 11
-191.2058769706002
 21
312.9999930700748
 31
0.0
  0
LINE
  5
584
  8
0
  6
CONTINUOUS
 62
     7
 10
-191.2058769706002
 20
312.9999930700748
 30
0.0
 11
-191.2886230511515
 21
313.0017055397723
 31
0.0
  0
LINE
  5
585
  8
0
  6
CONTINUOUS
 62
     7
 10
-191.2886230511515
 20
313.0017055397723
 30
0.0
 11
-191.3713691317025
 21
313.0068517523924
 31
0.0
  0
LINE
  5
586
  8
0
  6
CONTINUOUS
 62
     7
 10
-191.3713691317025
 20
313.0068517523924
 30
0.0
 11
-191.4542592833357
 21
313.0154764552764
 31
0.0
  0
LINE
  5
587
  8
0
  6
CONTINUOUS
 62
     7
 10
-191.4542592833357
 20
313.0154764552764
 30
0.0
 11
-191.5368612928046
 21
313.027570867244
 31
0.0
  0
LINE
  5
588
  8
0
  6
CONTINUOUS
 62
     7
 10
-191.5368612928046
 20
313.027570867244
 30
0.0
 11
-191.6181823334766
 21
313.0429534037409
 31
0.0
  0
LINE
  5
589
  8
0
  6
CONTINUOUS
 62
     7
 10
-191.6181823334766
 20
313.0429534037409
 30
0.0
 11
-191.6991440854225
 21
313.0617762253835
 31
0.0
  0
LINE
  5
58A
  8
0
  6
CONTINUOUS
 62
     7
 10
-191.6991440854225
 20
313.0617762253835
 30
0.0
 11
-191.7792540610557
 21
313.0839453983641
 31
0.0
  0
LINE
  5
58B
  8
0
  6
CONTINUOUS
 62
     7
 10
-191.7792540610557
 20
313.0839453983641
 30
0.0
 11
-191.8587146445545
 21
313.1095426105892
 31
0.0
  0
LINE
  5
58C
  8
0
  6
CONTINUOUS
 62
     7
 10
-191.8587146445545
 20
313.1095426105892
 30
0.0
 11
-191.9363681538906
 21
313.138170683368
 31
0.0
  0
LINE
  5
58D
  8
0
  6
CONTINUOUS
 62
     7
 10
-191.9363681538906
 20
313.138170683368
 30
0.0
 11
-192.013097920066
 21
313.1701320580212
 31
0.0
  0
LINE
  5
58E
  8
0
  6
CONTINUOUS
 62
     7
 10
-192.013097920066
 20
313.1701320580212
 30
0.0
 11
-192.0884338219977
 21
313.2052525949445
 31
0.0
  0
LINE
  5
58F
  8
0
  6
CONTINUOUS
 62
     7
 10
-192.0884338219977
 20
313.2052525949445
 30
0.0
 11
-192.1625619266567
 21
313.2436463320444
 31
0.0
  0
LINE
  5
590
  8
0
  6
CONTINUOUS
 62
     7
 10
-192.1625619266567
 20
313.2436463320444
 30
0.0
 11
-192.2344063158201
 21
313.2847300127832
 31
0.0
  0
LINE
  5
591
  8
0
  6
CONTINUOUS
 62
     7
 10
-192.2344063158201
 20
313.2847300127832
 30
0.0
 11
-192.3047880397202
 21
313.3289480531388
 31
0.0
  0
LINE
  5
592
  8
0
  6
CONTINUOUS
 62
     7
 10
-192.3047880397202
 20
313.3289480531388
 30
0.0
 11
-192.3732723164273
 21
313.3760509291489
 31
0.0
  0
LINE
  5
593
  8
0
  6
CONTINUOUS
 62
     7
 10
-192.3732723164273
 20
313.3760509291489
 30
0.0
 11
-192.4400237649446
 21
313.4261818803049
 31
0.0
  0
LINE
  5
594
  8
0
  6
CONTINUOUS
 62
     7
 10
-192.4400237649446
 20
313.4261818803049
 30
0.0
 11
-192.5040779088864
 21
313.4785877015356
 31
0.0
  0
LINE
  5
595
  8
0
  6
CONTINUOUS
 62
     7
 10
-192.5040779088864
 20
313.4785877015356
 30
0.0
 11
-192.5661708717929
 21
313.5338425009141
 31
0.0
  0
LINE
  5
596
  8
0
  6
CONTINUOUS
 62
     7
 10
-192.5661708717929
 20
313.5338425009141
 30
0.0
 11
-192.6259151986205
 21
313.59162827222
 31
0.0
  0
LINE
  5
597
  8
0
  6
CONTINUOUS
 62
     7
 10
-192.6259151986205
 20
313.59162827222
 30
0.0
 11
-192.6834495228873
 21
313.6521135033675
 31
0.0
  0
LINE
  5
598
  8
0
  6
CONTINUOUS
 62
     7
 10
-192.6834495228873
 20
313.6521135033675
 30
0.0
 11
-192.7379473919222
 21
313.7143958553397
 31
0.0
  0
LINE
  5
599
  8
0
  6
CONTINUOUS
 62
     7
 10
-192.7379473919222
 20
313.7143958553397
 30
0.0
 11
-192.7900397124382
 21
313.779163270284
 31
0.0
  0
LINE
  5
59A
  8
0
  6
CONTINUOUS
 62
     7
 10
-192.7900397124382
 20
313.779163270284
 30
0.0
 11
-192.8393970288822
 21
313.8460380469268
 31
0.0
  0
LINE
  5
59B
  8
0
  6
CONTINUOUS
 62
     7
 10
-192.8393970288822
 20
313.8460380469268
 30
0.0
 11
-192.8861281696825
 21
313.9152092735164
 31
0.0
  0
LINE
  5
59C
  8
0
  6
CONTINUOUS
 62
     7
 10
-192.8861281696825
 20
313.9152092735164
 30
0.0
 11
-192.9295674619413
 21
313.9856503920519
 31
0.0
  0
LINE
  5
59D
  8
0
  6
CONTINUOUS
 62
     7
 10
-192.9295674619413
 20
313.9856503920519
 30
0.0
 11
-192.9702232186146
 21
314.0581441891213
 31
0.0
  0
LINE
  5
59E
  8
0
  6
CONTINUOUS
 62
     7
 10
-192.9702232186146
 20
314.0581441891213
 30
0.0
 11
-193.0078330496245
 21
314.1322636939845
 31
0.0
  0
LINE
  5
59F
  8
0
  6
CONTINUOUS
 62
     7
 10
-193.0078330496245
 20
314.1322636939845
 30
0.0
 11
-193.0424729811544
 21
314.208213380866
 31
0.0
  0
LINE
  5
5A0
  8
0
  6
CONTINUOUS
 62
     7
 10
-193.0424729811544
 20
314.208213380866
 30
0.0
 11
-193.06452456943
 21
314.2614618268872
 31
0.0
  0
LINE
  5
5A1
  8
0
  6
CONTINUOUS
 62
     7
 10
-193.06452456943
 20
314.2614618268872
 30
0.0
 11
-193.0850329911133
 21
314.3153233432571
 31
0.0
  0
LINE
  5
5A2
  8
0
  6
CONTINUOUS
 62
     7
 10
-193.0850329911133
 20
314.3153233432571
 30
0.0
 11
-193.1040412485325
 21
314.3699361991008
 31
0.0
  0
LINE
  5
5A3
  8
0
  6
CONTINUOUS
 62
     7
 10
-193.1040412485325
 20
314.3699361991008
 30
0.0
 11
-193.1214630052418
 21
314.4250755713528
 31
0.0
  0
LINE
  5
5A4
  8
0
  6
CONTINUOUS
 62
     7
 10
-193.1214630052418
 20
314.4250755713528
 30
0.0
 11
-193.1374365349037
 21
314.4812668325281
 31
0.0
  0
LINE
  5
5A5
  8
0
  6
CONTINUOUS
 62
     7
 10
-193.1374365349037
 20
314.4812668325281
 30
0.0
 11
-193.1517624831605
 21
314.5379004810324
 31
0.0
  0
LINE
  5
5A6
  8
0
  6
CONTINUOUS
 62
     7
 10
-193.1517624831605
 20
314.5379004810324
 30
0.0
 11
-193.1644685351741
 21
314.5951247759269
 31
0.0
  0
LINE
  5
5A7
  8
0
  6
CONTINUOUS
 62
     7
 10
-193.1644685351741
 20
314.5951247759269
 30
0.0
 11
-193.1754924766134
 21
314.6526967271345
 31
0.0
  0
LINE
  5
5A8
  8
0
  6
CONTINUOUS
 62
   253
 10
-125.2058769706001
 20
312.4768313261644
 30
0.0
 11
-125.2058769706001
 21
312.9999930700748
 31
0.0
  0
LINE
  5
5A9
  8
0
  6
CONTINUOUS
 62
     7
 10
-125.2058769706001
 20
312.9999930700748
 30
0.0
 11
-125.2886230511513
 21
313.0017055397723
 31
0.0
  0
LINE
  5
5AA
  8
0
  6
CONTINUOUS
 62
     7
 10
-125.2886230511513
 20
313.0017055397723
 30
0.0
 11
-125.3713691317026
 21
313.0068517523924
 31
0.0
  0
LINE
  5
5AB
  8
0
  6
CONTINUOUS
 62
     7
 10
-125.3713691317026
 20
313.0068517523924
 30
0.0
 11
-125.4542592833356
 21
313.0154764552764
 31
0.0
  0
LINE
  5
5AC
  8
0
  6
CONTINUOUS
 62
     7
 10
-125.4542592833356
 20
313.0154764552764
 30
0.0
 11
-125.5368612928045
 21
313.027570867244
 31
0.0
  0
LINE
  5
5AD
  8
0
  6
CONTINUOUS
 62
     7
 10
-125.5368612928045
 20
313.027570867244
 30
0.0
 11
-125.6181823334765
 21
313.0429534037409
 31
0.0
  0
LINE
  5
5AE
  8
0
  6
CONTINUOUS
 62
     7
 10
-125.6181823334765
 20
313.0429534037409
 30
0.0
 11
-125.6991440854225
 21
313.0617762253835
 31
0.0
  0
LINE
  5
5AF
  8
0
  6
CONTINUOUS
 62
     7
 10
-125.6991440854225
 20
313.0617762253835
 30
0.0
 11
-125.7792540610557
 21
313.0839453983641
 31
0.0
  0
LINE
  5
5B0
  8
0
  6
CONTINUOUS
 62
     7
 10
-125.7792540610557
 20
313.0839453983641
 30
0.0
 11
-125.8587146445546
 21
313.1095426105892
 31
0.0
  0
LINE
  5
5B1
  8
0
  6
CONTINUOUS
 62
     7
 10
-125.8587146445546
 20
313.1095426105892
 30
0.0
 11
-125.9363681538905
 21
313.138170683368
 31
0.0
  0
LINE
  5
5B2
  8
0
  6
CONTINUOUS
 62
     7
 10
-125.9363681538905
 20
313.138170683368
 30
0.0
 11
-126.0130979200661
 21
313.1701320580212
 31
0.0
  0
LINE
  5
5B3
  8
0
  6
CONTINUOUS
 62
     7
 10
-126.0130979200661
 20
313.1701320580212
 30
0.0
 11
-126.0884338219977
 21
313.2052525949445
 31
0.0
  0
LINE
  5
5B4
  8
0
  6
CONTINUOUS
 62
     7
 10
-126.0884338219977
 20
313.2052525949445
 30
0.0
 11
-126.162561926657
 21
313.2436463320444
 31
0.0
  0
LINE
  5
5B5
  8
0
  6
CONTINUOUS
 62
     7
 10
-126.162561926657
 20
313.2436463320444
 30
0.0
 11
-126.2344063158202
 21
313.2847300127832
 31
0.0
  0
LINE
  5
5B6
  8
0
  6
CONTINUOUS
 62
     7
 10
-126.2344063158202
 20
313.2847300127832
 30
0.0
 11
-126.3047880397202
 21
313.3289480531388
 31
0.0
  0
LINE
  5
5B7
  8
0
  6
CONTINUOUS
 62
     7
 10
-126.3047880397202
 20
313.3289480531388
 30
0.0
 11
-126.3732723164274
 21
313.3760509291489
 31
0.0
  0
LINE
  5
5B8
  8
0
  6
CONTINUOUS
 62
     7
 10
-126.3732723164274
 20
313.3760509291489
 30
0.0
 11
-126.4400237649446
 21
313.4261818803049
 31
0.0
  0
LINE
  5
5B9
  8
0
  6
CONTINUOUS
 62
     7
 10
-126.4400237649446
 20
313.4261818803049
 30
0.0
 11
-126.5040779088865
 21
313.4785877015356
 31
0.0
  0
LINE
  5
5BA
  8
0
  6
CONTINUOUS
 62
     7
 10
-126.5040779088865
 20
313.4785877015356
 30
0.0
 11
-126.5661708717929
 21
313.5338425009141
 31
0.0
  0
LINE
  5
5BB
  8
0
  6
CONTINUOUS
 62
     7
 10
-126.5661708717929
 20
313.5338425009141
 30
0.0
 11
-126.6259151986205
 21
313.59162827222
 31
0.0
  0
LINE
  5
5BC
  8
0
  6
CONTINUOUS
 62
     7
 10
-126.6259151986205
 20
313.59162827222
 30
0.0
 11
-126.6834495228872
 21
313.6521135033675
 31
0.0
  0
LINE
  5
5BD
  8
0
  6
CONTINUOUS
 62
     7
 10
-126.6834495228872
 20
313.6521135033675
 30
0.0
 11
-126.7379473919221
 21
313.7143958553397
 31
0.0
  0
LINE
  5
5BE
  8
0
  6
CONTINUOUS
 62
     7
 10
-126.7379473919221
 20
313.7143958553397
 30
0.0
 11
-126.7900397124381
 21
313.779163270284
 31
0.0
  0
LINE
  5
5BF
  8
0
  6
CONTINUOUS
 62
     7
 10
-126.7900397124381
 20
313.779163270284
 30
0.0
 11
-126.8393970288821
 21
313.8460380469268
 31
0.0
  0
LINE
  5
5C0
  8
0
  6
CONTINUOUS
 62
     7
 10
-126.8393970288821
 20
313.8460380469268
 30
0.0
 11
-126.8861281696825
 21
313.9152092735164
 31
0.0
  0
LINE
  5
5C1
  8
0
  6
CONTINUOUS
 62
     7
 10
-126.8861281696825
 20
313.9152092735164
 30
0.0
 11
-126.9295674619414
 21
313.9856503920519
 31
0.0
  0
LINE
  5
5C2
  8
0
  6
CONTINUOUS
 62
     7
 10
-126.9295674619414
 20
313.9856503920519
 30
0.0
 11
-126.9702232186145
 21
314.0581441891213
 31
0.0
  0
LINE
  5
5C3
  8
0
  6
CONTINUOUS
 62
     7
 10
-126.9702232186145
 20
314.0581441891213
 30
0.0
 11
-127.0078330496246
 21
314.1322636939845
 31
0.0
  0
LINE
  5
5C4
  8
0
  6
CONTINUOUS
 62
     7
 10
-127.0078330496246
 20
314.1322636939845
 30
0.0
 11
-127.0424729811546
 21
314.208213380866
 31
0.0
  0
LINE
  5
5C5
  8
0
  6
CONTINUOUS
 62
     7
 10
-127.0424729811546
 20
314.208213380866
 30
0.0
 11
-127.0645245694301
 21
314.2614618268872
 31
0.0
  0
LINE
  5
5C6
  8
0
  6
CONTINUOUS
 62
     7
 10
-127.0645245694301
 20
314.2614618268872
 30
0.0
 11
-127.0850329911133
 21
314.3153233432571
 31
0.0
  0
LINE
  5
5C7
  8
0
  6
CONTINUOUS
 62
     7
 10
-127.0850329911133
 20
314.3153233432571
 30
0.0
 11
-127.1040412485326
 21
314.3699361991008
 31
0.0
  0
LINE
  5
5C8
  8
0
  6
CONTINUOUS
 62
     7
 10
-127.1040412485326
 20
314.3699361991008
 30
0.0
 11
-127.1214630052417
 21
314.4250755713528
 31
0.0
  0
LINE
  5
5C9
  8
0
  6
CONTINUOUS
 62
     7
 10
-127.1214630052417
 20
314.4250755713528
 30
0.0
 11
-127.1374365349037
 21
314.4812668325281
 31
0.0
  0
LINE
  5
5CA
  8
0
  6
CONTINUOUS
 62
     7
 10
-127.1374365349037
 20
314.4812668325281
 30
0.0
 11
-127.1517624831605
 21
314.5379004810324
 31
0.0
  0
LINE
  5
5CB
  8
0
  6
CONTINUOUS
 62
     7
 10
-127.1517624831605
 20
314.5379004810324
 30
0.0
 11
-127.1644685351742
 21
314.5951247759269
 31
0.0
  0
LINE
  5
5CC
  8
0
  6
CONTINUOUS
 62
     7
 10
-127.1644685351742
 20
314.5951247759269
 30
0.0
 11
-127.175492476613
 21
314.6526967271345
 31
0.0
  0
LINE
  5
5CD
  8
0
  6
CONTINUOUS
 62
   253
 10
-166.7941230354464
 20
312.4768313236652
 30
0.0
 11
-166.7941230354464
 21
312.9999930675747
 31
0.0
  0
LINE
  5
5CE
  8
0
  6
CONTINUOUS
 62
     7
 10
-164.8245075252723
 20
314.6526967165328
 30
0.0
 11
-164.8405645348638
 21
314.5714966294116
 31
0.0
  0
LINE
  5
5CF
  8
0
  6
CONTINUOUS
 62
     7
 10
-164.8405645348638
 20
314.5714966294116
 30
0.0
 11
-164.8600038651771
 21
314.490892834506
 31
0.0
  0
LINE
  5
5D0
  8
0
  6
CONTINUOUS
 62
     7
 10
-164.8600038651771
 20
314.490892834506
 30
0.0
 11
-164.8828946194087
 21
314.4107512214013
 31
0.0
  0
LINE
  5
5D1
  8
0
  6
CONTINUOUS
 62
     7
 10
-164.8828946194087
 20
314.4107512214013
 30
0.0
 11
-164.9091531227658
 21
314.3314959177555
 31
0.0
  0
LINE
  5
5D2
  8
0
  6
CONTINUOUS
 62
     7
 10
-164.9091531227658
 20
314.3314959177555
 30
0.0
 11
-164.9384283178066
 21
314.2540727464445
 31
0.0
  0
LINE
  5
5D3
  8
0
  6
CONTINUOUS
 62
     7
 10
-164.9384283178066
 20
314.2540727464445
 30
0.0
 11
-164.9710300350857
 21
314.1776008631851
 31
0.0
  0
LINE
  5
5D4
  8
0
  6
CONTINUOUS
 62
     7
 10
-164.9710300350857
 20
314.1776008631851
 30
0.0
 11
-165.0067802611954
 21
314.10254902083
 31
0.0
  0
LINE
  5
5D5
  8
0
  6
CONTINUOUS
 62
     7
 10
-165.0067802611954
 20
314.10254902083
 30
0.0
 11
-165.0457946530137
 21
314.0287320951728
 31
0.0
  0
LINE
  5
5D6
  8
0
  6
CONTINUOUS
 62
     7
 10
-165.0457946530137
 20
314.0287320951728
 30
0.0
 11
-165.0874796115125
 21
313.9572235664224
 31
0.0
  0
LINE
  5
5D7
  8
0
  6
CONTINUOUS
 62
     7
 10
-165.0874796115125
 20
313.9572235664224
 30
0.0
 11
-165.1322876753713
 21
313.8872036623781
 31
0.0
  0
LINE
  5
5D8
  8
0
  6
CONTINUOUS
 62
     7
 10
-165.1322876753713
 20
313.8872036623781
 30
0.0
 11
-165.1799657116428
 21
313.8191052056697
 31
0.0
  0
LINE
  5
5D9
  8
0
  6
CONTINUOUS
 62
     7
 10
-165.1799657116428
 20
313.8191052056697
 30
0.0
 11
-165.2306584253593
 21
313.7527647720668
 31
0.0
  0
LINE
  5
5DA
  8
0
  6
CONTINUOUS
 62
     7
 10
-165.2306584253593
 20
313.7527647720668
 30
0.0
 11
-165.28360220766
 21
313.6891434054556
 31
0.0
  0
LINE
  5
5DB
  8
0
  6
CONTINUOUS
 62
     7
 10
-165.28360220766
 20
313.6891434054556
 30
0.0
 11
-165.3393795138578
 21
313.6275068892689
 31
0.0
  0
LINE
  5
5DC
  8
0
  6
CONTINUOUS
 62
     7
 10
-165.3393795138578
 20
313.6275068892689
 30
0.0
 11
-165.3976690781835
 21
313.5682401724784
 31
0.0
  0
LINE
  5
5DD
  8
0
  6
CONTINUOUS
 62
     7
 10
-165.3976690781835
 20
313.5682401724784
 30
0.0
 11
-165.4586406542802
 21
313.5112060389056
 31
0.0
  0
LINE
  5
5DE
  8
0
  6
CONTINUOUS
 62
     7
 10
-165.4586406542802
 20
313.5112060389056
 30
0.0
 11
-165.5213820812282
 21
313.4572259204128
 31
0.0
  0
LINE
  5
5DF
  8
0
  6
CONTINUOUS
 62
     7
 10
-165.5213820812282
 20
313.4572259204128
 30
0.0
 11
-165.5865893266286
 21
313.4056720947556
 31
0.0
  0
LINE
  5
5E0
  8
0
  6
CONTINUOUS
 62
     7
 10
-165.5865893266286
 20
313.4056720947556
 30
0.0
 11
-165.6538818548452
 21
313.3568710220516
 31
0.0
  0
LINE
  5
5E1
  8
0
  6
CONTINUOUS
 62
     7
 10
-165.6538818548452
 20
313.3568710220516
 30
0.0
 11
-165.7234497811153
 21
313.3107154738613
 31
0.0
  0
LINE
  5
5E2
  8
0
  6
CONTINUOUS
 62
     7
 10
-165.7234497811153
 20
313.3107154738613
 30
0.0
 11
-165.7942578772349
 21
313.2678644143604
 31
0.0
  0
LINE
  5
5E3
  8
0
  6
CONTINUOUS
 62
     7
 10
-165.7942578772349
 20
313.2678644143604
 30
0.0
 11
-165.8670961191166
 21
313.2278141495108
 31
0.0
  0
LINE
  5
5E4
  8
0
  6
CONTINUOUS
 62
     7
 10
-165.8670961191166
 20
313.2278141495108
 30
0.0
 11
-165.9415351976479
 21
313.1908236492721
 31
0.0
  0
LINE
  5
5E5
  8
0
  6
CONTINUOUS
 62
     7
 10
-165.9415351976479
 20
313.1908236492721
 30
0.0
 11
-166.0177803440062
 21
313.1568186237444
 31
0.0
  0
LINE
  5
5E6
  8
0
  6
CONTINUOUS
 62
     7
 10
-166.0177803440062
 20
313.1568186237444
 30
0.0
 11
-166.0947021974701
 21
313.1262773751656
 31
0.0
  0
LINE
  5
5E7
  8
0
  6
CONTINUOUS
 62
     7
 10
-166.0947021974701
 20
313.1262773751656
 30
0.0
 11
-166.1731625775535
 21
313.0988341763876
 31
0.0
  0
LINE
  5
5E8
  8
0
  6
CONTINUOUS
 62
     7
 10
-166.1731625775535
 20
313.0988341763876
 30
0.0
 11
-166.2526952418217
 21
313.0746733673596
 31
0.0
  0
LINE
  5
5E9
  8
0
  6
CONTINUOUS
 62
     7
 10
-166.2526952418217
 20
313.0746733673596
 30
0.0
 11
-166.3335148782736
 21
313.0537556388873
 31
0.0
  0
LINE
  5
5EA
  8
0
  6
CONTINUOUS
 62
     7
 10
-166.3335148782736
 20
313.0537556388873
 30
0.0
 11
-166.3897573099557
 21
313.0412976664152
 31
0.0
  0
LINE
  5
5EB
  8
0
  6
CONTINUOUS
 62
     7
 10
-166.3897573099557
 20
313.0412976664152
 30
0.0
 11
-166.446335190519
 21
313.0304642870047
 31
0.0
  0
LINE
  5
5EC
  8
0
  6
CONTINUOUS
 62
     7
 10
-166.446335190519
 20
313.0304642870047
 30
0.0
 11
-166.5033919910801
 21
313.0212372048364
 31
0.0
  0
LINE
  5
5ED
  8
0
  6
CONTINUOUS
 62
     7
 10
-166.5033919910801
 20
313.0212372048364
 30
0.0
 11
-166.5606915871178
 21
313.0136623396432
 31
0.0
  0
LINE
  5
5EE
  8
0
  6
CONTINUOUS
 62
     7
 10
-166.5606915871178
 20
313.0136623396432
 30
0.0
 11
-166.6187747528842
 21
313.0076948332515
 31
0.0
  0
LINE
  5
5EF
  8
0
  6
CONTINUOUS
 62
     7
 10
-166.6187747528842
 20
313.0076948332515
 30
0.0
 11
-166.6770073644632
 21
313.0034250320337
 31
0.0
  0
LINE
  5
5F0
  8
0
  6
CONTINUOUS
 62
     7
 10
-166.6770073644632
 20
313.0034250320337
 30
0.0
 11
-166.7355400638224
 21
313.0008514269712
 31
0.0
  0
LINE
  5
5F1
  8
0
  6
CONTINUOUS
 62
     7
 10
-166.7355400638224
 20
313.0008514269712
 30
0.0
 11
-166.7941230354464
 21
312.9999930675747
 31
0.0
  0
LINE
  5
5F2
  8
0
  6
CONTINUOUS
 62
   253
 10
-210.7941230354464
 20
312.4768313236652
 30
0.0
 11
-210.7941230354464
 21
312.9999930675747
 31
0.0
  0
LINE
  5
5F3
  8
0
  6
CONTINUOUS
 62
     7
 10
-208.8245075252724
 20
314.6526967165328
 30
0.0
 11
-208.8405645348639
 21
314.5714966294116
 31
0.0
  0
LINE
  5
5F4
  8
0
  6
CONTINUOUS
 62
     7
 10
-208.8405645348639
 20
314.5714966294116
 30
0.0
 11
-208.8600038651773
 21
314.490892834506
 31
0.0
  0
LINE
  5
5F5
  8
0
  6
CONTINUOUS
 62
     7
 10
-208.8600038651773
 20
314.490892834506
 30
0.0
 11
-208.8828946194092
 21
314.4107512214013
 31
0.0
  0
LINE
  5
5F6
  8
0
  6
CONTINUOUS
 62
     7
 10
-208.8828946194092
 20
314.4107512214013
 30
0.0
 11
-208.9091531227654
 21
314.3314959177555
 31
0.0
  0
LINE
  5
5F7
  8
0
  6
CONTINUOUS
 62
     7
 10
-208.9091531227654
 20
314.3314959177555
 30
0.0
 11
-208.9384283178066
 21
314.2540727464445
 31
0.0
  0
LINE
  5
5F8
  8
0
  6
CONTINUOUS
 62
     7
 10
-208.9384283178066
 20
314.2540727464445
 30
0.0
 11
-208.971030035086
 21
314.1776008631851
 31
0.0
  0
LINE
  5
5F9
  8
0
  6
CONTINUOUS
 62
     7
 10
-208.971030035086
 20
314.1776008631851
 30
0.0
 11
-209.0067802611948
 21
314.10254902083
 31
0.0
  0
LINE
  5
5FA
  8
0
  6
CONTINUOUS
 62
     7
 10
-209.0067802611948
 20
314.10254902083
 30
0.0
 11
-209.0457946530138
 21
314.0287320951728
 31
0.0
  0
LINE
  5
5FB
  8
0
  6
CONTINUOUS
 62
     7
 10
-209.0457946530138
 20
314.0287320951728
 30
0.0
 11
-209.0874796115125
 21
313.9572235664224
 31
0.0
  0
LINE
  5
5FC
  8
0
  6
CONTINUOUS
 62
     7
 10
-209.0874796115125
 20
313.9572235664224
 30
0.0
 11
-209.1322876753716
 21
313.8872036623781
 31
0.0
  0
LINE
  5
5FD
  8
0
  6
CONTINUOUS
 62
     7
 10
-209.1322876753716
 20
313.8872036623781
 30
0.0
 11
-209.1799657116424
 21
313.8191052056697
 31
0.0
  0
LINE
  5
5FE
  8
0
  6
CONTINUOUS
 62
     7
 10
-209.1799657116424
 20
313.8191052056697
 30
0.0
 11
-209.2306584253594
 21
313.7527647720668
 31
0.0
  0
LINE
  5
5FF
  8
0
  6
CONTINUOUS
 62
     7
 10
-209.2306584253594
 20
313.7527647720668
 30
0.0
 11
-209.2836022076598
 21
313.6891434054556
 31
0.0
  0
LINE
  5
600
  8
0
  6
CONTINUOUS
 62
     7
 10
-209.2836022076598
 20
313.6891434054556
 30
0.0
 11
-209.3393795138578
 21
313.6275068892689
 31
0.0
  0
LINE
  5
601
  8
0
  6
CONTINUOUS
 62
     7
 10
-209.3393795138578
 20
313.6275068892689
 30
0.0
 11
-209.3976690781834
 21
313.5682401724784
 31
0.0
  0
LINE
  5
602
  8
0
  6
CONTINUOUS
 62
     7
 10
-209.3976690781834
 20
313.5682401724784
 30
0.0
 11
-209.4586406542802
 21
313.5112060389056
 31
0.0
  0
LINE
  5
603
  8
0
  6
CONTINUOUS
 62
     7
 10
-209.4586406542802
 20
313.5112060389056
 30
0.0
 11
-209.5213820812285
 21
313.4572259204128
 31
0.0
  0
LINE
  5
604
  8
0
  6
CONTINUOUS
 62
     7
 10
-209.5213820812285
 20
313.4572259204128
 30
0.0
 11
-209.5865893266287
 21
313.4056720947556
 31
0.0
  0
LINE
  5
605
  8
0
  6
CONTINUOUS
 62
     7
 10
-209.5865893266287
 20
313.4056720947556
 30
0.0
 11
-209.6538818548452
 21
313.3568710220516
 31
0.0
  0
LINE
  5
606
  8
0
  6
CONTINUOUS
 62
     7
 10
-209.6538818548452
 20
313.3568710220516
 30
0.0
 11
-209.7234497811153
 21
313.3107154738613
 31
0.0
  0
LINE
  5
607
  8
0
  6
CONTINUOUS
 62
     7
 10
-209.7234497811153
 20
313.3107154738613
 30
0.0
 11
-209.7942578772349
 21
313.2678644143604
 31
0.0
  0
LINE
  5
608
  8
0
  6
CONTINUOUS
 62
     7
 10
-209.7942578772349
 20
313.2678644143604
 30
0.0
 11
-209.8670961191167
 21
313.2278141495108
 31
0.0
  0
LINE
  5
609
  8
0
  6
CONTINUOUS
 62
     7
 10
-209.8670961191167
 20
313.2278141495108
 30
0.0
 11
-209.9415351976479
 21
313.1908236492721
 31
0.0
  0
LINE
  5
60A
  8
0
  6
CONTINUOUS
 62
     7
 10
-209.9415351976479
 20
313.1908236492721
 30
0.0
 11
-210.0177803440058
 21
313.1568186237444
 31
0.0
  0
LINE
  5
60B
  8
0
  6
CONTINUOUS
 62
     7
 10
-210.0177803440058
 20
313.1568186237444
 30
0.0
 11
-210.0947021974702
 21
313.1262773751656
 31
0.0
  0
LINE
  5
60C
  8
0
  6
CONTINUOUS
 62
     7
 10
-210.0947021974702
 20
313.1262773751656
 30
0.0
 11
-210.1731625775536
 21
313.0988341763876
 31
0.0
  0
LINE
  5
60D
  8
0
  6
CONTINUOUS
 62
     7
 10
-210.1731625775536
 20
313.0988341763876
 30
0.0
 11
-210.2526952418218
 21
313.0746733673596
 31
0.0
  0
LINE
  5
60E
  8
0
  6
CONTINUOUS
 62
     7
 10
-210.2526952418218
 20
313.0746733673596
 30
0.0
 11
-210.3335148782737
 21
313.0537556388873
 31
0.0
  0
LINE
  5
60F
  8
0
  6
CONTINUOUS
 62
     7
 10
-210.3335148782737
 20
313.0537556388873
 30
0.0
 11
-210.3897573099558
 21
313.0412976664152
 31
0.0
  0
LINE
  5
610
  8
0
  6
CONTINUOUS
 62
     7
 10
-210.3897573099558
 20
313.0412976664152
 30
0.0
 11
-210.4463351905192
 21
313.0304642870047
 31
0.0
  0
LINE
  5
611
  8
0
  6
CONTINUOUS
 62
     7
 10
-210.4463351905192
 20
313.0304642870047
 30
0.0
 11
-210.5033919910797
 21
313.0212372048364
 31
0.0
  0
LINE
  5
612
  8
0
  6
CONTINUOUS
 62
     7
 10
-210.5033919910797
 20
313.0212372048364
 30
0.0
 11
-210.5606915871176
 21
313.0136623396432
 31
0.0
  0
LINE
  5
613
  8
0
  6
CONTINUOUS
 62
     7
 10
-210.5606915871176
 20
313.0136623396432
 30
0.0
 11
-210.6187747528843
 21
313.0076948332515
 31
0.0
  0
LINE
  5
614
  8
0
  6
CONTINUOUS
 62
     7
 10
-210.6187747528843
 20
313.0076948332515
 30
0.0
 11
-210.6770073644633
 21
313.0034250320337
 31
0.0
  0
LINE
  5
615
  8
0
  6
CONTINUOUS
 62
     7
 10
-210.6770073644633
 20
313.0034250320337
 30
0.0
 11
-210.7355400638222
 21
313.0008514269712
 31
0.0
  0
LINE
  5
616
  8
0
  6
CONTINUOUS
 62
     7
 10
-210.7355400638222
 20
313.0008514269712
 30
0.0
 11
-210.7941230354464
 21
312.9999930675747
 31
0.0
  0
LINE
  5
617
  8
0
  6
CONTINUOUS
 62
   253
 10
-188.7941230354464
 20
312.4768313236652
 30
0.0
 11
-188.7941230354464
 21
312.9999930675747
 31
0.0
  0
LINE
  5
618
  8
0
  6
CONTINUOUS
 62
     7
 10
-186.8245075252723
 20
314.6526967165328
 30
0.0
 11
-186.8405645348639
 21
314.5714966294116
 31
0.0
  0
LINE
  5
619
  8
0
  6
CONTINUOUS
 62
     7
 10
-186.8405645348639
 20
314.5714966294116
 30
0.0
 11
-186.8600038651771
 21
314.490892834506
 31
0.0
  0
LINE
  5
61A
  8
0
  6
CONTINUOUS
 62
     7
 10
-186.8600038651771
 20
314.490892834506
 30
0.0
 11
-186.8828946194092
 21
314.4107512214013
 31
0.0
  0
LINE
  5
61B
  8
0
  6
CONTINUOUS
 62
     7
 10
-186.8828946194092
 20
314.4107512214013
 30
0.0
 11
-186.9091531227653
 21
314.3314959177555
 31
0.0
  0
LINE
  5
61C
  8
0
  6
CONTINUOUS
 62
     7
 10
-186.9091531227653
 20
314.3314959177555
 30
0.0
 11
-186.9384283178066
 21
314.2540727464445
 31
0.0
  0
LINE
  5
61D
  8
0
  6
CONTINUOUS
 62
     7
 10
-186.9384283178066
 20
314.2540727464445
 30
0.0
 11
-186.9710300350857
 21
314.1776008631851
 31
0.0
  0
LINE
  5
61E
  8
0
  6
CONTINUOUS
 62
     7
 10
-186.9710300350857
 20
314.1776008631851
 30
0.0
 11
-187.006780261195
 21
314.10254902083
 31
0.0
  0
LINE
  5
61F
  8
0
  6
CONTINUOUS
 62
     7
 10
-187.006780261195
 20
314.10254902083
 30
0.0
 11
-187.0457946530137
 21
314.0287320951728
 31
0.0
  0
LINE
  5
620
  8
0
  6
CONTINUOUS
 62
     7
 10
-187.0457946530137
 20
314.0287320951728
 30
0.0
 11
-187.0874796115125
 21
313.9572235664224
 31
0.0
  0
LINE
  5
621
  8
0
  6
CONTINUOUS
 62
     7
 10
-187.0874796115125
 20
313.9572235664224
 30
0.0
 11
-187.1322876753716
 21
313.8872036623781
 31
0.0
  0
LINE
  5
622
  8
0
  6
CONTINUOUS
 62
     7
 10
-187.1322876753716
 20
313.8872036623781
 30
0.0
 11
-187.1799657116429
 21
313.8191052056697
 31
0.0
  0
LINE
  5
623
  8
0
  6
CONTINUOUS
 62
     7
 10
-187.1799657116429
 20
313.8191052056697
 30
0.0
 11
-187.2306584253593
 21
313.7527647720668
 31
0.0
  0
LINE
  5
624
  8
0
  6
CONTINUOUS
 62
     7
 10
-187.2306584253593
 20
313.7527647720668
 30
0.0
 11
-187.2836022076598
 21
313.6891434054556
 31
0.0
  0
LINE
  5
625
  8
0
  6
CONTINUOUS
 62
     7
 10
-187.2836022076598
 20
313.6891434054556
 30
0.0
 11
-187.3393795138578
 21
313.6275068892689
 31
0.0
  0
LINE
  5
626
  8
0
  6
CONTINUOUS
 62
     7
 10
-187.3393795138578
 20
313.6275068892689
 30
0.0
 11
-187.3976690781833
 21
313.5682401724784
 31
0.0
  0
LINE
  5
627
  8
0
  6
CONTINUOUS
 62
     7
 10
-187.3976690781833
 20
313.5682401724784
 30
0.0
 11
-187.4586406542802
 21
313.5112060389056
 31
0.0
  0
LINE
  5
628
  8
0
  6
CONTINUOUS
 62
     7
 10
-187.4586406542802
 20
313.5112060389056
 30
0.0
 11
-187.521382081228
 21
313.4572259204128
 31
0.0
  0
LINE
  5
629
  8
0
  6
CONTINUOUS
 62
     7
 10
-187.521382081228
 20
313.4572259204128
 30
0.0
 11
-187.5865893266286
 21
313.4056720947556
 31
0.0
  0
LINE
  5
62A
  8
0
  6
CONTINUOUS
 62
     7
 10
-187.5865893266286
 20
313.4056720947556
 30
0.0
 11
-187.6538818548452
 21
313.3568710220516
 31
0.0
  0
LINE
  5
62B
  8
0
  6
CONTINUOUS
 62
     7
 10
-187.6538818548452
 20
313.3568710220516
 30
0.0
 11
-187.7234497811153
 21
313.3107154738613
 31
0.0
  0
LINE
  5
62C
  8
0
  6
CONTINUOUS
 62
     7
 10
-187.7234497811153
 20
313.3107154738613
 30
0.0
 11
-187.7942578772349
 21
313.2678644143604
 31
0.0
  0
LINE
  5
62D
  8
0
  6
CONTINUOUS
 62
     7
 10
-187.7942578772349
 20
313.2678644143604
 30
0.0
 11
-187.8670961191167
 21
313.2278141495108
 31
0.0
  0
LINE
  5
62E
  8
0
  6
CONTINUOUS
 62
     7
 10
-187.8670961191167
 20
313.2278141495108
 30
0.0
 11
-187.9415351976479
 21
313.1908236492721
 31
0.0
  0
LINE
  5
62F
  8
0
  6
CONTINUOUS
 62
     7
 10
-187.9415351976479
 20
313.1908236492721
 30
0.0
 11
-188.0177803440062
 21
313.1568186237444
 31
0.0
  0
LINE
  5
630
  8
0
  6
CONTINUOUS
 62
     7
 10
-188.0177803440062
 20
313.1568186237444
 30
0.0
 11
-188.0947021974702
 21
313.1262773751656
 31
0.0
  0
LINE
  5
631
  8
0
  6
CONTINUOUS
 62
     7
 10
-188.0947021974702
 20
313.1262773751656
 30
0.0
 11
-188.1731625775536
 21
313.0988341763876
 31
0.0
  0
LINE
  5
632
  8
0
  6
CONTINUOUS
 62
     7
 10
-188.1731625775536
 20
313.0988341763876
 30
0.0
 11
-188.2526952418218
 21
313.0746733673596
 31
0.0
  0
LINE
  5
633
  8
0
  6
CONTINUOUS
 62
     7
 10
-188.2526952418218
 20
313.0746733673596
 30
0.0
 11
-188.3335148782737
 21
313.0537556388873
 31
0.0
  0
LINE
  5
634
  8
0
  6
CONTINUOUS
 62
     7
 10
-188.3335148782737
 20
313.0537556388873
 30
0.0
 11
-188.3897573099558
 21
313.0412976664152
 31
0.0
  0
LINE
  5
635
  8
0
  6
CONTINUOUS
 62
     7
 10
-188.3897573099558
 20
313.0412976664152
 30
0.0
 11
-188.446335190519
 21
313.0304642870047
 31
0.0
  0
LINE
  5
636
  8
0
  6
CONTINUOUS
 62
     7
 10
-188.446335190519
 20
313.0304642870047
 30
0.0
 11
-188.5033919910801
 21
313.0212372048364
 31
0.0
  0
LINE
  5
637
  8
0
  6
CONTINUOUS
 62
     7
 10
-188.5033919910801
 20
313.0212372048364
 30
0.0
 11
-188.5606915871178
 21
313.0136623396432
 31
0.0
  0
LINE
  5
638
  8
0
  6
CONTINUOUS
 62
     7
 10
-188.5606915871178
 20
313.0136623396432
 30
0.0
 11
-188.6187747528842
 21
313.0076948332515
 31
0.0
  0
LINE
  5
639
  8
0
  6
CONTINUOUS
 62
     7
 10
-188.6187747528842
 20
313.0076948332515
 30
0.0
 11
-188.6770073644632
 21
313.0034250320337
 31
0.0
  0
LINE
  5
63A
  8
0
  6
CONTINUOUS
 62
     7
 10
-188.6770073644632
 20
313.0034250320337
 30
0.0
 11
-188.7355400638222
 21
313.0008514269712
 31
0.0
  0
LINE
  5
63B
  8
0
  6
CONTINUOUS
 62
     7
 10
-188.7355400638222
 20
313.0008514269712
 30
0.0
 11
-188.7941230354464
 21
312.9999930675747
 31
0.0
  0
LINE
  5
63C
  8
0
  6
CONTINUOUS
 62
   253
 10
-144.7941230354466
 20
312.4768313236652
 30
0.0
 11
-144.7941230354466
 21
312.9999930675747
 31
0.0
  0
LINE
  5
63D
  8
0
  6
CONTINUOUS
 62
     7
 10
-142.8245075252725
 20
314.6526967165328
 30
0.0
 11
-142.8405645348636
 21
314.5714966294116
 31
0.0
  0
LINE
  5
63E
  8
0
  6
CONTINUOUS
 62
     7
 10
-142.8405645348636
 20
314.5714966294116
 30
0.0
 11
-142.860003865177
 21
314.490892834506
 31
0.0
  0
LINE
  5
63F
  8
0
  6
CONTINUOUS
 62
     7
 10
-142.860003865177
 20
314.490892834506
 30
0.0
 11
-142.8828946194094
 21
314.4107512214013
 31
0.0
  0
LINE
  5
640
  8
0
  6
CONTINUOUS
 62
     7
 10
-142.8828946194094
 20
314.4107512214013
 30
0.0
 11
-142.9091531227653
 21
314.3314959177555
 31
0.0
  0
LINE
  5
641
  8
0
  6
CONTINUOUS
 62
     7
 10
-142.9091531227653
 20
314.3314959177555
 30
0.0
 11
-142.9384283178066
 21
314.2540727464445
 31
0.0
  0
LINE
  5
642
  8
0
  6
CONTINUOUS
 62
     7
 10
-142.9384283178066
 20
314.2540727464445
 30
0.0
 11
-142.9710300350862
 21
314.1776008631851
 31
0.0
  0
LINE
  5
643
  8
0
  6
CONTINUOUS
 62
     7
 10
-142.9710300350862
 20
314.1776008631851
 30
0.0
 11
-143.0067802611954
 21
314.10254902083
 31
0.0
  0
LINE
  5
644
  8
0
  6
CONTINUOUS
 62
     7
 10
-143.0067802611954
 20
314.10254902083
 30
0.0
 11
-143.0457946530137
 21
314.0287320951728
 31
0.0
  0
LINE
  5
645
  8
0
  6
CONTINUOUS
 62
     7
 10
-143.0457946530137
 20
314.0287320951728
 30
0.0
 11
-143.0874796115125
 21
313.9572235664224
 31
0.0
  0
LINE
  5
646
  8
0
  6
CONTINUOUS
 62
     7
 10
-143.0874796115125
 20
313.9572235664224
 30
0.0
 11
-143.1322876753718
 21
313.8872036623781
 31
0.0
  0
LINE
  5
647
  8
0
  6
CONTINUOUS
 62
     7
 10
-143.1322876753718
 20
313.8872036623781
 30
0.0
 11
-143.179965711643
 21
313.8191052056697
 31
0.0
  0
LINE
  5
648
  8
0
  6
CONTINUOUS
 62
     7
 10
-143.179965711643
 20
313.8191052056697
 30
0.0
 11
-143.2306584253593
 21
313.7527647720668
 31
0.0
  0
LINE
  5
649
  8
0
  6
CONTINUOUS
 62
     7
 10
-143.2306584253593
 20
313.7527647720668
 30
0.0
 11
-143.2836022076602
 21
313.6891434054556
 31
0.0
  0
LINE
  5
64A
  8
0
  6
CONTINUOUS
 62
     7
 10
-143.2836022076602
 20
313.6891434054556
 30
0.0
 11
-143.3393795138578
 21
313.6275068892689
 31
0.0
  0
LINE
  5
64B
  8
0
  6
CONTINUOUS
 62
     7
 10
-143.3393795138578
 20
313.6275068892689
 30
0.0
 11
-143.3976690781838
 21
313.5682401724784
 31
0.0
  0
LINE
  5
64C
  8
0
  6
CONTINUOUS
 62
     7
 10
-143.3976690781838
 20
313.5682401724784
 30
0.0
 11
-143.4586406542801
 21
313.5112060389056
 31
0.0
  0
LINE
  5
64D
  8
0
  6
CONTINUOUS
 62
     7
 10
-143.4586406542801
 20
313.5112060389056
 30
0.0
 11
-143.5213820812282
 21
313.4572259204128
 31
0.0
  0
LINE
  5
64E
  8
0
  6
CONTINUOUS
 62
     7
 10
-143.5213820812282
 20
313.4572259204128
 30
0.0
 11
-143.5865893266286
 21
313.4056720947556
 31
0.0
  0
LINE
  5
64F
  8
0
  6
CONTINUOUS
 62
     7
 10
-143.5865893266286
 20
313.4056720947556
 30
0.0
 11
-143.6538818548454
 21
313.3568710220516
 31
0.0
  0
LINE
  5
650
  8
0
  6
CONTINUOUS
 62
     7
 10
-143.6538818548454
 20
313.3568710220516
 30
0.0
 11
-143.7234497811151
 21
313.3107154738613
 31
0.0
  0
LINE
  5
651
  8
0
  6
CONTINUOUS
 62
     7
 10
-143.7234497811151
 20
313.3107154738613
 30
0.0
 11
-143.7942578772349
 21
313.2678644143604
 31
0.0
  0
LINE
  5
652
  8
0
  6
CONTINUOUS
 62
     7
 10
-143.7942578772349
 20
313.2678644143604
 30
0.0
 11
-143.8670961191164
 21
313.2278141495108
 31
0.0
  0
LINE
  5
653
  8
0
  6
CONTINUOUS
 62
     7
 10
-143.8670961191164
 20
313.2278141495108
 30
0.0
 11
-143.9415351976476
 21
313.1908236492721
 31
0.0
  0
LINE
  5
654
  8
0
  6
CONTINUOUS
 62
     7
 10
-143.9415351976476
 20
313.1908236492721
 30
0.0
 11
-144.0177803440061
 21
313.1568186237444
 31
0.0
  0
LINE
  5
655
  8
0
  6
CONTINUOUS
 62
     7
 10
-144.0177803440061
 20
313.1568186237444
 30
0.0
 11
-144.0947021974701
 21
313.1262773751656
 31
0.0
  0
LINE
  5
656
  8
0
  6
CONTINUOUS
 62
     7
 10
-144.0947021974701
 20
313.1262773751656
 30
0.0
 11
-144.1731625775533
 21
313.0988341763876
 31
0.0
  0
LINE
  5
657
  8
0
  6
CONTINUOUS
 62
     7
 10
-144.1731625775533
 20
313.0988341763876
 30
0.0
 11
-144.2526952418222
 21
313.0746733673596
 31
0.0
  0
LINE
  5
658
  8
0
  6
CONTINUOUS
 62
     7
 10
-144.2526952418222
 20
313.0746733673596
 30
0.0
 11
-144.3335148782738
 21
313.0537556388873
 31
0.0
  0
LINE
  5
659
  8
0
  6
CONTINUOUS
 62
     7
 10
-144.3335148782738
 20
313.0537556388873
 30
0.0
 11
-144.3897573099557
 21
313.0412976664152
 31
0.0
  0
LINE
  5
65A
  8
0
  6
CONTINUOUS
 62
     7
 10
-144.3897573099557
 20
313.0412976664152
 30
0.0
 11
-144.4463351905194
 21
313.0304642870047
 31
0.0
  0
LINE
  5
65B
  8
0
  6
CONTINUOUS
 62
     7
 10
-144.4463351905194
 20
313.0304642870047
 30
0.0
 11
-144.5033919910801
 21
313.0212372048364
 31
0.0
  0
LINE
  5
65C
  8
0
  6
CONTINUOUS
 62
     7
 10
-144.5033919910801
 20
313.0212372048364
 30
0.0
 11
-144.5606915871178
 21
313.0136623396432
 31
0.0
  0
LINE
  5
65D
  8
0
  6
CONTINUOUS
 62
     7
 10
-144.5606915871178
 20
313.0136623396432
 30
0.0
 11
-144.618774752884
 21
313.0076948332515
 31
0.0
  0
LINE
  5
65E
  8
0
  6
CONTINUOUS
 62
     7
 10
-144.618774752884
 20
313.0076948332515
 30
0.0
 11
-144.6770073644632
 21
313.0034250320337
 31
0.0
  0
LINE
  5
65F
  8
0
  6
CONTINUOUS
 62
     7
 10
-144.6770073644632
 20
313.0034250320337
 30
0.0
 11
-144.7355400638226
 21
313.0008514269712
 31
0.0
  0
LINE
  5
660
  8
0
  6
CONTINUOUS
 62
     7
 10
-144.7355400638226
 20
313.0008514269712
 30
0.0
 11
-144.7941230354466
 21
312.9999930675747
 31
0.0
  0
LINE
  5
661
  8
0
  6
CONTINUOUS
 62
   253
 10
-254.7941230354465
 20
312.4768313236652
 30
0.0
 11
-254.7941230354465
 21
312.9999930675747
 31
0.0
  0
LINE
  5
662
  8
0
  6
CONTINUOUS
 62
     7
 10
-252.8245075252724
 20
314.6526967165328
 30
0.0
 11
-252.8405645348635
 21
314.5714966294116
 31
0.0
  0
LINE
  5
663
  8
0
  6
CONTINUOUS
 62
     7
 10
-252.8405645348635
 20
314.5714966294116
 30
0.0
 11
-252.8600038651774
 21
314.490892834506
 31
0.0
  0
LINE
  5
664
  8
0
  6
CONTINUOUS
 62
     7
 10
-252.8600038651774
 20
314.490892834506
 30
0.0
 11
-252.8828946194088
 21
314.4107512214013
 31
0.0
  0
LINE
  5
665
  8
0
  6
CONTINUOUS
 62
     7
 10
-252.8828946194088
 20
314.4107512214013
 30
0.0
 11
-252.9091531227654
 21
314.3314959177555
 31
0.0
  0
LINE
  5
666
  8
0
  6
CONTINUOUS
 62
     7
 10
-252.9091531227654
 20
314.3314959177555
 30
0.0
 11
-252.9384283178067
 21
314.2540727464445
 31
0.0
  0
LINE
  5
667
  8
0
  6
CONTINUOUS
 62
     7
 10
-252.9384283178067
 20
314.2540727464445
 30
0.0
 11
-252.971030035086
 21
314.1776008631851
 31
0.0
  0
LINE
  5
668
  8
0
  6
CONTINUOUS
 62
     7
 10
-252.971030035086
 20
314.1776008631851
 30
0.0
 11
-253.0067802611953
 21
314.10254902083
 31
0.0
  0
LINE
  5
669
  8
0
  6
CONTINUOUS
 62
     7
 10
-253.0067802611953
 20
314.10254902083
 30
0.0
 11
-253.0457946530138
 21
314.0287320951728
 31
0.0
  0
LINE
  5
66A
  8
0
  6
CONTINUOUS
 62
     7
 10
-253.0457946530138
 20
314.0287320951728
 30
0.0
 11
-253.0874796115125
 21
313.9572235664224
 31
0.0
  0
LINE
  5
66B
  8
0
  6
CONTINUOUS
 62
     7
 10
-253.0874796115125
 20
313.9572235664224
 30
0.0
 11
-253.1322876753717
 21
313.8872036623781
 31
0.0
  0
LINE
  5
66C
  8
0
  6
CONTINUOUS
 62
     7
 10
-253.1322876753717
 20
313.8872036623781
 30
0.0
 11
-253.1799657116425
 21
313.8191052056697
 31
0.0
  0
LINE
  5
66D
  8
0
  6
CONTINUOUS
 62
     7
 10
-253.1799657116425
 20
313.8191052056697
 30
0.0
 11
-253.2306584253594
 21
313.7527647720668
 31
0.0
  0
LINE
  5
66E
  8
0
  6
CONTINUOUS
 62
     7
 10
-253.2306584253594
 20
313.7527647720668
 30
0.0
 11
-253.2836022076599
 21
313.6891434054556
 31
0.0
  0
LINE
  5
66F
  8
0
  6
CONTINUOUS
 62
     7
 10
-253.2836022076599
 20
313.6891434054556
 30
0.0
 11
-253.3393795138574
 21
313.6275068892689
 31
0.0
  0
LINE
  5
670
  8
0
  6
CONTINUOUS
 62
     7
 10
-253.3393795138574
 20
313.6275068892689
 30
0.0
 11
-253.3976690781834
 21
313.5682401724784
 31
0.0
  0
LINE
  5
671
  8
0
  6
CONTINUOUS
 62
     7
 10
-253.3976690781834
 20
313.5682401724784
 30
0.0
 11
-253.4586406542803
 21
313.5112060389056
 31
0.0
  0
LINE
  5
672
  8
0
  6
CONTINUOUS
 62
     7
 10
-253.4586406542803
 20
313.5112060389056
 30
0.0
 11
-253.5213820812285
 21
313.4572259204128
 31
0.0
  0
LINE
  5
673
  8
0
  6
CONTINUOUS
 62
     7
 10
-253.5213820812285
 20
313.4572259204128
 30
0.0
 11
-253.5865893266285
 21
313.4056720947556
 31
0.0
  0
LINE
  5
674
  8
0
  6
CONTINUOUS
 62
     7
 10
-253.5865893266285
 20
313.4056720947556
 30
0.0
 11
-253.6538818548453
 21
313.3568710220516
 31
0.0
  0
LINE
  5
675
  8
0
  6
CONTINUOUS
 62
     7
 10
-253.6538818548453
 20
313.3568710220516
 30
0.0
 11
-253.7234497811149
 21
313.3107154738613
 31
0.0
  0
LINE
  5
676
  8
0
  6
CONTINUOUS
 62
     7
 10
-253.7234497811149
 20
313.3107154738613
 30
0.0
 11
-253.7942578772352
 21
313.2678644143604
 31
0.0
  0
LINE
  5
677
  8
0
  6
CONTINUOUS
 62
     7
 10
-253.7942578772352
 20
313.2678644143604
 30
0.0
 11
-253.8670961191165
 21
313.2278141495108
 31
0.0
  0
LINE
  5
678
  8
0
  6
CONTINUOUS
 62
     7
 10
-253.8670961191165
 20
313.2278141495108
 30
0.0
 11
-253.9415351976477
 21
313.1908236492721
 31
0.0
  0
LINE
  5
679
  8
0
  6
CONTINUOUS
 62
     7
 10
-253.9415351976477
 20
313.1908236492721
 30
0.0
 11
-254.0177803440058
 21
313.1568186237444
 31
0.0
  0
LINE
  5
67A
  8
0
  6
CONTINUOUS
 62
     7
 10
-254.0177803440058
 20
313.1568186237444
 30
0.0
 11
-254.0947021974702
 21
313.1262773751656
 31
0.0
  0
LINE
  5
67B
  8
0
  6
CONTINUOUS
 62
     7
 10
-254.0947021974702
 20
313.1262773751656
 30
0.0
 11
-254.1731625775534
 21
313.0988341763876
 31
0.0
  0
LINE
  5
67C
  8
0
  6
CONTINUOUS
 62
     7
 10
-254.1731625775534
 20
313.0988341763876
 30
0.0
 11
-254.2526952418218
 21
313.0746733673596
 31
0.0
  0
LINE
  5
67D
  8
0
  6
CONTINUOUS
 62
     7
 10
-254.2526952418218
 20
313.0746733673596
 30
0.0
 11
-254.3335148782737
 21
313.0537556388873
 31
0.0
  0
LINE
  5
67E
  8
0
  6
CONTINUOUS
 62
     7
 10
-254.3335148782737
 20
313.0537556388873
 30
0.0
 11
-254.3897573099558
 21
313.0412976664152
 31
0.0
  0
LINE
  5
67F
  8
0
  6
CONTINUOUS
 62
     7
 10
-254.3897573099558
 20
313.0412976664152
 30
0.0
 11
-254.4463351905193
 21
313.0304642870047
 31
0.0
  0
LINE
  5
680
  8
0
  6
CONTINUOUS
 62
     7
 10
-254.4463351905193
 20
313.0304642870047
 30
0.0
 11
-254.5033919910797
 21
313.0212372048364
 31
0.0
  0
LINE
  5
681
  8
0
  6
CONTINUOUS
 62
     7
 10
-254.5033919910797
 20
313.0212372048364
 30
0.0
 11
-254.5606915871177
 21
313.0136623396432
 31
0.0
  0
LINE
  5
682
  8
0
  6
CONTINUOUS
 62
     7
 10
-254.5606915871177
 20
313.0136623396432
 30
0.0
 11
-254.6187747528843
 21
313.0076948332515
 31
0.0
  0
LINE
  5
683
  8
0
  6
CONTINUOUS
 62
     7
 10
-254.6187747528843
 20
313.0076948332515
 30
0.0
 11
-254.6770073644633
 21
313.0034250320337
 31
0.0
  0
LINE
  5
684
  8
0
  6
CONTINUOUS
 62
     7
 10
-254.6770073644633
 20
313.0034250320337
 30
0.0
 11
-254.7355400638223
 21
313.0008514269712
 31
0.0
  0
LINE
  5
685
  8
0
  6
CONTINUOUS
 62
     7
 10
-254.7355400638223
 20
313.0008514269712
 30
0.0
 11
-254.7941230354465
 21
312.9999930675747
 31
0.0
  0
LINE
  5
686
  8
0
  6
CONTINUOUS
 62
   253
 10
-232.7941230354464
 20
312.4768313236652
 30
0.0
 11
-232.7941230354464
 21
312.9999930675747
 31
0.0
  0
LINE
  5
687
  8
0
  6
CONTINUOUS
 62
     7
 10
-230.8245075252724
 20
314.6526967165328
 30
0.0
 11
-230.8405645348635
 21
314.5714966294116
 31
0.0
  0
LINE
  5
688
  8
0
  6
CONTINUOUS
 62
     7
 10
-230.8405645348635
 20
314.5714966294116
 30
0.0
 11
-230.8600038651774
 21
314.490892834506
 31
0.0
  0
LINE
  5
689
  8
0
  6
CONTINUOUS
 62
     7
 10
-230.8600038651774
 20
314.490892834506
 30
0.0
 11
-230.8828946194093
 21
314.4107512214013
 31
0.0
  0
LINE
  5
68A
  8
0
  6
CONTINUOUS
 62
     7
 10
-230.8828946194093
 20
314.4107512214013
 30
0.0
 11
-230.9091531227654
 21
314.3314959177555
 31
0.0
  0
LINE
  5
68B
  8
0
  6
CONTINUOUS
 62
     7
 10
-230.9091531227654
 20
314.3314959177555
 30
0.0
 11
-230.9384283178066
 21
314.2540727464445
 31
0.0
  0
LINE
  5
68C
  8
0
  6
CONTINUOUS
 62
     7
 10
-230.9384283178066
 20
314.2540727464445
 30
0.0
 11
-230.971030035086
 21
314.1776008631851
 31
0.0
  0
LINE
  5
68D
  8
0
  6
CONTINUOUS
 62
     7
 10
-230.971030035086
 20
314.1776008631851
 30
0.0
 11
-231.0067802611952
 21
314.10254902083
 31
0.0
  0
LINE
  5
68E
  8
0
  6
CONTINUOUS
 62
     7
 10
-231.0067802611952
 20
314.10254902083
 30
0.0
 11
-231.0457946530138
 21
314.0287320951728
 31
0.0
  0
LINE
  5
68F
  8
0
  6
CONTINUOUS
 62
     7
 10
-231.0457946530138
 20
314.0287320951728
 30
0.0
 11
-231.0874796115125
 21
313.9572235664224
 31
0.0
  0
LINE
  5
690
  8
0
  6
CONTINUOUS
 62
     7
 10
-231.0874796115125
 20
313.9572235664224
 30
0.0
 11
-231.1322876753716
 21
313.8872036623781
 31
0.0
  0
LINE
  5
691
  8
0
  6
CONTINUOUS
 62
     7
 10
-231.1322876753716
 20
313.8872036623781
 30
0.0
 11
-231.1799657116424
 21
313.8191052056697
 31
0.0
  0
LINE
  5
692
  8
0
  6
CONTINUOUS
 62
     7
 10
-231.1799657116424
 20
313.8191052056697
 30
0.0
 11
-231.2306584253594
 21
313.7527647720668
 31
0.0
  0
LINE
  5
693
  8
0
  6
CONTINUOUS
 62
     7
 10
-231.2306584253594
 20
313.7527647720668
 30
0.0
 11
-231.2836022076599
 21
313.6891434054556
 31
0.0
  0
LINE
  5
694
  8
0
  6
CONTINUOUS
 62
     7
 10
-231.2836022076599
 20
313.6891434054556
 30
0.0
 11
-231.3393795138579
 21
313.6275068892689
 31
0.0
  0
LINE
  5
695
  8
0
  6
CONTINUOUS
 62
     7
 10
-231.3393795138579
 20
313.6275068892689
 30
0.0
 11
-231.3976690781834
 21
313.5682401724784
 31
0.0
  0
LINE
  5
696
  8
0
  6
CONTINUOUS
 62
     7
 10
-231.3976690781834
 20
313.5682401724784
 30
0.0
 11
-231.4586406542802
 21
313.5112060389056
 31
0.0
  0
LINE
  5
697
  8
0
  6
CONTINUOUS
 62
     7
 10
-231.4586406542802
 20
313.5112060389056
 30
0.0
 11
-231.5213820812285
 21
313.4572259204128
 31
0.0
  0
LINE
  5
698
  8
0
  6
CONTINUOUS
 62
     7
 10
-231.5213820812285
 20
313.4572259204128
 30
0.0
 11
-231.5865893266285
 21
313.4056720947556
 31
0.0
  0
LINE
  5
699
  8
0
  6
CONTINUOUS
 62
     7
 10
-231.5865893266285
 20
313.4056720947556
 30
0.0
 11
-231.6538818548453
 21
313.3568710220516
 31
0.0
  0
LINE
  5
69A
  8
0
  6
CONTINUOUS
 62
     7
 10
-231.6538818548453
 20
313.3568710220516
 30
0.0
 11
-231.7234497811149
 21
313.3107154738613
 31
0.0
  0
LINE
  5
69B
  8
0
  6
CONTINUOUS
 62
     7
 10
-231.7234497811149
 20
313.3107154738613
 30
0.0
 11
-231.7942578772349
 21
313.2678644143604
 31
0.0
  0
LINE
  5
69C
  8
0
  6
CONTINUOUS
 62
     7
 10
-231.7942578772349
 20
313.2678644143604
 30
0.0
 11
-231.8670961191167
 21
313.2278141495108
 31
0.0
  0
LINE
  5
69D
  8
0
  6
CONTINUOUS
 62
     7
 10
-231.8670961191167
 20
313.2278141495108
 30
0.0
 11
-231.9415351976479
 21
313.1908236492721
 31
0.0
  0
LINE
  5
69E
  8
0
  6
CONTINUOUS
 62
     7
 10
-231.9415351976479
 20
313.1908236492721
 30
0.0
 11
-232.0177803440058
 21
313.1568186237444
 31
0.0
  0
LINE
  5
69F
  8
0
  6
CONTINUOUS
 62
     7
 10
-232.0177803440058
 20
313.1568186237444
 30
0.0
 11
-232.0947021974702
 21
313.1262773751656
 31
0.0
  0
LINE
  5
6A0
  8
0
  6
CONTINUOUS
 62
     7
 10
-232.0947021974702
 20
313.1262773751656
 30
0.0
 11
-232.1731625775536
 21
313.0988341763876
 31
0.0
  0
LINE
  5
6A1
  8
0
  6
CONTINUOUS
 62
     7
 10
-232.1731625775536
 20
313.0988341763876
 30
0.0
 11
-232.2526952418218
 21
313.0746733673596
 31
0.0
  0
LINE
  5
6A2
  8
0
  6
CONTINUOUS
 62
     7
 10
-232.2526952418218
 20
313.0746733673596
 30
0.0
 11
-232.3335148782737
 21
313.0537556388873
 31
0.0
  0
LINE
  5
6A3
  8
0
  6
CONTINUOUS
 62
     7
 10
-232.3335148782737
 20
313.0537556388873
 30
0.0
 11
-232.3897573099558
 21
313.0412976664152
 31
0.0
  0
LINE
  5
6A4
  8
0
  6
CONTINUOUS
 62
     7
 10
-232.3897573099558
 20
313.0412976664152
 30
0.0
 11
-232.4463351905193
 21
313.0304642870047
 31
0.0
  0
LINE
  5
6A5
  8
0
  6
CONTINUOUS
 62
     7
 10
-232.4463351905193
 20
313.0304642870047
 30
0.0
 11
-232.5033919910797
 21
313.0212372048364
 31
0.0
  0
LINE
  5
6A6
  8
0
  6
CONTINUOUS
 62
     7
 10
-232.5033919910797
 20
313.0212372048364
 30
0.0
 11
-232.5606915871177
 21
313.0136623396432
 31
0.0
  0
LINE
  5
6A7
  8
0
  6
CONTINUOUS
 62
     7
 10
-232.5606915871177
 20
313.0136623396432
 30
0.0
 11
-232.6187747528843
 21
313.0076948332515
 31
0.0
  0
LINE
  5
6A8
  8
0
  6
CONTINUOUS
 62
     7
 10
-232.6187747528843
 20
313.0076948332515
 30
0.0
 11
-232.6770073644633
 21
313.0034250320337
 31
0.0
  0
LINE
  5
6A9
  8
0
  6
CONTINUOUS
 62
     7
 10
-232.6770073644633
 20
313.0034250320337
 30
0.0
 11
-232.7355400638222
 21
313.0008514269712
 31
0.0
  0
LINE
  5
6AA
  8
0
  6
CONTINUOUS
 62
     7
 10
-232.7355400638222
 20
313.0008514269712
 30
0.0
 11
-232.7941230354464
 21
312.9999930675747
 31
0.0
  0
LINE
  5
6AB
  8
0
  6
CONTINUOUS
 62
   253
 10
-191.2058769706002
 20
227.5231608450967
 30
0.0
 11
-191.2058769706002
 21
227.0000069919675
 31
0.0
  0
LINE
  5
6AC
  8
0
  6
CONTINUOUS
 62
     7
 10
-191.2058769706002
 20
227.0000069919675
 30
0.0
 11
-191.2886230511515
 21
226.9982945222616
 31
0.0
  0
LINE
  5
6AD
  8
0
  6
CONTINUOUS
 62
     7
 10
-191.2886230511515
 20
226.9982945222616
 30
0.0
 11
-191.3713691317025
 21
226.9931483096148
 31
0.0
  0
LINE
  5
6AE
  8
0
  6
CONTINUOUS
 62
     7
 10
-191.3713691317025
 20
226.9931483096148
 30
0.0
 11
-191.4542592833357
 21
226.9845236066864
 31
0.0
  0
LINE
  5
6AF
  8
0
  6
CONTINUOUS
 62
     7
 10
-191.4542592833357
 20
226.9845236066864
 30
0.0
 11
-191.5368612928046
 21
226.972429194656
 31
0.0
  0
LINE
  5
6B0
  8
0
  6
CONTINUOUS
 62
     7
 10
-191.5368612928046
 20
226.972429194656
 30
0.0
 11
-191.6181823334766
 21
226.9570466580796
 31
0.0
  0
LINE
  5
6B1
  8
0
  6
CONTINUOUS
 62
     7
 10
-191.6181823334766
 20
226.9570466580796
 30
0.0
 11
-191.6991440854225
 21
226.9382238363397
 31
0.0
  0
LINE
  5
6B2
  8
0
  6
CONTINUOUS
 62
     7
 10
-191.6991440854225
 20
226.9382238363397
 30
0.0
 11
-191.7792540610557
 21
226.9160546632448
 31
0.0
  0
LINE
  5
6B3
  8
0
  6
CONTINUOUS
 62
     7
 10
-191.7792540610557
 20
226.9160546632448
 30
0.0
 11
-191.8587146445545
 21
226.8904574508869
 31
0.0
  0
LINE
  5
6B4
  8
0
  6
CONTINUOUS
 62
     7
 10
-191.8587146445545
 20
226.8904574508869
 30
0.0
 11
-191.9363681538906
 21
226.8618293779604
 31
0.0
  0
LINE
  5
6B5
  8
0
  6
CONTINUOUS
 62
     7
 10
-191.9363681538906
 20
226.8618293779604
 30
0.0
 11
-192.013097920066
 21
226.8298680031416
 31
0.0
  0
LINE
  5
6B6
  8
0
  6
CONTINUOUS
 62
     7
 10
-192.013097920066
 20
226.8298680031416
 30
0.0
 11
-192.0884338219977
 21
226.7947474660368
 31
0.0
  0
LINE
  5
6B7
  8
0
  6
CONTINUOUS
 62
     7
 10
-192.0884338219977
 20
226.7947474660368
 30
0.0
 11
-192.1625619266567
 21
226.7563537287379
 31
0.0
  0
LINE
  5
6B8
  8
0
  6
CONTINUOUS
 62
     7
 10
-192.1625619266567
 20
226.7563537287379
 30
0.0
 11
-192.2344063158201
 21
226.7152700477871
 31
0.0
  0
LINE
  5
6B9
  8
0
  6
CONTINUOUS
 62
     7
 10
-192.2344063158201
 20
226.7152700477871
 30
0.0
 11
-192.3047880397202
 21
226.6710520072028
 31
0.0
  0
LINE
  5
6BA
  8
0
  6
CONTINUOUS
 62
     7
 10
-192.3047880397202
 20
226.6710520072028
 30
0.0
 11
-192.3732723164273
 21
226.6239491309496
 31
0.0
  0
LINE
  5
6BB
  8
0
  6
CONTINUOUS
 62
     7
 10
-192.3732723164273
 20
226.6239491309496
 30
0.0
 11
-192.4400237649446
 21
226.5738181795345
 31
0.0
  0
LINE
  5
6BC
  8
0
  6
CONTINUOUS
 62
     7
 10
-192.4400237649446
 20
226.5738181795345
 30
0.0
 11
-192.5040779088864
 21
226.5214123580328
 31
0.0
  0
LINE
  5
6BD
  8
0
  6
CONTINUOUS
 62
     7
 10
-192.5040779088864
 20
226.5214123580328
 30
0.0
 11
-192.5661708717929
 21
226.4661575583684
 31
0.0
  0
LINE
  5
6BE
  8
0
  6
CONTINUOUS
 62
     7
 10
-192.5661708717929
 20
226.4661575583684
 30
0.0
 11
-192.6259151986205
 21
226.4083717867636
 31
0.0
  0
LINE
  5
6BF
  8
0
  6
CONTINUOUS
 62
     7
 10
-192.6259151986205
 20
226.4083717867636
 30
0.0
 11
-192.6834495228873
 21
226.3478865553036
 31
0.0
  0
LINE
  5
6C0
  8
0
  6
CONTINUOUS
 62
     7
 10
-192.6834495228873
 20
226.3478865553036
 30
0.0
 11
-192.7379473919222
 21
226.2856042030093
 31
0.0
  0
LINE
  5
6C1
  8
0
  6
CONTINUOUS
 62
     7
 10
-192.7379473919222
 20
226.2856042030093
 30
0.0
 11
-192.7900397124382
 21
226.2208367877301
 31
0.0
  0
LINE
  5
6C2
  8
0
  6
CONTINUOUS
 62
     7
 10
-192.7900397124382
 20
226.2208367877301
 30
0.0
 11
-192.8393970288822
 21
226.1539620107416
 31
0.0
  0
LINE
  5
6C3
  8
0
  6
CONTINUOUS
 62
     7
 10
-192.8393970288822
 20
226.1539620107416
 30
0.0
 11
-192.8861281696825
 21
226.0847907837944
 31
0.0
  0
LINE
  5
6C4
  8
0
  6
CONTINUOUS
 62
     7
 10
-192.8861281696825
 20
226.0847907837944
 30
0.0
 11
-192.9295674619413
 21
226.0143496648944
 31
0.0
  0
LINE
  5
6C5
  8
0
  6
CONTINUOUS
 62
     7
 10
-192.9295674619413
 20
226.0143496648944
 30
0.0
 11
-192.9702232186146
 21
225.9418558674504
 31
0.0
  0
LINE
  5
6C6
  8
0
  6
CONTINUOUS
 62
     7
 10
-192.9702232186146
 20
225.9418558674504
 30
0.0
 11
-193.0078330496245
 21
225.867736362204
 31
0.0
  0
LINE
  5
6C7
  8
0
  6
CONTINUOUS
 62
     7
 10
-193.0078330496245
 20
225.867736362204
 30
0.0
 11
-193.0424729811544
 21
225.7917866749297
 31
0.0
  0
LINE
  5
6C8
  8
0
  6
CONTINUOUS
 62
     7
 10
-193.0424729811544
 20
225.7917866749297
 30
0.0
 11
-193.06452456943
 21
225.7385382286332
 31
0.0
  0
LINE
  5
6C9
  8
0
  6
CONTINUOUS
 62
     7
 10
-193.06452456943
 20
225.7385382286332
 30
0.0
 11
-193.0850329911133
 21
225.6846767119849
 31
0.0
  0
LINE
  5
6CA
  8
0
  6
CONTINUOUS
 62
     7
 10
-193.0850329911133
 20
225.6846767119849
 30
0.0
 11
-193.1040412485325
 21
225.6300638558588
 31
0.0
  0
LINE
  5
6CB
  8
0
  6
CONTINUOUS
 62
     7
 10
-193.1040412485325
 20
225.6300638558588
 30
0.0
 11
-193.1214630052418
 21
225.5749244833216
 31
0.0
  0
LINE
  5
6CC
  8
0
  6
CONTINUOUS
 62
     7
 10
-193.1214630052418
 20
225.5749244833216
 30
0.0
 11
-193.1374365349037
 21
225.518733221856
 31
0.0
  0
LINE
  5
6CD
  8
0
  6
CONTINUOUS
 62
     7
 10
-193.1374365349037
 20
225.518733221856
 30
0.0
 11
-193.1517624831605
 21
225.4620995730589
 31
0.0
  0
LINE
  5
6CE
  8
0
  6
CONTINUOUS
 62
     7
 10
-193.1517624831605
 20
225.4620995730589
 30
0.0
 11
-193.1644685351741
 21
225.4048752778685
 31
0.0
  0
LINE
  5
6CF
  8
0
  6
CONTINUOUS
 62
     7
 10
-193.1644685351741
 20
225.4048752778685
 30
0.0
 11
-193.1754924766134
 21
225.3473033263632
 31
0.0
  0
LINE
  5
6D0
  8
0
  6
CONTINUOUS
 62
   253
 10
-147.2058769706002
 20
227.5231608450967
 30
0.0
 11
-147.2058769706002
 21
227.0000069919675
 31
0.0
  0
LINE
  5
6D1
  8
0
  6
CONTINUOUS
 62
     7
 10
-147.2058769706002
 20
227.0000069919675
 30
0.0
 11
-147.2886230511512
 21
226.9982945222616
 31
0.0
  0
LINE
  5
6D2
  8
0
  6
CONTINUOUS
 62
     7
 10
-147.2886230511512
 20
226.9982945222616
 30
0.0
 11
-147.3713691317025
 21
226.9931483096148
 31
0.0
  0
LINE
  5
6D3
  8
0
  6
CONTINUOUS
 62
     7
 10
-147.3713691317025
 20
226.9931483096148
 30
0.0
 11
-147.4542592833357
 21
226.9845236066864
 31
0.0
  0
LINE
  5
6D4
  8
0
  6
CONTINUOUS
 62
     7
 10
-147.4542592833357
 20
226.9845236066864
 30
0.0
 11
-147.5368612928045
 21
226.972429194656
 31
0.0
  0
LINE
  5
6D5
  8
0
  6
CONTINUOUS
 62
     7
 10
-147.5368612928045
 20
226.972429194656
 30
0.0
 11
-147.6181823334766
 21
226.9570466580796
 31
0.0
  0
LINE
  5
6D6
  8
0
  6
CONTINUOUS
 62
     7
 10
-147.6181823334766
 20
226.9570466580796
 30
0.0
 11
-147.6991440854229
 21
226.9382238363397
 31
0.0
  0
LINE
  5
6D7
  8
0
  6
CONTINUOUS
 62
     7
 10
-147.6991440854229
 20
226.9382238363397
 30
0.0
 11
-147.7792540610556
 21
226.9160546632448
 31
0.0
  0
LINE
  5
6D8
  8
0
  6
CONTINUOUS
 62
     7
 10
-147.7792540610556
 20
226.9160546632448
 30
0.0
 11
-147.8587146445545
 21
226.8904574508869
 31
0.0
  0
LINE
  5
6D9
  8
0
  6
CONTINUOUS
 62
     7
 10
-147.8587146445545
 20
226.8904574508869
 30
0.0
 11
-147.9363681538906
 21
226.8618293779604
 31
0.0
  0
LINE
  5
6DA
  8
0
  6
CONTINUOUS
 62
     7
 10
-147.9363681538906
 20
226.8618293779604
 30
0.0
 11
-148.0130979200662
 21
226.8298680031416
 31
0.0
  0
LINE
  5
6DB
  8
0
  6
CONTINUOUS
 62
     7
 10
-148.0130979200662
 20
226.8298680031416
 30
0.0
 11
-148.0884338219977
 21
226.7947474660368
 31
0.0
  0
LINE
  5
6DC
  8
0
  6
CONTINUOUS
 62
     7
 10
-148.0884338219977
 20
226.7947474660368
 30
0.0
 11
-148.1625619266565
 21
226.7563537287379
 31
0.0
  0
LINE
  5
6DD
  8
0
  6
CONTINUOUS
 62
     7
 10
-148.1625619266565
 20
226.7563537287379
 30
0.0
 11
-148.2344063158201
 21
226.7152700477871
 31
0.0
  0
LINE
  5
6DE
  8
0
  6
CONTINUOUS
 62
     7
 10
-148.2344063158201
 20
226.7152700477871
 30
0.0
 11
-148.3047880397201
 21
226.6710520072028
 31
0.0
  0
LINE
  5
6DF
  8
0
  6
CONTINUOUS
 62
     7
 10
-148.3047880397201
 20
226.6710520072028
 30
0.0
 11
-148.3732723164273
 21
226.6239491309496
 31
0.0
  0
LINE
  5
6E0
  8
0
  6
CONTINUOUS
 62
     7
 10
-148.3732723164273
 20
226.6239491309496
 30
0.0
 11
-148.4400237649446
 21
226.5738181795345
 31
0.0
  0
LINE
  5
6E1
  8
0
  6
CONTINUOUS
 62
     7
 10
-148.4400237649446
 20
226.5738181795345
 30
0.0
 11
-148.5040779088866
 21
226.5214123580328
 31
0.0
  0
LINE
  5
6E2
  8
0
  6
CONTINUOUS
 62
     7
 10
-148.5040779088866
 20
226.5214123580328
 30
0.0
 11
-148.5661708717929
 21
226.4661575583684
 31
0.0
  0
LINE
  5
6E3
  8
0
  6
CONTINUOUS
 62
     7
 10
-148.5661708717929
 20
226.4661575583684
 30
0.0
 11
-148.6259151986204
 21
226.4083717867636
 31
0.0
  0
LINE
  5
6E4
  8
0
  6
CONTINUOUS
 62
     7
 10
-148.6259151986204
 20
226.4083717867636
 30
0.0
 11
-148.6834495228873
 21
226.3478865553036
 31
0.0
  0
LINE
  5
6E5
  8
0
  6
CONTINUOUS
 62
     7
 10
-148.6834495228873
 20
226.3478865553036
 30
0.0
 11
-148.7379473919221
 21
226.2856042030093
 31
0.0
  0
LINE
  5
6E6
  8
0
  6
CONTINUOUS
 62
     7
 10
-148.7379473919221
 20
226.2856042030093
 30
0.0
 11
-148.7900397124382
 21
226.2208367877301
 31
0.0
  0
LINE
  5
6E7
  8
0
  6
CONTINUOUS
 62
     7
 10
-148.7900397124382
 20
226.2208367877301
 30
0.0
 11
-148.8393970288822
 21
226.1539620107416
 31
0.0
  0
LINE
  5
6E8
  8
0
  6
CONTINUOUS
 62
     7
 10
-148.8393970288822
 20
226.1539620107416
 30
0.0
 11
-148.8861281696825
 21
226.0847907837944
 31
0.0
  0
LINE
  5
6E9
  8
0
  6
CONTINUOUS
 62
     7
 10
-148.8861281696825
 20
226.0847907837944
 30
0.0
 11
-148.9295674619413
 21
226.0143496648944
 31
0.0
  0
LINE
  5
6EA
  8
0
  6
CONTINUOUS
 62
     7
 10
-148.9295674619413
 20
226.0143496648944
 30
0.0
 11
-148.9702232186145
 21
225.9418558674504
 31
0.0
  0
LINE
  5
6EB
  8
0
  6
CONTINUOUS
 62
     7
 10
-148.9702232186145
 20
225.9418558674504
 30
0.0
 11
-149.0078330496245
 21
225.867736362204
 31
0.0
  0
LINE
  5
6EC
  8
0
  6
CONTINUOUS
 62
     7
 10
-149.0078330496245
 20
225.867736362204
 30
0.0
 11
-149.0424729811546
 21
225.7917866749297
 31
0.0
  0
LINE
  5
6ED
  8
0
  6
CONTINUOUS
 62
     7
 10
-149.0424729811546
 20
225.7917866749297
 30
0.0
 11
-149.0645245694302
 21
225.7385382286332
 31
0.0
  0
LINE
  5
6EE
  8
0
  6
CONTINUOUS
 62
     7
 10
-149.0645245694302
 20
225.7385382286332
 30
0.0
 11
-149.0850329911133
 21
225.6846767119849
 31
0.0
  0
LINE
  5
6EF
  8
0
  6
CONTINUOUS
 62
     7
 10
-149.0850329911133
 20
225.6846767119849
 30
0.0
 11
-149.104041248532
 21
225.6300638558588
 31
0.0
  0
LINE
  5
6F0
  8
0
  6
CONTINUOUS
 62
     7
 10
-149.104041248532
 20
225.6300638558588
 30
0.0
 11
-149.1214630052418
 21
225.5749244833216
 31
0.0
  0
LINE
  5
6F1
  8
0
  6
CONTINUOUS
 62
     7
 10
-149.1214630052418
 20
225.5749244833216
 30
0.0
 11
-149.1374365349036
 21
225.518733221856
 31
0.0
  0
LINE
  5
6F2
  8
0
  6
CONTINUOUS
 62
     7
 10
-149.1374365349036
 20
225.518733221856
 30
0.0
 11
-149.1517624831604
 21
225.4620995730589
 31
0.0
  0
LINE
  5
6F3
  8
0
  6
CONTINUOUS
 62
     7
 10
-149.1517624831604
 20
225.4620995730589
 30
0.0
 11
-149.1644685351741
 21
225.4048752778685
 31
0.0
  0
LINE
  5
6F4
  8
0
  6
CONTINUOUS
 62
     7
 10
-149.1644685351741
 20
225.4048752778685
 30
0.0
 11
-149.1754924766129
 21
225.3473033263632
 31
0.0
  0
LINE
  5
6F5
  8
0
  6
CONTINUOUS
 62
   253
 10
-213.2058769706002
 20
227.5231608450967
 30
0.0
 11
-213.2058769706002
 21
227.0000069919675
 31
0.0
  0
LINE
  5
6F6
  8
0
  6
CONTINUOUS
 62
     7
 10
-213.2058769706002
 20
227.0000069919675
 30
0.0
 11
-213.2886230511515
 21
226.9982945222616
 31
0.0
  0
LINE
  5
6F7
  8
0
  6
CONTINUOUS
 62
     7
 10
-213.2886230511515
 20
226.9982945222616
 30
0.0
 11
-213.3713691317023
 21
226.9931483096148
 31
0.0
  0
LINE
  5
6F8
  8
0
  6
CONTINUOUS
 62
     7
 10
-213.3713691317023
 20
226.9931483096148
 30
0.0
 11
-213.4542592833357
 21
226.9845236066864
 31
0.0
  0
LINE
  5
6F9
  8
0
  6
CONTINUOUS
 62
     7
 10
-213.4542592833357
 20
226.9845236066864
 30
0.0
 11
-213.5368612928046
 21
226.972429194656
 31
0.0
  0
LINE
  5
6FA
  8
0
  6
CONTINUOUS
 62
     7
 10
-213.5368612928046
 20
226.972429194656
 30
0.0
 11
-213.6181823334762
 21
226.9570466580796
 31
0.0
  0
LINE
  5
6FB
  8
0
  6
CONTINUOUS
 62
     7
 10
-213.6181823334762
 20
226.9570466580796
 30
0.0
 11
-213.6991440854226
 21
226.9382238363397
 31
0.0
  0
LINE
  5
6FC
  8
0
  6
CONTINUOUS
 62
     7
 10
-213.6991440854226
 20
226.9382238363397
 30
0.0
 11
-213.7792540610557
 21
226.9160546632448
 31
0.0
  0
LINE
  5
6FD
  8
0
  6
CONTINUOUS
 62
     7
 10
-213.7792540610557
 20
226.9160546632448
 30
0.0
 11
-213.8587146445545
 21
226.8904574508869
 31
0.0
  0
LINE
  5
6FE
  8
0
  6
CONTINUOUS
 62
     7
 10
-213.8587146445545
 20
226.8904574508869
 30
0.0
 11
-213.9363681538906
 21
226.8618293779604
 31
0.0
  0
LINE
  5
6FF
  8
0
  6
CONTINUOUS
 62
     7
 10
-213.9363681538906
 20
226.8618293779604
 30
0.0
 11
-214.0130979200661
 21
226.8298680031416
 31
0.0
  0
LINE
  5
700
  8
0
  6
CONTINUOUS
 62
     7
 10
-214.0130979200661
 20
226.8298680031416
 30
0.0
 11
-214.0884338219977
 21
226.7947474660368
 31
0.0
  0
LINE
  5
701
  8
0
  6
CONTINUOUS
 62
     7
 10
-214.0884338219977
 20
226.7947474660368
 30
0.0
 11
-214.1625619266567
 21
226.7563537287379
 31
0.0
  0
LINE
  5
702
  8
0
  6
CONTINUOUS
 62
     7
 10
-214.1625619266567
 20
226.7563537287379
 30
0.0
 11
-214.2344063158201
 21
226.7152700477871
 31
0.0
  0
LINE
  5
703
  8
0
  6
CONTINUOUS
 62
     7
 10
-214.2344063158201
 20
226.7152700477871
 30
0.0
 11
-214.3047880397202
 21
226.6710520072028
 31
0.0
  0
LINE
  5
704
  8
0
  6
CONTINUOUS
 62
     7
 10
-214.3047880397202
 20
226.6710520072028
 30
0.0
 11
-214.3732723164273
 21
226.6239491309496
 31
0.0
  0
LINE
  5
705
  8
0
  6
CONTINUOUS
 62
     7
 10
-214.3732723164273
 20
226.6239491309496
 30
0.0
 11
-214.4400237649446
 21
226.5738181795345
 31
0.0
  0
LINE
  5
706
  8
0
  6
CONTINUOUS
 62
     7
 10
-214.4400237649446
 20
226.5738181795345
 30
0.0
 11
-214.5040779088865
 21
226.5214123580328
 31
0.0
  0
LINE
  5
707
  8
0
  6
CONTINUOUS
 62
     7
 10
-214.5040779088865
 20
226.5214123580328
 30
0.0
 11
-214.566170871793
 21
226.4661575583684
 31
0.0
  0
LINE
  5
708
  8
0
  6
CONTINUOUS
 62
     7
 10
-214.566170871793
 20
226.4661575583684
 30
0.0
 11
-214.6259151986205
 21
226.4083717867636
 31
0.0
  0
LINE
  5
709
  8
0
  6
CONTINUOUS
 62
     7
 10
-214.6259151986205
 20
226.4083717867636
 30
0.0
 11
-214.6834495228873
 21
226.3478865553036
 31
0.0
  0
LINE
  5
70A
  8
0
  6
CONTINUOUS
 62
     7
 10
-214.6834495228873
 20
226.3478865553036
 30
0.0
 11
-214.7379473919222
 21
226.2856042030093
 31
0.0
  0
LINE
  5
70B
  8
0
  6
CONTINUOUS
 62
     7
 10
-214.7379473919222
 20
226.2856042030093
 30
0.0
 11
-214.7900397124383
 21
226.2208367877301
 31
0.0
  0
LINE
  5
70C
  8
0
  6
CONTINUOUS
 62
     7
 10
-214.7900397124383
 20
226.2208367877301
 30
0.0
 11
-214.8393970288822
 21
226.1539620107416
 31
0.0
  0
LINE
  5
70D
  8
0
  6
CONTINUOUS
 62
     7
 10
-214.8393970288822
 20
226.1539620107416
 30
0.0
 11
-214.8861281696826
 21
226.0847907837944
 31
0.0
  0
LINE
  5
70E
  8
0
  6
CONTINUOUS
 62
     7
 10
-214.8861281696826
 20
226.0847907837944
 30
0.0
 11
-214.9295674619414
 21
226.0143496648944
 31
0.0
  0
LINE
  5
70F
  8
0
  6
CONTINUOUS
 62
     7
 10
-214.9295674619414
 20
226.0143496648944
 30
0.0
 11
-214.9702232186146
 21
225.9418558674504
 31
0.0
  0
LINE
  5
710
  8
0
  6
CONTINUOUS
 62
     7
 10
-214.9702232186146
 20
225.9418558674504
 30
0.0
 11
-215.0078330496246
 21
225.867736362204
 31
0.0
  0
LINE
  5
711
  8
0
  6
CONTINUOUS
 62
     7
 10
-215.0078330496246
 20
225.867736362204
 30
0.0
 11
-215.0424729811544
 21
225.7917866749297
 31
0.0
  0
LINE
  5
712
  8
0
  6
CONTINUOUS
 62
     7
 10
-215.0424729811544
 20
225.7917866749297
 30
0.0
 11
-215.06452456943
 21
225.7385382286332
 31
0.0
  0
LINE
  5
713
  8
0
  6
CONTINUOUS
 62
     7
 10
-215.06452456943
 20
225.7385382286332
 30
0.0
 11
-215.0850329911134
 21
225.6846767119849
 31
0.0
  0
LINE
  5
714
  8
0
  6
CONTINUOUS
 62
     7
 10
-215.0850329911134
 20
225.6846767119849
 30
0.0
 11
-215.1040412485326
 21
225.6300638558588
 31
0.0
  0
LINE
  5
715
  8
0
  6
CONTINUOUS
 62
     7
 10
-215.1040412485326
 20
225.6300638558588
 30
0.0
 11
-215.1214630052418
 21
225.5749244833216
 31
0.0
  0
LINE
  5
716
  8
0
  6
CONTINUOUS
 62
     7
 10
-215.1214630052418
 20
225.5749244833216
 30
0.0
 11
-215.1374365349037
 21
225.518733221856
 31
0.0
  0
LINE
  5
717
  8
0
  6
CONTINUOUS
 62
     7
 10
-215.1374365349037
 20
225.518733221856
 30
0.0
 11
-215.1517624831605
 21
225.4620995730589
 31
0.0
  0
LINE
  5
718
  8
0
  6
CONTINUOUS
 62
     7
 10
-215.1517624831605
 20
225.4620995730589
 30
0.0
 11
-215.1644685351741
 21
225.4048752778685
 31
0.0
  0
LINE
  5
719
  8
0
  6
CONTINUOUS
 62
     7
 10
-215.1644685351741
 20
225.4048752778685
 30
0.0
 11
-215.1754924766134
 21
225.3473033263632
 31
0.0
  0
LINE
  5
71A
  8
0
  6
CONTINUOUS
 62
   253
 10
-235.2058769706002
 20
227.5231608450967
 30
0.0
 11
-235.2058769706002
 21
227.0000069919675
 31
0.0
  0
LINE
  5
71B
  8
0
  6
CONTINUOUS
 62
     7
 10
-235.2058769706002
 20
227.0000069919675
 30
0.0
 11
-235.2886230511515
 21
226.9982945222616
 31
0.0
  0
LINE
  5
71C
  8
0
  6
CONTINUOUS
 62
     7
 10
-235.2886230511515
 20
226.9982945222616
 30
0.0
 11
-235.3713691317023
 21
226.9931483096148
 31
0.0
  0
LINE
  5
71D
  8
0
  6
CONTINUOUS
 62
     7
 10
-235.3713691317023
 20
226.9931483096148
 30
0.0
 11
-235.4542592833357
 21
226.9845236066864
 31
0.0
  0
LINE
  5
71E
  8
0
  6
CONTINUOUS
 62
     7
 10
-235.4542592833357
 20
226.9845236066864
 30
0.0
 11
-235.5368612928046
 21
226.972429194656
 31
0.0
  0
LINE
  5
71F
  8
0
  6
CONTINUOUS
 62
     7
 10
-235.5368612928046
 20
226.972429194656
 30
0.0
 11
-235.6181823334767
 21
226.9570466580796
 31
0.0
  0
LINE
  5
720
  8
0
  6
CONTINUOUS
 62
     7
 10
-235.6181823334767
 20
226.9570466580796
 30
0.0
 11
-235.6991440854226
 21
226.9382238363397
 31
0.0
  0
LINE
  5
721
  8
0
  6
CONTINUOUS
 62
     7
 10
-235.6991440854226
 20
226.9382238363397
 30
0.0
 11
-235.7792540610557
 21
226.9160546632448
 31
0.0
  0
LINE
  5
722
  8
0
  6
CONTINUOUS
 62
     7
 10
-235.7792540610557
 20
226.9160546632448
 30
0.0
 11
-235.8587146445545
 21
226.8904574508869
 31
0.0
  0
LINE
  5
723
  8
0
  6
CONTINUOUS
 62
     7
 10
-235.8587146445545
 20
226.8904574508869
 30
0.0
 11
-235.9363681538906
 21
226.8618293779604
 31
0.0
  0
LINE
  5
724
  8
0
  6
CONTINUOUS
 62
     7
 10
-235.9363681538906
 20
226.8618293779604
 30
0.0
 11
-236.0130979200661
 21
226.8298680031416
 31
0.0
  0
LINE
  5
725
  8
0
  6
CONTINUOUS
 62
     7
 10
-236.0130979200661
 20
226.8298680031416
 30
0.0
 11
-236.0884338219977
 21
226.7947474660368
 31
0.0
  0
LINE
  5
726
  8
0
  6
CONTINUOUS
 62
     7
 10
-236.0884338219977
 20
226.7947474660368
 30
0.0
 11
-236.1625619266567
 21
226.7563537287379
 31
0.0
  0
LINE
  5
727
  8
0
  6
CONTINUOUS
 62
     7
 10
-236.1625619266567
 20
226.7563537287379
 30
0.0
 11
-236.2344063158197
 21
226.7152700477871
 31
0.0
  0
LINE
  5
728
  8
0
  6
CONTINUOUS
 62
     7
 10
-236.2344063158197
 20
226.7152700477871
 30
0.0
 11
-236.3047880397202
 21
226.6710520072028
 31
0.0
  0
LINE
  5
729
  8
0
  6
CONTINUOUS
 62
     7
 10
-236.3047880397202
 20
226.6710520072028
 30
0.0
 11
-236.3732723164273
 21
226.6239491309496
 31
0.0
  0
LINE
  5
72A
  8
0
  6
CONTINUOUS
 62
     7
 10
-236.3732723164273
 20
226.6239491309496
 30
0.0
 11
-236.4400237649447
 21
226.5738181795345
 31
0.0
  0
LINE
  5
72B
  8
0
  6
CONTINUOUS
 62
     7
 10
-236.4400237649447
 20
226.5738181795345
 30
0.0
 11
-236.5040779088865
 21
226.5214123580328
 31
0.0
  0
LINE
  5
72C
  8
0
  6
CONTINUOUS
 62
     7
 10
-236.5040779088865
 20
226.5214123580328
 30
0.0
 11
-236.566170871793
 21
226.4661575583684
 31
0.0
  0
LINE
  5
72D
  8
0
  6
CONTINUOUS
 62
     7
 10
-236.566170871793
 20
226.4661575583684
 30
0.0
 11
-236.6259151986205
 21
226.4083717867636
 31
0.0
  0
LINE
  5
72E
  8
0
  6
CONTINUOUS
 62
     7
 10
-236.6259151986205
 20
226.4083717867636
 30
0.0
 11
-236.6834495228873
 21
226.3478865553036
 31
0.0
  0
LINE
  5
72F
  8
0
  6
CONTINUOUS
 62
     7
 10
-236.6834495228873
 20
226.3478865553036
 30
0.0
 11
-236.7379473919222
 21
226.2856042030093
 31
0.0
  0
LINE
  5
730
  8
0
  6
CONTINUOUS
 62
     7
 10
-236.7379473919222
 20
226.2856042030093
 30
0.0
 11
-236.7900397124383
 21
226.2208367877301
 31
0.0
  0
LINE
  5
731
  8
0
  6
CONTINUOUS
 62
     7
 10
-236.7900397124383
 20
226.2208367877301
 30
0.0
 11
-236.8393970288822
 21
226.1539620107416
 31
0.0
  0
LINE
  5
732
  8
0
  6
CONTINUOUS
 62
     7
 10
-236.8393970288822
 20
226.1539620107416
 30
0.0
 11
-236.8861281696826
 21
226.0847907837944
 31
0.0
  0
LINE
  5
733
  8
0
  6
CONTINUOUS
 62
     7
 10
-236.8861281696826
 20
226.0847907837944
 30
0.0
 11
-236.9295674619414
 21
226.0143496648944
 31
0.0
  0
LINE
  5
734
  8
0
  6
CONTINUOUS
 62
     7
 10
-236.9295674619414
 20
226.0143496648944
 30
0.0
 11
-236.9702232186146
 21
225.9418558674504
 31
0.0
  0
LINE
  5
735
  8
0
  6
CONTINUOUS
 62
     7
 10
-236.9702232186146
 20
225.9418558674504
 30
0.0
 11
-237.0078330496246
 21
225.867736362204
 31
0.0
  0
LINE
  5
736
  8
0
  6
CONTINUOUS
 62
     7
 10
-237.0078330496246
 20
225.867736362204
 30
0.0
 11
-237.0424729811544
 21
225.7917866749297
 31
0.0
  0
LINE
  5
737
  8
0
  6
CONTINUOUS
 62
     7
 10
-237.0424729811544
 20
225.7917866749297
 30
0.0
 11
-237.0645245694301
 21
225.7385382286332
 31
0.0
  0
LINE
  5
738
  8
0
  6
CONTINUOUS
 62
     7
 10
-237.0645245694301
 20
225.7385382286332
 30
0.0
 11
-237.0850329911134
 21
225.6846767119849
 31
0.0
  0
LINE
  5
739
  8
0
  6
CONTINUOUS
 62
     7
 10
-237.0850329911134
 20
225.6846767119849
 30
0.0
 11
-237.1040412485326
 21
225.6300638558588
 31
0.0
  0
LINE
  5
73A
  8
0
  6
CONTINUOUS
 62
     7
 10
-237.1040412485326
 20
225.6300638558588
 30
0.0
 11
-237.1214630052418
 21
225.5749244833216
 31
0.0
  0
LINE
  5
73B
  8
0
  6
CONTINUOUS
 62
     7
 10
-237.1214630052418
 20
225.5749244833216
 30
0.0
 11
-237.1374365349037
 21
225.518733221856
 31
0.0
  0
LINE
  5
73C
  8
0
  6
CONTINUOUS
 62
     7
 10
-237.1374365349037
 20
225.518733221856
 30
0.0
 11
-237.1517624831605
 21
225.4620995730589
 31
0.0
  0
LINE
  5
73D
  8
0
  6
CONTINUOUS
 62
     7
 10
-237.1517624831605
 20
225.4620995730589
 30
0.0
 11
-237.1644685351741
 21
225.4048752778685
 31
0.0
  0
LINE
  5
73E
  8
0
  6
CONTINUOUS
 62
     7
 10
-237.1644685351741
 20
225.4048752778685
 30
0.0
 11
-237.1754924766134
 21
225.3473033263632
 31
0.0
  0
LINE
  5
73F
  8
0
  6
CONTINUOUS
 62
   253
 10
-169.2058769706002
 20
227.5231608450967
 30
0.0
 11
-169.2058769706002
 21
227.0000069919675
 31
0.0
  0
LINE
  5
740
  8
0
  6
CONTINUOUS
 62
     7
 10
-169.2058769706002
 20
227.0000069919675
 30
0.0
 11
-169.2886230511514
 21
226.9982945222616
 31
0.0
  0
LINE
  5
741
  8
0
  6
CONTINUOUS
 62
     7
 10
-169.2886230511514
 20
226.9982945222616
 30
0.0
 11
-169.3713691317025
 21
226.9931483096148
 31
0.0
  0
LINE
  5
742
  8
0
  6
CONTINUOUS
 62
     7
 10
-169.3713691317025
 20
226.9931483096148
 30
0.0
 11
-169.4542592833359
 21
226.9845236066864
 31
0.0
  0
LINE
  5
743
  8
0
  6
CONTINUOUS
 62
     7
 10
-169.4542592833359
 20
226.9845236066864
 30
0.0
 11
-169.5368612928045
 21
226.972429194656
 31
0.0
  0
LINE
  5
744
  8
0
  6
CONTINUOUS
 62
     7
 10
-169.5368612928045
 20
226.972429194656
 30
0.0
 11
-169.6181823334766
 21
226.9570466580796
 31
0.0
  0
LINE
  5
745
  8
0
  6
CONTINUOUS
 62
     7
 10
-169.6181823334766
 20
226.9570466580796
 30
0.0
 11
-169.6991440854225
 21
226.9382238363397
 31
0.0
  0
LINE
  5
746
  8
0
  6
CONTINUOUS
 62
     7
 10
-169.6991440854225
 20
226.9382238363397
 30
0.0
 11
-169.7792540610556
 21
226.9160546632448
 31
0.0
  0
LINE
  5
747
  8
0
  6
CONTINUOUS
 62
     7
 10
-169.7792540610556
 20
226.9160546632448
 30
0.0
 11
-169.8587146445545
 21
226.8904574508869
 31
0.0
  0
LINE
  5
748
  8
0
  6
CONTINUOUS
 62
     7
 10
-169.8587146445545
 20
226.8904574508869
 30
0.0
 11
-169.9363681538906
 21
226.8618293779604
 31
0.0
  0
LINE
  5
749
  8
0
  6
CONTINUOUS
 62
     7
 10
-169.9363681538906
 20
226.8618293779604
 30
0.0
 11
-170.0130979200656
 21
226.8298680031416
 31
0.0
  0
LINE
  5
74A
  8
0
  6
CONTINUOUS
 62
     7
 10
-170.0130979200656
 20
226.8298680031416
 30
0.0
 11
-170.0884338219977
 21
226.7947474660368
 31
0.0
  0
LINE
  5
74B
  8
0
  6
CONTINUOUS
 62
     7
 10
-170.0884338219977
 20
226.7947474660368
 30
0.0
 11
-170.1625619266567
 21
226.7563537287379
 31
0.0
  0
LINE
  5
74C
  8
0
  6
CONTINUOUS
 62
     7
 10
-170.1625619266567
 20
226.7563537287379
 30
0.0
 11
-170.2344063158201
 21
226.7152700477871
 31
0.0
  0
LINE
  5
74D
  8
0
  6
CONTINUOUS
 62
     7
 10
-170.2344063158201
 20
226.7152700477871
 30
0.0
 11
-170.3047880397202
 21
226.6710520072028
 31
0.0
  0
LINE
  5
74E
  8
0
  6
CONTINUOUS
 62
     7
 10
-170.3047880397202
 20
226.6710520072028
 30
0.0
 11
-170.3732723164273
 21
226.6239491309496
 31
0.0
  0
LINE
  5
74F
  8
0
  6
CONTINUOUS
 62
     7
 10
-170.3732723164273
 20
226.6239491309496
 30
0.0
 11
-170.4400237649446
 21
226.5738181795345
 31
0.0
  0
LINE
  5
750
  8
0
  6
CONTINUOUS
 62
     7
 10
-170.4400237649446
 20
226.5738181795345
 30
0.0
 11
-170.5040779088864
 21
226.5214123580328
 31
0.0
  0
LINE
  5
751
  8
0
  6
CONTINUOUS
 62
     7
 10
-170.5040779088864
 20
226.5214123580328
 30
0.0
 11
-170.5661708717929
 21
226.4661575583684
 31
0.0
  0
LINE
  5
752
  8
0
  6
CONTINUOUS
 62
     7
 10
-170.5661708717929
 20
226.4661575583684
 30
0.0
 11
-170.6259151986205
 21
226.4083717867636
 31
0.0
  0
LINE
  5
753
  8
0
  6
CONTINUOUS
 62
     7
 10
-170.6259151986205
 20
226.4083717867636
 30
0.0
 11
-170.6834495228875
 21
226.3478865553036
 31
0.0
  0
LINE
  5
754
  8
0
  6
CONTINUOUS
 62
     7
 10
-170.6834495228875
 20
226.3478865553036
 30
0.0
 11
-170.7379473919221
 21
226.2856042030093
 31
0.0
  0
LINE
  5
755
  8
0
  6
CONTINUOUS
 62
     7
 10
-170.7379473919221
 20
226.2856042030093
 30
0.0
 11
-170.7900397124382
 21
226.2208367877301
 31
0.0
  0
LINE
  5
756
  8
0
  6
CONTINUOUS
 62
     7
 10
-170.7900397124382
 20
226.2208367877301
 30
0.0
 11
-170.8393970288822
 21
226.1539620107416
 31
0.0
  0
LINE
  5
757
  8
0
  6
CONTINUOUS
 62
     7
 10
-170.8393970288822
 20
226.1539620107416
 30
0.0
 11
-170.8861281696825
 21
226.0847907837944
 31
0.0
  0
LINE
  5
758
  8
0
  6
CONTINUOUS
 62
     7
 10
-170.8861281696825
 20
226.0847907837944
 30
0.0
 11
-170.9295674619413
 21
226.0143496648944
 31
0.0
  0
LINE
  5
759
  8
0
  6
CONTINUOUS
 62
     7
 10
-170.9295674619413
 20
226.0143496648944
 30
0.0
 11
-170.9702232186145
 21
225.9418558674504
 31
0.0
  0
LINE
  5
75A
  8
0
  6
CONTINUOUS
 62
     7
 10
-170.9702232186145
 20
225.9418558674504
 30
0.0
 11
-171.0078330496245
 21
225.867736362204
 31
0.0
  0
LINE
  5
75B
  8
0
  6
CONTINUOUS
 62
     7
 10
-171.0078330496245
 20
225.867736362204
 30
0.0
 11
-171.0424729811544
 21
225.7917866749297
 31
0.0
  0
LINE
  5
75C
  8
0
  6
CONTINUOUS
 62
     7
 10
-171.0424729811544
 20
225.7917866749297
 30
0.0
 11
-171.0645245694296
 21
225.7385382286332
 31
0.0
  0
LINE
  5
75D
  8
0
  6
CONTINUOUS
 62
     7
 10
-171.0645245694296
 20
225.7385382286332
 30
0.0
 11
-171.0850329911133
 21
225.6846767119849
 31
0.0
  0
LINE
  5
75E
  8
0
  6
CONTINUOUS
 62
     7
 10
-171.0850329911133
 20
225.6846767119849
 30
0.0
 11
-171.1040412485325
 21
225.6300638558588
 31
0.0
  0
LINE
  5
75F
  8
0
  6
CONTINUOUS
 62
     7
 10
-171.1040412485325
 20
225.6300638558588
 30
0.0
 11
-171.1214630052418
 21
225.5749244833216
 31
0.0
  0
LINE
  5
760
  8
0
  6
CONTINUOUS
 62
     7
 10
-171.1214630052418
 20
225.5749244833216
 30
0.0
 11
-171.1374365349037
 21
225.518733221856
 31
0.0
  0
LINE
  5
761
  8
0
  6
CONTINUOUS
 62
     7
 10
-171.1374365349037
 20
225.518733221856
 30
0.0
 11
-171.1517624831604
 21
225.4620995730589
 31
0.0
  0
LINE
  5
762
  8
0
  6
CONTINUOUS
 62
     7
 10
-171.1517624831604
 20
225.4620995730589
 30
0.0
 11
-171.1644685351741
 21
225.4048752778685
 31
0.0
  0
LINE
  5
763
  8
0
  6
CONTINUOUS
 62
     7
 10
-171.1644685351741
 20
225.4048752778685
 30
0.0
 11
-171.1754924766133
 21
225.3473033263632
 31
0.0
  0
LINE
  5
764
  8
0
  6
CONTINUOUS
 62
   253
 10
-125.2058769706001
 20
227.5231608450967
 30
0.0
 11
-125.2058769706001
 21
227.0000069919675
 31
0.0
  0
LINE
  5
765
  8
0
  6
CONTINUOUS
 62
     7
 10
-125.2058769706001
 20
227.0000069919675
 30
0.0
 11
-125.2886230511513
 21
226.9982945222616
 31
0.0
  0
LINE
  5
766
  8
0
  6
CONTINUOUS
 62
     7
 10
-125.2886230511513
 20
226.9982945222616
 30
0.0
 11
-125.3713691317026
 21
226.9931483096148
 31
0.0
  0
LINE
  5
767
  8
0
  6
CONTINUOUS
 62
     7
 10
-125.3713691317026
 20
226.9931483096148
 30
0.0
 11
-125.4542592833356
 21
226.9845236066864
 31
0.0
  0
LINE
  5
768
  8
0
  6
CONTINUOUS
 62
     7
 10
-125.4542592833356
 20
226.9845236066864
 30
0.0
 11
-125.5368612928045
 21
226.972429194656
 31
0.0
  0
LINE
  5
769
  8
0
  6
CONTINUOUS
 62
     7
 10
-125.5368612928045
 20
226.972429194656
 30
0.0
 11
-125.6181823334765
 21
226.9570466580796
 31
0.0
  0
LINE
  5
76A
  8
0
  6
CONTINUOUS
 62
     7
 10
-125.6181823334765
 20
226.9570466580796
 30
0.0
 11
-125.6991440854225
 21
226.9382238363397
 31
0.0
  0
LINE
  5
76B
  8
0
  6
CONTINUOUS
 62
     7
 10
-125.6991440854225
 20
226.9382238363397
 30
0.0
 11
-125.7792540610557
 21
226.9160546632448
 31
0.0
  0
LINE
  5
76C
  8
0
  6
CONTINUOUS
 62
     7
 10
-125.7792540610557
 20
226.9160546632448
 30
0.0
 11
-125.8587146445546
 21
226.8904574508869
 31
0.0
  0
LINE
  5
76D
  8
0
  6
CONTINUOUS
 62
     7
 10
-125.8587146445546
 20
226.8904574508869
 30
0.0
 11
-125.9363681538905
 21
226.8618293779604
 31
0.0
  0
LINE
  5
76E
  8
0
  6
CONTINUOUS
 62
     7
 10
-125.9363681538905
 20
226.8618293779604
 30
0.0
 11
-126.0130979200661
 21
226.8298680031416
 31
0.0
  0
LINE
  5
76F
  8
0
  6
CONTINUOUS
 62
     7
 10
-126.0130979200661
 20
226.8298680031416
 30
0.0
 11
-126.0884338219977
 21
226.7947474660368
 31
0.0
  0
LINE
  5
770
  8
0
  6
CONTINUOUS
 62
     7
 10
-126.0884338219977
 20
226.7947474660368
 30
0.0
 11
-126.162561926657
 21
226.7563537287379
 31
0.0
  0
LINE
  5
771
  8
0
  6
CONTINUOUS
 62
     7
 10
-126.162561926657
 20
226.7563537287379
 30
0.0
 11
-126.2344063158202
 21
226.7152700477871
 31
0.0
  0
LINE
  5
772
  8
0
  6
CONTINUOUS
 62
     7
 10
-126.2344063158202
 20
226.7152700477871
 30
0.0
 11
-126.3047880397202
 21
226.6710520072028
 31
0.0
  0
LINE
  5
773
  8
0
  6
CONTINUOUS
 62
     7
 10
-126.3047880397202
 20
226.6710520072028
 30
0.0
 11
-126.3732723164274
 21
226.6239491309496
 31
0.0
  0
LINE
  5
774
  8
0
  6
CONTINUOUS
 62
     7
 10
-126.3732723164274
 20
226.6239491309496
 30
0.0
 11
-126.4400237649446
 21
226.5738181795345
 31
0.0
  0
LINE
  5
775
  8
0
  6
CONTINUOUS
 62
     7
 10
-126.4400237649446
 20
226.5738181795345
 30
0.0
 11
-126.5040779088865
 21
226.5214123580328
 31
0.0
  0
LINE
  5
776
  8
0
  6
CONTINUOUS
 62
     7
 10
-126.5040779088865
 20
226.5214123580328
 30
0.0
 11
-126.5661708717929
 21
226.4661575583684
 31
0.0
  0
LINE
  5
777
  8
0
  6
CONTINUOUS
 62
     7
 10
-126.5661708717929
 20
226.4661575583684
 30
0.0
 11
-126.6259151986205
 21
226.4083717867636
 31
0.0
  0
LINE
  5
778
  8
0
  6
CONTINUOUS
 62
     7
 10
-126.6259151986205
 20
226.4083717867636
 30
0.0
 11
-126.6834495228872
 21
226.3478865553036
 31
0.0
  0
LINE
  5
779
  8
0
  6
CONTINUOUS
 62
     7
 10
-126.6834495228872
 20
226.3478865553036
 30
0.0
 11
-126.7379473919221
 21
226.2856042030093
 31
0.0
  0
LINE
  5
77A
  8
0
  6
CONTINUOUS
 62
     7
 10
-126.7379473919221
 20
226.2856042030093
 30
0.0
 11
-126.7900397124381
 21
226.2208367877301
 31
0.0
  0
LINE
  5
77B
  8
0
  6
CONTINUOUS
 62
     7
 10
-126.7900397124381
 20
226.2208367877301
 30
0.0
 11
-126.8393970288821
 21
226.1539620107416
 31
0.0
  0
LINE
  5
77C
  8
0
  6
CONTINUOUS
 62
     7
 10
-126.8393970288821
 20
226.1539620107416
 30
0.0
 11
-126.8861281696825
 21
226.0847907837944
 31
0.0
  0
LINE
  5
77D
  8
0
  6
CONTINUOUS
 62
     7
 10
-126.8861281696825
 20
226.0847907837944
 30
0.0
 11
-126.9295674619414
 21
226.0143496648944
 31
0.0
  0
LINE
  5
77E
  8
0
  6
CONTINUOUS
 62
     7
 10
-126.9295674619414
 20
226.0143496648944
 30
0.0
 11
-126.9702232186145
 21
225.9418558674504
 31
0.0
  0
LINE
  5
77F
  8
0
  6
CONTINUOUS
 62
     7
 10
-126.9702232186145
 20
225.9418558674504
 30
0.0
 11
-127.0078330496246
 21
225.867736362204
 31
0.0
  0
LINE
  5
780
  8
0
  6
CONTINUOUS
 62
     7
 10
-127.0078330496246
 20
225.867736362204
 30
0.0
 11
-127.0424729811546
 21
225.7917866749297
 31
0.0
  0
LINE
  5
781
  8
0
  6
CONTINUOUS
 62
     7
 10
-127.0424729811546
 20
225.7917866749297
 30
0.0
 11
-127.0645245694301
 21
225.7385382286332
 31
0.0
  0
LINE
  5
782
  8
0
  6
CONTINUOUS
 62
     7
 10
-127.0645245694301
 20
225.7385382286332
 30
0.0
 11
-127.0850329911133
 21
225.6846767119849
 31
0.0
  0
LINE
  5
783
  8
0
  6
CONTINUOUS
 62
     7
 10
-127.0850329911133
 20
225.6846767119849
 30
0.0
 11
-127.1040412485326
 21
225.6300638558588
 31
0.0
  0
LINE
  5
784
  8
0
  6
CONTINUOUS
 62
     7
 10
-127.1040412485326
 20
225.6300638558588
 30
0.0
 11
-127.1214630052417
 21
225.5749244833216
 31
0.0
  0
LINE
  5
785
  8
0
  6
CONTINUOUS
 62
     7
 10
-127.1214630052417
 20
225.5749244833216
 30
0.0
 11
-127.1374365349037
 21
225.518733221856
 31
0.0
  0
LINE
  5
786
  8
0
  6
CONTINUOUS
 62
     7
 10
-127.1374365349037
 20
225.518733221856
 30
0.0
 11
-127.1517624831605
 21
225.4620995730589
 31
0.0
  0
LINE
  5
787
  8
0
  6
CONTINUOUS
 62
     7
 10
-127.1517624831605
 20
225.4620995730589
 30
0.0
 11
-127.1644685351742
 21
225.4048752778685
 31
0.0
  0
LINE
  5
788
  8
0
  6
CONTINUOUS
 62
     7
 10
-127.1644685351742
 20
225.4048752778685
 30
0.0
 11
-127.175492476613
 21
225.3473033263632
 31
0.0
  0
LINE
  5
789
  8
0
  6
CONTINUOUS
 62
   253
 10
-188.7941230354464
 20
227.523160847596
 30
0.0
 11
-188.7941230354464
 21
227.0000069944676
 31
0.0
  0
LINE
  5
78A
  8
0
  6
CONTINUOUS
 62
     7
 10
-186.8245075252723
 20
225.3473033369648
 30
0.0
 11
-186.8405645348639
 21
225.4285034245059
 31
0.0
  0
LINE
  5
78B
  8
0
  6
CONTINUOUS
 62
     7
 10
-186.8405645348639
 20
225.4285034245059
 30
0.0
 11
-186.8600038651771
 21
225.5091072198281
 31
0.0
  0
LINE
  5
78C
  8
0
  6
CONTINUOUS
 62
     7
 10
-186.8600038651771
 20
225.5091072198281
 30
0.0
 11
-186.8828946194092
 21
225.5892488333476
 31
0.0
  0
LINE
  5
78D
  8
0
  6
CONTINUOUS
 62
     7
 10
-186.8828946194092
 20
225.5892488333476
 30
0.0
 11
-186.9091531227653
 21
225.6685041374024
 31
0.0
  0
LINE
  5
78E
  8
0
  6
CONTINUOUS
 62
     7
 10
-186.9091531227653
 20
225.6685041374024
 30
0.0
 11
-186.9384283178066
 21
225.7459273091145
 31
0.0
  0
LINE
  5
78F
  8
0
  6
CONTINUOUS
 62
     7
 10
-186.9384283178066
 20
225.7459273091145
 30
0.0
 11
-186.9710300350857
 21
225.8223991927688
 31
0.0
  0
LINE
  5
790
  8
0
  6
CONTINUOUS
 62
     7
 10
-186.9710300350857
 20
225.8223991927688
 30
0.0
 11
-187.006780261195
 21
225.8974510355119
 31
0.0
  0
LINE
  5
791
  8
0
  6
CONTINUOUS
 62
     7
 10
-187.006780261195
 20
225.8974510355119
 30
0.0
 11
-187.0457946530137
 21
225.9712679615512
 31
0.0
  0
LINE
  5
792
  8
0
  6
CONTINUOUS
 62
     7
 10
-187.0457946530137
 20
225.9712679615512
 30
0.0
 11
-187.0874796115125
 21
226.0427764906712
 31
0.0
  0
LINE
  5
793
  8
0
  6
CONTINUOUS
 62
     7
 10
-187.0874796115125
 20
226.0427764906712
 30
0.0
 11
-187.1322876753716
 21
226.1127963950772
 31
0.0
  0
LINE
  5
794
  8
0
  6
CONTINUOUS
 62
     7
 10
-187.1322876753716
 20
226.1127963950772
 30
0.0
 11
-187.1799657116429
 21
226.180894852138
 31
0.0
  0
LINE
  5
795
  8
0
  6
CONTINUOUS
 62
     7
 10
-187.1799657116429
 20
226.180894852138
 30
0.0
 11
-187.2306584253593
 21
226.2472352860837
 31
0.0
  0
LINE
  5
796
  8
0
  6
CONTINUOUS
 62
     7
 10
-187.2306584253593
 20
226.2472352860837
 30
0.0
 11
-187.2836022076598
 21
226.310856653024
 31
0.0
  0
LINE
  5
797
  8
0
  6
CONTINUOUS
 62
     7
 10
-187.2836022076598
 20
226.310856653024
 30
0.0
 11
-187.3393795138578
 21
226.3724931695292
 31
0.0
  0
LINE
  5
798
  8
0
  6
CONTINUOUS
 62
     7
 10
-187.3393795138578
 20
226.3724931695292
 30
0.0
 11
-187.3976690781833
 21
226.4317598866265
 31
0.0
  0
LINE
  5
799
  8
0
  6
CONTINUOUS
 62
     7
 10
-187.3976690781833
 20
226.4317598866265
 30
0.0
 11
-187.4586406542802
 21
226.4887940204939
 31
0.0
  0
LINE
  5
79A
  8
0
  6
CONTINUOUS
 62
     7
 10
-187.4586406542802
 20
226.4887940204939
 30
0.0
 11
-187.521382081228
 21
226.542774139266
 31
0.0
  0
LINE
  5
79B
  8
0
  6
CONTINUOUS
 62
     7
 10
-187.521382081228
 20
226.542774139266
 30
0.0
 11
-187.5865893266286
 21
226.5943279651895
 31
0.0
  0
LINE
  5
79C
  8
0
  6
CONTINUOUS
 62
     7
 10
-187.5865893266286
 20
226.5943279651895
 30
0.0
 11
-187.6538818548452
 21
226.643129038146
 31
0.0
  0
LINE
  5
79D
  8
0
  6
CONTINUOUS
 62
     7
 10
-187.6538818548452
 20
226.643129038146
 30
0.0
 11
-187.7234497811153
 21
226.6892845865752
 31
0.0
  0
LINE
  5
79E
  8
0
  6
CONTINUOUS
 62
     7
 10
-187.7234497811153
 20
226.6892845865752
 30
0.0
 11
-187.7942578772349
 21
226.7321356462972
 31
0.0
  0
LINE
  5
79F
  8
0
  6
CONTINUOUS
 62
     7
 10
-187.7942578772349
 20
226.7321356462972
 30
0.0
 11
-187.8670961191167
 21
226.7721859113539
 31
0.0
  0
LINE
  5
7A0
  8
0
  6
CONTINUOUS
 62
     7
 10
-187.8670961191167
 20
226.7721859113539
 30
0.0
 11
-187.9415351976479
 21
226.8091764117841
 31
0.0
  0
LINE
  5
7A1
  8
0
  6
CONTINUOUS
 62
     7
 10
-187.9415351976479
 20
226.8091764117841
 30
0.0
 11
-188.0177803440062
 21
226.8431814374871
 31
0.0
  0
LINE
  5
7A2
  8
0
  6
CONTINUOUS
 62
     7
 10
-188.0177803440062
 20
226.8431814374871
 30
0.0
 11
-188.0947021974702
 21
226.8737226862241
 31
0.0
  0
LINE
  5
7A3
  8
0
  6
CONTINUOUS
 62
     7
 10
-188.0947021974702
 20
226.8737226862241
 30
0.0
 11
-188.1731625775536
 21
226.901165885144
 31
0.0
  0
LINE
  5
7A4
  8
0
  6
CONTINUOUS
 62
     7
 10
-188.1731625775536
 20
226.901165885144
 30
0.0
 11
-188.2526952418222
 21
226.9253266942969
 31
0.0
  0
LINE
  5
7A5
  8
0
  6
CONTINUOUS
 62
     7
 10
-188.2526952418222
 20
226.9253266942969
 30
0.0
 11
-188.3335148782737
 21
226.9462444228771
 31
0.0
  0
LINE
  5
7A6
  8
0
  6
CONTINUOUS
 62
     7
 10
-188.3335148782737
 20
226.9462444228771
 30
0.0
 11
-188.3897573099558
 21
226.9587023954136
 31
0.0
  0
LINE
  5
7A7
  8
0
  6
CONTINUOUS
 62
     7
 10
-188.3897573099558
 20
226.9587023954136
 30
0.0
 11
-188.446335190519
 21
226.9695357748804
 31
0.0
  0
LINE
  5
7A8
  8
0
  6
CONTINUOUS
 62
     7
 10
-188.446335190519
 20
226.9695357748804
 30
0.0
 11
-188.5033919910801
 21
226.9787628570964
 31
0.0
  0
LINE
  5
7A9
  8
0
  6
CONTINUOUS
 62
     7
 10
-188.5033919910801
 20
226.9787628570964
 30
0.0
 11
-188.5606915871178
 21
226.9863377223288
 31
0.0
  0
LINE
  5
7AA
  8
0
  6
CONTINUOUS
 62
     7
 10
-188.5606915871178
 20
226.9863377223288
 30
0.0
 11
-188.6187747528842
 21
226.9923052287512
 31
0.0
  0
LINE
  5
7AB
  8
0
  6
CONTINUOUS
 62
     7
 10
-188.6187747528842
 20
226.9923052287512
 30
0.0
 11
-188.6770073644632
 21
226.9965750299912
 31
0.0
  0
LINE
  5
7AC
  8
0
  6
CONTINUOUS
 62
     7
 10
-188.6770073644632
 20
226.9965750299912
 30
0.0
 11
-188.7355400638224
 21
226.9991486350669
 31
0.0
  0
LINE
  5
7AD
  8
0
  6
CONTINUOUS
 62
     7
 10
-188.7355400638224
 20
226.9991486350669
 30
0.0
 11
-188.7941230354464
 21
227.0000069944676
 31
0.0
  0
LINE
  5
7AE
  8
0
  6
CONTINUOUS
 62
   253
 10
-210.7941230354464
 20
227.523160847596
 30
0.0
 11
-210.7941230354464
 21
227.0000069944676
 31
0.0
  0
LINE
  5
7AF
  8
0
  6
CONTINUOUS
 62
     7
 10
-208.8245075252724
 20
225.3473033369648
 30
0.0
 11
-208.8405645348639
 21
225.4285034245059
 31
0.0
  0
LINE
  5
7B0
  8
0
  6
CONTINUOUS
 62
     7
 10
-208.8405645348639
 20
225.4285034245059
 30
0.0
 11
-208.8600038651773
 21
225.5091072198281
 31
0.0
  0
LINE
  5
7B1
  8
0
  6
CONTINUOUS
 62
     7
 10
-208.8600038651773
 20
225.5091072198281
 30
0.0
 11
-208.8828946194092
 21
225.5892488333476
 31
0.0
  0
LINE
  5
7B2
  8
0
  6
CONTINUOUS
 62
     7
 10
-208.8828946194092
 20
225.5892488333476
 30
0.0
 11
-208.9091531227654
 21
225.6685041374024
 31
0.0
  0
LINE
  5
7B3
  8
0
  6
CONTINUOUS
 62
     7
 10
-208.9091531227654
 20
225.6685041374024
 30
0.0
 11
-208.9384283178066
 21
225.7459273091145
 31
0.0
  0
LINE
  5
7B4
  8
0
  6
CONTINUOUS
 62
     7
 10
-208.9384283178066
 20
225.7459273091145
 30
0.0
 11
-208.971030035086
 21
225.8223991927688
 31
0.0
  0
LINE
  5
7B5
  8
0
  6
CONTINUOUS
 62
     7
 10
-208.971030035086
 20
225.8223991927688
 30
0.0
 11
-209.0067802611954
 21
225.8974510355119
 31
0.0
  0
LINE
  5
7B6
  8
0
  6
CONTINUOUS
 62
     7
 10
-209.0067802611954
 20
225.8974510355119
 30
0.0
 11
-209.0457946530138
 21
225.9712679615512
 31
0.0
  0
LINE
  5
7B7
  8
0
  6
CONTINUOUS
 62
     7
 10
-209.0457946530138
 20
225.9712679615512
 30
0.0
 11
-209.0874796115125
 21
226.0427764906712
 31
0.0
  0
LINE
  5
7B8
  8
0
  6
CONTINUOUS
 62
     7
 10
-209.0874796115125
 20
226.0427764906712
 30
0.0
 11
-209.1322876753716
 21
226.1127963950772
 31
0.0
  0
LINE
  5
7B9
  8
0
  6
CONTINUOUS
 62
     7
 10
-209.1322876753716
 20
226.1127963950772
 30
0.0
 11
-209.1799657116429
 21
226.180894852138
 31
0.0
  0
LINE
  5
7BA
  8
0
  6
CONTINUOUS
 62
     7
 10
-209.1799657116429
 20
226.180894852138
 30
0.0
 11
-209.2306584253594
 21
226.2472352860837
 31
0.0
  0
LINE
  5
7BB
  8
0
  6
CONTINUOUS
 62
     7
 10
-209.2306584253594
 20
226.2472352860837
 30
0.0
 11
-209.2836022076598
 21
226.310856653024
 31
0.0
  0
LINE
  5
7BC
  8
0
  6
CONTINUOUS
 62
     7
 10
-209.2836022076598
 20
226.310856653024
 30
0.0
 11
-209.3393795138578
 21
226.3724931695292
 31
0.0
  0
LINE
  5
7BD
  8
0
  6
CONTINUOUS
 62
     7
 10
-209.3393795138578
 20
226.3724931695292
 30
0.0
 11
-209.3976690781834
 21
226.4317598866265
 31
0.0
  0
LINE
  5
7BE
  8
0
  6
CONTINUOUS
 62
     7
 10
-209.3976690781834
 20
226.4317598866265
 30
0.0
 11
-209.4586406542802
 21
226.4887940204939
 31
0.0
  0
LINE
  5
7BF
  8
0
  6
CONTINUOUS
 62
     7
 10
-209.4586406542802
 20
226.4887940204939
 30
0.0
 11
-209.5213820812285
 21
226.542774139266
 31
0.0
  0
LINE
  5
7C0
  8
0
  6
CONTINUOUS
 62
     7
 10
-209.5213820812285
 20
226.542774139266
 30
0.0
 11
-209.5865893266287
 21
226.5943279651895
 31
0.0
  0
LINE
  5
7C1
  8
0
  6
CONTINUOUS
 62
     7
 10
-209.5865893266287
 20
226.5943279651895
 30
0.0
 11
-209.6538818548452
 21
226.643129038146
 31
0.0
  0
LINE
  5
7C2
  8
0
  6
CONTINUOUS
 62
     7
 10
-209.6538818548452
 20
226.643129038146
 30
0.0
 11
-209.7234497811153
 21
226.6892845865752
 31
0.0
  0
LINE
  5
7C3
  8
0
  6
CONTINUOUS
 62
     7
 10
-209.7234497811153
 20
226.6892845865752
 30
0.0
 11
-209.7942578772349
 21
226.7321356462972
 31
0.0
  0
LINE
  5
7C4
  8
0
  6
CONTINUOUS
 62
     7
 10
-209.7942578772349
 20
226.7321356462972
 30
0.0
 11
-209.8670961191167
 21
226.7721859113539
 31
0.0
  0
LINE
  5
7C5
  8
0
  6
CONTINUOUS
 62
     7
 10
-209.8670961191167
 20
226.7721859113539
 30
0.0
 11
-209.9415351976479
 21
226.8091764117841
 31
0.0
  0
LINE
  5
7C6
  8
0
  6
CONTINUOUS
 62
     7
 10
-209.9415351976479
 20
226.8091764117841
 30
0.0
 11
-210.0177803440058
 21
226.8431814374871
 31
0.0
  0
LINE
  5
7C7
  8
0
  6
CONTINUOUS
 62
     7
 10
-210.0177803440058
 20
226.8431814374871
 30
0.0
 11
-210.0947021974702
 21
226.8737226862241
 31
0.0
  0
LINE
  5
7C8
  8
0
  6
CONTINUOUS
 62
     7
 10
-210.0947021974702
 20
226.8737226862241
 30
0.0
 11
-210.1731625775536
 21
226.901165885144
 31
0.0
  0
LINE
  5
7C9
  8
0
  6
CONTINUOUS
 62
     7
 10
-210.1731625775536
 20
226.901165885144
 30
0.0
 11
-210.2526952418218
 21
226.9253266942969
 31
0.0
  0
LINE
  5
7CA
  8
0
  6
CONTINUOUS
 62
     7
 10
-210.2526952418218
 20
226.9253266942969
 30
0.0
 11
-210.3335148782737
 21
226.9462444228771
 31
0.0
  0
LINE
  5
7CB
  8
0
  6
CONTINUOUS
 62
     7
 10
-210.3335148782737
 20
226.9462444228771
 30
0.0
 11
-210.3897573099558
 21
226.9587023954136
 31
0.0
  0
LINE
  5
7CC
  8
0
  6
CONTINUOUS
 62
     7
 10
-210.3897573099558
 20
226.9587023954136
 30
0.0
 11
-210.4463351905192
 21
226.9695357748804
 31
0.0
  0
LINE
  5
7CD
  8
0
  6
CONTINUOUS
 62
     7
 10
-210.4463351905192
 20
226.9695357748804
 30
0.0
 11
-210.5033919910797
 21
226.9787628570964
 31
0.0
  0
LINE
  5
7CE
  8
0
  6
CONTINUOUS
 62
     7
 10
-210.5033919910797
 20
226.9787628570964
 30
0.0
 11
-210.5606915871183
 21
226.9863377223288
 31
0.0
  0
LINE
  5
7CF
  8
0
  6
CONTINUOUS
 62
     7
 10
-210.5606915871183
 20
226.9863377223288
 30
0.0
 11
-210.6187747528843
 21
226.9923052287512
 31
0.0
  0
LINE
  5
7D0
  8
0
  6
CONTINUOUS
 62
     7
 10
-210.6187747528843
 20
226.9923052287512
 30
0.0
 11
-210.6770073644633
 21
226.9965750299912
 31
0.0
  0
LINE
  5
7D1
  8
0
  6
CONTINUOUS
 62
     7
 10
-210.6770073644633
 20
226.9965750299912
 30
0.0
 11
-210.7355400638224
 21
226.9991486350669
 31
0.0
  0
LINE
  5
7D2
  8
0
  6
CONTINUOUS
 62
     7
 10
-210.7355400638224
 20
226.9991486350669
 30
0.0
 11
-210.7941230354464
 21
227.0000069944676
 31
0.0
  0
LINE
  5
7D3
  8
0
  6
CONTINUOUS
 62
   253
 10
-166.7941230354464
 20
227.523160847596
 30
0.0
 11
-166.7941230354464
 21
227.0000069944676
 31
0.0
  0
LINE
  5
7D4
  8
0
  6
CONTINUOUS
 62
     7
 10
-164.8245075252723
 20
225.3473033369648
 30
0.0
 11
-164.8405645348638
 21
225.4285034245059
 31
0.0
  0
LINE
  5
7D5
  8
0
  6
CONTINUOUS
 62
     7
 10
-164.8405645348638
 20
225.4285034245059
 30
0.0
 11
-164.8600038651771
 21
225.5091072198281
 31
0.0
  0
LINE
  5
7D6
  8
0
  6
CONTINUOUS
 62
     7
 10
-164.8600038651771
 20
225.5091072198281
 30
0.0
 11
-164.8828946194087
 21
225.5892488333476
 31
0.0
  0
LINE
  5
7D7
  8
0
  6
CONTINUOUS
 62
     7
 10
-164.8828946194087
 20
225.5892488333476
 30
0.0
 11
-164.9091531227658
 21
225.6685041374024
 31
0.0
  0
LINE
  5
7D8
  8
0
  6
CONTINUOUS
 62
     7
 10
-164.9091531227658
 20
225.6685041374024
 30
0.0
 11
-164.9384283178066
 21
225.7459273091145
 31
0.0
  0
LINE
  5
7D9
  8
0
  6
CONTINUOUS
 62
     7
 10
-164.9384283178066
 20
225.7459273091145
 30
0.0
 11
-164.9710300350857
 21
225.8223991927688
 31
0.0
  0
LINE
  5
7DA
  8
0
  6
CONTINUOUS
 62
     7
 10
-164.9710300350857
 20
225.8223991927688
 30
0.0
 11
-165.0067802611954
 21
225.8974510355119
 31
0.0
  0
LINE
  5
7DB
  8
0
  6
CONTINUOUS
 62
     7
 10
-165.0067802611954
 20
225.8974510355119
 30
0.0
 11
-165.0457946530137
 21
225.9712679615512
 31
0.0
  0
LINE
  5
7DC
  8
0
  6
CONTINUOUS
 62
     7
 10
-165.0457946530137
 20
225.9712679615512
 30
0.0
 11
-165.0874796115125
 21
226.0427764906712
 31
0.0
  0
LINE
  5
7DD
  8
0
  6
CONTINUOUS
 62
     7
 10
-165.0874796115125
 20
226.0427764906712
 30
0.0
 11
-165.1322876753713
 21
226.1127963950772
 31
0.0
  0
LINE
  5
7DE
  8
0
  6
CONTINUOUS
 62
     7
 10
-165.1322876753713
 20
226.1127963950772
 30
0.0
 11
-165.1799657116428
 21
226.180894852138
 31
0.0
  0
LINE
  5
7DF
  8
0
  6
CONTINUOUS
 62
     7
 10
-165.1799657116428
 20
226.180894852138
 30
0.0
 11
-165.2306584253593
 21
226.2472352860837
 31
0.0
  0
LINE
  5
7E0
  8
0
  6
CONTINUOUS
 62
     7
 10
-165.2306584253593
 20
226.2472352860837
 30
0.0
 11
-165.28360220766
 21
226.310856653024
 31
0.0
  0
LINE
  5
7E1
  8
0
  6
CONTINUOUS
 62
     7
 10
-165.28360220766
 20
226.310856653024
 30
0.0
 11
-165.3393795138578
 21
226.3724931695292
 31
0.0
  0
LINE
  5
7E2
  8
0
  6
CONTINUOUS
 62
     7
 10
-165.3393795138578
 20
226.3724931695292
 30
0.0
 11
-165.3976690781835
 21
226.4317598866265
 31
0.0
  0
LINE
  5
7E3
  8
0
  6
CONTINUOUS
 62
     7
 10
-165.3976690781835
 20
226.4317598866265
 30
0.0
 11
-165.4586406542802
 21
226.4887940204939
 31
0.0
  0
LINE
  5
7E4
  8
0
  6
CONTINUOUS
 62
     7
 10
-165.4586406542802
 20
226.4887940204939
 30
0.0
 11
-165.5213820812282
 21
226.542774139266
 31
0.0
  0
LINE
  5
7E5
  8
0
  6
CONTINUOUS
 62
     7
 10
-165.5213820812282
 20
226.542774139266
 30
0.0
 11
-165.5865893266286
 21
226.5943279651895
 31
0.0
  0
LINE
  5
7E6
  8
0
  6
CONTINUOUS
 62
     7
 10
-165.5865893266286
 20
226.5943279651895
 30
0.0
 11
-165.6538818548452
 21
226.643129038146
 31
0.0
  0
LINE
  5
7E7
  8
0
  6
CONTINUOUS
 62
     7
 10
-165.6538818548452
 20
226.643129038146
 30
0.0
 11
-165.7234497811153
 21
226.6892845865752
 31
0.0
  0
LINE
  5
7E8
  8
0
  6
CONTINUOUS
 62
     7
 10
-165.7234497811153
 20
226.6892845865752
 30
0.0
 11
-165.7942578772349
 21
226.7321356462972
 31
0.0
  0
LINE
  5
7E9
  8
0
  6
CONTINUOUS
 62
     7
 10
-165.7942578772349
 20
226.7321356462972
 30
0.0
 11
-165.8670961191166
 21
226.7721859113539
 31
0.0
  0
LINE
  5
7EA
  8
0
  6
CONTINUOUS
 62
     7
 10
-165.8670961191166
 20
226.7721859113539
 30
0.0
 11
-165.9415351976479
 21
226.8091764117841
 31
0.0
  0
LINE
  5
7EB
  8
0
  6
CONTINUOUS
 62
     7
 10
-165.9415351976479
 20
226.8091764117841
 30
0.0
 11
-166.0177803440062
 21
226.8431814374871
 31
0.0
  0
LINE
  5
7EC
  8
0
  6
CONTINUOUS
 62
     7
 10
-166.0177803440062
 20
226.8431814374871
 30
0.0
 11
-166.0947021974701
 21
226.8737226862241
 31
0.0
  0
LINE
  5
7ED
  8
0
  6
CONTINUOUS
 62
     7
 10
-166.0947021974701
 20
226.8737226862241
 30
0.0
 11
-166.1731625775535
 21
226.901165885144
 31
0.0
  0
LINE
  5
7EE
  8
0
  6
CONTINUOUS
 62
     7
 10
-166.1731625775535
 20
226.901165885144
 30
0.0
 11
-166.2526952418222
 21
226.9253266942969
 31
0.0
  0
LINE
  5
7EF
  8
0
  6
CONTINUOUS
 62
     7
 10
-166.2526952418222
 20
226.9253266942969
 30
0.0
 11
-166.3335148782736
 21
226.9462444228771
 31
0.0
  0
LINE
  5
7F0
  8
0
  6
CONTINUOUS
 62
     7
 10
-166.3335148782736
 20
226.9462444228771
 30
0.0
 11
-166.3897573099557
 21
226.9587023954136
 31
0.0
  0
LINE
  5
7F1
  8
0
  6
CONTINUOUS
 62
     7
 10
-166.3897573099557
 20
226.9587023954136
 30
0.0
 11
-166.446335190519
 21
226.9695357748804
 31
0.0
  0
LINE
  5
7F2
  8
0
  6
CONTINUOUS
 62
     7
 10
-166.446335190519
 20
226.9695357748804
 30
0.0
 11
-166.5033919910801
 21
226.9787628570964
 31
0.0
  0
LINE
  5
7F3
  8
0
  6
CONTINUOUS
 62
     7
 10
-166.5033919910801
 20
226.9787628570964
 30
0.0
 11
-166.5606915871178
 21
226.9863377223288
 31
0.0
  0
LINE
  5
7F4
  8
0
  6
CONTINUOUS
 62
     7
 10
-166.5606915871178
 20
226.9863377223288
 30
0.0
 11
-166.6187747528842
 21
226.9923052287512
 31
0.0
  0
LINE
  5
7F5
  8
0
  6
CONTINUOUS
 62
     7
 10
-166.6187747528842
 20
226.9923052287512
 30
0.0
 11
-166.6770073644632
 21
226.9965750299912
 31
0.0
  0
LINE
  5
7F6
  8
0
  6
CONTINUOUS
 62
     7
 10
-166.6770073644632
 20
226.9965750299912
 30
0.0
 11
-166.7355400638224
 21
226.9991486350669
 31
0.0
  0
LINE
  5
7F7
  8
0
  6
CONTINUOUS
 62
     7
 10
-166.7355400638224
 20
226.9991486350669
 30
0.0
 11
-166.7941230354464
 21
227.0000069944676
 31
0.0
  0
LINE
  5
7F8
  8
0
  6
CONTINUOUS
 62
   253
 10
-144.7941230354466
 20
227.523160847596
 30
0.0
 11
-144.7941230354466
 21
227.0000069944676
 31
0.0
  0
LINE
  5
7F9
  8
0
  6
CONTINUOUS
 62
     7
 10
-142.8245075252725
 20
225.3473033369648
 30
0.0
 11
-142.8405645348636
 21
225.4285034245059
 31
0.0
  0
LINE
  5
7FA
  8
0
  6
CONTINUOUS
 62
     7
 10
-142.8405645348636
 20
225.4285034245059
 30
0.0
 11
-142.860003865177
 21
225.5091072198281
 31
0.0
  0
LINE
  5
7FB
  8
0
  6
CONTINUOUS
 62
     7
 10
-142.860003865177
 20
225.5091072198281
 30
0.0
 11
-142.8828946194094
 21
225.5892488333476
 31
0.0
  0
LINE
  5
7FC
  8
0
  6
CONTINUOUS
 62
     7
 10
-142.8828946194094
 20
225.5892488333476
 30
0.0
 11
-142.9091531227653
 21
225.6685041374024
 31
0.0
  0
LINE
  5
7FD
  8
0
  6
CONTINUOUS
 62
     7
 10
-142.9091531227653
 20
225.6685041374024
 30
0.0
 11
-142.9384283178066
 21
225.7459273091145
 31
0.0
  0
LINE
  5
7FE
  8
0
  6
CONTINUOUS
 62
     7
 10
-142.9384283178066
 20
225.7459273091145
 30
0.0
 11
-142.9710300350862
 21
225.8223991927688
 31
0.0
  0
LINE
  5
7FF
  8
0
  6
CONTINUOUS
 62
     7
 10
-142.9710300350862
 20
225.8223991927688
 30
0.0
 11
-143.0067802611954
 21
225.8974510355119
 31
0.0
  0
LINE
  5
800
  8
0
  6
CONTINUOUS
 62
     7
 10
-143.0067802611954
 20
225.8974510355119
 30
0.0
 11
-143.0457946530137
 21
225.9712679615512
 31
0.0
  0
LINE
  5
801
  8
0
  6
CONTINUOUS
 62
     7
 10
-143.0457946530137
 20
225.9712679615512
 30
0.0
 11
-143.0874796115125
 21
226.0427764906712
 31
0.0
  0
LINE
  5
802
  8
0
  6
CONTINUOUS
 62
     7
 10
-143.0874796115125
 20
226.0427764906712
 30
0.0
 11
-143.1322876753718
 21
226.1127963950772
 31
0.0
  0
LINE
  5
803
  8
0
  6
CONTINUOUS
 62
     7
 10
-143.1322876753718
 20
226.1127963950772
 30
0.0
 11
-143.179965711643
 21
226.180894852138
 31
0.0
  0
LINE
  5
804
  8
0
  6
CONTINUOUS
 62
     7
 10
-143.179965711643
 20
226.180894852138
 30
0.0
 11
-143.2306584253593
 21
226.2472352860837
 31
0.0
  0
LINE
  5
805
  8
0
  6
CONTINUOUS
 62
     7
 10
-143.2306584253593
 20
226.2472352860837
 30
0.0
 11
-143.2836022076602
 21
226.310856653024
 31
0.0
  0
LINE
  5
806
  8
0
  6
CONTINUOUS
 62
     7
 10
-143.2836022076602
 20
226.310856653024
 30
0.0
 11
-143.3393795138578
 21
226.3724931695292
 31
0.0
  0
LINE
  5
807
  8
0
  6
CONTINUOUS
 62
     7
 10
-143.3393795138578
 20
226.3724931695292
 30
0.0
 11
-143.3976690781838
 21
226.4317598866265
 31
0.0
  0
LINE
  5
808
  8
0
  6
CONTINUOUS
 62
     7
 10
-143.3976690781838
 20
226.4317598866265
 30
0.0
 11
-143.4586406542801
 21
226.4887940204939
 31
0.0
  0
LINE
  5
809
  8
0
  6
CONTINUOUS
 62
     7
 10
-143.4586406542801
 20
226.4887940204939
 30
0.0
 11
-143.5213820812282
 21
226.542774139266
 31
0.0
  0
LINE
  5
80A
  8
0
  6
CONTINUOUS
 62
     7
 10
-143.5213820812282
 20
226.542774139266
 30
0.0
 11
-143.5865893266286
 21
226.5943279651895
 31
0.0
  0
LINE
  5
80B
  8
0
  6
CONTINUOUS
 62
     7
 10
-143.5865893266286
 20
226.5943279651895
 30
0.0
 11
-143.6538818548454
 21
226.643129038146
 31
0.0
  0
LINE
  5
80C
  8
0
  6
CONTINUOUS
 62
     7
 10
-143.6538818548454
 20
226.643129038146
 30
0.0
 11
-143.7234497811151
 21
226.6892845865752
 31
0.0
  0
LINE
  5
80D
  8
0
  6
CONTINUOUS
 62
     7
 10
-143.7234497811151
 20
226.6892845865752
 30
0.0
 11
-143.7942578772349
 21
226.7321356462972
 31
0.0
  0
LINE
  5
80E
  8
0
  6
CONTINUOUS
 62
     7
 10
-143.7942578772349
 20
226.7321356462972
 30
0.0
 11
-143.8670961191164
 21
226.7721859113539
 31
0.0
  0
LINE
  5
80F
  8
0
  6
CONTINUOUS
 62
     7
 10
-143.8670961191164
 20
226.7721859113539
 30
0.0
 11
-143.9415351976476
 21
226.8091764117841
 31
0.0
  0
LINE
  5
810
  8
0
  6
CONTINUOUS
 62
     7
 10
-143.9415351976476
 20
226.8091764117841
 30
0.0
 11
-144.0177803440061
 21
226.8431814374871
 31
0.0
  0
LINE
  5
811
  8
0
  6
CONTINUOUS
 62
     7
 10
-144.0177803440061
 20
226.8431814374871
 30
0.0
 11
-144.0947021974701
 21
226.8737226862241
 31
0.0
  0
LINE
  5
812
  8
0
  6
CONTINUOUS
 62
     7
 10
-144.0947021974701
 20
226.8737226862241
 30
0.0
 11
-144.1731625775533
 21
226.901165885144
 31
0.0
  0
LINE
  5
813
  8
0
  6
CONTINUOUS
 62
     7
 10
-144.1731625775533
 20
226.901165885144
 30
0.0
 11
-144.2526952418222
 21
226.9253266942969
 31
0.0
  0
LINE
  5
814
  8
0
  6
CONTINUOUS
 62
     7
 10
-144.2526952418222
 20
226.9253266942969
 30
0.0
 11
-144.3335148782738
 21
226.9462444228771
 31
0.0
  0
LINE
  5
815
  8
0
  6
CONTINUOUS
 62
     7
 10
-144.3335148782738
 20
226.9462444228771
 30
0.0
 11
-144.3897573099557
 21
226.9587023954136
 31
0.0
  0
LINE
  5
816
  8
0
  6
CONTINUOUS
 62
     7
 10
-144.3897573099557
 20
226.9587023954136
 30
0.0
 11
-144.4463351905194
 21
226.9695357748804
 31
0.0
  0
LINE
  5
817
  8
0
  6
CONTINUOUS
 62
     7
 10
-144.4463351905194
 20
226.9695357748804
 30
0.0
 11
-144.5033919910801
 21
226.9787628570964
 31
0.0
  0
LINE
  5
818
  8
0
  6
CONTINUOUS
 62
     7
 10
-144.5033919910801
 20
226.9787628570964
 30
0.0
 11
-144.5606915871178
 21
226.9863377223288
 31
0.0
  0
LINE
  5
819
  8
0
  6
CONTINUOUS
 62
     7
 10
-144.5606915871178
 20
226.9863377223288
 30
0.0
 11
-144.618774752884
 21
226.9923052287512
 31
0.0
  0
LINE
  5
81A
  8
0
  6
CONTINUOUS
 62
     7
 10
-144.618774752884
 20
226.9923052287512
 30
0.0
 11
-144.6770073644632
 21
226.9965750299912
 31
0.0
  0
LINE
  5
81B
  8
0
  6
CONTINUOUS
 62
     7
 10
-144.6770073644632
 20
226.9965750299912
 30
0.0
 11
-144.7355400638226
 21
226.9991486350669
 31
0.0
  0
LINE
  5
81C
  8
0
  6
CONTINUOUS
 62
     7
 10
-144.7355400638226
 20
226.9991486350669
 30
0.0
 11
-144.7941230354466
 21
227.0000069944676
 31
0.0
  0
LINE
  5
81D
  8
0
  6
CONTINUOUS
 62
   253
 10
-254.7941230354465
 20
227.523160847596
 30
0.0
 11
-254.7941230354465
 21
227.0000069944676
 31
0.0
  0
LINE
  5
81E
  8
0
  6
CONTINUOUS
 62
     7
 10
-252.8245075252724
 20
225.3473033369648
 30
0.0
 11
-252.8405645348635
 21
225.4285034245059
 31
0.0
  0
LINE
  5
81F
  8
0
  6
CONTINUOUS
 62
     7
 10
-252.8405645348635
 20
225.4285034245059
 30
0.0
 11
-252.8600038651774
 21
225.5091072198281
 31
0.0
  0
LINE
  5
820
  8
0
  6
CONTINUOUS
 62
     7
 10
-252.8600038651774
 20
225.5091072198281
 30
0.0
 11
-252.8828946194093
 21
225.5892488333476
 31
0.0
  0
LINE
  5
821
  8
0
  6
CONTINUOUS
 62
     7
 10
-252.8828946194093
 20
225.5892488333476
 30
0.0
 11
-252.9091531227654
 21
225.6685041374024
 31
0.0
  0
LINE
  5
822
  8
0
  6
CONTINUOUS
 62
     7
 10
-252.9091531227654
 20
225.6685041374024
 30
0.0
 11
-252.9384283178067
 21
225.7459273091145
 31
0.0
  0
LINE
  5
823
  8
0
  6
CONTINUOUS
 62
     7
 10
-252.9384283178067
 20
225.7459273091145
 30
0.0
 11
-252.971030035086
 21
225.8223991927688
 31
0.0
  0
LINE
  5
824
  8
0
  6
CONTINUOUS
 62
     7
 10
-252.971030035086
 20
225.8223991927688
 30
0.0
 11
-253.0067802611953
 21
225.8974510355119
 31
0.0
  0
LINE
  5
825
  8
0
  6
CONTINUOUS
 62
     7
 10
-253.0067802611953
 20
225.8974510355119
 30
0.0
 11
-253.0457946530138
 21
225.9712679615512
 31
0.0
  0
LINE
  5
826
  8
0
  6
CONTINUOUS
 62
     7
 10
-253.0457946530138
 20
225.9712679615512
 30
0.0
 11
-253.0874796115125
 21
226.0427764906712
 31
0.0
  0
LINE
  5
827
  8
0
  6
CONTINUOUS
 62
     7
 10
-253.0874796115125
 20
226.0427764906712
 30
0.0
 11
-253.1322876753717
 21
226.1127963950772
 31
0.0
  0
LINE
  5
828
  8
0
  6
CONTINUOUS
 62
     7
 10
-253.1322876753717
 20
226.1127963950772
 30
0.0
 11
-253.1799657116425
 21
226.180894852138
 31
0.0
  0
LINE
  5
829
  8
0
  6
CONTINUOUS
 62
     7
 10
-253.1799657116425
 20
226.180894852138
 30
0.0
 11
-253.2306584253594
 21
226.2472352860837
 31
0.0
  0
LINE
  5
82A
  8
0
  6
CONTINUOUS
 62
     7
 10
-253.2306584253594
 20
226.2472352860837
 30
0.0
 11
-253.2836022076599
 21
226.310856653024
 31
0.0
  0
LINE
  5
82B
  8
0
  6
CONTINUOUS
 62
     7
 10
-253.2836022076599
 20
226.310856653024
 30
0.0
 11
-253.3393795138574
 21
226.3724931695292
 31
0.0
  0
LINE
  5
82C
  8
0
  6
CONTINUOUS
 62
     7
 10
-253.3393795138574
 20
226.3724931695292
 30
0.0
 11
-253.3976690781834
 21
226.4317598866265
 31
0.0
  0
LINE
  5
82D
  8
0
  6
CONTINUOUS
 62
     7
 10
-253.3976690781834
 20
226.4317598866265
 30
0.0
 11
-253.4586406542803
 21
226.4887940204939
 31
0.0
  0
LINE
  5
82E
  8
0
  6
CONTINUOUS
 62
     7
 10
-253.4586406542803
 20
226.4887940204939
 30
0.0
 11
-253.5213820812285
 21
226.542774139266
 31
0.0
  0
LINE
  5
82F
  8
0
  6
CONTINUOUS
 62
     7
 10
-253.5213820812285
 20
226.542774139266
 30
0.0
 11
-253.5865893266285
 21
226.5943279651895
 31
0.0
  0
LINE
  5
830
  8
0
  6
CONTINUOUS
 62
     7
 10
-253.5865893266285
 20
226.5943279651895
 30
0.0
 11
-253.6538818548453
 21
226.643129038146
 31
0.0
  0
LINE
  5
831
  8
0
  6
CONTINUOUS
 62
     7
 10
-253.6538818548453
 20
226.643129038146
 30
0.0
 11
-253.7234497811149
 21
226.6892845865752
 31
0.0
  0
LINE
  5
832
  8
0
  6
CONTINUOUS
 62
     7
 10
-253.7234497811149
 20
226.6892845865752
 30
0.0
 11
-253.7942578772352
 21
226.7321356462972
 31
0.0
  0
LINE
  5
833
  8
0
  6
CONTINUOUS
 62
     7
 10
-253.7942578772352
 20
226.7321356462972
 30
0.0
 11
-253.8670961191165
 21
226.7721859113539
 31
0.0
  0
LINE
  5
834
  8
0
  6
CONTINUOUS
 62
     7
 10
-253.8670961191165
 20
226.7721859113539
 30
0.0
 11
-253.9415351976477
 21
226.8091764117841
 31
0.0
  0
LINE
  5
835
  8
0
  6
CONTINUOUS
 62
     7
 10
-253.9415351976477
 20
226.8091764117841
 30
0.0
 11
-254.0177803440058
 21
226.8431814374871
 31
0.0
  0
LINE
  5
836
  8
0
  6
CONTINUOUS
 62
     7
 10
-254.0177803440058
 20
226.8431814374871
 30
0.0
 11
-254.0947021974702
 21
226.8737226862241
 31
0.0
  0
LINE
  5
837
  8
0
  6
CONTINUOUS
 62
     7
 10
-254.0947021974702
 20
226.8737226862241
 30
0.0
 11
-254.1731625775536
 21
226.901165885144
 31
0.0
  0
LINE
  5
838
  8
0
  6
CONTINUOUS
 62
     7
 10
-254.1731625775536
 20
226.901165885144
 30
0.0
 11
-254.2526952418218
 21
226.9253266942969
 31
0.0
  0
LINE
  5
839
  8
0
  6
CONTINUOUS
 62
     7
 10
-254.2526952418218
 20
226.9253266942969
 30
0.0
 11
-254.3335148782737
 21
226.9462444228771
 31
0.0
  0
LINE
  5
83A
  8
0
  6
CONTINUOUS
 62
     7
 10
-254.3335148782737
 20
226.9462444228771
 30
0.0
 11
-254.3897573099558
 21
226.9587023954136
 31
0.0
  0
LINE
  5
83B
  8
0
  6
CONTINUOUS
 62
     7
 10
-254.3897573099558
 20
226.9587023954136
 30
0.0
 11
-254.4463351905193
 21
226.9695357748804
 31
0.0
  0
LINE
  5
83C
  8
0
  6
CONTINUOUS
 62
     7
 10
-254.4463351905193
 20
226.9695357748804
 30
0.0
 11
-254.5033919910797
 21
226.9787628570964
 31
0.0
  0
LINE
  5
83D
  8
0
  6
CONTINUOUS
 62
     7
 10
-254.5033919910797
 20
226.9787628570964
 30
0.0
 11
-254.5606915871177
 21
226.9863377223288
 31
0.0
  0
LINE
  5
83E
  8
0
  6
CONTINUOUS
 62
     7
 10
-254.5606915871177
 20
226.9863377223288
 30
0.0
 11
-254.6187747528843
 21
226.9923052287512
 31
0.0
  0
LINE
  5
83F
  8
0
  6
CONTINUOUS
 62
     7
 10
-254.6187747528843
 20
226.9923052287512
 30
0.0
 11
-254.6770073644633
 21
226.9965750299912
 31
0.0
  0
LINE
  5
840
  8
0
  6
CONTINUOUS
 62
     7
 10
-254.6770073644633
 20
226.9965750299912
 30
0.0
 11
-254.7355400638223
 21
226.9991486350669
 31
0.0
  0
LINE
  5
841
  8
0
  6
CONTINUOUS
 62
     7
 10
-254.7355400638223
 20
226.9991486350669
 30
0.0
 11
-254.7941230354465
 21
227.0000069944676
 31
0.0
  0
LINE
  5
842
  8
0
  6
CONTINUOUS
 62
   253
 10
-232.7941230354464
 20
227.523160847596
 30
0.0
 11
-232.7941230354464
 21
227.0000069944676
 31
0.0
  0
LINE
  5
843
  8
0
  6
CONTINUOUS
 62
     7
 10
-230.8245075252724
 20
225.3473033369648
 30
0.0
 11
-230.8405645348635
 21
225.4285034245059
 31
0.0
  0
LINE
  5
844
  8
0
  6
CONTINUOUS
 62
     7
 10
-230.8405645348635
 20
225.4285034245059
 30
0.0
 11
-230.8600038651774
 21
225.5091072198281
 31
0.0
  0
LINE
  5
845
  8
0
  6
CONTINUOUS
 62
     7
 10
-230.8600038651774
 20
225.5091072198281
 30
0.0
 11
-230.8828946194093
 21
225.5892488333476
 31
0.0
  0
LINE
  5
846
  8
0
  6
CONTINUOUS
 62
     7
 10
-230.8828946194093
 20
225.5892488333476
 30
0.0
 11
-230.9091531227654
 21
225.6685041374024
 31
0.0
  0
LINE
  5
847
  8
0
  6
CONTINUOUS
 62
     7
 10
-230.9091531227654
 20
225.6685041374024
 30
0.0
 11
-230.9384283178066
 21
225.7459273091145
 31
0.0
  0
LINE
  5
848
  8
0
  6
CONTINUOUS
 62
     7
 10
-230.9384283178066
 20
225.7459273091145
 30
0.0
 11
-230.971030035086
 21
225.8223991927688
 31
0.0
  0
LINE
  5
849
  8
0
  6
CONTINUOUS
 62
     7
 10
-230.971030035086
 20
225.8223991927688
 30
0.0
 11
-231.0067802611952
 21
225.8974510355119
 31
0.0
  0
LINE
  5
84A
  8
0
  6
CONTINUOUS
 62
     7
 10
-231.0067802611952
 20
225.8974510355119
 30
0.0
 11
-231.0457946530138
 21
225.9712679615512
 31
0.0
  0
LINE
  5
84B
  8
0
  6
CONTINUOUS
 62
     7
 10
-231.0457946530138
 20
225.9712679615512
 30
0.0
 11
-231.0874796115125
 21
226.0427764906712
 31
0.0
  0
LINE
  5
84C
  8
0
  6
CONTINUOUS
 62
     7
 10
-231.0874796115125
 20
226.0427764906712
 30
0.0
 11
-231.1322876753716
 21
226.1127963950772
 31
0.0
  0
LINE
  5
84D
  8
0
  6
CONTINUOUS
 62
     7
 10
-231.1322876753716
 20
226.1127963950772
 30
0.0
 11
-231.1799657116424
 21
226.180894852138
 31
0.0
  0
LINE
  5
84E
  8
0
  6
CONTINUOUS
 62
     7
 10
-231.1799657116424
 20
226.180894852138
 30
0.0
 11
-231.2306584253594
 21
226.2472352860837
 31
0.0
  0
LINE
  5
84F
  8
0
  6
CONTINUOUS
 62
     7
 10
-231.2306584253594
 20
226.2472352860837
 30
0.0
 11
-231.2836022076599
 21
226.310856653024
 31
0.0
  0
LINE
  5
850
  8
0
  6
CONTINUOUS
 62
     7
 10
-231.2836022076599
 20
226.310856653024
 30
0.0
 11
-231.3393795138579
 21
226.3724931695292
 31
0.0
  0
LINE
  5
851
  8
0
  6
CONTINUOUS
 62
     7
 10
-231.3393795138579
 20
226.3724931695292
 30
0.0
 11
-231.3976690781834
 21
226.4317598866265
 31
0.0
  0
LINE
  5
852
  8
0
  6
CONTINUOUS
 62
     7
 10
-231.3976690781834
 20
226.4317598866265
 30
0.0
 11
-231.4586406542802
 21
226.4887940204939
 31
0.0
  0
LINE
  5
853
  8
0
  6
CONTINUOUS
 62
     7
 10
-231.4586406542802
 20
226.4887940204939
 30
0.0
 11
-231.5213820812285
 21
226.542774139266
 31
0.0
  0
LINE
  5
854
  8
0
  6
CONTINUOUS
 62
     7
 10
-231.5213820812285
 20
226.542774139266
 30
0.0
 11
-231.5865893266285
 21
226.5943279651895
 31
0.0
  0
LINE
  5
855
  8
0
  6
CONTINUOUS
 62
     7
 10
-231.5865893266285
 20
226.5943279651895
 30
0.0
 11
-231.6538818548453
 21
226.643129038146
 31
0.0
  0
LINE
  5
856
  8
0
  6
CONTINUOUS
 62
     7
 10
-231.6538818548453
 20
226.643129038146
 30
0.0
 11
-231.7234497811149
 21
226.6892845865752
 31
0.0
  0
LINE
  5
857
  8
0
  6
CONTINUOUS
 62
     7
 10
-231.7234497811149
 20
226.6892845865752
 30
0.0
 11
-231.7942578772349
 21
226.7321356462972
 31
0.0
  0
LINE
  5
858
  8
0
  6
CONTINUOUS
 62
     7
 10
-231.7942578772349
 20
226.7321356462972
 30
0.0
 11
-231.8670961191167
 21
226.7721859113539
 31
0.0
  0
LINE
  5
859
  8
0
  6
CONTINUOUS
 62
     7
 10
-231.8670961191167
 20
226.7721859113539
 30
0.0
 11
-231.9415351976479
 21
226.8091764117841
 31
0.0
  0
LINE
  5
85A
  8
0
  6
CONTINUOUS
 62
     7
 10
-231.9415351976479
 20
226.8091764117841
 30
0.0
 11
-232.0177803440058
 21
226.8431814374871
 31
0.0
  0
LINE
  5
85B
  8
0
  6
CONTINUOUS
 62
     7
 10
-232.0177803440058
 20
226.8431814374871
 30
0.0
 11
-232.0947021974702
 21
226.8737226862241
 31
0.0
  0
LINE
  5
85C
  8
0
  6
CONTINUOUS
 62
     7
 10
-232.0947021974702
 20
226.8737226862241
 30
0.0
 11
-232.1731625775536
 21
226.901165885144
 31
0.0
  0
LINE
  5
85D
  8
0
  6
CONTINUOUS
 62
     7
 10
-232.1731625775536
 20
226.901165885144
 30
0.0
 11
-232.2526952418218
 21
226.9253266942969
 31
0.0
  0
LINE
  5
85E
  8
0
  6
CONTINUOUS
 62
     7
 10
-232.2526952418218
 20
226.9253266942969
 30
0.0
 11
-232.3335148782737
 21
226.9462444228771
 31
0.0
  0
LINE
  5
85F
  8
0
  6
CONTINUOUS
 62
     7
 10
-232.3335148782737
 20
226.9462444228771
 30
0.0
 11
-232.3897573099558
 21
226.9587023954136
 31
0.0
  0
LINE
  5
860
  8
0
  6
CONTINUOUS
 62
     7
 10
-232.3897573099558
 20
226.9587023954136
 30
0.0
 11
-232.4463351905193
 21
226.9695357748804
 31
0.0
  0
LINE
  5
861
  8
0
  6
CONTINUOUS
 62
     7
 10
-232.4463351905193
 20
226.9695357748804
 30
0.0
 11
-232.5033919910797
 21
226.9787628570964
 31
0.0
  0
LINE
  5
862
  8
0
  6
CONTINUOUS
 62
     7
 10
-232.5033919910797
 20
226.9787628570964
 30
0.0
 11
-232.5606915871177
 21
226.9863377223288
 31
0.0
  0
LINE
  5
863
  8
0
  6
CONTINUOUS
 62
     7
 10
-232.5606915871177
 20
226.9863377223288
 30
0.0
 11
-232.6187747528843
 21
226.9923052287512
 31
0.0
  0
LINE
  5
864
  8
0
  6
CONTINUOUS
 62
     7
 10
-232.6187747528843
 20
226.9923052287512
 30
0.0
 11
-232.6770073644633
 21
226.9965750299912
 31
0.0
  0
LINE
  5
865
  8
0
  6
CONTINUOUS
 62
     7
 10
-232.6770073644633
 20
226.9965750299912
 30
0.0
 11
-232.7355400638222
 21
226.9991486350669
 31
0.0
  0
LINE
  5
866
  8
0
  6
CONTINUOUS
 62
     7
 10
-232.7355400638222
 20
226.9991486350669
 30
0.0
 11
-232.7941230354464
 21
227.0000069944676
 31
0.0
  0
LINE
  5
867
  8
0
  6
CONTINUOUS
 62
     7
 10
-232.7941230354464
 20
312.9999930675747
 30
0.0
 11
-235.2058769706002
 21
312.9999930700748
 31
0.0
  0
LINE
  5
868
  8
0
  6
CONTINUOUS
 62
     7
 10
-166.7941230354464
 20
312.9999930675747
 30
0.0
 11
-169.2058769706002
 21
312.9999930700748
 31
0.0
  0
LINE
  5
869
  8
0
  6
CONTINUOUS
 62
     7
 10
-124.0000000000001
 20
312.9999930700748
 30
0.0
 11
-125.2058769706001
 21
312.9999930700748
 31
0.0
  0
LINE
  5
86A
  8
0
  6
CONTINUOUS
 62
     7
 10
-124.0000000000001
 20
312.4768313261644
 30
0.0
 11
-124.0000000000001
 21
312.9999930700748
 31
0.0
  0
LINE
  5
86B
  8
0
  6
CONTINUOUS
 62
     7
 10
-144.7941230354466
 20
312.9999930675747
 30
0.0
 11
-147.2058769706002
 21
312.9999930700748
 31
0.0
  0
LINE
  5
86C
  8
0
  6
CONTINUOUS
 62
     7
 10
-210.7941230354464
 20
312.9999930675747
 30
0.0
 11
-213.2058769706002
 21
312.9999930700748
 31
0.0
  0
LINE
  5
86D
  8
0
  6
CONTINUOUS
 62
     7
 10
-254.7941230354465
 20
312.9999930675747
 30
0.0
 11
-256.0000000000002
 21
312.9999930700748
 31
0.0
  0
LINE
  5
86E
  8
0
  6
CONTINUOUS
 62
     7
 10
-256.0000000000002
 20
312.4768313261644
 30
0.0
 11
-256.0000000000002
 21
312.9999930700748
 31
0.0
  0
LINE
  5
86F
  8
0
  6
CONTINUOUS
 62
     7
 10
-188.7941230354464
 20
312.9999930675747
 30
0.0
 11
-191.2058769706002
 21
312.9999930700748
 31
0.0
  0
LINE
  5
870
  8
0
  6
CONTINUOUS
 62
     7
 10
-232.7941230354464
 20
227.0000069944676
 30
0.0
 11
-235.2058769706002
 21
227.0000069919675
 31
0.0
  0
LINE
  5
871
  8
0
  6
CONTINUOUS
 62
     7
 10
-124.0000000000001
 20
227.0000069919675
 30
0.0
 11
-125.2058769706001
 21
227.0000069919675
 31
0.0
  0
LINE
  5
872
  8
0
  6
CONTINUOUS
 62
     7
 10
-124.0000000000001
 20
227.5231608450967
 30
0.0
 11
-124.0000000000001
 21
227.0000069919675
 31
0.0
  0
LINE
  5
873
  8
0
  6
CONTINUOUS
 62
     7
 10
-254.7941230354465
 20
227.0000069944676
 30
0.0
 11
-256.0000000000002
 21
227.0000069919675
 31
0.0
  0
LINE
  5
874
  8
0
  6
CONTINUOUS
 62
     7
 10
-256.0000000000002
 20
227.5231608450967
 30
0.0
 11
-256.0000000000002
 21
227.0000069919675
 31
0.0
  0
LINE
  5
875
  8
0
  6
CONTINUOUS
 62
     7
 10
-166.7941230354464
 20
227.0000069944676
 30
0.0
 11
-169.2058769706002
 21
227.0000069919675
 31
0.0
  0
LINE
  5
876
  8
0
  6
CONTINUOUS
 62
     7
 10
-210.7941230354464
 20
227.0000069944676
 30
0.0
 11
-213.2058769706002
 21
227.0000069919675
 31
0.0
  0
LINE
  5
877
  8
0
  6
CONTINUOUS
 62
     7
 10
-144.7941230354466
 20
227.0000069944676
 30
0.0
 11
-147.2058769706002
 21
227.0000069919675
 31
0.0
  0
LINE
  5
878
  8
0
  6
CONTINUOUS
 62
     7
 10
-188.7941230354464
 20
227.0000069944676
 30
0.0
 11
-191.2058769706002
 21
227.0000069919675
 31
0.0
  0
ARC
  5
879
  8
0
  6
CONTINUOUS
 62
     7
 10
-248.4827011064001
 20
321.9999911262968
 30
0.0
 40
2.999999999999892
 50
89.99999999999991
 51
170.0000000005607
  0
ARC
  5
87A
  8
0
  6
CONTINUOUS
 62
     7
 10
-197.5172988935006
 20
321.9999911261968
 30
0.0
 40
3.000000000000114
 50
9.999999999469873
 51
89.99999999999987
  0
ARC
  5
87B
  8
0
  6
CONTINUOUS
 62
     7
 10
-153.5172988935001
 20
321.9999911261968
 30
0.0
 40
3.000000000000114
 50
9.999999999469873
 51
89.99999999999974
  0
ARC
  5
87C
  8
0
  6
CONTINUOUS
 62
     7
 10
-138.4827011064
 20
321.9999911262968
 30
0.0
 40
3.000000000000114
 50
90.0
 51
170.0000000005607
  0
ARC
  5
87D
  8
0
  6
CONTINUOUS
 62
     7
 10
-241.5172988935001
 20
321.9999911261968
 30
0.0
 40
2.999999999999892
 50
9.999999999469873
 51
89.99999999999987
  0
ARC
  5
87E
  8
0
  6
CONTINUOUS
 62
     7
 10
-182.4827011064003
 20
321.9999911262968
 30
0.0
 40
2.999999999999892
 50
90.0
 51
170.0000000005607
  0
ARC
  5
87F
  8
0
  6
CONTINUOUS
 62
     7
 10
-204.4827011064003
 20
321.9999911262968
 30
0.0
 40
3.000000000000114
 50
90.0
 51
170.0000000005607
  0
ARC
  5
880
  8
0
  6
CONTINUOUS
 62
     7
 10
-219.5172988935001
 20
321.9999911261968
 30
0.0
 40
2.999999999999892
 50
9.999999999469873
 51
89.99999999999982
  0
ARC
  5
881
  8
0
  6
CONTINUOUS
 62
     7
 10
-131.5172988935001
 20
321.9999911261968
 30
0.0
 40
3.000000000000003
 50
9.99999999946991
 51
89.99999999999972
  0
ARC
  5
882
  8
0
  6
CONTINUOUS
 62
     7
 10
-160.4827011064003
 20
321.9999911262968
 30
0.0
 40
3.000000000000114
 50
90.0
 51
170.0000000005607
  0
ARC
  5
883
  8
0
  6
CONTINUOUS
 62
     7
 10
-175.5172988935003
 20
321.9999911261968
 30
0.0
 40
3.000000000000114
 50
9.999999999469873
 51
89.99999999999974
  0
ARC
  5
884
  8
0
  6
CONTINUOUS
 62
     7
 10
-219.5172988935001
 20
218.0000128234036
 30
0.0
 40
2.999999999999892
 50
270.0
 51
350.0000000005293
  0
ARC
  5
885
  8
0
  6
CONTINUOUS
 62
     7
 10
-153.5172988935001
 20
218.0000128234036
 30
0.0
 40
3.000000000000114
 50
270.0
 51
350.0000000005292
  0
ARC
  5
886
  8
0
  6
CONTINUOUS
 62
     7
 10
-175.5172988935003
 20
218.0000128234036
 30
0.0
 40
3.000000000000114
 50
270.0
 51
350.0000000005292
  0
ARC
  5
887
  8
0
  6
CONTINUOUS
 62
     7
 10
-197.5172988935006
 20
218.0000128234036
 30
0.0
 40
3.000000000000114
 50
270.0
 51
350.0000000005292
  0
ARC
  5
888
  8
0
  6
CONTINUOUS
 62
     7
 10
-131.5172988935001
 20
218.0000128234036
 30
0.0
 40
3.000000000000003
 50
270.0
 51
350.0000000005292
  0
ARC
  5
889
  8
0
  6
CONTINUOUS
 62
     7
 10
-241.5172988935001
 20
218.0000128234036
 30
0.0
 40
2.999999999999892
 50
270.0
 51
350.0000000005292
  0
ARC
  5
88A
  8
0
  6
CONTINUOUS
 62
     7
 10
-226.4827011064003
 20
218.0000128233036
 30
0.0
 40
2.999999999999892
 50
189.9999999994402
 51
270.0
  0
ARC
  5
88B
  8
0
  6
CONTINUOUS
 62
     7
 10
-160.4827011064003
 20
218.0000128233036
 30
0.0
 40
2.99999999999967
 50
189.9999999994402
 51
270.0
  0
ARC
  5
88C
  8
0
  6
CONTINUOUS
 62
     7
 10
-204.4827011064003
 20
218.0000128233036
 30
0.0
 40
2.99999999999967
 50
189.9999999994402
 51
270.0
  0
ARC
  5
88D
  8
0
  6
CONTINUOUS
 62
     7
 10
-182.4827011064003
 20
218.0000128233036
 30
0.0
 40
2.999999999999892
 50
189.9999999994402
 51
270.0
  0
ARC
  5
88E
  8
0
  6
CONTINUOUS
 62
     7
 10
-138.4827011064
 20
218.0000128233036
 30
0.0
 40
2.99999999999967
 50
189.9999999994402
 51
270.0
  0
ARC
  5
88F
  8
0
  6
CONTINUOUS
 62
     7
 10
-248.4827011064001
 20
218.0000128233036
 30
0.0
 40
2.999999999999892
 50
189.9999999994402
 51
270.0
  0
LINE
  5
890
  8
0
  6
CONTINUOUS
 62
     7
 10
-340.2307765273125
 20
229.5224755013292
 30
0.0
 11
-360.183285393167
 21
229.0000070074785
 31
0.0
  0
ARC
  5
891
  8
0
  6
CONTINUOUS
 62
     7
 10
-340.5187167044323
 20
240.5187062527679
 30
0.0
 40
11.00000001293133
 50
271.4999674104248
 51
358.4999585293677
  0
LINE
  5
892
  8
0
  6
CONTINUOUS
 62
     7
 10
-329.0000038643525
 20
260.1831918113567
 30
0.0
 11
-329.5224863251926
 21
240.2307518619812
 31
0.0
  0
LINE
  5
893
  8
0
  6
CONTINUOUS
 62
     7
 10
-328.9999999870996
 20
269.9999938781168
 30
0.0
 11
-329.0000038643525
 21
260.1831918113567
 31
0.0
  0
LINE
  5
894
  8
0
  6
CONTINUOUS
 62
     7
 10
-328.9999999870996
 20
269.9999938781168
 30
0.0
 11
-328.9999999871078
 21
279.8167959448776
 31
0.0
  0
LINE
  5
895
  8
0
  6
CONTINUOUS
 62
     7
 10
-328.9999999871078
 20
279.8167959448776
 30
0.0
 11
-329.5224745675307
 21
299.7692361006116
 31
0.0
  0
ARC
  5
896
  8
0
  6
CONTINUOUS
 62
     7
 10
-340.5187050605001
 20
299.4812860528968
 30
0.0
 40
11.00000001293133
 50
1.500018841087685
 51
88.50000996003045
  0
LINE
  5
897
  8
0
  6
CONTINUOUS
 62
     7
 10
-340.2307605403086
 20
310.4775166906096
 30
0.0
 11
-360.1832691998075
 21
310.9999930649049
 31
0.0
  0
LINE
  5
898
  8
0
  6
CONTINUOUS
 62
     7
 10
-399.7692394596917
 20
310.4775166906096
 30
0.0
 11
-379.8167308001929
 21
310.9999930649049
 31
0.0
  0
ARC
  5
899
  8
0
  6
CONTINUOUS
 62
     7
 10
-399.4812949395001
 20
299.4812860528968
 30
0.0
 40
11.00000001293133
 50
91.49999003996953
 51
178.4999811589123
  0
LINE
  5
89A
  8
0
  6
CONTINUOUS
 62
     7
 10
-411.0000000128924
 20
279.8167959448776
 30
0.0
 11
-410.4775254324695
 21
299.7692361006112
 31
0.0
  0
LINE
  5
89B
  8
0
  6
CONTINUOUS
 62
     7
 10
-411.0000000129006
 20
269.9999938781168
 30
0.0
 11
-411.0000000128924
 21
279.8167959448776
 31
0.0
  0
LINE
  5
89C
  8
0
  6
CONTINUOUS
 62
     7
 10
-411.0000000129006
 20
269.9999938781168
 30
0.0
 11
-410.9999961356476
 21
260.1831918113567
 31
0.0
  0
LINE
  5
89D
  8
0
  6
CONTINUOUS
 62
     7
 10
-410.9999961356476
 20
260.1831918113567
 30
0.0
 11
-410.4775136748078
 21
240.2307518619812
 31
0.0
  0
ARC
  5
89E
  8
0
  6
CONTINUOUS
 62
     7
 10
-399.4812832955678
 20
240.5187062527679
 30
0.0
 40
11.00000001293155
 50
181.5000414706325
 51
268.5000325895752
  0
LINE
  5
89F
  8
0
  6
CONTINUOUS
 62
     7
 10
-399.7692234726877
 20
229.5224755013292
 30
0.0
 11
-379.8167146068332
 21
229.0000070074785
 31
0.0
  0
LINE
  5
8A0
  8
0
  6
CONTINUOUS
 62
     7
 10
-399.8215771294313
 20
227.5231608450967
 30
0.0
 11
-379.8428951314512
 21
227.0000069919675
 31
0.0
  0
ARC
  5
8A1
  8
0
  6
CONTINUOUS
 62
     7
 10
-399.4812832955678
 20
240.5187062527679
 30
0.0
 40
13.00000001293111
 50
181.500037514419
 51
268.5000286333615
  0
LINE
  5
8A2
  8
0
  6
CONTINUOUS
 62
     7
 10
-412.9999961253148
 20
260.1570095100516
 30
0.0
 11
-412.4768283103621
 21
240.1783974155924
 31
0.0
  0
LINE
  5
8A3
  8
0
  6
CONTINUOUS
 62
     7
 10
-413.0000000129006
 20
269.9999934831569
 30
0.0
 11
-412.9999961253148
 21
260.1570095100516
 31
0.0
  0
LINE
  5
8A4
  8
0
  6
CONTINUOUS
 62
     7
 10
-413.0000000129006
 20
269.9999934831569
 30
0.0
 11
-413.0000000129006
 21
279.8429774562629
 31
0.0
  0
LINE
  5
8A5
  8
0
  6
CONTINUOUS
 62
     7
 10
-413.0000000129006
 20
279.8429774562629
 30
0.0
 11
-412.476840088702
 21
299.8215897573511
 31
0.0
  0
ARC
  5
8A6
  8
0
  6
CONTINUOUS
 62
     7
 10
-399.4812949395001
 20
299.4812860528968
 30
0.0
 40
13.00000001293111
 50
91.49999399618329
 51
178.4999851151258
  0
LINE
  5
8A7
  8
0
  6
CONTINUOUS
 62
     7
 10
-399.821593906085
 20
312.4768313261644
 30
0.0
 11
-379.8429121147313
 21
312.9999930700748
 31
0.0
  0
LINE
  5
8A8
  8
0
  6
CONTINUOUS
 62
     7
 10
-340.1784060939153
 20
312.4768313261644
 30
0.0
 11
-360.1570878852689
 21
312.9999930700748
 31
0.0
  0
ARC
  5
8A9
  8
0
  6
CONTINUOUS
 62
     7
 10
-340.5187050605001
 20
299.4812860528968
 30
0.0
 40
13.00000001293111
 50
1.500014884874245
 51
88.50000600381667
  0
LINE
  5
8AA
  8
0
  6
CONTINUOUS
 62
     7
 10
-326.9999999870996
 20
279.8429774562629
 30
0.0
 11
-327.5231599112982
 21
299.8215897573511
 31
0.0
  0
LINE
  5
8AB
  8
0
  6
CONTINUOUS
 62
     7
 10
-326.9999999870996
 20
269.9999934831569
 30
0.0
 11
-326.9999999870996
 21
279.8429774562629
 31
0.0
  0
LINE
  5
8AC
  8
0
  6
CONTINUOUS
 62
     7
 10
-326.9999999870996
 20
269.9999934831569
 30
0.0
 11
-327.0000038746857
 21
260.1570095100516
 31
0.0
  0
LINE
  5
8AD
  8
0
  6
CONTINUOUS
 62
     7
 10
-327.0000038746857
 20
260.1570095100516
 30
0.0
 11
-327.5231716896383
 21
240.1783974155924
 31
0.0
  0
ARC
  5
8AE
  8
0
  6
CONTINUOUS
 62
     7
 10
-340.5187167044323
 20
240.5187062527679
 30
0.0
 40
13.00000001293111
 50
271.4999713666385
 51
358.4999624855809
  0
LINE
  5
8AF
  8
0
  6
CONTINUOUS
 62
     7
 10
-340.1784228705689
 20
227.5231608450967
 30
0.0
 11
-360.157104868549
 21
227.0000069919675
 31
0.0
  0
LINE
  5
8B0
  8
0
  6
CONTINUOUS
 62
     7
 10
-318.000002204055
 20
264.4195421138656
 30
0.0
 11
-318.0000000000001
 21
269.9999917058367
 31
0.0
  0
LINE
  5
8B1
  8
0
  6
CONTINUOUS
 62
     7
 10
-318.000002204055
 20
264.4195421138656
 30
0.0
 11
-317.586826487368
 21
263.9271380741716
 31
0.0
  0
LINE
  5
8B2
  8
0
  6
CONTINUOUS
 62
     7
 10
-317.4790578601625
 20
263.9081355136328
 30
0.0
 11
-317.586826487368
 21
263.9271380741716
 31
0.0
  0
LINE
  5
8B3
  8
0
  6
CONTINUOUS
 62
     7
 10
-317.4790554541225
 20
276.0918476922888
 30
0.0
 11
-317.5868240888335
 21
276.0728451743141
 31
0.0
  0
LINE
  5
8B4
  8
0
  6
CONTINUOUS
 62
     7
 10
-318.0000000000001
 20
275.580441297808
 30
0.0
 11
-317.5868240888335
 21
276.0728451743141
 31
0.0
  0
LINE
  5
8B5
  8
0
  6
CONTINUOUS
 62
     7
 10
-318.0000000000001
 20
275.580441297808
 30
0.0
 11
-318.0000000000001
 21
269.9999917058367
 31
0.0
  0
LINE
  5
8B6
  8
0
  6
CONTINUOUS
 62
     7
 10
-422.0000000000002
 20
275.580441297808
 30
0.0
 11
-422.4131759111667
 21
276.0728451743141
 31
0.0
  0
LINE
  5
8B7
  8
0
  6
CONTINUOUS
 62
     7
 10
-422.5209445458777
 20
276.0918476922888
 30
0.0
 11
-422.4131759111667
 21
276.0728451743141
 31
0.0
  0
LINE
  5
8B8
  8
0
  6
CONTINUOUS
 62
     7
 10
-422.5209421398377
 20
263.9081355136328
 30
0.0
 11
-422.4131735126322
 21
263.9271380741716
 31
0.0
  0
LINE
  5
8B9
  8
0
  6
CONTINUOUS
 62
     7
 10
-421.9999977959452
 20
264.4195421138656
 30
0.0
 11
-422.4131735126322
 21
263.9271380741716
 31
0.0
  0
LINE
  5
8BA
  8
0
  6
CONTINUOUS
 62
     7
 10
-421.9999977959452
 20
264.4195421138656
 30
0.0
 11
-422.0000000000002
 21
269.9999917058367
 31
0.0
  0
LINE
  5
8BB
  8
0
  6
CONTINUOUS
 62
     7
 10
-422.0000000000002
 20
275.580441297808
 30
0.0
 11
-422.0000000000002
 21
269.9999917058367
 31
0.0
  0
LINE
  5
8BC
  8
0
  6
CONTINUOUS
 62
     7
 10
-315.0000025657871
 20
263.4710101712713
 30
0.0
 11
-315.0000039367304
 21
259.999915700428
 31
0.0
  0
LINE
  5
8BD
  8
0
  6
CONTINUOUS
 62
     7
 10
-315.0000025657871
 20
263.4710101712713
 30
0.0
 11
-317.4790578601625
 21
263.9081355136328
 31
0.0
  0
LINE
  5
8BE
  8
0
  6
CONTINUOUS
 62
     7
 10
-424.9999974342134
 20
263.4710101712713
 30
0.0
 11
-424.9999960632697
 21
259.999915700428
 31
0.0
  0
LINE
  5
8BF
  8
0
  6
CONTINUOUS
 62
     7
 10
-424.9999974342134
 20
263.4710101712713
 30
0.0
 11
-422.5209421398377
 21
263.9081355136328
 31
0.0
  0
LINE
  5
8C0
  8
0
  6
CONTINUOUS
 62
     7
 10
-314.9999999871
 20
276.5289720555219
 30
0.0
 11
-314.9999999871
 21
280.0000665263656
 31
0.0
  0
LINE
  5
8C1
  8
0
  6
CONTINUOUS
 62
     7
 10
-314.9999999871
 20
276.5289720555219
 30
0.0
 11
-317.4790554541225
 21
276.0918476922888
 31
0.0
  0
LINE
  5
8C2
  8
0
  6
CONTINUOUS
 62
     7
 10
-425.0000000129002
 20
276.5289720555219
 30
0.0
 11
-425.0000000129002
 21
280.0000665263656
 31
0.0
  0
LINE
  5
8C3
  8
0
  6
CONTINUOUS
 62
     7
 10
-425.0000000129002
 20
276.5289720555219
 30
0.0
 11
-422.5209445458777
 21
276.0918476922888
 31
0.0
  0
LINE
  5
8C4
  8
0
  6
CONTINUOUS
 62
     7
 10
-315.0000039367304
 20
259.999915700428
 30
0.0
 11
-315.5272838763097
 21
239.8642707372576
 31
0.0
  0
LINE
  5
8C5
  8
0
  6
CONTINUOUS
 62
     7
 10
-339.8643009301079
 20
215.5272729077024
 30
0.0
 11
-360.0000217226323
 21
215.0000068989032
 31
0.0
  0
LINE
  5
8C6
  8
0
  6
CONTINUOUS
 62
     7
 10
-360.0000217226323
 20
215.0000068989032
 30
0.0
 11
-370.0000217227992
 21
215.000012823304
 31
0.0
  0
LINE
  5
8C7
  8
0
  6
CONTINUOUS
 62
     7
 10
-424.9999960632697
 20
259.999915700428
 30
0.0
 11
-424.4727161236905
 21
239.8642707372576
 31
0.0
  0
LINE
  5
8C8
  8
0
  6
CONTINUOUS
 62
     7
 10
-379.9999782773682
 20
215.0000068989032
 30
0.0
 11
-370.0000217227992
 21
215.000012823304
 31
0.0
  0
LINE
  5
8C9
  8
0
  6
CONTINUOUS
 62
     7
 10
-400.1356990698926
 20
215.5272729077024
 30
0.0
 11
-379.9999782773682
 21
215.0000068989032
 31
0.0
  0
LINE
  5
8CA
  8
0
  6
CONTINUOUS
 62
     7
 10
-339.8642794155573
 20
324.472719139492
 30
0.0
 11
-359.9999999998313
 21
324.9999931010968
 31
0.0
  0
LINE
  5
8CB
  8
0
  6
CONTINUOUS
 62
     7
 10
-400.1357205844429
 20
324.472719139492
 30
0.0
 11
-380.0000000001689
 21
324.9999931010968
 31
0.0
  0
LINE
  5
8CC
  8
0
  6
CONTINUOUS
 62
     7
 10
-314.9999999871
 20
280.0000665263656
 30
0.0
 11
-315.5272719739033
 21
300.1357116977888
 31
0.0
  0
LINE
  5
8CD
  8
0
  6
CONTINUOUS
 62
     7
 10
-425.0000000129002
 20
280.0000665263656
 30
0.0
 11
-424.4727280260969
 21
300.1357116977888
 31
0.0
  0
ARC
  5
8CE
  8
0
  6
CONTINUOUS
 62
     7
 10
-340.5187167044323
 20
240.5187062527679
 30
0.0
 40
25.00000001293068
 50
271.4999818110413
 51
358.4999729299846
  0
ARC
  5
8CF
  8
0
  6
CONTINUOUS
 62
     7
 10
-399.4812832955678
 20
240.5187062527679
 30
0.0
 40
25.00000001293068
 50
181.5000270700155
 51
268.5000181889586
  0
ARC
  5
8D0
  8
0
  6
CONTINUOUS
 62
     7
 10
-340.5187050605001
 20
299.4812860528968
 30
0.0
 40
25.00000001293068
 50
1.50000444047072
 51
88.49999555941386
  0
ARC
  5
8D1
  8
0
  6
CONTINUOUS
 62
     7
 10
-399.4812949395001
 20
299.4812860528968
 30
0.0
 40
25.00000001293068
 50
91.50000444058611
 51
178.4999955595292
  0
ENDSEC
  0
EOF
