  0
SECTION
  2
HEADER
  9
$ACADVER
  1
AC1006
  9
$DWGCODEPAGE
  3
ansi_932
  9
$INSBASE
 10
0.0
 20
0.0
 30
0.0
  9
$EXTMIN
 10
0.0
 20
-396.3547807779
  9
$EXTMAX
 10
1671.4425830926
 20
10.0
  9
$LIMMIN
 10
0.0
 20
0.0
  9
$LIMMAX
 10
12.0
 20
9.0
  9
$ORTHOMODE
 70
     0
  9
$REGENMODE
 70
     1
  9
$FILLMODE
 70
     1
  9
$QTEXTMODE
 70
     0
  9
$MIRRTEXT
 70
     1
  9
$DRAGMODE
 70
     2
  9
$LTSCALE
 40
1.0
  9
$OSMODE
 70
    37
  9
$ATTMODE
 70
     1
  9
$TEXTSIZE
 40
0.2
  9
$TRACEWID
 40
0.05
  9
$TEXTSTYLE
  7
STANDARD
  9
$CLAYER
  8
0
  9
$CELTYPE
  6
BYLAYER
  9
$CECOLOR
 62
   256
  9
$DIMSCALE
 40
1.0
  9
$DIMASZ
 40
3.0
  9
$DIMEXO
 40
0.0625
  9
$DIMDLI
 40
0.38
  9
$DIMRND
 40
0.0
  9
$DIMDLE
 40
0.0
  9
$DIMEXE
 40
1.5
  9
$DIMTP
 40
0.0
  9
$DIMTM
 40
0.0
  9
$DIMTXT
 40
3.5
  9
$DIMCEN
 40
0.09
  9
$DIMTSZ
 40
0.0
  9
$DIMTOL
 70
     0
  9
$DIMLIM
 70
     0
  9
$DIMTIH
 70
     1
  9
$DIMTOH
 70
     1
  9
$DIMSE1
 70
     0
  9
$DIMSE2
 70
     0
  9
$DIMTAD
 70
     1
  9
$DIMZIN
 70
     0
  9
$DIMBLK
  1

  9
$DIMASO
 70
     1
  9
$DIMSHO
 70
     1
  9
$DIMPOST
  1

  9
$DIMAPOST
  1

  9
$DIMALT
 70
     0
  9
$DIMALTD
 70
     2
  9
$DIMALTF
 40
25.4
  9
$DIMLFAC
 40
1.0
  9
$DIMTOFL
 70
     0
  9
$DIMTVP
 40
0.0
  9
$DIMTIX
 70
     0
  9
$DIMSOXD
 70
     0
  9
$DIMSAH
 70
     0
  9
$DIMBLK1
  1

  9
$DIMBLK2
  1

  9
$LUNITS
 70
     2
  9
$LUPREC
 70
     4
  9
$SKETCHINC
 40
0.1
  9
$FILLETRAD
 40
0.5
  9
$AUNITS
 70
     0
  9
$AUPREC
 70
     0
  9
$MENU
  1
.
  9
$ELEVATION
 40
0.0
  9
$THICKNESS
 40
0.0
  9
$LIMCHECK
 70
     0
  9
$CHAMFERA
 40
0.0
  9
$CHAMFERB
 40
0.0
  9
$SKPOLY
 70
     0
  9
$TDCREATE
 40
2460768.547504977
  9
$TDUPDATE
 40
2460768.547505243
  9
$TDINDWG
 40
0.0000000116
  9
$TDUSRTIMER
 40
0.0000000116
  9
$USRTIMER
 70
     1
  9
$ANGBASE
 50
0.0
  9
$ANGDIR
 70
     0
  9
$PDMODE
 70
     0
  9
$PDSIZE
 40
0.0
  9
$PLINEWID
 40
0.0
  9
$COORDS
 70
     1
  9
$SPLFRAME
 70
     0
  9
$SPLINETYPE
 70
     6
  9
$SPLINESEGS
 70
     8
  9
$ATTDIA
 70
     0
  9
$ATTREQ
 70
     1
  9
$HANDLING
 70
     1
  9
$HANDSEED
  5
179
  9
$SURFTAB1
 70
     6
  9
$SURFTAB2
 70
     6
  9
$SURFTYPE
 70
     6
  9
$SURFU
 70
     6
  9
$SURFV
 70
     6
  9
$UCSNAME
  2

  9
$UCSORG
 10
0.0
 20
0.0
 30
0.0
  9
$UCSXDIR
 10
1.0
 20
0.0
 30
0.0
  9
$UCSYDIR
 10
0.0
 20
1.0
 30
0.0
  9
$USERI1
 70
     0
  9
$USERI2
 70
     0
  9
$USERI3
 70
     0
  9
$USERI4
 70
     0
  9
$USERI5
 70
     0
  9
$USERR1
 40
0.0
  9
$USERR2
 40
0.0
  9
$USERR3
 40
0.0
  9
$USERR4
 40
0.0
  9
$USERR5
 40
0.0
  9
$WORLDVIEW
 70
     1
  0
ENDSEC
  0
SECTION
  2
TABLES
  0
TABLE
  2
VPORT
 70
     1
  0
VPORT
  2
*ACTIVE
 70
     0
 10
0.0
 20
0.0
 11
1.0
 21
1.0
 12
835.7212915463
 22
-193.17739038895
 13
0.0
 23
0.0
 14
0.5
 24
0.5
 15
0.5
 25
0.5
 16
0.0
 26
0.0
 36
1.0
 17
0.0
 27
0.0
 37
0.0
 40
406.3547807779
 41
1.6
 42
50.0
 43
0.0
 44
0.0
 50
0.0
 51
0.0
 71
     0
 72
   100
 73
     1
 74
     3
 75
     0
 76
     0
 77
     0
 78
     0
  0
ENDTAB
  0
TABLE
  2
LTYPE
 70
     2
  0
LTYPE
  2
CONTINUOUS
 70
     0
  3
Solid line
 72
    65
 73
     0
 40
0.0
  0
LTYPE
  2
CENTER
 70
     0
  3

 72
    65
 73
     0
 40
0.0
  0
ENDTAB
  0
TABLE
  2
LAYER
 70
     2
  0
LAYER
  2
0
 70
     0
 62
     7
  6
CONTINUOUS
  0
LAYER
  2
1
 70
     0
 62
     7
  6
CONTINUOUS
  0
ENDTAB
  0
TABLE
  2
STYLE
 70
     2
  0
STYLE
  2
STANDARD
 70
     0
 40
0.0
 41
1.0
 50
0.0
 71
     0
 42
0.2
  3
txt
  4

  0
STYLE
  2
ＭＳ_ゴシック
 70
     0
 40
0.0
 41
1.0
 50
0.0
 71
     0
 42
0.2
  3
ＭＳ ゴシック.shx
  4

  0
ENDTAB
  0
TABLE
  2
VIEW
 70
     0
  0
ENDTAB
  0
TABLE
  2
UCS
 70
     0
  0
ENDTAB
  0
ENDSEC
  0
SECTION
  2
BLOCKS
  0
ENDSEC
  0
SECTION
  2
ENTITIES
  0
ARC
  5
70
  8
1
  6
CONTINUOUS
 62
     7
 10
1437.2792296477
 20
-273.192419677
 30
0.0
 40
1.0
 50
270.0
 51
327.4210296072
  0
LINE
  5
71
  8
1
  6
CONTINUOUS
 62
     7
 10
1435.0427255485
 20
-276.192419677
 30
0.0
 11
1420.142583098
 21
-276.192419677
 31
0.0
  0
ARC
  5
72
  8
1
  6
CONTINUOUS
 62
     7
 10
1503.0059365483
 20
-315.192419677
 30
0.0
 40
1.0
 50
90.0
 51
147.4210296072
  0
ARC
  5
73
  8
1
  6
CONTINUOUS
 62
     7
 10
1505.2424406476
 20
-277.192419677
 30
0.0
 40
1.0
 50
90.0
 51
205.8424128737
  0
LINE
  5
74
  8
1
  6
CONTINUOUS
 62
     7
 10
1435.0427255485
 20
-312.192419677
 30
0.0
 11
1420.142583098
 21
-312.192419677
 31
0.0
  0
ARC
  5
75
  8
1
  6
CONTINUOUS
 62
     7
 10
1435.0427255485
 20
-311.192419677
 30
0.0
 40
1.0
 50
270.0
 51
25.84241287370002
  0
LINE
  5
76
  8
1
  6
CONTINUOUS
 62
     7
 10
1503.0059365483
 20
-274.192419677
 30
0.0
 11
1520.142583098
 21
-274.192419677
 31
0.0
  0
LINE
  5
77
  8
1
  6
CONTINUOUS
 62
     7
 10
1437.2792296477
 20
-314.192419677
 30
0.0
 11
1420.142583098
 21
-314.192419677
 31
0.0
  0
ARC
  5
78
  8
1
  6
CONTINUOUS
 62
     7
 10
1437.2792296477
 20
-315.192419677
 30
0.0
 40
1.0
 50
32.5789703928
 51
90.0
  0
CIRCLE
  5
79
  8
1
  6
CONTINUOUS
 62
     7
 10
1470.1425830996
 20
-260.8424196781
 30
0.0
 40
4.0
  0
CIRCLE
  5
7A
  8
1
  6
CONTINUOUS
 62
     7
 10
1477.6447007619
 20
-261.6971780166
 30
0.0
 40
1.65
  0
CIRCLE
  5
7B
  8
1
  6
CONTINUOUS
 62
     7
 10
1462.6404654372
 20
-261.6971780166
 30
0.0
 40
1.65
  0
LINE
  5
7C
  8
1
  6
CONTINUOUS
 62
     7
 10
1437.2792296477
 20
-274.192419677
 30
0.0
 11
1420.142583098
 21
-274.192419677
 31
0.0
  0
CIRCLE
  5
7D
  8
1
  6
CONTINUOUS
 62
     7
 10
1470.1425830996
 20
-327.5424196734
 30
0.0
 40
4.0
  0
LINE
  5
7E
  8
1
  6
CONTINUOUS
 62
     7
 10
1505.2424406476
 20
-276.192419677
 30
0.0
 11
1520.142583098
 21
-276.192419677
 31
0.0
  0
ARC
  5
7F
  8
1
  6
CONTINUOUS
 62
     7
 10
1503.0059365483
 20
-273.192419677
 30
0.0
 40
1.0
 50
212.5789703928
 51
270.0
  0
ARC
  5
80
  8
1
  6
CONTINUOUS
 62
     7
 10
1435.0427255485
 20
-277.192419677
 30
0.0
 40
1.0
 50
334.1575871262999
 51
90.0
  0
ARC
  5
81
  8
1
  6
CONTINUOUS
 62
     7
 10
1470.1425830996
 20
-260.8424196781
 30
0.0
 40
6.0
 50
47.6526123339
 51
132.3473876609
  0
ARC
  5
82
  8
1
  6
CONTINUOUS
 62
     7
 10
1483.2964435027
 20
-323.3639118646
 30
0.0
 40
3.0
 50
210.0
 51
294.2713227021
  0
LINE
  5
83
  8
1
  6
CENTER
 62
     7
 10
1412.142583098
 20
-294.192419677
 30
0.0
 11
1528.142583098
 21
-294.192419677
 31
0.0
  0
ARC
  5
85
  8
1
  6
CONTINUOUS
 62
     7
 10
1438.1666356298
 20
-341.2190475746
 30
0.0
 40
1.0
 50
11.5543596468
 51
55.78609705070001
  0
ARC
  5
86
  8
1
  6
CONTINUOUS
 62
     7
 10
1511.7720196166
 20
-322.7231937118
 30
0.0
 40
1.0
 50
325.5751726016
 51
13.3432550128
  0
ARC
  5
87
  8
1
  6
CONTINUOUS
 62
     7
 10
1497.6117490527
 20
-248.0871605227
 30
0.0
 40
3.6
 50
11.5543596468
 51
283.3432550128001
  0
ARC
  5
88
  8
1
  6
CONTINUOUS
 62
     7
 10
1498.6733571342
 20
-252.5629831601
 30
0.0
 40
1.0
 50
55.57517260160002
 51
103.3432550128
  0
ARC
  5
89
  8
1
  6
CONTINUOUS
 62
     7
 10
1470.1425830998
 20
-294.1924196757
 30
0.0
 40
55.8679606469
 50
209.3861671099
 51
235.7860970506
  0
LINE
  5
8A
  8
1
  6
CONTINUOUS
 62
     7
 10
1480.6983672913
 20
-263.5209274893
 30
0.0
 11
1480.5416212037
 21
-263.792419677
 31
0.0
  0
ARC
  5
8B
  8
1
  6
CONTINUOUS
 62
     7
 10
1456.9887226934
 20
-265.0209274893
 30
0.0
 40
3.0
 50
30.0
 51
114.2713227021
  0
LINE
  5
8C
  8
1
  6
CONTINUOUS
 62
     7
 10
1459.5867989047
 20
-324.8639118646
 30
0.0
 11
1459.7435449923
 21
-324.592419677
 31
0.0
  0
LINE
  5
8D
  8
1
  6
CONTINUOUS
 62
     7
 10
1476.6445068867
 20
-266.042419677
 30
0.0
 11
1463.6406593094
 21
-266.042419677
 31
0.0
  0
ARC
  5
8E
  8
1
  6
CONTINUOUS
 62
     7
 10
1442.6734171465
 20
-340.2976788316
 30
0.0
 40
3.6
 50
191.5543596468
 51
103.3432550128
  0
ARC
  5
8F
  8
1
  6
CONTINUOUS
 62
     7
 10
1463.6406593094
 20
-261.542419677
 30
0.0
 40
4.5
 50
210.0
 51
270.0
  0
LINE
  5
90
  8
1
  6
CONTINUOUS
 62
     7
 10
1480.6983672913
 20
-324.8639118646
 30
0.0
 11
1480.5416212037
 21
-324.592419677
 31
0.0
  0
ARC
  5
91
  8
1
  6
CONTINUOUS
 62
     7
 10
1476.6445068867
 20
-261.542419677
 30
0.0
 40
4.5
 50
270.0
 51
330.0
  0
ARC
  5
92
  8
1
  6
CONTINUOUS
 62
     7
 10
1456.9887226934
 20
-323.3639118646
 30
0.0
 40
3.0
 50
245.7286772979
 51
330.0
  0
LINE
  5
93
  8
1
  6
CONTINUOUS
 62
     7
 10
1459.5867989047
 20
-263.5209274893
 30
0.0
 11
1459.7435449923
 21
-263.792419677
 31
0.0
  0
ARC
  5
94
  8
1
  6
CONTINUOUS
 62
     7
 10
1483.2964435027
 20
-265.0209274893
 30
0.0
 40
3.0
 50
65.7286772979
 51
150.0
  0
LINE
  5
95
  8
1
  6
CENTER
 62
     7
 10
1470.142583098
 20
-236.192419677
 30
0.0
 11
1470.142583098
 21
-352.492419677
 31
0.0
  0
ARC
  5
96
  8
1
  6
CONTINUOUS
 62
     7
 10
1470.142583098
 20
-294.192419677
 30
0.0
 40
35.0
 50
114.2713227021
 51
245.7286772979
  0
ARC
  5
97
  8
1
  6
CONTINUOUS
 62
     7
 10
1441.611809065
 20
-335.8218561942
 30
0.0
 40
1.0
 50
235.5751726016
 51
283.3432550128001
  0
ARC
  5
98
  8
1
  6
CONTINUOUS
 62
     7
 10
1517.169210997
 20
-326.168367147
 30
0.0
 40
1.0
 50
101.5543596468
 51
145.7860970507
  0
ARC
  5
99
  8
1
  6
CONTINUOUS
 62
     7
 10
1516.247842254
 20
-321.6615856302
 30
0.0
 40
3.6
 50
281.5543596468
 51
193.3432550128
  0
ARC
  5
9A
  8
1
  6
CONTINUOUS
 62
     7
 10
1470.1425830998
 20
-294.1924196757
 30
0.0
 40
51.467960647
 50
209.3861671098
 51
235.5751726015
  0
ARC
  5
9B
  8
1
  6
CONTINUOUS
 62
     7
 10
1502.1185305694
 20
-247.1657917797
 30
0.0
 40
1.0
 50
191.5543596468
 51
235.7860970507
  0
ARC
  5
9C
  8
1
  6
CONTINUOUS
 62
     7
 10
1470.142583098
 20
-294.192419677
 30
0.0
 40
35.0
 50
294.2713227021
 51
65.76717822030004
  0
ARC
  5
9D
  8
1
  6
CONTINUOUS
 62
     7
 10
1470.1425830996
 20
-327.5424196745
 30
0.0
 40
6.0
 50
227.6526123614
 51
312.3473876439
  0
LINE
  5
9E
  8
1
  6
CONTINUOUS
 62
     7
 10
1476.6445068867
 20
-322.342419677
 30
0.0
 11
1463.6406593094
 21
-322.342419677
 31
0.0
  0
TEXT
  5
9F
  8
1
  6
CONTINUOUS
 62
     7
 10
1642.835310909216
 20
-387.2501413636364
 30
0.0
 40
3.0
  1
ＯＦ－１１Ｐ
 41
0.87032
  0
LINE
  5
A0
  8
1
  6
CONTINUOUS
 62
     7
 10
1465.142583098
 20
-257.3571383054
 30
0.0
 11
1466.0906563948
 21
-256.4090650087
 31
0.0
  0
LINE
  5
A1
  8
1
  6
CONTINUOUS
 62
     7
 10
1465.142583098
 20
-260.1855654301
 30
0.0
 11
1470.476433635
 21
-254.8517148932
 31
0.0
  0
LINE
  5
A2
  8
1
  6
CONTINUOUS
 62
     7
 10
1465.142583098
 20
-263.0139925549
 30
0.0
 11
1472.7283695372
 21
-255.4282061157
 31
0.0
  0
LINE
  5
A3
  8
1
  6
CONTINUOUS
 62
     7
 10
1465.142583098
 20
-265.8424196796
 30
0.0
 11
1474.5375706419
 21
-256.4474321357
 31
0.0
  0
LINE
  5
A4
  8
1
  6
CONTINUOUS
 62
     7
 10
1467.7710102254
 20
-266.042419677
 30
0.0
 11
1475.142583098
 21
-258.6708468044
 31
0.0
  0
LINE
  5
A5
  8
1
  6
CONTINUOUS
 62
     7
 10
1470.5994373502
 20
-266.042419677
 30
0.0
 11
1475.142583098
 21
-261.4992739291
 31
0.0
  0
LINE
  5
A6
  8
1
  6
CONTINUOUS
 62
     7
 10
1473.4278644749
 20
-266.042419677
 30
0.0
 11
1475.142583098
 21
-264.3277010539
 31
0.0
  0
LINE
  5
A7
  8
1
  6
CONTINUOUS
 62
     7
 10
1465.142583098
 20
-324.0571383081
 30
0.0
 11
1466.8573017242
 21
-322.3424196819
 31
0.0
  0
LINE
  5
A8
  8
1
  6
CONTINUOUS
 62
     7
 10
1465.142583098
 20
-326.8855654328
 30
0.0
 11
1469.6857288489
 21
-322.3424196819
 31
0.0
  0
LINE
  5
A9
  8
1
  6
CONTINUOUS
 62
     7
 10
1465.142583098
 20
-329.7139925576
 30
0.0
 11
1472.5141559737
 21
-322.3424196819
 31
0.0
  0
LINE
  5
AA
  8
1
  6
CONTINUOUS
 62
     7
 10
1465.7475955591
 20
-331.9374072212
 30
0.0
 11
1475.142583098
 21
-322.5424196823
 31
0.0
  0
LINE
  5
AB
  8
1
  6
CONTINUOUS
 62
     7
 10
1467.5567966619
 20
-332.9566332432
 30
0.0
 11
1475.142583098
 21
-325.3708468071
 31
0.0
  0
LINE
  5
AC
  8
1
  6
CONTINUOUS
 62
     7
 10
1469.8087325641
 20
-333.5331244657
 30
0.0
 11
1475.142583098
 21
-328.1992739318
 31
0.0
  0
LINE
  5
AD
  8
1
  6
CONTINUOUS
 62
     7
 10
1474.1945098074
 20
-331.9757743472
 30
0.0
 11
1475.142583098
 21
-331.0277010566
 31
0.0
  0
LINE
  5
AE
  8
1
  6
CONTINUOUS
 62
     7
 10
1608.4425830926
 20
-257.3571383038
 30
0.0
 11
1610.9573017183
 21
-254.8424196781
 31
0.0
  0
LINE
  5
AF
  8
1
  6
CONTINUOUS
 62
     7
 10
1608.4425830926
 20
-260.1855654285
 30
0.0
 11
1613.785728843
 21
-254.8424196781
 31
0.0
  0
LINE
  5
B0
  8
1
  6
CONTINUOUS
 62
     7
 10
1608.4425830926
 20
-263.0139925533
 30
0.0
 11
1616.6141559678
 21
-254.8424196781
 31
0.0
  0
LINE
  5
B1
  8
1
  6
CONTINUOUS
 62
     7
 10
1608.4425830926
 20
-265.842419678
 30
0.0
 11
1618.4425830926
 21
-255.842419678
 31
0.0
  0
LINE
  5
B2
  8
1
  6
CONTINUOUS
 62
     7
 10
1611.0710102161
 20
-266.0424196793
 30
0.0
 11
1618.4425830926
 21
-258.6708468028
 31
0.0
  0
LINE
  5
B3
  8
1
  6
CONTINUOUS
 62
     7
 10
1613.8994373408
 20
-266.0424196793
 30
0.0
 11
1618.4425830926
 21
-261.4992739275
 31
0.0
  0
LINE
  5
B4
  8
1
  6
CONTINUOUS
 62
     7
 10
1616.7278644656
 20
-266.0424196793
 30
0.0
 11
1618.4425830926
 21
-264.3277010523
 31
0.0
  0
LINE
  5
B5
  8
1
  6
CONTINUOUS
 62
     7
 10
1608.4425830926
 20
-324.0571383027
 30
0.0
 11
1610.1573017219
 21
-322.3424196735
 31
0.0
  0
LINE
  5
B6
  8
1
  6
CONTINUOUS
 62
     7
 10
1608.4425830926
 20
-326.8855654275
 30
0.0
 11
1612.9857288466
 21
-322.3424196735
 31
0.0
  0
LINE
  5
B7
  8
1
  6
CONTINUOUS
 62
     7
 10
1608.4425830926
 20
-329.7139925522
 30
0.0
 11
1615.8141559714
 21
-322.3424196735
 31
0.0
  0
LINE
  5
B8
  8
1
  6
CONTINUOUS
 62
     7
 10
1608.4425830926
 20
-332.542419677
 30
0.0
 11
1618.4425830926
 21
-322.542419677
 31
0.0
  0
LINE
  5
B9
  8
1
  6
CONTINUOUS
 62
     7
 10
1610.2710102198
 20
-333.5424196745
 30
0.0
 11
1618.4425830926
 21
-325.3708468017
 31
0.0
  0
LINE
  5
BA
  8
1
  6
CONTINUOUS
 62
     7
 10
1613.0994373446
 20
-333.5424196745
 30
0.0
 11
1618.4425830926
 21
-328.1992739265
 31
0.0
  0
LINE
  5
BB
  8
1
  6
CONTINUOUS
 62
     7
 10
1615.9278644693
 20
-333.5424196745
 30
0.0
 11
1618.4425830926
 21
-331.0277010512
 31
0.0
  0
LINE
  5
BC
  8
1
  6
CONTINUOUS
 62
     7
 10
1519.9863455803
 20
-390.8017860063
 30
0.0
 11
1502.4535719408
 21
-384.8547807779
 31
0.0
  0
LINE
  5
BD
  8
1
  6
CONTINUOUS
 62
     7
 10
1565.4425830926
 20
-349.192419677
 30
0.0
 11
1612.692583098
 21
-349.192419677
 31
0.0
  0
LINE
  5
BE
  8
1
  6
CONTINUOUS
 62
     7
 10
1525.142583098
 20
-390.8547807779
 30
0.0
 11
1525.142583098
 21
-393.3547807779
 31
0.0
  0
ARC
  5
BF
  8
1
  6
CONTINUOUS
 62
     7
 10
1619.9445068792
 20
-326.8424196735
 30
0.0
 40
4.5
 50
30.0
 51
90.0
  0
LINE
  5
C0
  8
1
  6
CONTINUOUS
 62
     7
 10
1602.8867988973
 20
-324.8639118611
 30
0.0
 11
1603.0435449849
 21
-324.5924196735
 31
0.0
  0
ARC
  5
C1
  8
1
  6
CONTINUOUS
 62
     7
 10
1565.4425830926
 20
-342.192419677
 30
0.0
 40
7.0
 50
180.0
 51
270.0
  0
LINE
  5
C2
  8
1
  6
CONTINUOUS
 62
     7
 10
1612.692583098
 20
-239.1924196771
 30
0.0
 11
1565.4425830926
 21
-239.192419677
 31
0.0
  0
LINE
  5
C3
  8
1
  6
CONTINUOUS
 62
     7
 10
1507.9502754057
 20
-386.7192276086
 30
0.0
 11
1507.9502754057
 21
-380.3547807779
 31
0.0
  0
LINE
  5
C4
  8
1
  6
CONTINUOUS
 62
     7
 10
1614.192583098
 20
-349.1924196769
 30
0.0
 11
1661.4425830926
 21
-349.192419677
 31
0.0
  0
CIRCLE
  5
C5
  8
1
  6
CONTINUOUS
 62
     7
 10
1613.4425830926
 20
-260.842419677
 30
0.0
 40
4.0
  0
ARC
  5
C6
  8
1
  6
CONTINUOUS
 62
     7
 10
1606.9406593019
 20
-261.5424196793
 30
0.0
 40
4.5
 50
210.0
 51
270.0
  0
LINE
  5
C7
  8
1
  6
CONTINUOUS
 62
     7
 10
1493.9648483465
 20
-380.3547807779
 30
0.0
 11
1493.9648483465
 21
-390.8547807779
 31
0.0
  0
ARC
  5
C8
  8
1
  6
CONTINUOUS
 62
     7
 10
1565.4425830926
 20
-246.192419677
 30
0.0
 40
7.0
 50
90.0
 51
180.0
  0
LINE
  5
C9
  8
1
  6
CONTINUOUS
 62
     7
 10
1619.9445068792
 20
-266.0424196793
 30
0.0
 11
1606.9406593019
 21
-266.0424196793
 31
0.0
  0
ARC
  5
CA
  8
1
  6
CONTINUOUS
 62
     7
 10
1600.2887226859
 20
-323.3639118611
 30
0.0
 40
3.0
 50
245.7286772979
 51
330.0
  0
LINE
  5
CB
  8
1
  6
CONTINUOUS
 62
     7
 10
1623.9983672839
 20
-324.8639118611
 30
0.0
 11
1623.8416211963
 21
-324.5924196735
 31
0.0
  0
ARC
  5
CC
  8
1
  6
CONTINUOUS
 62
     7
 10
1520.3075637264
 20
-389.8547807779
 30
0.0
 40
1.0
 50
251.2633908010999
 51
270.0
  0
CIRCLE
  5
CD
  8
1
  6
CONTINUOUS
 62
     7
 10
1613.4425830926
 20
-327.542419677
 30
0.0
 40
4.0
  0
LINE
  5
CE
  8
1
  6
CONTINUOUS
 62
     7
 10
1473.2752662806
 20
-380.3547807779
 30
0.0
 11
1473.2752662806
 21
-390.8547807779
 31
0.0
  0
ARC
  5
CF
  8
1
  6
CONTINUOUS
 62
     7
 10
1661.4425830926
 20
-246.192419677
 30
0.0
 40
7.0
 50
0.0
 51
90.0
  0
LINE
  5
D0
  8
1
  6
CONTINUOUS
 62
     7
 10
1668.4425830926
 20
-293.4424196691
 30
0.0
 11
1668.4425830926
 21
-246.192419677
 31
0.0
  0
LINE
  5
D1
  8
1
  6
CENTER
 62
     7
 10
1613.4425830926
 20
-236.192419677
 30
0.0
 11
1613.4425830926
 21
-352.192419677
 31
0.0
  0
ARC
  5
D2
  8
1
  6
CONTINUOUS
 62
     7
 10
1619.9445068792
 20
-261.5424196793
 30
0.0
 40
4.5
 50
270.0
 51
330.0
  0
LINE
  5
D3
  8
1
  6
CONTINUOUS
 62
     7
 10
1475.142583098
 20
-266.042419677
 30
0.0
 11
1475.142583098
 21
-256.5228032733
 31
0.0
  0
LINE
  5
D4
  8
1
  6
CONTINUOUS
 62
     7
 10
1414.8425831004
 20
-393.3547807779
 30
0.0
 11
1525.4425831004
 21
-393.3547807779
 31
0.0
  0
LINE
  5
D5
  8
1
  6
CONTINUOUS
 62
     7
 10
1475.142583098
 20
-331.8620360807
 30
0.0
 11
1475.142583098
 21
-322.342419677
 31
0.0
  0
LINE
  5
D6
  8
1
  6
CONTINUOUS
 62
     7
 10
1465.142583098
 20
-256.5228032733
 30
0.0
 11
1465.142583098
 21
-266.042419677
 31
0.0
  0
LINE
  5
D7
  8
1
  6
CONTINUOUS
 62
     7
 10
1661.4425830926
 20
-239.192419677
 30
0.0
 11
1614.192583098
 21
-239.192419677
 31
0.0
  0
LINE
  5
D8
  8
1
  6
CONTINUOUS
 62
     7
 10
1558.4425830926
 20
-294.942419669
 30
0.0
 11
1558.4425830926
 21
-342.192419677
 31
0.0
  0
LINE
  5
D9
  8
1
  6
CONTINUOUS
 62
     7
 10
1602.8867988973
 20
-263.5209274916
 30
0.0
 11
1603.0435449849
 21
-263.7924196793
 31
0.0
  0
LINE
  5
DA
  8
1
  6
CONTINUOUS
 62
     7
 10
1623.9983672839
 20
-263.5209274916
 30
0.0
 11
1623.8416211963
 21
-263.7924196793
 31
0.0
  0
LINE
  5
DB
  8
1
  6
CONTINUOUS
 62
     7
 10
1465.142583098
 20
-322.342419677
 30
0.0
 11
1465.142583098
 21
-331.8620360807
 31
0.0
  0
ARC
  5
DC
  8
1
  6
CONTINUOUS
 62
     7
 10
1470.142583098
 20
-294.192419677
 30
0.0
 40
38.0
 50
52.3506527696
 51
83.8943752195
  0
ARC
  5
DD
  8
1
  6
CONTINUOUS
 62
     7
 10
1661.4425830926
 20
-342.192419677
 30
0.0
 40
7.0
 50
270.0
 51
0.0
  0
LINE
  5
DE
  8
1
  6
CENTER
 62
     7
 10
1671.4425830926
 20
-294.192419677
 30
0.0
 11
1555.4425830926
 21
-294.192419677
 31
0.0
  0
ARC
  5
DF
  8
1
  6
CONTINUOUS
 62
     7
 10
1600.2887226859
 20
-265.0209274916
 30
0.0
 40
3.0
 50
30.0
 51
114.2713227021
  0
ARC
  5
E0
  8
1
  6
CONTINUOUS
 62
     7
 10
1626.5964434952
 20
-265.0209274916
 30
0.0
 40
3.0
 50
65.7286772979
 51
150.0
  0
ARC
  5
E1
  8
1
  6
CONTINUOUS
 62
     7
 10
1606.9406593019
 20
-326.8424196735
 30
0.0
 40
4.5
 50
90.0
 51
150.0
  0
LINE
  5
E2
  8
1
  6
CONTINUOUS
 62
     7
 10
1668.4425830926
 20
-342.192419677
 30
0.0
 11
1668.4425830926
 21
-294.9424196693
 31
0.0
  0
LINE
  5
E3
  8
1
  6
CONTINUOUS
 62
     7
 10
1619.9445068792
 20
-322.3424196735
 30
0.0
 11
1606.9406593019
 21
-322.3424196735
 31
0.0
  0
LINE
  5
E4
  8
1
  6
CONTINUOUS
 62
     7
 10
1501.7197475641
 20
-390.8547807779
 30
0.0
 11
1501.7197475641
 21
-380.3547807779
 31
0.0
  0
LINE
  5
E5
  8
1
  6
CONTINUOUS
 62
     7
 10
1558.4425830926
 20
-246.192419677
 30
0.0
 11
1558.4425830926
 21
-293.4424196691
 31
0.0
  0
CIRCLE
  5
E6
  8
1
  6
CONTINUOUS
 62
     7
 10
1477.6447007619
 20
-326.6876613349
 30
0.0
 40
1.65
  0
ARC
  5
E7
  8
1
  6
CONTINUOUS
 62
     7
 10
1463.6406593094
 20
-326.842419677
 30
0.0
 40
4.5
 50
90.0
 51
150.0
  0
CIRCLE
  5
E8
  8
1
  6
CONTINUOUS
 62
     7
 10
1462.6404654372
 20
-326.6876613349
 30
0.0
 40
1.65
  0
LINE
  5
E9
  8
1
  6
CONTINUOUS
 62
     7
 10
1612.692583098
 20
-238.8924196691
 30
0.0
 11
1612.692583098
 21
-239.1924196691
 31
0.0
  0
LINE
  5
EA
  8
1
  6
CONTINUOUS
 62
     7
 10
1470.8925831004
 20
-239.1924196716
 30
0.0
 11
1470.8925831004
 21
-238.8924196716
 31
0.0
  0
LINE
  5
EB
  8
1
  6
CONTINUOUS
 62
     7
 10
1470.8925831004
 20
-349.4924196716
 30
0.0
 11
1470.8925831004
 21
-349.1924196716
 31
0.0
  0
LINE
  5
EC
  8
1
  6
CONTINUOUS
 62
     7
 10
1558.142583098
 20
-294.9424196691
 30
0.0
 11
1558.442583098
 21
-294.9424196691
 31
0.0
  0
LINE
  5
ED
  8
1
  6
CONTINUOUS
 62
     7
 10
1525.4425831004
 20
-293.4424196716
 30
0.0
 11
1525.1425831004
 21
-293.4424196716
 31
0.0
  0
LINE
  5
EE
  8
1
  6
CONTINUOUS
 62
     7
 10
1525.4425831004
 20
-390.8547807779
 30
0.0
 11
1525.4425831004
 21
-393.3547807779
 31
0.0
  0
LINE
  5
EF
  8
1
  6
CONTINUOUS
 62
     7
 10
1525.4425831004
 20
-294.9424196716
 30
0.0
 11
1525.4425831004
 21
-293.4424196716
 31
0.0
  0
LINE
  5
F0
  8
1
  6
CONTINUOUS
 62
     7
 10
1469.3925831004
 20
-349.4924196716
 30
0.0
 11
1470.8925831004
 21
-349.4924196716
 31
0.0
  0
LINE
  5
F1
  8
1
  6
CONTINUOUS
 62
     7
 10
1612.692583098
 20
-349.1924196691
 30
0.0
 11
1612.692583098
 21
-349.4924196691
 31
0.0
  0
LINE
  5
F2
  8
1
  6
CONTINUOUS
 62
     7
 10
1614.192583098
 20
-239.1924196691
 30
0.0
 11
1614.192583098
 21
-238.8924196691
 31
0.0
  0
LINE
  5
F3
  8
1
  6
CONTINUOUS
 62
     7
 10
1558.442583098
 20
-293.4424196691
 30
0.0
 11
1558.142583098
 21
-293.4424196691
 31
0.0
  0
LINE
  5
F4
  8
1
  6
CONTINUOUS
 62
     7
 10
1469.3925831004
 20
-238.8924196716
 30
0.0
 11
1469.3925831004
 21
-239.1924196716
 31
0.0
  0
LINE
  5
F5
  8
1
  6
CONTINUOUS
 62
     7
 10
1470.8925831004
 20
-390.8547807779
 30
0.0
 11
1470.8925831004
 21
-393.3547807779
 31
0.0
  0
LINE
  5
F6
  8
1
  6
CONTINUOUS
 62
     7
 10
1614.192583098
 20
-349.1924196691
 30
0.0
 11
1614.192583098
 21
-349.4924196691
 31
0.0
  0
LINE
  5
F7
  8
1
  6
CONTINUOUS
 62
     7
 10
1614.192583098
 20
-238.8924196691
 30
0.0
 11
1612.692583098
 21
-238.8924196691
 31
0.0
  0
LINE
  5
F8
  8
1
  6
CONTINUOUS
 62
     7
 10
1668.742583098
 20
-294.9424196691
 30
0.0
 11
1668.742583098
 21
-293.4424196691
 31
0.0
  0
LINE
  5
F9
  8
1
  6
CONTINUOUS
 62
     7
 10
1470.8925831004
 20
-238.8924196716
 30
0.0
 11
1469.3925831004
 21
-238.8924196716
 31
0.0
  0
LINE
  5
FA
  8
1
  6
CONTINUOUS
 62
     7
 10
1668.742583098
 20
-293.4424196691
 30
0.0
 11
1668.442583098
 21
-293.4424196691
 31
0.0
  0
LINE
  5
FB
  8
1
  6
CONTINUOUS
 62
     7
 10
1415.1425831004
 20
-293.4424196716
 30
0.0
 11
1414.8425831004
 21
-293.4424196716
 31
0.0
  0
LINE
  5
FC
  8
1
  6
CONTINUOUS
 62
     7
 10
1668.442583098
 20
-294.9424196691
 30
0.0
 11
1668.742583098
 21
-294.9424196691
 31
0.0
  0
LINE
  5
FD
  8
1
  6
CONTINUOUS
 62
     7
 10
1414.8425831004
 20
-293.4424196716
 30
0.0
 11
1414.8425831004
 21
-294.9424196716
 31
0.0
  0
LINE
  5
FE
  8
1
  6
CONTINUOUS
 62
     7
 10
1414.8425831004
 20
-294.9424196716
 30
0.0
 11
1415.1425831004
 21
-294.9424196716
 31
0.0
  0
LINE
  5
FF
  8
1
  6
CONTINUOUS
 62
     7
 10
1469.3925831004
 20
-349.1924196716
 30
0.0
 11
1469.3925831004
 21
-349.4924196716
 31
0.0
  0
LINE
  5
100
  8
1
  6
CONTINUOUS
 62
     7
 10
1525.1425831004
 20
-294.9424196716
 30
0.0
 11
1525.4425831004
 21
-294.9424196716
 31
0.0
  0
LINE
  5
101
  8
1
  6
CONTINUOUS
 62
     7
 10
1608.4425830926
 20
-333.5424196745
 30
0.0
 11
1608.4425830926
 21
-322.3424196735
 31
0.0
  0
LINE
  5
102
  8
1
  6
CONTINUOUS
 62
     7
 10
1558.142583098
 20
-293.4424196691
 30
0.0
 11
1558.142583098
 21
-294.9424196691
 31
0.0
  0
LINE
  5
103
  8
1
  6
CONTINUOUS
 62
     7
 10
1612.692583098
 20
-349.4924196691
 30
0.0
 11
1614.192583098
 21
-349.4924196691
 31
0.0
  0
LINE
  5
104
  8
1
  6
CONTINUOUS
 62
     7
 10
1469.3925831001
 20
-390.8547807779
 30
0.0
 11
1469.3925831001
 21
-393.3547807779
 31
0.0
  0
LINE
  5
105
  8
1
  6
CONTINUOUS
 62
     7
 10
1414.8425830957
 20
-390.8547807779
 30
0.0
 11
1414.8425830957
 21
-393.3547807779
 31
0.0
  0
LINE
  5
106
  8
1
  6
CONTINUOUS
 62
     7
 10
1618.4425830926
 20
-254.8424196781
 30
0.0
 11
1608.4425830926
 21
-254.8424196781
 31
0.0
  0
LINE
  5
107
  8
1
  6
CONTINUOUS
 62
     7
 10
1618.4425830926
 20
-322.3424196735
 30
0.0
 11
1618.4425830926
 21
-333.5424196745
 31
0.0
  0
ARC
  5
108
  8
1
  6
CONTINUOUS
 62
     7
 10
1567.3373239349
 20
-321.6615856331
 30
0.0
 40
3.6
 50
346.6567449872
 51
258.4456403531999
  0
ARC
  5
109
  8
1
  6
CONTINUOUS
 62
     7
 10
1613.4425830926
 20
-294.192419677
 30
0.0
 40
35.0
 50
114.271322707
 51
245.7286772921
  0
ARC
  5
10A
  8
1
  6
CONTINUOUS
 62
     7
 10
1613.4425830895
 20
-294.1924196789
 30
0.0
 40
55.8679606469
 50
34.2139029492
 51
60.61383289009999
  0
ARC
  5
10B
  8
1
  6
CONTINUOUS
 62
     7
 10
1613.4425830894
 20
-294.1924196786
 30
0.0
 40
55.8679606469
 50
124.213902951
 51
150.6138328901
  0
ARC
  5
10C
  8
1
  6
CONTINUOUS
 62
     7
 10
1659.5478422437
 20
-266.7232537269
 30
0.0
 40
3.6
 50
166.6567449872
 51
78.44564035320002
  0
LINE
  5
10D
  8
1
  6
CONTINUOUS
 62
     7
 10
1618.4425830926
 20
-266.0424196793
 30
0.0
 11
1618.4425830926
 21
-254.8424196781
 31
0.0
  0
LINE
  5
10E
  8
1
  6
CONTINUOUS
 62
     7
 10
1618.4425830926
 20
-333.5424196745
 30
0.0
 11
1608.4425830926
 21
-333.5424196745
 31
0.0
  0
LINE
  5
10F
  8
1
  6
CONTINUOUS
 62
     7
 10
1616.9425830926
 20
-329.5631456191
 30
0.0
 11
1616.9425830926
 21
-325.5216937348
 31
0.0
  0
ARC
  5
110
  8
1
  6
CONTINUOUS
 62
     7
 10
1641.9733571239
 20
-335.8218561971
 30
0.0
 40
1.0
 50
256.6567449872
 51
304.4248273984
  0
ARC
  5
111
  8
1
  6
CONTINUOUS
 62
     7
 10
1613.442583089
 20
-294.1924196786
 30
0.0
 40
51.467960647
 50
304.4248273985
 51
330.6138328902001
  0
ARC
  5
112
  8
1
  6
CONTINUOUS
 62
     7
 10
1660.2052109102
 20
-320.5269338998
 30
0.0
 40
2.2
 50
330.6138328901
 51
150.6138328901
  0
ARC
  5
113
  8
1
  6
CONTINUOUS
 62
     7
 10
1613.4425830892
 20
-294.1924196784
 30
0.0
 40
55.8679606469
 50
214.2139029514
 51
240.6138328901
  0
CIRCLE
  5
114
  8
1
  6
CONTINUOUS
 62
     7
 10
1470.1425830996
 20
-327.5424196808
 30
0.0
 40
2.0
  0
ARC
  5
115
  8
1
  6
CONTINUOUS
 62
     7
 10
1639.7770973107
 20
-247.4297918578
 30
0.0
 40
2.2
 50
60.61383289009999
 51
240.6138328901
  0
ARC
  5
116
  8
1
  6
CONTINUOUS
 62
     7
 10
1587.108068868
 20
-340.9550474995
 30
0.0
 40
2.2
 50
240.6138328901
 51
60.61383289010001
  0
CIRCLE
  5
117
  8
1
  6
CONTINUOUS
 62
     7
 10
1641.019747563
 20
-321.769584145
 30
0.0
 40
1.35
  0
CIRCLE
  5
118
  8
1
  6
CONTINUOUS
 62
     7
 10
1613.4425830926
 20
-260.842419677
 30
0.0
 40
2.0
  0
LINE
  5
119
  8
1
  6
CONTINUOUS
 62
     7
 10
1608.4425830926
 20
-254.8424196781
 30
0.0
 11
1608.4425830926
 21
-266.0424196793
 31
0.0
  0
ARC
  5
11A
  8
1
  6
CONTINUOUS
 62
     7
 10
1566.6799552683
 20
-267.8579054573
 30
0.0
 40
2.2
 50
150.6138328901
 51
330.6138328901
  0
CIRCLE
  5
11B
  8
1
  6
CONTINUOUS
 62
     7
 10
1585.8654186305
 20
-266.6152552124
 30
0.0
 40
1.35
  0
LINE
  5
11C
  8
1
  6
CONTINUOUS
 62
     7
 10
1613.4425830926
 20
-323.5009677927
 30
0.0
 11
1609.9425830926
 21
-325.5216937348
 31
0.0
  0
LINE
  5
11D
  8
1
  6
CONTINUOUS
 62
     7
 10
1613.4425830926
 20
-256.8009677927
 30
0.0
 11
1609.9425830926
 21
-258.8216937348
 31
0.0
  0
ARC
  5
11E
  8
1
  6
CONTINUOUS
 62
     7
 10
1626.5964434952
 20
-323.3639118611
 30
0.0
 40
3.0
 50
210.0
 51
294.2713227021
  0
ARC
  5
11F
  8
1
  6
CONTINUOUS
 62
     7
 10
1571.8131465722
 20
-322.7231937146
 30
0.0
 40
1.0
 50
166.6567449872
 51
214.4248273984
  0
ARC
  5
120
  8
1
  6
CONTINUOUS
 62
     7
 10
1645.4185305591
 20
-341.2190475775
 30
0.0
 40
1.0
 50
124.2139029493
 51
168.4456403532
  0
ARC
  5
121
  8
1
  6
CONTINUOUS
 62
     7
 10
1640.9117490424
 20
-340.2976788344
 30
0.0
 40
3.6
 50
76.6567449872
 51
348.4456403532
  0
ARC
  5
122
  8
1
  6
CONTINUOUS
 62
     7
 10
1613.4425830926
 20
-294.192419677
 30
0.0
 40
35.0
 50
294.2713227014
 51
65.72867729950002
  0
ARC
  5
123
  8
1
  6
CONTINUOUS
 62
     7
 10
1585.9734171362
 20
-248.0871605256
 30
0.0
 40
3.6
 50
256.6567449872
 51
168.4456403532
  0
ARC
  5
124
  8
1
  6
CONTINUOUS
 62
     7
 10
1584.9118090547
 20
-252.562983163
 30
0.0
 40
1.0
 50
76.6567449873
 51
124.4248273984
  0
ARC
  5
125
  8
1
  6
CONTINUOUS
 62
     7
 10
1655.0720196063
 20
-265.6616456454
 30
0.0
 40
1.0
 50
346.6567449872
 51
34.4248273984
  0
ARC
  5
126
  8
1
  6
CONTINUOUS
 62
     7
 10
1613.4425830895
 20
-294.1924196789
 30
0.0
 40
51.467960647
 50
34.4248273983
 51
60.6138328902
  0
ARC
  5
127
  8
1
  6
CONTINUOUS
 62
     7
 10
1613.4425830892
 20
-294.1924196784
 30
0.0
 40
51.467960647
 50
214.4248274008
 51
240.6138328902
  0
ARC
  5
128
  8
1
  6
CONTINUOUS
 62
     7
 10
1660.4692109867
 20
-262.2164722102
 30
0.0
 40
1.0
 50
214.2139029493
 51
258.4456403532
  0
CIRCLE
  5
129
  8
1
  6
CONTINUOUS
 62
     7
 10
1470.1425830996
 20
-327.5424196808
 30
0.0
 40
1.621
  0
LINE
  5
12A
  8
1
  6
CONTINUOUS
 62
     7
 10
1616.9425830926
 20
-258.8216937348
 30
0.0
 11
1613.4425830926
 21
-256.8009677927
 31
0.0
  0
LINE
  5
12B
  8
1
  6
CONTINUOUS
 62
     7
 10
1609.9425830926
 20
-258.8216937348
 30
0.0
 11
1609.9425830926
 21
-262.8631456191
 31
0.0
  0
LINE
  5
12C
  8
1
  6
CONTINUOUS
 62
     7
 10
1609.9425830926
 20
-262.8631456191
 30
0.0
 11
1613.4425830926
 21
-264.8838715613
 31
0.0
  0
LINE
  5
12D
  8
1
  6
CONTINUOUS
 62
     7
 10
1616.9425830926
 20
-262.8631456191
 30
0.0
 11
1616.9425830926
 21
-258.8216937348
 31
0.0
  0
CIRCLE
  5
12E
  8
1
  6
CONTINUOUS
 62
     7
 10
1613.4425830926
 20
-260.842419677
 30
0.0
 40
3.5
  0
ARC
  5
12F
  8
1
  6
CONTINUOUS
 62
     7
 10
1613.4425830894
 20
-294.1924196785
 30
0.0
 40
51.467960647
 50
124.4248274003
 51
150.6138328902
  0
CIRCLE
  5
130
  8
1
  6
CONTINUOUS
 62
     7
 10
1470.1425830996
 20
-260.8424196781
 30
0.0
 40
1.621
  0
LINE
  5
131
  8
1
  6
CONTINUOUS
 62
     7
 10
1613.4425830926
 20
-264.8838715613
 30
0.0
 11
1616.9425830926
 21
-262.8631456191
 31
0.0
  0
CIRCLE
  5
132
  8
1
  6
CONTINUOUS
 62
     7
 10
1470.1425830996
 20
-260.8424196781
 30
0.0
 40
2.0
  0
ARC
  5
133
  8
1
  6
CONTINUOUS
 62
     7
 10
1566.4159551918
 20
-326.1683671498
 30
0.0
 40
1.0
 50
34.21390294929999
 51
78.4456403532
  0
CIRCLE
  5
134
  8
1
  6
CONTINUOUS
 62
     7
 10
1613.4425830926
 20
-260.842419677
 30
0.0
 40
1.621
  0
LINE
  5
135
  8
1
  6
CONTINUOUS
 62
     7
 10
1609.9425830926
 20
-325.5216937348
 30
0.0
 11
1609.9425830926
 21
-329.5631456191
 31
0.0
  0
LINE
  5
136
  8
1
  6
CONTINUOUS
 62
     7
 10
1616.9425830926
 20
-325.5216937348
 30
0.0
 11
1613.4425830926
 21
-323.5009677927
 31
0.0
  0
ARC
  5
137
  8
1
  6
CONTINUOUS
 62
     7
 10
1581.4666356195
 20
-247.1657917826
 30
0.0
 40
1.0
 50
304.2139029493
 51
348.4456403532
  0
ARC
  5
138
  8
1
  6
CONTINUOUS
 62
     7
 10
1613.4425830891
 20
-294.1924196786
 30
0.0
 40
55.8679606469
 50
304.2139029494
 51
330.6138328901
  0
LINE
  5
139
  8
1
  6
CONTINUOUS
 62
     7
 10
1609.9425830926
 20
-329.5631456191
 30
0.0
 11
1613.4425830926
 21
-331.5838715613
 31
0.0
  0
LINE
  5
13A
  8
1
  6
CONTINUOUS
 62
     7
 10
1613.4425830926
 20
-331.5838715613
 30
0.0
 11
1616.9425830926
 21
-329.5631456191
 31
0.0
  0
CIRCLE
  5
13B
  8
1
  6
CONTINUOUS
 62
     7
 10
1613.4425830926
 20
-327.542419677
 30
0.0
 40
3.5
  0
CIRCLE
  5
13C
  8
1
  6
CONTINUOUS
 62
     7
 10
1613.4425830926
 20
-327.542419677
 30
0.0
 40
2.0
  0
CIRCLE
  5
13D
  8
1
  6
CONTINUOUS
 62
     7
 10
1613.4425830926
 20
-327.542419677
 30
0.0
 40
1.621
  0
ARC
  5
13E
  8
1
  6
CONTINUOUS
 62
     7
 10
1470.1425830996
 20
-294.1924196755
 30
0.0
 40
55.8679606469
 50
299.3861671099
 51
325.7860970486
  0
ARC
  5
13F
  8
1
  6
CONTINUOUS
 62
     7
 10
1428.5131465825
 20
-265.6616456426
 30
0.0
 40
1.0
 50
145.5751726016
 51
193.3432550128
  0
ARC
  5
140
  8
1
  6
CONTINUOUS
 62
     7
 10
1424.0373239452
 20
-266.7232537241
 30
0.0
 40
3.6
 50
101.5543596468
 51
13.3432550128
  0
ARC
  5
141
  8
1
  6
CONTINUOUS
 62
     7
 10
1470.1425830993
 20
-294.192419676
 30
0.0
 40
51.467960647
 50
119.3861671098
 51
145.5751726017
  0
ARC
  5
142
  8
1
  6
CONTINUOUS
 62
     7
 10
1470.1425830995
 20
-294.1924196757
 30
0.0
 40
55.8679606469
 50
29.3861671099
 51
55.78609704899999
  0
ARC
  5
143
  8
1
  6
CONTINUOUS
 62
     7
 10
1442.5654186346
 20
-321.7695841438
 30
0.0
 40
4.0
 50
131.3246736132
 51
318.6753263868
  0
ARC
  5
144
  8
1
  6
CONTINUOUS
 62
     7
 10
1419.9776024696
 20
-389.8547807779
 30
0.0
 40
1.0
 50
270.0
 51
288.7366091989
  0
LINE
  5
145
  8
1
  6
CONTINUOUS
 62
     7
 10
1438.565418632
 20
-390.8547807779
 30
0.0
 11
1438.565418632
 21
-380.3547807779
 31
0.0
  0
ARC
  5
146
  8
1
  6
CONTINUOUS
 62
     7
 10
1470.142583098
 20
-294.192419677
 30
0.0
 40
38.0
 50
96.10562477519998
 51
217.6493472298
  0
LINE
  5
147
  8
1
  6
CONTINUOUS
 62
     7
 10
1414.8425831004
 20
-390.8547807779
 30
0.0
 11
1525.4425831004
 21
-390.8547807779
 31
0.0
  0
LINE
  5
148
  8
1
  6
CONTINUOUS
 62
     7
 10
1446.3203178495
 20
-380.3547807779
 30
0.0
 11
1446.3203178495
 21
-390.8547807779
 31
0.0
  0
ARC
  5
149
  8
1
  6
CONTINUOUS
 62
     7
 10
1470.142583098
 20
-294.192419677
 30
0.0
 40
38.0
 50
232.3506527774
 51
263.8943752274
  0
ARC
  5
14A
  8
1
  6
CONTINUOUS
 62
     7
 10
1501.0213732071
 20
-270.3701544288
 30
0.0
 40
1.0
 50
131.3246736133
 51
217.6493472265
  0
LINE
  5
14B
  8
1
  6
CONTINUOUS
 62
     7
 10
1432.3348907903
 20
-380.3547807779
 30
0.0
 11
1507.9502754057
 21
-380.3547807779
 31
0.0
  0
ARC
  5
14C
  8
1
  6
CONTINUOUS
 62
     7
 10
1470.1425830997
 20
-294.1924196755
 30
0.0
 40
51.467960647
 50
299.3861671098
 51
325.5751725992
  0
ARC
  5
14D
  8
1
  6
CONTINUOUS
 62
     7
 10
1439.2637929948
 20
-318.0146849262
 30
0.0
 40
1.0
 50
311.3246736131999
 51
37.64934722650003
  0
ARC
  5
14E
  8
1
  6
CONTINUOUS
 62
     7
 10
1470.142583098
 20
-294.192419677
 30
0.0
 40
38.0
 50
276.1056247779
 51
37.64934722329997
  0
ARC
  5
14F
  8
1
  6
CONTINUOUS
 62
     7
 10
1470.1425830994
 20
-294.192419676
 30
0.0
 40
55.8679606469
 50
119.3861671099
 51
145.7860970508
  0
ARC
  5
150
  8
1
  6
CONTINUOUS
 62
     7
 10
1493.9648483496
 20
-263.3136295713
 30
0.0
 40
1.0
 50
232.3506527735
 51
318.6753263868
  0
ARC
  5
151
  8
1
  6
CONTINUOUS
 62
     7
 10
1446.3203178522
 20
-325.0712097836
 30
0.0
 40
1.0
 50
52.35065277349999
 51
138.6753263868
  0
LINE
  5
152
  8
1
  6
CONTINUOUS
 62
     7
 10
1415.142583098
 20
-390.8547807779
 30
0.0
 11
1415.142583098
 21
-393.3547807779
 31
0.0
  0
LINE
  5
153
  8
1
  6
CENTER
 62
     7
 10
1470.142583098
 20
-377.3547807779
 30
0.0
 11
1470.142583098
 21
-396.3547807779
 31
0.0
  0
LINE
  5
154
  8
1
  6
CONTINUOUS
 62
     7
 10
1467.0098999154
 20
-380.3547807779
 30
0.0
 11
1467.0098999154
 21
-390.8547807779
 31
0.0
  0
LINE
  5
155
  8
1
  6
CONTINUOUS
 62
     7
 10
1432.3348907903
 20
-386.7192276086
 30
0.0
 11
1432.3348907903
 21
-380.3547807779
 31
0.0
  0
LINE
  5
156
  8
1
  6
CONTINUOUS
 62
     7
 10
1420.2988206157
 20
-390.8017860063
 30
0.0
 11
1437.8315942552
 21
-384.8547807779
 31
0.0
  0
ARC
  5
157
  8
1
  6
CONTINUOUS
 62
     7
 10
1423.1159552021
 20
-262.2164722074
 30
0.0
 40
1.0
 50
281.5543596468
 51
325.7860970507
  0
ARC
  5
158
  8
1
  6
CONTINUOUS
 62
     7
 10
1470.1425830994
 20
-294.1924196756
 30
0.0
 40
51.467960647
 50
29.3861671098
 51
55.5751725997
  0
ARC
  5
159
  8
1
  6
CONTINUOUS
 62
     7
 10
1497.7197475672
 20
-266.6152552112
 30
0.0
 40
4.0
 50
311.3246736131999
 51
138.6753263868
  0
LINE
  5
15A
  8
1
  6
CONTINUOUS
 62
     7
 10
1415.142583098
 20
-342.192419677
 30
0.0
 11
1415.142583098
 21
-294.9424196715
 31
0.0
  0
LINE
  5
15B
  8
1
  6
CONTINUOUS
 62
     7
 10
1525.142583098
 20
-294.9424196718
 30
0.0
 11
1525.142583098
 21
-342.192419677
 31
0.0
  0
ARC
  5
15C
  8
1
  6
CONTINUOUS
 62
     7
 10
1443.8080688781
 20
-247.4297918549
 30
0.0
 40
2.2
 50
299.3861671099
 51
119.3861671098
  0
LINE
  5
15D
  8
1
  6
CONTINUOUS
 62
     7
 10
1518.142583098
 20
-349.192419677
 30
0.0
 11
1470.8925831004
 21
-349.192419677
 31
0.0
  0
LINE
  5
15E
  8
1
  6
CONTINUOUS
 62
     7
 10
1520.142583098
 20
-312.192419677
 30
0.0
 11
1520.142583098
 21
-314.192419677
 31
0.0
  0
LINE
  5
15F
  8
1
  6
CONTINUOUS
 62
     7
 10
1422.142583098
 20
-239.192419677
 30
0.0
 11
1469.3925831004
 21
-239.192419677
 31
0.0
  0
LINE
  5
160
  8
1
  6
CONTINUOUS
 62
     7
 10
1420.142583098
 20
-276.192419677
 30
0.0
 11
1420.142583098
 21
-274.192419677
 31
0.0
  0
LINE
  5
161
  8
1
  6
CONTINUOUS
 62
     7
 10
1420.142583098
 20
-312.192419677
 30
0.0
 11
1420.142583098
 21
-314.192419677
 31
0.0
  0
LINE
  5
162
  8
1
  6
CONTINUOUS
 62
     7
 10
1505.2424406476
 20
-312.192419677
 30
0.0
 11
1520.142583098
 21
-312.192419677
 31
0.0
  0
ARC
  5
163
  8
1
  6
CONTINUOUS
 62
     7
 10
1505.2424406476
 20
-311.192419677
 30
0.0
 40
1.0
 50
154.1575871263
 51
270.0
  0
ARC
  5
164
  8
1
  6
CONTINUOUS
 62
     7
 10
1518.142583098
 20
-342.192419677
 30
0.0
 40
7.0
 50
270.0
 51
0.0
  0
LINE
  5
165
  8
1
  6
CONTINUOUS
 62
     7
 10
1503.0059365483
 20
-314.192419677
 30
0.0
 11
1520.142583098
 21
-314.192419677
 31
0.0
  0
ARC
  5
166
  8
1
  6
CONTINUOUS
 62
     7
 10
1518.142583098
 20
-246.192419677
 30
0.0
 40
7.0
 50
0.0
 51
90.0
  0
LINE
  5
167
  8
1
  6
CONTINUOUS
 62
     7
 10
1470.8925831004
 20
-239.192419677
 30
0.0
 11
1518.142583098
 21
-239.192419677
 31
0.0
  0
ARC
  5
168
  8
1
  6
CONTINUOUS
 62
     7
 10
1496.4770973208
 20
-340.9550474966
 30
0.0
 40
2.2
 50
119.3861671099
 51
299.3861671098
  0
ARC
  5
169
  8
1
  6
CONTINUOUS
 62
     7
 10
1516.9052109205
 20
-267.8579054544
 30
0.0
 40
2.2
 50
209.3861671099
 51
29.38616710989999
  0
LINE
  5
16A
  8
1
  6
CONTINUOUS
 62
     7
 10
1525.142583098
 20
-246.192419677
 30
0.0
 11
1525.142583098
 21
-293.4424196716
 31
0.0
  0
LINE
  5
16B
  8
1
  6
CONTINUOUS
 62
     7
 10
1520.142583098
 20
-274.192419677
 30
0.0
 11
1520.142583098
 21
-276.192419677
 31
0.0
  0
ARC
  5
16C
  8
1
  6
CONTINUOUS
 62
     7
 10
1422.142583098
 20
-246.192419677
 30
0.0
 40
7.0
 50
90.0
 51
180.0
  0
ARC
  5
16D
  8
1
  6
CONTINUOUS
 62
     7
 10
1422.142583098
 20
-342.192419677
 30
0.0
 40
7.0
 50
180.0
 51
270.0
  0
LINE
  5
16E
  8
1
  6
CONTINUOUS
 62
     7
 10
1415.142583098
 20
-293.4424196716
 30
0.0
 11
1415.142583098
 21
-246.192419677
 31
0.0
  0
LINE
  5
16F
  8
1
  6
CONTINUOUS
 62
     7
 10
1469.3925831001
 20
-349.1924196769
 30
0.0
 11
1422.142583098
 21
-349.192419677
 31
0.0
  0
ARC
  5
170
  8
1
  6
CONTINUOUS
 62
     7
 10
1423.3799552787
 20
-320.5269338969
 30
0.0
 40
2.2
 50
29.3861671099
 51
209.3861671099
  0
ARC
  5
171
  8
1
  6
CONTINUOUS
 62
     7
 10
1476.6445068867
 20
-326.842419677
 30
0.0
 40
4.5
 50
30.0
 51
90.0
  0
ENDSEC
  0
EOF
