  0
SECTION
  2
HEADER
  9
$ACADVER
  1
AC1004
  9
$INSBASE
 10
0.0
 20
0.0
  9
$EXTMIN
 10
-381.9516582228575
 20
17.19917780073224
  9
$EXTMAX
 10
-178.4428659242114
 20
202.6761445451296
  9
$LIMMIN
 10
0.0
 20
0.0
  9
$LIMMAX
 10
12.0
 20
9.0
  9
$ORTHOMODE
 70
     0
  9
$REGENMODE
 70
     1
  9
$FILLMODE
 70
     1
  9
$QTEXTMODE
 70
     0
  9
$DRAGMODE
 70
     2
  9
$LTSCALE
 40
1.0
  9
$OSMODE
 70
    37
  9
$ATTMODE
 70
     1
  9
$TEXTSIZE
 40
0.2
  9
$TRACEWID
 40
0.05
  9
$TEXTSTYLE
  7
STANDARD
  9
$CLAYER
  8
0
  9
$CELTYPE
  6
BYLAYER
  9
$CECOLOR
 62
   256
  9
$DIMSCALE
 40
1.0
  9
$DIMASZ
 40
3.0
  9
$DIMEXO
 40
0.0625
  9
$DIMDLI
 40
0.38
  9
$DIMRND
 40
0.0
  9
$DIMDLE
 40
0.0
  9
$DIMEXE
 40
1.5
  9
$DIMTP
 40
0.0
  9
$DIMTM
 40
0.0
  9
$DIMTXT
 40
3.0
  9
$DIMCEN
 40
0.09
  9
$DIMTSZ
 40
0.0
  9
$DIMTOL
 70
     0
  9
$DIMLIM
 70
     0
  9
$DIMTIH
 70
     1
  9
$DIMTOH
 70
     1
  9
$DIMSE1
 70
     0
  9
$DIMSE2
 70
     0
  9
$DIMTAD
 70
     1
  9
$DIMZIN
 70
     0
  9
$DIMBLK
  1

  9
$DIMASO
 70
     1
  9
$DIMSHO
 70
     1
  9
$DIMPOST
  1

  9
$DIMAPOST
  1

  9
$DIMALT
 70
     0
  9
$DIMALTD
 70
     2
  9
$DIMALTF
 40
25.4
  9
$DIMLFAC
 40
1.0
  9
$DIMTOFL
 70
     0
  9
$DIMTVP
 40
0.0
  9
$DIMTIX
 70
     0
  9
$DIMSOXD
 70
     0
  9
$DIMSAH
 70
     0
  9
$DIMBLK1
  1

  9
$DIMBLK2
  1

  9
$LUNITS
 70
     2
  9
$LUPREC
 70
     4
  9
$SKETCHINC
 40
0.1
  9
$FILLETRAD
 40
0.5
  9
$AUNITS
 70
     0
  9
$AUPREC
 70
     0
  9
$MENU
  1
.
  9
$ELEVATION
 40
0.0
  9
$THICKNESS
 40
0.0
  9
$LIMCHECK
 70
     0
  9
$CHAMFERA
 40
0.0
  9
$CHAMFERB
 40
0.0
  9
$SKPOLY
 70
     0
  9
$TDCREATE
 40
2459530.544908588
  9
$TDUPDATE
 40
2459530.544908773
  9
$TDINDWG
 40
0.0000000116
  9
$TDUSRTIMER
 40
0.0000000116
  9
$USRTIMER
 70
     1
  9
$ANGBASE
 50
0.0
  9
$ANGDIR
 70
     0
  9
$PDMODE
 70
     0
  9
$PDSIZE
 40
0.0
  9
$PLINEWID
 40
0.0
  9
$COORDS
 70
     1
  9
$SPLFRAME
 70
     0
  9
$SPLINETYPE
 70
     6
  9
$SPLINESEGS
 70
     8
  9
$ATTDIA
 70
     0
  9
$ATTREQ
 70
     1
  9
$SURFTAB1
 70
     6
  9
$SURFTAB2
 70
     6
  9
$SURFTYPE
 70
     6
  9
$SURFU
 70
     6
  9
$SURFV
 70
     6
  9
$UCSNAME
  2

  9
$UCSORG
 10
0.0
 20
0.0
 30
0.0
  9
$UCSXDIR
 10
1.0
 20
0.0
 30
0.0
  9
$UCSYDIR
 10
0.0
 20
1.0
 30
0.0
  9
$USERI1
 70
     0
  9
$USERI2
 70
     0
  9
$USERI3
 70
     0
  9
$USERI4
 70
     0
  9
$USERI5
 70
     0
  9
$USERR1
 40
0.0
  9
$USERR2
 40
0.0
  9
$USERR3
 40
0.0
  9
$USERR4
 40
0.0
  9
$USERR5
 40
0.0
  9
$WORLDVIEW
 70
     1
  0
ENDSEC
  0
SECTION
  2
TABLES
  0
TABLE
  2
LTYPE
 70
     2
  0
LTYPE
  2
CONTINUOUS
 70
     0
  3
Solid line
 72
    65
 73
     0
 40
0.0
  0
LTYPE
  2
CENTER
 70
     0
  3

 72
    65
 73
     0
 40
0.0
  0
ENDTAB
  0
TABLE
  2
LAYER
 70
     2
  0
LAYER
  2
0
 70
     0
 62
     7
  6
CONTINUOUS
  0
LAYER
  2
2
 70
     0
 62
     7
  6
CONTINUOUS
  0
ENDTAB
  0
TABLE
  2
STYLE
 70
     2
  0
STYLE
  2
STANDARD
 70
     0
 40
0.0
 41
1.0
 50
0.0
 71
     0
 42
0.2
  3
txt
  4

  0
STYLE
  2
ＭＳ_ゴシック
 70
     0
 40
0.0
 41
1.0
 50
0.0
 71
     0
 42
0.2
  3
ＭＳ ゴシック.shx
  4

  0
ENDTAB
  0
TABLE
  2
VIEW
 70
     0
  0
ENDTAB
  0
ENDSEC
  0
SECTION
  2
BLOCKS
  0
BLOCK
  8
0
  2
D_FRAME_VIEW_3309
 70
     0
 10
0.0
 20
0.0
  0
LINE
  8
2
  6
CONTINUOUS
 62
     7
 10
-195.0428690436535
 20
109.8283961270815
 11
-197.25159212743
 21
109.7898427222457
  0
LINE
  8
2
  6
CONTINUOUS
 62
     7
 10
-197.7428659242114
 20
109.2899188746675
 11
-197.7428659242114
 21
106.5724150042895
  0
ARC
  8
2
  6
CONTINUOUS
 62
     7
 10
-197.2428659242114
 20
109.2899188746675
 40
0.5000000000000004
 50
91.0
 51
180.0
  0
ARC
  8
2
  6
CONTINUOUS
 62
     7
 10
-197.4428659242114
 20
101.6261445451296
 40
4.000000000000002
 50
53.13010235415584
 51
87.45268181742959
  0
LINE
  8
2
  6
CONTINUOUS
 62
     7
 10
-197.599824070622
 20
105.771582377492
 11
-197.2650881464336
 21
105.6221919749943
  0
LINE
  8
2
  6
CONTINUOUS
 62
     7
 10
-197.7428659242114
 20
106.1216979037274
 11
-197.599824070622
 21
105.771582377492
  0
LINE
  8
2
  6
CONTINUOUS
 62
     7
 10
-197.7428659242114
 20
106.5724150042895
 11
-197.7428659242114
 21
106.1216979037274
  0
ARC
  8
2
  6
CONTINUOUS
 62
     7
 10
-193.7428659242113
 20
101.3277057336857
 40
1.5
 50
150.0735651333858
 51
180.0
  0
LINE
  8
2
  6
CONTINUOUS
 62
     7
 10
-195.2428659242113
 20
101.3277057336857
 11
-195.2428659242113
 21
98.62614454512958
  0
LINE
  8
2
  6
CONTINUOUS
 62
     7
 10
-195.2428659242113
 20
98.62614454512958
 11
-195.3265036836144
 21
98.42684324818002
  0
LINE
  8
2
  6
CONTINUOUS
 62
     7
 10
-197.25159212743
 20
97.46120699142978
 11
-195.7427897717895
 21
97.43487074834822
  0
LINE
  8
2
  6
CONTINUOUS
 62
     7
 10
-195.7427897717896
 20
97.43487074834822
 11
-195.3265036836144
 21
98.42684324818002
  0
ARC
  8
2
  6
CONTINUOUS
 62
     7
 10
-197.2428659242114
 20
97.96113083900798
 40
0.5000000000000004
 50
180.0
 51
268.9999999999999
  0
LINE
  8
2
  6
CONTINUOUS
 62
     7
 10
-197.7428659242114
 20
98.46075023927278
 11
-197.7428659242114
 21
97.96113083900796
  0
LINE
  8
2
  6
CONTINUOUS
 62
     7
 10
-197.7428659242114
 20
106.1216979037274
 11
-197.7428659242114
 21
98.46075023927278
  0
LINE
  8
2
  6
CONTINUOUS
 62
     7
 10
-179.434139388713
 20
102.4761826220654
 11
-179.4428659242114
 21
102.4761445451296
  0
LINE
  8
2
  6
CONTINUOUS
 62
     7
 10
-179.4428659242114
 20
102.4761445451296
 11
-182.0428480389745
 21
102.4761445451296
  0
LINE
  8
2
  6
CONTINUOUS
 62
     7
 10
-178.4428659242114
 20
103.4761445451296
 11
-178.4428659242114
 21
108.1539303176732
  0
ARC
  8
2
  6
CONTINUOUS
 62
     7
 10
-179.4428659242114
 20
103.4761445451296
 40
0.999999999999975
 50
270.4999999999989
 51
0.0000000000015916
  0
LINE
  8
2
  6
CONTINUOUS
 62
     7
 10
-195.0428690436535
 20
184.9238929631777
 11
-197.25159212743
 21
184.9624463680134
  0
LINE
  8
2
  6
CONTINUOUS
 62
     7
 10
-197.7428659242114
 20
185.4623702155916
 11
-197.7428659242114
 21
188.1798740859697
  0
ARC
  8
2
  6
CONTINUOUS
 62
     7
 10
-197.2428659242114
 20
185.4623702155916
 40
0.5000000000000004
 50
180.0
 51
269.0
  0
LINE
  8
2
  6
CONTINUOUS
 62
     7
 10
-197.599824070622
 20
188.9807067127672
 11
-197.2650881464336
 21
189.1300971152649
  0
ARC
  8
2
  6
CONTINUOUS
 62
     7
 10
-197.4428659242114
 20
193.1261445451296
 40
4.000000000000002
 50
272.5473181825704
 51
306.8698976458439
  0
LINE
  8
2
  6
CONTINUOUS
 62
     7
 10
-197.7428659242114
 20
188.1798740859697
 11
-197.7428659242114
 21
188.6305911865318
  0
LINE
  8
2
  6
CONTINUOUS
 62
     7
 10
-197.7428659242114
 20
188.6305911865318
 11
-197.599824070622
 21
188.9807067127672
  0
LINE
  8
2
  6
CONTINUOUS
 62
     7
 10
-195.2428659242113
 20
196.1261445451296
 11
-195.3265036836144
 21
196.3254458420792
  0
LINE
  8
2
  6
CONTINUOUS
 62
     7
 10
-195.2428659242113
 20
193.4245833565735
 11
-195.2428659242113
 21
196.1261445451296
  0
ARC
  8
2
  6
CONTINUOUS
 62
     7
 10
-193.7428659242113
 20
193.4245833565735
 40
1.5
 50
180.0
 51
209.9264348666142
  0
LINE
  8
2
  6
CONTINUOUS
 62
     7
 10
-197.25159212743
 20
197.2910820988294
 11
-195.7427897717895
 21
197.317418341911
  0
LINE
  8
2
  6
CONTINUOUS
 62
     7
 10
-195.7427897717896
 20
197.317418341911
 11
-195.3265036836144
 21
196.3254458420792
  0
ARC
  8
2
  6
CONTINUOUS
 62
     7
 10
-197.2428659242114
 20
196.7911582512512
 40
0.5000000000000004
 50
91.00000000000006
 51
180.0
  0
LINE
  8
2
  6
CONTINUOUS
 62
     7
 10
-197.7428659242114
 20
196.2915388509864
 11
-197.7428659242114
 21
196.7911582512512
  0
LINE
  8
2
  6
CONTINUOUS
 62
     7
 10
-197.7428659242114
 20
188.6305911865318
 11
-197.7428659242114
 21
196.2915388509864
  0
LINE
  8
2
  6
CONTINUOUS
 62
     7
 10
-179.4428659242114
 20
192.2761445451296
 11
-182.0428480389745
 21
192.2761445451296
  0
LINE
  8
2
  6
CONTINUOUS
 62
     7
 10
-179.434139388713
 20
192.2761064681937
 11
-179.4428659242114
 21
192.2761445451296
  0
ARC
  8
2
  6
CONTINUOUS
 62
     7
 10
-179.4428659242113
 20
191.2761445451297
 40
0.999999999999947
 50
359.9999999999968
 51
89.50000000000266
  0
LINE
  8
2
  6
CONTINUOUS
 62
     7
 10
-178.4428659242114
 20
191.2761445451296
 11
-178.4428659242114
 21
186.598358772586
  0
LINE
  8
2
  6
CONTINUOUS
 62
     7
 10
-182.0428659242113
 20
146.3761445451296
 11
-182.0428659242114
 21
97.0761445451296
  0
LINE
  8
2
  6
CONTINUOUS
 62
     7
 10
-183.6428659242113
 20
146.3761445451296
 11
-183.6428659242113
 21
97.07614454512958
  0
LINE
  8
2
  6
CONTINUOUS
 62
     7
 10
-182.0428659242113
 20
146.3761445451296
 11
-183.6428659242113
 21
146.3761445451296
  0
LINE
  8
2
  6
CONTINUOUS
 62
     7
 10
-182.0428659242113
 20
146.3761445451296
 11
-182.0428659242114
 21
147.3761445451296
  0
LINE
  8
2
  6
CONTINUOUS
 62
     7
 10
-183.6428659242113
 20
147.3761445451296
 11
-183.6428659242113
 21
146.3761445451296
  0
LINE
  8
2
  6
CONTINUOUS
 62
     7
 10
-182.0428659242114
 20
147.3761445451296
 11
-183.6428659242113
 21
147.3761445451296
  0
LINE
  8
2
  6
CONTINUOUS
 62
     7
 10
-183.6428659242113
 20
202.6761445451296
 11
-182.0428659242114
 21
202.6761445451296
  0
LINE
  8
2
  6
CONTINUOUS
 62
     7
 10
-183.6428659242113
 20
197.6761445451296
 11
-183.6428659242113
 21
202.6761445451296
  0
LINE
  8
2
  6
CONTINUOUS
 62
     7
 10
-182.0428659242114
 20
202.6761445451296
 11
-182.0428659242114
 21
197.6761445451296
  0
LINE
  8
2
  6
CONTINUOUS
 62
     7
 10
-182.0428659242114
 20
148.3761445451296
 11
-183.6428659242113
 21
148.3761445451296
  0
LINE
  8
2
  6
CONTINUOUS
 62
     7
 10
-183.6428659242113
 20
197.6761445451296
 11
-183.6428659242113
 21
148.3761445451296
  0
LINE
  8
2
  6
CONTINUOUS
 62
     7
 10
-182.0428659242114
 20
197.6761445451296
 11
-182.0428659242114
 21
148.3761445451296
  0
LINE
  8
2
  6
CONTINUOUS
 62
     7
 10
-183.6428659242113
 20
148.3761445451296
 11
-183.6428659242113
 21
147.3761445451296
  0
LINE
  8
2
  6
CONTINUOUS
 62
     7
 10
-182.0428659242114
 20
147.3761445451296
 11
-182.0428659242114
 21
148.3761445451296
  0
LINE
  8
2
  6
CONTINUOUS
 62
     7
 10
-182.0428659242114
 20
92.07614454512961
 11
-183.6428659242113
 21
92.07614454512961
  0
LINE
  8
2
  6
CONTINUOUS
 62
     7
 10
-183.6428659242113
 20
92.07614454512961
 11
-183.6428659242113
 21
97.07614454512958
  0
LINE
  8
2
  6
CONTINUOUS
 62
     7
 10
-182.0428659242114
 20
97.07614454512958
 11
-182.0428659242114
 21
92.07614454512961
  0
LINE
  8
2
  6
CONTINUOUS
 62
     7
 10
-185.2149420739117
 20
95.90459749621301
 11
-192.0952231435232
 21
96.02469324900747
  0
LINE
  8
2
  6
CONTINUOUS
 62
     7
 10
-192.0952231435232
 20
198.7275958412517
 11
-185.2149420739117
 21
198.8476915940462
  0
LINE
  8
2
  6
CONTINUOUS
 62
     7
 10
-195.0428659242114
 20
177.1308856258736
 11
-195.0428659242114
 21
195.7280527557825
  0
ARC
  8
2
  6
CONTINUOUS
 62
     7
 10
-192.0428659242114
 20
195.7280527557825
 40
3.000000000000007
 50
90.99999999999997
 51
180.0
  0
LINE
  8
2
  6
CONTINUOUS
 62
     7
 10
-195.0428659242114
 20
117.6214034643855
 11
-195.0428659242114
 21
177.1308856258736
  0
ARC
  8
2
  6
CONTINUOUS
 62
     7
 10
-192.0428659242114
 20
99.02423633447665
 40
2.999999999999993
 50
180.0
 51
269.0
  0
LINE
  8
2
  6
CONTINUOUS
 62
     7
 10
-195.0428659242114
 20
99.02423633447665
 11
-195.0428659242114
 21
117.6214034643855
  0
ARC
  8
2
  6
CONTINUOUS
 62
     7
 10
-185.2428659242113
 20
200.4474479062964
 40
1.599999999999979
 50
271.0
 51
0.0
  0
ARC
  8
2
  6
CONTINUOUS
 62
     7
 10
-185.2428659242113
 20
94.30484118396281
 40
1.59999999999999
 50
0.0
 51
88.99999999999991
  0
LINE
  8
2
  6
CONTINUOUS
 62
     7
 10
-179.434139388713
 20
109.1538922407374
 11
-182.0428659242114
 21
109.1766582523149
  0
ARC
  8
2
  6
CONTINUOUS
 62
     7
 10
-179.4428659242114
 20
108.1539303176732
 40
1.000000000000001
 50
0.0
 51
89.49999999999991
  0
LINE
  8
2
  6
CONTINUOUS
 62
     7
 10
-182.0428659242114
 20
185.5756308379443
 11
-179.434139388713
 21
185.5983968495218
  0
ARC
  8
2
  6
CONTINUOUS
 62
     7
 10
-179.4428659242114
 20
186.598358772586
 40
1.000000000000003
 50
270.5000000000001
 51
0.0
  0
ENDBLK
  8
0
  0
BLOCK
  8
0
  2
D_FRAME_VIEW_3440
 70
     0
 10
0.0
 20
0.0
  0
LINE
  8
2
  6
CONTINUOUS
 62
     7
 10
-337.0529409509135
 20
34.08281556013529
 11
-337.0176635592198
 21
34.18398818296208
  0
ARC
  8
2
  6
CONTINUOUS
 62
     7
 10
-336.1335375078701
 20
33.11802301106292
 40
1.384904553526091
 50
85.74013857346426
 51
129.6727751444113
  0
LINE
  8
2
  6
CONTINUOUS
 62
     7
 10
-336.9511372559603
 20
36.02534577885372
 11
-337.0529409509135
 21
34.08281556013529
  0
LINE
  8
2
  6
CONTINUOUS
 62
     7
 10
-321.8726498283626
 20
34.49910164831044
 11
-336.0306666173525
 21
34.49910164831044
  0
ARC
  8
2
  6
CONTINUOUS
 62
     7
 10
-321.7893693873858
 20
32.99251895115513
 40
1.508882717515533
 50
54.64161124969337
 51
93.16395946408734
  0
POLYLINE
  8
2
  6
CONTINUOUS
 62
     7
 66
     1
  0
VERTEX
  8
2
  6
CONTINUOUS
 62
     7
 10
-320.9161955106547
 20
34.22308566458896
  0
VERTEX
  8
2
  6
CONTINUOUS
 62
     7
 10
-320.8573307960157
 20
34.12363051609705
  0
VERTEX
  8
2
  6
CONTINUOUS
 62
     7
 10
-320.8503754948015
 20
34.08281556013529
  0
SEQEND
  8
2
  6
CONTINUOUS
 62
     7
  0
LINE
  8
2
  6
CONTINUOUS
 62
     7
 10
-320.845992225567
 20
33.99917780073224
 11
-320.8503754948015
 21
34.08281556013529
  0
LINE
  8
2
  6
CONTINUOUS
 62
     7
 10
-337.0573242201481
 20
33.99917780073224
 11
-320.845992225567
 21
33.99917780073224
  0
LINE
  8
2
  6
CONTINUOUS
 62
     7
 10
-337.0529409509135
 20
34.08281556013529
 11
-337.0573242201481
 21
33.99917780073224
  0
LINE
  8
2
  6
CONTINUOUS
 62
     7
 10
-320.8503754948015
 20
34.08281556013529
 11
-320.9521791897548
 21
36.02534577885372
  0
LINE
  8
2
  6
CONTINUOUS
 62
     7
 10
-321.9517228091988
 20
36.49917780073224
 11
-335.9515936365163
 21
36.49917780073224
  0
ARC
  8
2
  6
CONTINUOUS
 62
     7
 10
-336.451822488583
 20
35.99917780073224
 40
0.5000000000000004
 50
90.0
 51
177.0
  0
LINE
  8
2
  6
CONTINUOUS
 62
     7
 10
-335.9515936365163
 20
36.49917780073224
 11
-336.451822488583
 21
36.49917780073224
  0
LINE
  8
2
  6
CONTINUOUS
 62
     7
 10
-321.4514939571321
 20
36.49917780073224
 11
-321.9517228091988
 21
36.49917780073224
  0
ARC
  8
2
  6
CONTINUOUS
 62
     7
 10
-321.4514939571321
 20
35.99917780073224
 40
0.5000000000000004
 50
3.000000000000171
 51
90.0
  0
LINE
  8
2
  6
CONTINUOUS
 62
     7
 10
-337.0678057760047
 20
33.79917780073225
 11
-337.0573242201481
 21
33.99917780073224
  0
LINE
  8
2
  6
CONTINUOUS
 62
     7
 10
-320.845992225567
 20
33.99917780073224
 11
-320.8355106697104
 21
33.79917780073225
  0
LINE
  8
2
  6
CONTINUOUS
 62
     7
 10
-318.3887006787155
 20
35.65412695142277
 11
-318.3958117656626
 21
36.00790400395089
  0
LINE
  8
2
  6
CONTINUOUS
 62
     7
 10
-318.3958117656626
 20
36.00790400395089
 11
-318.5387839911626
 21
36.3561359471429
  0
LINE
  8
2
  6
CONTINUOUS
 62
     7
 10
-318.3554665205265
 20
34.14635119114204
 11
-318.3887006787155
 21
35.65412695142277
  0
LINE
  8
2
  6
CONTINUOUS
 62
     7
 10
-318.3554665205265
 20
34.14635119114204
 11
-318.3494065864555
 21
33.79917780073225
  0
LINE
  8
2
  6
CONTINUOUS
 62
     7
 10
-339.5539098592595
 20
33.79917780073225
 11
-339.5478499251885
 21
34.14635119114205
  0
LINE
  8
2
  6
CONTINUOUS
 62
     7
 10
-331.4794439954012
 20
17.19917780073225
 11
-330.2810193144629
 21
17.19917780073225
  0
LINE
  8
2
  6
CONTINUOUS
 62
     7
 10
-327.6222971312523
 20
17.19917780073225
 11
-326.4238724503139
 21
17.19917780073225
  0
ARC
  8
2
  6
CONTINUOUS
 62
     7
 10
-329.7583805583947
 20
18.11839047698775
 40
2.396120888208594
 50
339.6297473323646
 51
1.723369501913169
  0
POLYLINE
  8
2
  6
CONTINUOUS
 62
     7
 66
     1
  0
VERTEX
  8
2
  6
CONTINUOUS
 62
     7
 10
-327.5121062705981
 20
17.2843358415511
  0
VERTEX
  8
2
  6
CONTINUOUS
 62
     7
 10
-327.5870806346013
 20
17.20709202750184
  0
VERTEX
  8
2
  6
CONTINUOUS
 62
     7
 10
-327.6222971312523
 20
17.19917780073224
  0
SEQEND
  8
2
  6
CONTINUOUS
 62
     7
  0
LINE
  8
2
  6
CONTINUOUS
 62
     7
 10
-330.2810193144629
 20
17.19917780073224
 11
-330.3687347976759
 21
17.25136865741258
  0
ARC
  8
2
  6
CONTINUOUS
 62
     7
 10
-328.4338781483654
 20
18.08933605811176
 40
2.108520717947843
 50
177.251296874829
 51
203.4169622432535
  0
LINE
  8
2
  6
CONTINUOUS
 62
     7
 10
-330.540066584453
 20
18.19917780073224
 11
-330.5399729546132
 21
18.19045126523387
  0
LINE
  8
2
  6
CONTINUOUS
 62
     7
 10
-327.3633434911018
 20
18.19045126523387
 11
-327.3632498612621
 21
18.19917780073224
  0
LINE
  8
2
  6
CONTINUOUS
 62
     7
 10
-327.3632498612621
 20
18.19917780073224
 11
-327.3134743270242
 21
20.79915991549536
  0
LINE
  8
2
  6
CONTINUOUS
 62
     7
 10
-330.5898421186909
 20
20.79915991549536
 11
-330.540066584453
 21
18.19917780073224
  0
LINE
  8
2
  6
CONTINUOUS
 62
     7
 10
-330.2810193144629
 20
17.19917780073224
 11
-327.6222971312523
 21
17.19917780073224
  0
LINE
  8
2
  6
CONTINUOUS
 62
     7
 10
-339.5025416966565
 20
36.00790400395089
 11
-339.5478499251885
 21
34.14635119114205
  0
ARC
  8
2
  6
CONTINUOUS
 62
     7
 10
-339.490830146246
 20
36.00876880921508
 40
0.0122998383283062
 50
178.8731606475521
 51
184.2231749347147
  0
LINE
  8
2
  6
CONTINUOUS
 62
     7
 10
-318.9000921446461
 20
36.49917780073224
 11
-318.5387839911626
 21
36.3561359471429
  0
LINE
  8
2
  6
CONTINUOUS
 62
     7
 10
-318.9000921446461
 20
36.49917780073224
 11
-321.4514939571321
 21
36.49917780073224
  0
LINE
  8
2
  6
CONTINUOUS
 62
     7
 10
-336.451822488583
 20
36.49917780073224
 11
-339.0032243010689
 21
36.49917780073224
  0
LINE
  8
2
  6
CONTINUOUS
 62
     7
 10
-381.9516582228575
 20
20.79917780073224
 11
-381.9516582228575
 21
22.39917780073224
  0
LINE
  8
2
  6
CONTINUOUS
 62
     7
 10
-381.9516582228575
 20
22.39917780073224
 11
-376.9516582228575
 21
22.39917780073224
  0
LINE
  8
2
  6
CONTINUOUS
 62
     7
 10
-376.9516582228575
 20
20.79917780073224
 11
-381.9516582228575
 21
20.79917780073224
  0
LINE
  8
2
  6
CONTINUOUS
 62
     7
 10
-275.9516582228575
 20
22.39917780073224
 11
-275.9516582228575
 21
20.79917780073224
  0
LINE
  8
2
  6
CONTINUOUS
 62
     7
 10
-275.9516582228575
 20
20.79917780073224
 11
-280.9516582228575
 21
20.79917780073224
  0
LINE
  8
2
  6
CONTINUOUS
 62
     7
 10
-280.9516582228575
 20
22.39917780073224
 11
-275.9516582228575
 21
22.39917780073224
  0
LINE
  8
2
  6
CONTINUOUS
 62
     7
 10
-280.9516582228575
 20
20.79917780073224
 11
-376.9516582228575
 21
20.79917780073224
  0
LINE
  8
2
  6
CONTINUOUS
 62
     7
 10
-280.9516582228575
 20
22.39917780073224
 11
-376.9516582228575
 21
22.39917780073224
  0
LINE
  8
2
  6
CONTINUOUS
 62
     7
 10
-298.2002069267354
 20
30.85153502004409
 11
-298.080111173941
 21
23.97125395043259
  0
LINE
  8
2
  6
CONTINUOUS
 62
     7
 10
-359.8232052717741
 20
23.97125395043259
 11
-359.7031095189797
 21
30.85153502004409
  0
LINE
  8
2
  6
CONTINUOUS
 62
     7
 10
-331.4516582228575
 20
33.77264764709935
 11
-326.4516582228575
 21
33.77264764709935
  0
LINE
  8
2
  6
CONTINUOUS
 62
     7
 10
-326.4516582228575
 20
33.77264764709935
 11
-326.4516582228575
 21
33.79917780073225
  0
LINE
  8
2
  6
CONTINUOUS
 62
     7
 10
-326.4516582228575
 20
33.79917780073225
 11
-319.7969171421135
 21
33.79917780073225
  0
LINE
  8
2
  6
CONTINUOUS
 62
     7
 10
-338.1063993036016
 20
33.79917780073225
 11
-331.4516582228575
 21
33.79917780073225
  0
LINE
  8
2
  6
CONTINUOUS
 62
     7
 10
-331.4516582228575
 20
33.79917780073225
 11
-331.4516582228575
 21
33.77264764709935
  0
LINE
  8
2
  6
CONTINUOUS
 62
     7
 10
-319.7969171421135
 20
33.79917780073225
 11
-301.1997500122046
 21
33.79917780073225
  0
ARC
  8
2
  6
CONTINUOUS
 62
     7
 10
-301.1997500122046
 20
30.79917780073225
 40
3.000000000000007
 50
0.9999999999999895
 51
89.99999999999991
  0
LINE
  8
2
  6
CONTINUOUS
 62
     7
 10
-356.7035664335104
 20
33.79917780073225
 11
-338.1063993036016
 21
33.79917780073225
  0
ARC
  8
2
  6
CONTINUOUS
 62
     7
 10
-356.7035664335104
 20
30.79917780073225
 40
2.999999999999999
 50
90.0
 51
179.0
  0
LINE
  8
2
  6
CONTINUOUS
 62
     7
 10
-326.4516582228575
 20
33.79917780073225
 11
-326.6516582228575
 21
33.79917780073225
  0
LINE
  8
2
  6
CONTINUOUS
 62
     7
 10
-331.2516582228575
 20
33.79917780073225
 11
-331.4516582228575
 21
33.79917780073225
  0
ARC
  8
2
  6
CONTINUOUS
 62
     7
 10
-361.4229615840243
 20
23.99917780073225
 40
1.600000000000004
 50
270.0
 51
358.9999999999999
  0
ARC
  8
2
  6
CONTINUOUS
 62
     7
 10
-296.4803548616908
 20
23.99917780073225
 40
1.600000000000004
 50
181.0
 51
270.0000000000002
  0
ARC
  8
2
  6
CONTINUOUS
 62
     7
 10
-331.4794439954012
 20
18.19917780073225
 40
1.000000000000003
 50
180.5000000000001
 51
270.0000000000001
  0
ARC
  8
2
  6
CONTINUOUS
 62
     7
 10
-326.4238724503139
 20
18.19917780073225
 40
1.000000000000001
 50
269.9999999999999
 51
359.4999999999999
  0
LINE
  8
2
  6
CONTINUOUS
 62
     7
 10
-332.5021719300429
 20
20.79917780073224
 11
-332.4794059184654
 21
18.19045126523387
  0
LINE
  8
2
  6
CONTINUOUS
 62
     7
 10
-325.4239105272497
 20
18.19045126523387
 11
-325.4011445156722
 21
20.79917780073224
  0
ARC
  8
2
  6
CONTINUOUS
 62
     7
 10
-339.0032243010689
 20
35.99917780073224
 40
0.5000000000000004
 50
90.0000000000002
 51
178.8731606476656
  0
LINE
  8
2
  6
CONTINUOUS
 62
     7
 10
-369.281203677403
 20
22.42417780073225
 11
-369.281203677403
 21
22.39917780073224
  0
ENDBLK
  8
0
  0
BLOCK
  8
0
  2
D_FRAME_VIEW_2607
 70
     0
 10
0.0
 20
0.0
  0
ARC
  8
2
  6
CONTINUOUS
 62
     9
 10
-328.9516582228575
 20
105.6261445451296
 40
10.56369817711615
 50
174.6046570704178
 51
177.1775397839691
  0
ARC
  8
2
  6
CONTINUOUS
 62
     9
 10
-335.9839674686627
 20
106.2896893059408
 40
3.500153472052992
 50
90.01022607403215
 51
174.5944309963858
  0
LINE
  8
2
  6
CONTINUOUS
 62
     7
 10
-331.4653428528089
 20
101.6548236589324
 11
-331.2516582228575
 21
101.3685428308665
  0
LINE
  8
2
  6
CONTINUOUS
 62
     7
 10
-331.2516582228575
 20
101.3685428308665
 11
-326.6516582228576
 21
101.3685428308665
  0
LINE
  8
2
  6
CONTINUOUS
 62
     7
 10
-326.6516582228575
 20
101.3685428308665
 11
-326.4379735929061
 21
101.6548236589324
  0
ARC
  8
2
  6
CONTINUOUS
 62
     7
 10
-328.9516582228575
 20
105.6261445451296
 40
4.699999999999998
 50
302.3321469902169
 51
316.2518793150684
  0
ARC
  8
2
  6
CONTINUOUS
 62
     7
 10
-328.9516582228575
 20
105.6261445451296
 40
4.699999999999999
 50
223.7481206849315
 51
237.6678530097833
  0
ARC
  8
2
  6
CONTINUOUS
 62
     7
 10
-332.6414941684266
 20
109.2896675125802
 40
0.4996432414399533
 50
315.2050241495909
 51
337.7154835622237
  0
ARC
  8
2
  6
CONTINUOUS
 62
     7
 10
-332.6418457825789
 20
109.289811609063
 40
0.5000232365826123
 50
337.7154835622289
 51
0.208612803203323
  0
ARC
  8
2
  6
CONTINUOUS
 62
     7
 10
-332.6416482464811
 20
109.2898123282912
 40
0.4998256991754506
 50
0.2086128032044218
 51
22.7154809420897
  0
ARC
  8
2
  6
CONTINUOUS
 62
     7
 10
-332.6419988461723
 20
109.2896655579449
 40
0.5002057803221098
 50
22.7154809421122
 51
45.20502414959658
  0
ARC
  8
2
  6
CONTINUOUS
 62
     7
 10
-332.6419988461721
 20
109.2896655579451
 40
0.500205780321786
 50
45.20502414959557
 51
67.69456735709029
  0
ARC
  8
2
  6
CONTINUOUS
 62
     7
 10
-332.6418545886975
 20
109.2900171990395
 40
0.4998256991749119
 50
67.69456735707722
 51
89.98770544505578
  0
ARC
  8
2
  6
CONTINUOUS
 62
     7
 10
-328.9516582228575
 20
105.6261445451296
 40
4.699999999999999
 50
135.205024149592
 51
179.9999999999998
  0
LINE
  8
2
  6
CONTINUOUS
 62
     7
 10
-333.6516582228575
 20
102.3761445451296
 11
-333.6516582228575
 21
105.6261445451296
  0
ARC
  8
2
  6
CONTINUOUS
 62
     9
 10
-335.9511363155841
 20
98.46120700302993
 40
1.000001160228517
 50
180.0261706090886
 51
269.9737974428292
  0
LINE
  8
2
  6
CONTINUOUS
 62
     7
 10
-318.5387839911626
 20
105.771582377492
 11
-318.8878838933196
 21
105.6221919749943
  0
LINE
  8
2
  6
CONTINUOUS
 62
     9
 10
-320.9519724014505
 20
105.6221919749943
 11
-318.8878838933196
 21
105.6221919749943
  0
LINE
  8
2
  6
CONTINUOUS
 62
     7
 10
-320.9521791897548
 20
105.6223831363501
 11
-320.9519724014505
 21
105.6221919749943
  0
LINE
  8
2
  6
CONTINUOUS
 62
     9
 10
-320.9521791897548
 20
98.46075023927278
 11
-320.9521791897548
 21
105.6223831363501
  0
ARC
  8
2
  6
CONTINUOUS
 62
     9
 10
-321.952180130131
 20
98.46120700302993
 40
1.000001160228517
 50
270.0262025571709
 51
359.973829390911
  0
LINE
  8
2
  6
CONTINUOUS
 62
     9
 10
-335.9515936365163
 20
97.46120699142978
 11
-321.9517228091988
 21
97.46120699142978
  0
LINE
  8
2
  6
CONTINUOUS
 62
     9
 10
-336.9511372559603
 20
105.6223831363501
 11
-336.9511372559603
 21
98.46075023927278
  0
LINE
  8
2
  6
CONTINUOUS
 62
     9
 10
-332.6417473359033
 20
109.7898427222457
 11
-335.9845921713658
 21
109.7898427222457
  0
LINE
  8
2
  6
CONTINUOUS
 62
     7
 10
-324.2516582228575
 20
105.6261445451296
 11
-324.2516582228575
 21
102.3761445451296
  0
ARC
  8
2
  6
CONTINUOUS
 62
     7
 10
-325.2614618570175
 20
109.2900171990388
 40
0.4998256991755365
 50
90.01229455494422
 51
112.3054326429003
  0
ARC
  8
2
  6
CONTINUOUS
 62
     7
 10
-325.2613175995427
 20
109.2896655579449
 40
0.5002057803221589
 50
112.3054326429335
 51
134.7949758504069
  0
ARC
  8
2
  6
CONTINUOUS
 62
     7
 10
-325.2613175995429
 20
109.2896655579451
 40
0.500205780321835
 50
134.7949758504078
 51
157.2845190578985
  0
ARC
  8
2
  6
CONTINUOUS
 62
     7
 10
-325.2616681992339
 20
109.2898123282912
 40
0.4998256991754507
 50
157.2845190579103
 51
179.791387196794
  0
ARC
  8
2
  6
CONTINUOUS
 62
     7
 10
-325.2614706631362
 20
109.289811609063
 40
0.5000232365825013
 50
179.7913871967935
 51
202.2845164377759
  0
ARC
  8
2
  6
CONTINUOUS
 62
     7
 10
-325.2618222772887
 20
109.2896675125799
 40
0.4996432414395021
 50
202.2845164377526
 51
224.7949758504022
  0
LINE
  8
2
  6
CONTINUOUS
 62
     7
 10
-336.9513440442645
 20
105.6221919749943
 11
-336.9511372559603
 21
105.6223831363501
  0
ARC
  8
2
  6
CONTINUOUS
 62
     7
 10
-328.9516582228575
 20
105.6261445451296
 40
4.699999999999999
 50
0.0000000000000568
 51
44.79497585040786
  0
LINE
  8
2
  6
CONTINUOUS
 62
     7
 10
-318.3958117656626
 20
106.0333603961643
 11
-318.5387839911626
 21
105.771582377492
  0
ARC
  8
2
  6
CONTINUOUS
 62
     9
 10
-328.9516582228575
 20
105.6261445451296
 40
10.56369817711615
 50
2.209219874418813
 51
5.395342929582105
  0
ARC
  8
2
  6
CONTINUOUS
 62
     9
 10
-321.9193489767902
 20
106.2896893062289
 40
3.500153471764871
 50
5.405568999323824
 51
89.98977393025811
  0
LINE
  8
2
  6
CONTINUOUS
 62
     9
 10
-321.9187242743492
 20
109.7898427222457
 11
-325.2615691098118
 21
109.7898427222457
  0
LINE
  8
2
  6
CONTINUOUS
 62
     9
 10
-318.3129032665501
 20
101.6261445451296
 11
-318.3554665205265
 21
105.6261445451296
  0
LINE
  8
2
  6
CONTINUOUS
 62
     7
 10
-318.3554665205265
 20
105.6261445451296
 11
-318.3958117656626
 21
106.0333603961643
  0
ARC
  8
2
  6
CONTINUOUS
 62
     7
 10
-321.8043461937555
 20
106.4170874230074
 40
3.500177330998608
 50
6.330306552053173
 51
89.98958887772523
  0
ARC
  8
2
  6
CONTINUOUS
 62
     7
 10
-336.0989702522749
 20
106.4170874233596
 40
3.50017733064636
 50
90.01041111711423
 51
173.6696934531077
  0
LINE
  8
2
  6
CONTINUOUS
 62
     9
 10
-320.8503754948015
 20
98.42684324818002
 11
-320.9521791897548
 21
98.46075023927277
  0
ARC
  8
2
  6
CONTINUOUS
 62
     7
 10
-321.8728720293099
 20
98.45783688625777
 40
1.022966162041947
 50
270.0124453545523
 51
358.2637974574926
  0
LINE
  8
2
  6
CONTINUOUS
 62
     9
 10
-321.9517228091988
 20
97.46120699142978
 11
-321.8726498283626
 21
97.43487074834822
  0
LINE
  8
2
  6
CONTINUOUS
 62
     9
 10
-336.0306666173525
 20
97.43487074834822
 11
-335.9515936365163
 21
97.46120699142976
  0
ARC
  8
2
  6
CONTINUOUS
 62
     7
 10
-336.0304444164052
 20
98.45783688625777
 40
1.022966162041931
 50
181.7362025425074
 51
269.9875546454478
  0
LINE
  8
2
  6
CONTINUOUS
 62
     9
 10
-336.9511372559603
 20
98.46075023927278
 11
-337.0529409509135
 21
98.42684324818002
  0
LINE
  8
2
  6
CONTINUOUS
 62
     7
 10
-320.845992225567
 20
98.62614454512958
 11
-320.8503754948015
 21
98.42684324818002
  0
LINE
  8
2
  6
CONTINUOUS
 62
     7
 10
-320.9519724014505
 20
105.6221919749943
 11
-320.9109423460387
 21
105.509068446466
  0
ARC
  8
2
  6
CONTINUOUS
 62
     7
 10
-342.3127458961033
 20
102.9923137165981
 40
21.54927491972459
 50
359.8927574871361
 51
6.70692021863431
  0
ARC
  8
2
  6
CONTINUOUS
 62
     7
 10
-318.6618030175457
 20
103.0473310237734
 40
18.47825072377134
 50
172.0329174644963
 51
180.295660063957
  0
LINE
  8
2
  6
CONTINUOUS
 62
     7
 10
-336.9616991297162
 20
105.6084932783601
 11
-336.9513440442645
 21
105.6221919749943
  0
LINE
  8
2
  6
CONTINUOUS
 62
     7
 10
-337.0529409509135
 20
98.42684324818002
 11
-337.0573242201481
 21
98.62614454512958
  0
LINE
  8
2
  6
CONTINUOUS
 62
     9
 10
-339.5025416966565
 20
106.1463148052594
 11
-339.5478499251886
 21
105.6261445451296
  0
LINE
  8
2
  6
CONTINUOUS
 62
     7
 10
-337.1516582228575
 20
101.6261445451296
 11
-337.1398077215717
 21
102.951979209187
  0
LINE
  8
2
  6
CONTINUOUS
 62
     7
 10
-320.7635087241433
 20
102.951979209187
 11
-320.7516582228575
 21
101.6261445451296
  0
LINE
  8
2
  6
CONTINUOUS
 62
     7
 10
-336.0996062634475
 20
109.9172646962217
 11
-330.3067552115971
 21
109.9172646962217
  0
LINE
  8
2
  6
CONTINUOUS
 62
     7
 10
-327.596561234118
 20
109.9172646962217
 11
-321.8037101822677
 21
109.9172646962217
  0
LINE
  8
2
  6
CONTINUOUS
 62
     7
 10
-321.8726498283626
 20
97.43487074834822
 11
-336.0306666173525
 21
97.43487074834822
  0
ARC
  8
2
  6
CONTINUOUS
 62
     7
 10
-328.9516582228575
 20
105.6261445451296
 40
10.69112015109213
 50
0.0
 51
6.319895429778568
  0
ARC
  8
2
  6
CONTINUOUS
 62
     7
 10
-328.9516582228575
 20
105.6261445451296
 40
10.69112015109213
 50
173.6801045702216
 51
180.0
  0
LINE
  8
2
  6
CONTINUOUS
 62
     9
 10
-339.5478499251885
 20
105.6261445451296
 11
-339.590413179165
 21
101.6261445451296
  0
LINE
  8
2
  6
CONTINUOUS
 62
     7
 10
-339.6427783739497
 20
101.3761445451296
 11
-339.6427783739497
 21
105.6261445451296
  0
LINE
  8
2
  6
CONTINUOUS
 62
     9
 10
-339.5904131791651
 20
101.6261445451296
 11
-339.5904131791651
 21
101.3761445451296
  0
LINE
  8
2
  6
CONTINUOUS
 62
     9
 10
-318.3129032665501
 20
101.3761445451296
 11
-318.3129032665501
 21
101.6261445451296
  0
LINE
  8
2
  6
CONTINUOUS
 62
     7
 10
-318.2605380717654
 20
105.6261445451296
 11
-318.2605380717654
 21
101.3761445451296
  0
LINE
  8
2
  6
CONTINUOUS
 62
     7
 10
-320.7516582228575
 20
101.3761445451296
 11
-320.7516582228575
 21
101.6261445451296
  0
LINE
  8
2
  6
CONTINUOUS
 62
     7
 10
-337.1516582228575
 20
101.6261445451296
 11
-337.1516582228575
 21
101.3761445451296
  0
CIRCLE
  8
2
  6
CONTINUOUS
 62
     9
 10
-328.9516582228575
 20
105.6261445451296
 40
1.540895113422646
  0
ARC
  8
2
  6
CONTINUOUS
 62
     9
 10
-335.9839674686627
 20
188.4625997843184
 40
3.500153472052992
 50
185.4055690036143
 51
269.9897739259679
  0
ARC
  8
2
  6
CONTINUOUS
 62
     9
 10
-328.9516582228575
 20
189.1261445451296
 40
10.56369817711615
 50
182.822460216031
 51
185.3953429295822
  0
LINE
  8
2
  6
CONTINUOUS
 62
     9
 10
-339.0032243010689
 20
188.6305911865318
 11
-339.5025416966565
 21
188.6059742849998
  0
LINE
  8
2
  6
CONTINUOUS
 62
     9
 10
-336.451822488583
 20
188.6305911865318
 11
-339.0032243010689
 21
188.6305911865318
  0
ARC
  8
2
  6
CONTINUOUS
 62
     7
 10
-328.9516582228575
 20
189.1261445451296
 40
4.699999999999998
 50
43.74812068493156
 51
57.66785300978313
  0
LINE
  8
2
  6
CONTINUOUS
 62
     7
 10
-326.6516582228575
 20
193.3837462593927
 11
-326.4379735929061
 21
193.0974654313268
  0
LINE
  8
2
  6
CONTINUOUS
 62
     7
 10
-331.2516582228575
 20
193.3837462593927
 11
-326.6516582228576
 21
193.3837462593927
  0
LINE
  8
2
  6
CONTINUOUS
 62
     7
 10
-331.4653428528089
 20
193.0974654313268
 11
-331.2516582228575
 21
193.3837462593927
  0
ARC
  8
2
  6
CONTINUOUS
 62
     7
 10
-328.9516582228575
 20
189.1261445451296
 40
4.699999999999999
 50
122.3321469902168
 51
136.2518793150684
  0
ARC
  8
2
  6
CONTINUOUS
 62
     7
 10
-332.6414941684268
 20
185.4626215776788
 40
0.4996432414402087
 50
22.28451643778283
 51
44.79497585040247
  0
ARC
  8
2
  6
CONTINUOUS
 62
     7
 10
-332.6418457825789
 20
185.4624774811962
 40
0.5000232365826124
 50
359.7913871967935
 51
22.28451643777112
  0
ARC
  8
2
  6
CONTINUOUS
 62
     7
 10
-332.6416482464805
 20
185.462476761968
 40
0.49982569917484
 50
337.2845190578794
 51
359.7913871967921
  0
ARC
  8
2
  6
CONTINUOUS
 62
     7
 10
-332.641998846172
 20
185.462623532314
 40
0.5002057803216486
 50
314.7949758504021
 51
337.2845190579027
  0
ARC
  8
2
  6
CONTINUOUS
 62
     7
 10
-332.641998846172
 20
185.462623532314
 40
0.5002057803217075
 50
292.3054326429062
 51
314.7949758504044
  0
ARC
  8
2
  6
CONTINUOUS
 62
     7
 10
-332.6418545886975
 20
185.4622718912197
 40
0.4998256991749119
 50
270.0122945549442
 51
292.3054326429228
  0
ARC
  8
2
  6
CONTINUOUS
 62
     7
 10
-328.9516582228575
 20
189.1261445451296
 40
4.699999999999999
 50
180.0000000000002
 51
224.794975850408
  0
LINE
  8
2
  6
CONTINUOUS
 62
     7
 10
-324.2516582228575
 20
189.1261445451296
 11
-324.2516582228575
 21
192.3761445451296
  0
LINE
  8
2
  6
CONTINUOUS
 62
     7
 10
-336.451822488583
 20
188.6305911865318
 11
-336.9511372559603
 21
189.1299059539091
  0
LINE
  8
2
  6
CONTINUOUS
 62
     9
 10
-336.9511372559603
 20
189.1299059539091
 11
-336.9511372559603
 21
196.2915388509864
  0
LINE
  8
2
  6
CONTINUOUS
 62
     9
 10
-332.6417473359033
 20
184.9624463680134
 11
-335.9845921713658
 21
184.9624463680134
  0
ARC
  8
2
  6
CONTINUOUS
 62
     7
 10
-328.9516582228575
 20
189.1261445451296
 40
4.699999999999999
 50
315.2050241495921
 51
359.9999999999999
  0
LINE
  8
2
  6
CONTINUOUS
 62
     9
 10
-321.9187242743492
 20
184.9624463680134
 11
-325.2615691098118
 21
184.9624463680134
  0
ARC
  8
2
  6
CONTINUOUS
 62
     7
 10
-325.2614618570175
 20
185.4622718912205
 40
0.4998256991757171
 50
247.6945673571147
 51
269.9877054450558
  0
ARC
  8
2
  6
CONTINUOUS
 62
     7
 10
-325.2613175995428
 20
185.4626235323142
 40
0.5002057803220412
 50
225.2050241495977
 51
247.6945673570823
  0
ARC
  8
2
  6
CONTINUOUS
 62
     7
 10
-325.2613175995427
 20
185.4626235323143
 40
0.5002057803221786
 50
202.7154809421127
 51
225.2050241495954
  0
ARC
  8
2
  6
CONTINUOUS
 62
     7
 10
-325.2616681992333
 20
185.4624767619679
 40
0.4998256991760057
 50
180.2086128032043
 51
202.7154809420613
  0
ARC
  8
2
  6
CONTINUOUS
 62
     7
 10
-325.2614706631361
 20
185.4624774811961
 40
0.5000232365826123
 50
157.7154835622259
 51
180.2086128032034
  0
ARC
  8
2
  6
CONTINUOUS
 62
     7
 10
-325.2618222772887
 20
185.4626215776793
 40
0.4996432414395611
 50
135.2050241496001
 51
157.7154835622455
  0
LINE
  8
2
  6
CONTINUOUS
 62
     7
 10
-336.9513440442645
 20
189.1300971152649
 11
-336.9511372559603
 21
189.1299059539091
  0
LINE
  8
2
  6
CONTINUOUS
 62
     7
 10
-333.6516582228575
 20
192.3761445451296
 11
-333.6516582228575
 21
189.1261445451296
  0
LINE
  8
2
  6
CONTINUOUS
 62
     9
 10
-335.9515936365163
 20
197.2910820988294
 11
-321.9517228091988
 21
197.2910820988294
  0
ARC
  8
2
  6
CONTINUOUS
 62
     9
 10
-335.9511363155841
 20
196.2910820872293
 40
1.000001160228517
 50
90.02620255717085
 51
179.9738293909113
  0
LINE
  8
2
  6
CONTINUOUS
 62
     7
 10
-318.3958117656626
 20
188.7189286940948
 11
-318.5387839911626
 21
188.9807067127672
  0
ARC
  8
2
  6
CONTINUOUS
 62
     9
 10
-328.9516582228575
 20
189.1261445451296
 40
10.56369817711615
 50
354.604657070418
 51
357.7907801255813
  0
LINE
  8
2
  6
CONTINUOUS
 62
     9
 10
-320.9521791897548
 20
196.2915388509864
 11
-320.9521791897548
 21
189.1299059539091
  0
ARC
  8
2
  6
CONTINUOUS
 62
     9
 10
-321.952180130131
 20
196.2910820872293
 40
1.000001160228517
 50
0.0261706090890357
 51
89.97379744282904
  0
LINE
  8
2
  6
CONTINUOUS
 62
     7
 10
-320.9521791897548
 20
189.1299059539091
 11
-320.9519724014505
 21
189.1300971152649
  0
LINE
  8
2
  6
CONTINUOUS
 62
     9
 10
-320.9519724014505
 20
189.1300971152649
 11
-318.8878838933196
 21
189.1300971152649
  0
LINE
  8
2
  6
CONTINUOUS
 62
     7
 10
-318.5387839911626
 20
188.9807067127672
 11
-318.8878838933196
 21
189.1300971152649
  0
ARC
  8
2
  6
CONTINUOUS
 62
     9
 10
-321.9193489767902
 20
188.4625997840303
 40
3.500153471764871
 50
270.010226069742
 51
354.5944310006762
  0
LINE
  8
2
  6
CONTINUOUS
 62
     9
 10
-318.3129032665501
 20
193.1261445451296
 11
-318.3554665205265
 21
189.1261445451296
  0
LINE
  8
2
  6
CONTINUOUS
 62
     7
 10
-318.3554665205265
 20
189.1261445451296
 11
-318.3958117656626
 21
188.7189286940948
  0
ARC
  8
2
  6
CONTINUOUS
 62
     7
 10
-321.8043461937555
 20
188.3352016672518
 40
3.500177330998608
 50
270.0104111222747
 51
353.6696934479468
  0
ARC
  8
2
  6
CONTINUOUS
 62
     7
 10
-336.0989702522749
 20
188.3352016668996
 40
3.50017733064636
 50
186.3303065468923
 51
269.9895888828858
  0
ARC
  8
2
  6
CONTINUOUS
 62
     7
 10
-321.8728720293099
 20
196.2944522040014
 40
1.022966162041933
 50
1.736202542506589
 51
89.9875546454478
  0
LINE
  8
2
  6
CONTINUOUS
 62
     9
 10
-320.8503754948015
 20
196.3254458420792
 11
-320.9521791897548
 21
196.2915388509864
  0
LINE
  8
2
  6
CONTINUOUS
 62
     9
 10
-321.9517228091988
 20
197.2910820988294
 11
-321.8726498283626
 21
197.3174183419109
  0
ARC
  8
2
  6
CONTINUOUS
 62
     7
 10
-336.0304444164052
 20
196.2944522040014
 40
1.022966162041931
 50
90.0124453545522
 51
178.2637974574934
  0
LINE
  8
2
  6
CONTINUOUS
 62
     9
 10
-336.0306666173525
 20
197.317418341911
 11
-335.9515936365163
 21
197.2910820988294
  0
LINE
  8
2
  6
CONTINUOUS
 62
     9
 10
-336.9511372559603
 20
196.2915388509864
 11
-337.0529409509135
 21
196.3254458420792
  0
LINE
  8
2
  6
CONTINUOUS
 62
     7
 10
-320.9519724014505
 20
189.1300971152649
 11
-320.9109423460387
 21
189.2432206437932
  0
ARC
  8
2
  6
CONTINUOUS
 62
     7
 10
-342.3127458961033
 20
191.7599753736611
 40
21.54927491972459
 50
353.2930797813657
 51
0.107242512863877
  0
LINE
  8
2
  6
CONTINUOUS
 62
     7
 10
-320.845992225567
 20
196.1261445451296
 11
-320.8503754948015
 21
196.3254458420792
  0
LINE
  8
2
  6
CONTINUOUS
 62
     7
 10
-320.845992225567
 20
193.4245833565735
 11
-320.845992225567
 21
196.1261445451296
  0
LINE
  8
2
  6
CONTINUOUS
 62
     7
 10
-320.7943911203175
 20
192.0159063812121
 11
-320.845992225567
 21
193.4245833565735
  0
LINE
  8
2
  6
CONTINUOUS
 62
     7
 10
-320.7943911203175
 20
192.0159063812121
 11
-320.7635087241433
 21
191.8003098810722
  0
LINE
  8
2
  6
CONTINUOUS
 62
     7
 10
-337.0529409509135
 20
196.3254458420792
 11
-337.0573242201481
 21
196.1261445451296
  0
ARC
  8
2
  6
CONTINUOUS
 62
     7
 10
-318.6618030175457
 20
191.7049580664858
 40
18.47825072377134
 50
179.7043399360428
 51
187.9670825355036
  0
LINE
  8
2
  6
CONTINUOUS
 62
     7
 10
-336.9616991297162
 20
189.1437958118991
 11
-336.9513440442645
 21
189.1300971152649
  0
LINE
  8
2
  6
CONTINUOUS
 62
     7
 10
-337.1089253253976
 20
192.0159063812121
 11
-337.1398077215717
 21
191.8003098810722
  0
LINE
  8
2
  6
CONTINUOUS
 62
     7
 10
-337.0573242201481
 20
193.4245833565735
 11
-337.1089253253976
 21
192.0159063812121
  0
LINE
  8
2
  6
CONTINUOUS
 62
     7
 10
-337.0573242201481
 20
196.1261445451296
 11
-337.0573242201481
 21
193.4245833565735
  0
LINE
  8
2
  6
CONTINUOUS
 62
     9
 10
-339.5025416966565
 20
188.6059742849998
 11
-339.5478499251886
 21
189.1261445451296
  0
LINE
  8
2
  6
CONTINUOUS
 62
     7
 10
-320.7635087241433
 20
191.8003098810722
 11
-320.7516582228575
 21
193.1261445451296
  0
LINE
  8
2
  6
CONTINUOUS
 62
     7
 10
-337.1516582228575
 20
193.1261445451296
 11
-337.1398077215717
 21
191.8003098810722
  0
ARC
  8
2
  6
CONTINUOUS
 62
     7
 10
-328.9516582228575
 20
189.1261445451296
 40
4.699999999999996
 50
224.7949758504079
 51
225.8342815144548
  0
LINE
  8
2
  6
CONTINUOUS
 62
     7
 10
-321.8726498283626
 20
197.317418341911
 11
-336.0306666173525
 21
197.317418341911
  0
LINE
  8
2
  6
CONTINUOUS
 62
     7
 10
-336.0996062634475
 20
184.8350243940374
 11
-330.3067552115971
 21
184.8350243940374
  0
LINE
  8
2
  6
CONTINUOUS
 62
     7
 10
-327.5965612341179
 20
184.8350243940374
 11
-321.8037101822676
 21
184.8350243940374
  0
ARC
  8
2
  6
CONTINUOUS
 62
     7
 10
-328.9516582228575
 20
189.1261445451296
 40
10.69112015109213
 50
353.6801045702214
 51
0.0
  0
ARC
  8
2
  6
CONTINUOUS
 62
     7
 10
-328.9516582228575
 20
189.1261445451296
 40
10.69112015109213
 50
180.0
 51
186.3198954297784
  0
LINE
  8
2
  6
CONTINUOUS
 62
     9
 10
-339.5478499251885
 20
189.1261445451296
 11
-339.590413179165
 21
193.1261445451296
  0
LINE
  8
2
  6
CONTINUOUS
 62
     7
 10
-339.6427783739497
 20
193.3761445451296
 11
-339.6427783739497
 21
189.1261445451296
  0
LINE
  8
2
  6
CONTINUOUS
 62
     9
 10
-339.5904131791651
 20
193.1261445451296
 11
-339.5904131791651
 21
193.3761445451296
  0
LINE
  8
2
  6
CONTINUOUS
 62
     7
 10
-318.2605380717654
 20
189.1261445451296
 11
-318.2605380717654
 21
193.3761445451296
  0
LINE
  8
2
  6
CONTINUOUS
 62
     9
 10
-318.3129032665501
 20
193.3761445451296
 11
-318.3129032665501
 21
193.1261445451296
  0
LINE
  8
2
  6
CONTINUOUS
 62
     7
 10
-320.7516582228575
 20
193.3761445451296
 11
-320.7516582228575
 21
193.1261445451296
  0
LINE
  8
2
  6
CONTINUOUS
 62
     7
 10
-337.1516582228575
 20
193.1261445451296
 11
-337.1516582228575
 21
193.3761445451296
  0
CIRCLE
  8
2
  6
CONTINUOUS
 62
     9
 10
-328.9516582228575
 20
189.1261445451296
 40
1.540895113422646
  0
ARC
  8
2
  6
CONTINUOUS
 62
     7
 10
-328.9516582228575
 20
105.6261445451296
 40
4.500000000000004
 50
0.0
 51
180.0
  0
LINE
  8
2
  6
CONTINUOUS
 62
     7
 10
-324.4516582228575
 20
104.8761445451296
 11
-324.4516582228575
 21
105.6261445451296
  0
ARC
  8
2
  6
CONTINUOUS
 62
     7
 10
-320.9516582228575
 20
104.8761445451296
 40
3.5
 50
180.0
 51
199.4629509463155
  0
LINE
  8
2
  6
CONTINUOUS
 62
     7
 10
-316.4516582228575
 20
101.3761445451296
 11
-320.8459512264291
 21
101.3761445451296
  0
ARC
  8
2
  6
CONTINUOUS
 62
     7
 10
-316.4516582228575
 20
116.3761445451296
 40
15.0
 50
270.0
 51
0.0
  0
LINE
  8
2
  6
CONTINUOUS
 62
     7
 10
-301.4516582228575
 20
178.3761445451296
 11
-301.4516582228575
 21
116.3761445451296
  0
ARC
  8
2
  6
CONTINUOUS
 62
     7
 10
-316.4516582228575
 20
178.3761445451296
 40
15.0
 50
0.0
 51
90.0
  0
LINE
  8
2
  6
CONTINUOUS
 62
     7
 10
-320.8459512264291
 20
193.3761445451296
 11
-316.4516582228575
 21
193.3761445451296
  0
ARC
  8
2
  6
CONTINUOUS
 62
     7
 10
-320.9516582228575
 20
189.8761445451296
 40
3.5
 50
160.5370490536846
 51
180.0
  0
LINE
  8
2
  6
CONTINUOUS
 62
     7
 10
-324.4516582228575
 20
189.1261445451296
 11
-324.4516582228575
 21
189.8761445451296
  0
ARC
  8
2
  6
CONTINUOUS
 62
     7
 10
-328.9516582228575
 20
189.1261445451296
 40
4.500000000000004
 50
179.9999999999998
 51
0.0000000000001137
  0
LINE
  8
2
  6
CONTINUOUS
 62
     7
 10
-333.4516582228575
 20
189.8761445451296
 11
-333.4516582228575
 21
189.1261445451296
  0
ARC
  8
2
  6
CONTINUOUS
 62
     7
 10
-336.9516582228575
 20
189.8761445451296
 40
3.5
 50
0.0
 51
19.46295094631528
  0
LINE
  8
2
  6
CONTINUOUS
 62
     7
 10
-341.4516582228575
 20
193.3761445451296
 11
-337.0573652192859
 21
193.3761445451296
  0
ARC
  8
2
  6
CONTINUOUS
 62
     7
 10
-341.4516582228575
 20
178.3761445451296
 40
15.0
 50
90.0
 51
180.0
  0
LINE
  8
2
  6
CONTINUOUS
 62
     7
 10
-356.4516582228576
 20
116.3761445451296
 11
-356.4516582228576
 21
178.3761445451296
  0
ARC
  8
2
  6
CONTINUOUS
 62
     7
 10
-341.4516582228575
 20
116.3761445451296
 40
15.0
 50
180.0
 51
270.0
  0
LINE
  8
2
  6
CONTINUOUS
 62
     7
 10
-337.0573652192859
 20
101.3761445451296
 11
-341.4516582228575
 21
101.3761445451296
  0
ARC
  8
2
  6
CONTINUOUS
 62
     7
 10
-336.9516582228575
 20
104.8761445451296
 40
3.5
 50
340.5370490536847
 51
0.0
  0
LINE
  8
2
  6
CONTINUOUS
 62
     7
 10
-333.4516582228575
 20
105.6261445451296
 11
-333.4516582228575
 21
104.8761445451296
  0
CIRCLE
  8
2
  6
CONTINUOUS
 62
     7
 10
-328.9516582228575
 20
105.6261445451296
 40
1.7
  0
CIRCLE
  8
2
  6
CONTINUOUS
 62
     7
 10
-328.9516582228575
 20
189.1261445451296
 40
1.7
  0
ARC
  8
2
  6
CONTINUOUS
 62
     7
 10
-338.2320325034083
 20
117.4957702645789
 40
21.58972868429892
 50
218.1444964450881
 51
225.0000000000049
  0
ARC
  8
2
  6
CONTINUOUS
 62
     7
 10
-338.2320325034082
 20
117.495770264579
 40
21.58972868429908
 50
225.0000000000048
 51
247.5120945990744
  0
ARC
  8
2
  6
CONTINUOUS
 62
     7
 10
-338.2247699442175
 20
117.5133141071857
 40
21.60871634290685
 50
247.5120945990743
 51
269.9954258437191
  0
LINE
  8
2
  6
CONTINUOUS
 62
     9
 10
-356.307233515215
 20
105.6883606622221
 11
-355.2114108789364
 21
104.1609305332816
  0
LINE
  8
2
  6
CONTINUOUS
 62
     9
 10
-356.5159862420615
 20
106.0146301970649
 11
-356.307233515215
 21
105.6883606622221
  0
ARC
  8
2
  6
CONTINUOUS
 62
     7
 10
-338.2144886608013
 20
117.5030328237696
 40
21.60871634290702
 50
180.0045741562809
 51
202.4879054009351
  0
ARC
  8
2
  6
CONTINUOUS
 62
     7
 10
-338.2320325034083
 20
117.4957702645789
 40
21.58972868429892
 50
202.4879054009352
 51
212.1261625421538
  0
ARC
  8
2
  6
CONTINUOUS
 62
     7
 10
-319.6712839423066
 20
117.4957702645787
 40
21.58972868429861
 50
327.8738374578465
 51
337.5120945990699
  0
ARC
  8
2
  6
CONTINUOUS
 62
     7
 10
-319.6888277849139
 20
117.5030328237697
 40
21.60871634290707
 50
337.5120945990695
 51
359.9954258437189
  0
LINE
  8
2
  6
CONTINUOUS
 62
     9
 10
-301.5960829305001
 20
105.688360662222
 11
-301.3873302036536
 21
106.0146301970649
  0
LINE
  8
2
  6
CONTINUOUS
 62
     9
 10
-302.6919055667788
 20
104.1609305332815
 11
-301.5960829305001
 21
105.688360662222
  0
ARC
  8
2
  6
CONTINUOUS
 62
     7
 10
-319.6785465014976
 20
117.513314107186
 40
21.60871634290715
 50
270.0045741562809
 51
292.4879054009303
  0
ARC
  8
2
  6
CONTINUOUS
 62
     7
 10
-319.6712839423067
 20
117.4957702645788
 40
21.58972868429876
 50
292.4879054009299
 51
314.9999999999998
  0
ARC
  8
2
  6
CONTINUOUS
 62
     7
 10
-319.6712839423066
 20
117.4957702645787
 40
21.58972868429861
 50
314.9999999999999
 51
321.8555035549118
  0
ARC
  8
2
  6
CONTINUOUS
 62
     7
 10
-319.6712839423065
 20
177.2565188256806
 40
21.58972868429846
 50
38.14449644508804
 51
45.00000000000013
  0
ARC
  8
2
  6
CONTINUOUS
 62
     7
 10
-319.6712839423067
 20
177.2565188256804
 40
21.58972868429881
 50
45.0
 51
67.5120945990699
  0
ARC
  8
2
  6
CONTINUOUS
 62
     7
 10
-319.6785465014976
 20
177.2389749830733
 40
21.60871634290707
 50
67.5120945990697
 51
89.99542584371899
  0
LINE
  8
2
  6
CONTINUOUS
 62
     9
 10
-301.5960829305001
 20
189.0639284280371
 11
-302.6919055667787
 21
190.5913585569776
  0
LINE
  8
2
  6
CONTINUOUS
 62
     9
 10
-301.3873302036536
 20
188.7376588931943
 11
-301.5960829305001
 21
189.0639284280371
  0
ARC
  8
2
  6
CONTINUOUS
 62
     7
 10
-319.6888277849137
 20
177.2492562664895
 40
21.6087163429069
 50
0.0045741562809098
 51
22.48790540093063
  0
ARC
  8
2
  6
CONTINUOUS
 62
     7
 10
-319.6712839423065
 20
177.2565188256806
 40
21.58972868429846
 50
22.48790540092999
 51
32.12616254215335
  0
LINE
  8
2
  6
CONTINUOUS
 62
     9
 10
-319.7969171421135
 20
198.7275958412517
 11
-319.676821389319
 21
198.8476915940462
  0
ARC
  8
2
  6
CONTINUOUS
 62
     7
 10
-338.2320325034086
 20
177.2565188256806
 40
21.58972868429846
 50
147.8738374578465
 51
157.51209459907
  0
ARC
  8
2
  6
CONTINUOUS
 62
     7
 10
-338.2144886608013
 20
177.2492562664895
 40
21.60871634290702
 50
157.5120945990695
 51
179.9954258437191
  0
LINE
  8
2
  6
CONTINUOUS
 62
     9
 10
-356.3072335152149
 20
189.0639284280371
 11
-356.5159862420614
 21
188.7376588931943
  0
LINE
  8
2
  6
CONTINUOUS
 62
     9
 10
-355.2114108789363
 20
190.5913585569776
 11
-356.3072335152149
 21
189.0639284280371
  0
ARC
  8
2
  6
CONTINUOUS
 62
     7
 10
-338.2247699442174
 20
177.2389749830732
 40
21.60871634290712
 50
90.00457415628088
 51
112.4879054009302
  0
ARC
  8
2
  6
CONTINUOUS
 62
     7
 10
-338.2320325034083
 20
177.2565188256804
 40
21.58972868429881
 50
112.4879054009301
 51
135.0
  0
ARC
  8
2
  6
CONTINUOUS
 62
     7
 10
-338.2320325034086
 20
177.2565188256806
 40
21.58972868429846
 50
134.9999999999999
 51
141.855503554912
  0
LINE
  8
2
  6
CONTINUOUS
 62
     9
 10
-298.080111173941
 20
117.5013077115911
 11
-298.080111173941
 21
177.2509813786681
  0
LINE
  8
2
  6
CONTINUOUS
 62
     9
 10
-359.8232052717741
 20
177.2509813786681
 11
-359.8232052717741
 21
117.5013077115911
  0
LINE
  8
2
  6
CONTINUOUS
 62
     9
 10
-338.2264950563961
 20
95.90459749621301
 11
-319.6768213893191
 21
95.90459749621301
  0
LINE
  8
2
  6
CONTINUOUS
 62
     9
 10
-319.676821389319
 20
198.8476915940462
 11
-338.226495056396
 21
198.8476915940462
  0
ARC
  8
2
  6
CONTINUOUS
 62
     7
 10
-298.9516582228576
 20
102.8761445451296
 40
2.499999999999999
 50
123.9701768175099
 51
173.1812713349495
  0
ARC
  8
2
  6
CONTINUOUS
 62
     7
 10
-358.9516582228575
 20
191.8761445451296
 40
2.499999999999999
 50
303.97017681751
 51
353.1812713349491
  0
ARC
  8
2
  6
CONTINUOUS
 62
     7
 10
-298.9516582228575
 20
191.8761445451296
 40
2.500000000000003
 50
186.8187286650505
 51
236.0298231824901
  0
ARC
  8
2
  6
CONTINUOUS
 62
     7
 10
-358.9516582228575
 20
102.8761445451296
 40
2.500000000000004
 50
6.818728665050898
 51
56.02982318249019
  0
ARC
  8
2
  6
CONTINUOUS
 62
     7
 10
-328.8963010800001
 20
147.3207874022721
 40
51.09111786985571
 50
303.9701768175098
 51
304.3983066553988
  0
ARC
  8
2
  6
CONTINUOUS
 62
     7
 10
-329.007015365715
 20
147.4315016879871
 40
51.09111786985571
 50
123.9701768175098
 51
124.3983066553988
  0
ARC
  8
2
  6
CONTINUOUS
 62
     7
 10
-329.007015365715
 20
147.3207874022721
 40
51.09111786985571
 50
235.6016933446012
 51
236.0298231824902
  0
ARC
  8
2
  6
CONTINUOUS
 62
     7
 10
-328.8963010800001
 20
147.431501687987
 40
51.09111786985571
 50
55.60169334460119
 51
56.02982318249019
  0
LINE
  8
2
  6
CONTINUOUS
 62
     7
 10
-277.4516582228575
 20
147.3761445451296
 11
-275.9516582228575
 21
146.3761445451296
  0
LINE
  8
2
  6
CONTINUOUS
 62
     7
 10
-381.9516582228575
 20
97.0761445451296
 11
-381.9516582228575
 21
146.3761445451296
  0
LINE
  8
2
  6
CONTINUOUS
 62
     7
 10
-381.9516582228575
 20
146.3761445451296
 11
-380.4516582228575
 21
147.3761445451296
  0
LINE
  8
2
  6
CONTINUOUS
 62
     7
 10
-275.9516582228575
 20
197.6761445451296
 11
-275.9516582228575
 21
148.3761445451296
  0
LINE
  8
2
  6
CONTINUOUS
 62
     7
 10
-275.9516582228575
 20
148.3761445451296
 11
-277.4516582228575
 21
147.3761445451296
  0
ARC
  8
2
  6
CONTINUOUS
 62
     7
 10
-329.007015365715
 20
147.4315016879871
 40
56.09111786985569
 50
123.9701768175098
 51
132.4399943278739
  0
ARC
  8
2
  6
CONTINUOUS
 62
     7
 10
-366.9016582228575
 20
185.3261445451296
 40
3.500000000000002
 50
89.2900984378345
 51
180.709901562165
  0
ARC
  8
2
  6
CONTINUOUS
 62
     7
 10
-329.007015365715
 20
147.4315016879871
 40
56.09111786985569
 50
137.5600056721261
 51
146.0298231824902
  0
ARC
  8
2
  6
CONTINUOUS
 62
     7
 10
-373.4516582228575
 20
177.3761445451296
 40
2.500000000000004
 50
146.0298231824902
 51
326.0298231824902
  0
ARC
  8
2
  6
CONTINUOUS
 62
     7
 10
-329.007015365715
 20
147.4315016879871
 40
51.09111786985571
 50
137.6823707757228
 51
146.0298231824902
  0
ARC
  8
2
  6
CONTINUOUS
 62
     7
 10
-366.9016582228575
 20
185.3261445451296
 40
3.5
 50
271.9098588160108
 51
358.0901411839901
  0
ARC
  8
2
  6
CONTINUOUS
 62
     7
 10
-329.007015365715
 20
147.4315016879871
 40
51.0911178698557
 50
124.3983066553986
 51
132.3176292242771
  0
ARC
  8
2
  6
CONTINUOUS
 62
     7
 10
-329.007015365715
 20
147.3207874022721
 40
51.09111786985571
 50
227.6823707757228
 51
235.6016933446012
  0
ARC
  8
2
  6
CONTINUOUS
 62
     7
 10
-366.9016582228575
 20
109.4261445451296
 40
3.5
 50
1.909858816010805
 51
88.09014118399006
  0
ARC
  8
2
  6
CONTINUOUS
 62
     7
 10
-329.007015365715
 20
147.3207874022721
 40
51.0911178698557
 50
213.9701768175097
 51
222.3176292242771
  0
ARC
  8
2
  6
CONTINUOUS
 62
     7
 10
-373.4516582228575
 20
117.3761445451296
 40
2.499999999999999
 50
33.97017681750996
 51
213.9701768175102
  0
ARC
  8
2
  6
CONTINUOUS
 62
     7
 10
-329.007015365715
 20
147.3207874022721
 40
56.09111786985569
 50
213.9701768175098
 51
222.4399943278738
  0
ARC
  8
2
  6
CONTINUOUS
 62
     7
 10
-366.9016582228575
 20
109.4261445451296
 40
3.500000000000002
 50
179.2900984378344
 51
270.709901562165
  0
ARC
  8
2
  6
CONTINUOUS
 62
     7
 10
-329.007015365715
 20
147.3207874022721
 40
56.09111786985569
 50
227.5600056721261
 51
236.0298231824902
  0
ARC
  8
2
  6
CONTINUOUS
 62
     7
 10
-358.9516582228575
 20
102.8761445451296
 40
2.500000000000002
 50
236.0298231824902
 51
6.818728665050912
  0
ARC
  8
2
  6
CONTINUOUS
 62
     7
 10
-298.9516582228576
 20
102.8761445451296
 40
2.499999999999999
 50
173.1812713349495
 51
303.9701768175103
  0
ARC
  8
2
  6
CONTINUOUS
 62
     7
 10
-328.8963010800001
 20
147.3207874022721
 40
56.09111786985569
 50
303.9701768175098
 51
312.4399943278739
  0
ARC
  8
2
  6
CONTINUOUS
 62
     7
 10
-291.0016582228575
 20
109.4261445451296
 40
3.500000000000002
 50
269.2900984378344
 51
0.7099015621649302
  0
ARC
  8
2
  6
CONTINUOUS
 62
     7
 10
-328.8963010800001
 20
147.3207874022721
 40
56.09111786985569
 50
317.560005672126
 51
326.0298231824902
  0
ARC
  8
2
  6
CONTINUOUS
 62
     7
 10
-284.4516582228575
 20
117.3761445451296
 40
2.500000000000004
 50
326.0298231824902
 51
146.0298231824902
  0
ARC
  8
2
  6
CONTINUOUS
 62
     7
 10
-328.8963010800001
 20
147.3207874022721
 40
51.09111786985571
 50
317.6823707757228
 51
326.0298231824902
  0
ARC
  8
2
  6
CONTINUOUS
 62
     7
 10
-291.0016582228575
 20
109.4261445451296
 40
3.5
 50
91.9098588160108
 51
178.0901411839901
  0
ARC
  8
2
  6
CONTINUOUS
 62
     7
 10
-328.8963010800001
 20
147.3207874022721
 40
51.0911178698557
 50
304.3983066553988
 51
312.317629224277
  0
ARC
  8
2
  6
CONTINUOUS
 62
     7
 10
-328.8963010800001
 20
147.431501687987
 40
51.09111786985571
 50
47.6823707757228
 51
55.60169334460119
  0
ARC
  8
2
  6
CONTINUOUS
 62
     7
 10
-291.0016582228575
 20
185.3261445451296
 40
3.5
 50
181.9098588160108
 51
268.0901411839901
  0
ARC
  8
2
  6
CONTINUOUS
 62
     7
 10
-328.8963010800001
 20
147.431501687987
 40
51.0911178698557
 50
33.97017681750975
 51
42.31762922427708
  0
ARC
  8
2
  6
CONTINUOUS
 62
     7
 10
-284.4516582228575
 20
177.3761445451296
 40
2.499999999999999
 50
213.9701768175099
 51
33.97017681751026
  0
ARC
  8
2
  6
CONTINUOUS
 62
     7
 10
-328.8963010800001
 20
147.431501687987
 40
56.09111786985569
 50
33.97017681750982
 51
42.4399943278739
  0
ARC
  8
2
  6
CONTINUOUS
 62
     7
 10
-291.0016582228575
 20
185.3261445451296
 40
3.500000000000002
 50
359.2900984378345
 51
90.70990156216499
  0
ARC
  8
2
  6
CONTINUOUS
 62
     7
 10
-328.8963010800001
 20
147.431501687987
 40
56.09111786985569
 50
47.5600056721261
 51
56.02982318249028
  0
ARC
  8
2
  6
CONTINUOUS
 62
     7
 10
-298.9516582228575
 20
191.8761445451296
 40
2.500000000000004
 50
56.02982318249018
 51
186.8187286650506
  0
ARC
  8
2
  6
CONTINUOUS
 62
     7
 10
-358.9516582228575
 20
191.8761445451296
 40
2.500000000000001
 50
353.1812713349491
 51
123.9701768175103
  0
ARC
  8
2
  6
CONTINUOUS
 62
     7
 10
-280.9516582228575
 20
97.0761445451296
 40
4.999999999999997
 50
270.0
 51
359.9999999999999
  0
ARC
  8
2
  6
CONTINUOUS
 62
     7
 10
-376.9516582228575
 20
97.0761445451296
 40
4.999999999999997
 50
180.0
 51
270.0
  0
ARC
  8
2
  6
CONTINUOUS
 62
     7
 10
-376.9516582228575
 20
197.6761445451296
 40
4.999999999999997
 50
90.0
 51
180.0000000000001
  0
ARC
  8
2
  6
CONTINUOUS
 62
     7
 10
-280.9516582228575
 20
197.6761445451296
 40
4.999999999999997
 50
0.0
 51
89.99999999999991
  0
LINE
  8
2
  6
CONTINUOUS
 62
     7
 10
-376.9516582228575
 20
202.6761445451296
 11
-280.9516582228575
 21
202.6761445451296
  0
LINE
  8
2
  6
CONTINUOUS
 62
     7
 10
-275.9516582228575
 20
146.3761445451296
 11
-275.9516582228575
 21
97.07614454512958
  0
LINE
  8
2
  6
CONTINUOUS
 62
     7
 10
-380.4516582228575
 20
147.3761445451296
 11
-381.9516582228575
 21
148.3761445451296
  0
LINE
  8
2
  6
CONTINUOUS
 62
     7
 10
-280.9516582228575
 20
92.07614454512961
 11
-376.9516582228576
 21
92.07614454512961
  0
LINE
  8
2
  6
CONTINUOUS
 62
     7
 10
-381.9516582228575
 20
148.3761445451296
 11
-381.9516582228575
 21
197.6761445451296
  0
ENDBLK
  8
0
  0
ENDSEC
  0
SECTION
  2
ENTITIES
  0
INSERT
  8
2
  6
CONTINUOUS
 62
     7
  2
D_FRAME_VIEW_3309
 10
0.0
 20
0.0
 30
0.0
  0
INSERT
  8
2
  6
CONTINUOUS
 62
     7
  2
D_FRAME_VIEW_3440
 10
0.0
 20
0.0
 30
0.0
  0
LINE
  8
2
  6
CONTINUOUS
 62
     7
 10
-325.5564409985845
 20
192.3761445451296
 11
-324.2516582228575
 21
192.3761445451296
  0
LINE
  8
2
  6
CONTINUOUS
 62
     7
 10
-333.6516582228575
 20
192.3761445451296
 11
-332.3468754471305
 21
192.3761445451296
  0
LINE
  8
2
  6
CONTINUOUS
 62
     7
 10
-320.845992225567
 20
101.3761445451296
 11
-320.845992225567
 21
98.62614454512959
  0
LINE
  8
2
  6
CONTINUOUS
 62
     7
 10
-331.4516582228575
 20
193.1261445451296
 11
-326.4593801462603
 21
193.1261445451296
  0
LINE
  8
2
  6
CONTINUOUS
 62
     7
 10
-337.0573242201481
 20
98.62614454512958
 11
-337.0573242201481
 21
101.3761445451296
  0
LINE
  8
2
  6
CONTINUOUS
 62
     7
 10
-326.4593801462603
 20
101.6261445451296
 11
-331.4516582228575
 21
101.6261445451296
  0
LINE
  8
2
  6
CONTINUOUS
 62
     7
 10
-325.5564409985845
 20
102.3761445451296
 11
-324.2516582228575
 21
102.3761445451296
  0
LINE
  8
2
  6
CONTINUOUS
 62
     7
 10
-333.6516582228575
 20
102.3761445451296
 11
-332.3468754471305
 21
102.3761445451296
  0
INSERT
  8
2
  6
CONTINUOUS
 62
     7
  2
D_FRAME_VIEW_2607
 10
0.0
 20
0.0
 30
0.0
  0
TEXT
  8
2
  6
CONTINUOUS
 62
     7
 10
-219.1195595737279
 20
47.04194480672494
 40
3.0
  1
OF-12-BS
  0
LINE
  8
2
  6
CONTINUOUS
 62
     2
 10
-219.0931871840818
 20
46.48397931966728
 11
-205.3886417295363
 21
46.48397931966728
  0
LINE
  8
2
  6
CENTER
 62
     1
 10
-328.9516582228575
 20
101.9261445451296
 11
-328.9516582228575
 21
109.3261445451296
  0
LINE
  8
2
  6
CENTER
 62
     1
 10
-332.4925533362802
 20
189.1261445451296
 11
-325.4107631094349
 21
189.1261445451296
  0
LINE
  8
2
  6
CENTER
 62
     1
 10
-296.5016582228575
 20
185.3261445451296
 11
-285.5016582228575
 21
185.3261445451296
  0
LINE
  8
2
  6
CENTER
 62
     1
 10
-291.0016582228575
 20
103.9261445451296
 11
-291.0016582228575
 21
114.9261445451296
  0
LINE
  8
2
  6
CENTER
 62
     1
 10
-328.9516582228575
 20
21.70184204084058
 11
-328.9516582228575
 21
32.58317117020892
  0
LINE
  8
2
  6
CENTER
 62
     1
 10
-328.9516582228575
 20
95.07614454512958
 11
-328.9516582228575
 21
199.6761445451296
  0
LINE
  8
2
  6
CENTER
 62
     1
 10
-296.5016582228575
 20
109.4261445451296
 11
-285.5016582228575
 21
109.4261445451296
  0
LINE
  8
2
  6
CENTER
 62
     1
 10
-366.9016582228575
 20
103.9261445451296
 11
-366.9016582228575
 21
114.9261445451296
  0
LINE
  8
2
  6
CENTER
 62
     1
 10
-372.4016582228575
 20
185.3261445451296
 11
-361.4016582228575
 21
185.3261445451296
  0
LINE
  8
2
  6
CENTER
 62
     1
 10
-328.9516582228575
 20
185.585249431707
 11
-328.9516582228575
 21
192.6670396585523
  0
LINE
  8
2
  6
CENTER
 62
     1
 10
-372.4016582228575
 20
109.4261445451296
 11
-361.4016582228575
 21
109.4261445451296
  0
LINE
  8
2
  6
CENTER
 62
     1
 10
-291.0016582228575
 20
179.8261445451296
 11
-291.0016582228575
 21
190.8261445451296
  0
LINE
  8
2
  6
CENTER
 62
     1
 10
-193.6470858171984
 20
147.3761445451296
 11
-182.7657566878298
 21
147.3761445451296
  0
LINE
  8
2
  6
CENTER
 62
     1
 10
-332.6516582228575
 20
105.6261445451296
 11
-325.2516582228575
 21
105.6261445451296
  0
LINE
  8
2
  6
CENTER
 62
     1
 10
-366.9016582228575
 20
179.8261445451296
 11
-366.9016582228575
 21
190.8261445451296
  0
ENDSEC
  0
EOF
