  0
SECTION
  2
HEADER
  9
$ACADVER
  1
AC1004
  9
$INSBASE
 10
0.0
 20
0.0
  9
$EXTMIN
 10
0.0
 20
0.0
  9
$EXTMAX
 10
404.2371507359818
 20
240.5
  9
$LIMMIN
 10
0.0
 20
0.0
  9
$LIMMAX
 10
12.0
 20
9.0
  9
$ORTHOMODE
 70
     0
  9
$REGENMODE
 70
     1
  9
$FILLMODE
 70
     1
  9
$QTEXTMODE
 70
     0
  9
$DRAGMODE
 70
     2
  9
$LTSCALE
 40
1.0
  9
$OSMODE
 70
    37
  9
$ATTMODE
 70
     1
  9
$TEXTSIZE
 40
0.2
  9
$TRACEWID
 40
0.05
  9
$TEXTSTYLE
  7
STANDARD
  9
$CLAYER
  8
0
  9
$CELTYPE
  6
BYLAYER
  9
$CECOLOR
 62
   256
  9
$DIMSCALE
 40
1.0
  9
$DIMASZ
 40
3.0
  9
$DIMEXO
 40
0.0625
  9
$DIMDLI
 40
0.38
  9
$DIMRND
 40
0.0
  9
$DIMDLE
 40
0.0
  9
$DIMEXE
 40
1.5
  9
$DIMTP
 40
0.0
  9
$DIMTM
 40
0.0
  9
$DIMTXT
 40
3.0
  9
$DIMCEN
 40
0.09
  9
$DIMTSZ
 40
0.0
  9
$DIMTOL
 70
     0
  9
$DIMLIM
 70
     0
  9
$DIMTIH
 70
     1
  9
$DIMTOH
 70
     1
  9
$DIMSE1
 70
     0
  9
$DIMSE2
 70
     0
  9
$DIMTAD
 70
     1
  9
$DIMZIN
 70
     0
  9
$DIMBLK
  1

  9
$DIMASO
 70
     1
  9
$DIMSHO
 70
     1
  9
$DIMPOST
  1

  9
$DIMAPOST
  1

  9
$DIMALT
 70
     0
  9
$DIMALTD
 70
     2
  9
$DIMALTF
 40
25.4
  9
$DIMLFAC
 40
1.0
  9
$DIMTOFL
 70
     0
  9
$DIMTVP
 40
0.0
  9
$DIMTIX
 70
     0
  9
$DIMSOXD
 70
     0
  9
$DIMSAH
 70
     0
  9
$DIMBLK1
  1

  9
$DIMBLK2
  1

  9
$LUNITS
 70
     2
  9
$LUPREC
 70
     4
  9
$SKETCHINC
 40
0.1
  9
$FILLETRAD
 40
0.5
  9
$AUNITS
 70
     0
  9
$AUPREC
 70
     0
  9
$MENU
  1
.
  9
$ELEVATION
 40
0.0
  9
$THICKNESS
 40
0.0
  9
$LIMCHECK
 70
     0
  9
$CHAMFERA
 40
0.0
  9
$CHAMFERB
 40
0.0
  9
$SKPOLY
 70
     0
  9
$TDCREATE
 40
2460474.645399132
  9
$TDUPDATE
 40
2460474.645403507
  9
$TDINDWG
 40
0.0000000116
  9
$TDUSRTIMER
 40
0.0000000116
  9
$USRTIMER
 70
     1
  9
$ANGBASE
 50
0.0
  9
$ANGDIR
 70
     0
  9
$PDMODE
 70
     0
  9
$PDSIZE
 40
0.0
  9
$PLINEWID
 40
0.0
  9
$COORDS
 70
     1
  9
$SPLFRAME
 70
     0
  9
$SPLINETYPE
 70
     6
  9
$SPLINESEGS
 70
     8
  9
$ATTDIA
 70
     0
  9
$ATTREQ
 70
     1
  9
$SURFTAB1
 70
     6
  9
$SURFTAB2
 70
     6
  9
$SURFTYPE
 70
     6
  9
$SURFU
 70
     6
  9
$SURFV
 70
     6
  9
$UCSNAME
  2

  9
$UCSORG
 10
0.0
 20
0.0
 30
0.0
  9
$UCSXDIR
 10
1.0
 20
0.0
 30
0.0
  9
$UCSYDIR
 10
0.0
 20
1.0
 30
0.0
  9
$USERI1
 70
     0
  9
$USERI2
 70
     0
  9
$USERI3
 70
     0
  9
$USERI4
 70
     0
  9
$USERI5
 70
     0
  9
$USERR1
 40
0.0
  9
$USERR2
 40
0.0
  9
$USERR3
 40
0.0
  9
$USERR4
 40
0.0
  9
$USERR5
 40
0.0
  9
$WORLDVIEW
 70
     1
  0
ENDSEC
  0
SECTION
  2
TABLES
  0
TABLE
  2
LTYPE
 70
     2
  0
LTYPE
  2
CONTINUOUS
 70
     0
  3
Solid line
 72
    65
 73
     0
 40
0.0
  0
LTYPE
  2
CENTER
 70
     0
  3

 72
    65
 73
     0
 40
0.0
  0
ENDTAB
  0
TABLE
  2
LAYER
 70
     2
  0
LAYER
  2
0
 70
     0
 62
     7
  6
CONTINUOUS
  0
LAYER
  2
1
 70
     0
 62
     7
  6
CONTINUOUS
  0
ENDTAB
  0
TABLE
  2
STYLE
 70
     2
  0
STYLE
  2
STANDARD
 70
     0
 40
0.0
 41
1.0
 50
0.0
 71
     0
 42
0.2
  3
txt
  4

  0
STYLE
  2
ＭＳ_ゴシック
 70
     0
 40
0.0
 41
1.0
 50
0.0
 71
     0
 42
0.2
  3
ＭＳ ゴシック.shx
  4

  0
ENDTAB
  0
TABLE
  2
VIEW
 70
     0
  0
ENDTAB
  0
ENDSEC
  0
SECTION
  2
BLOCKS
  0
BLOCK
  8
0
  2
D_FRAME_DRAWING_17
 70
     0
 10
0.0
 20
0.0
  0
LINE
  8
0
  6
CONTINUOUS
 62
     7
 10
0.0
 20
0.0
 11
420.0
 21
0.0
  0
LINE
  8
0
  6
CONTINUOUS
 62
     7
 10
420.0
 20
0.0
 11
420.0
 21
297.0
  0
LINE
  8
0
  6
CONTINUOUS
 62
     7
 10
420.0
 20
297.0
 11
0.0
 21
297.0
  0
LINE
  8
0
  6
CONTINUOUS
 62
     7
 10
0.0
 20
297.0
 11
0.0
 21
0.0
  0
ENDBLK
  8
0
  0
BLOCK
  8
0
  2
D_FRAME_VIEW_1617
 70
     0
 10
0.0
 20
0.0
  0
ENDBLK
  8
0
  0
BLOCK
  8
0
  2
D_FRAME_VIEW_1444
 70
     0
 10
0.0
 20
0.0
  0
ENDBLK
  8
0
  0
BLOCK
  8
0
  2
D_FRAME_VIEW_1627
 70
     0
 10
0.0
 20
0.0
  0
ENDBLK
  8
0
  0
ENDSEC
  0
SECTION
  2
ENTITIES
  0
TEXT
  8
1
  6
CONTINUOUS
 62
     7
 10
238.966037263974
 20
98.04245342003252
 40
8.0
  1
OF-12-F
  0
LINE
  8
1
  6
CENTER
 62
     1
 10
165.0
 20
94.69999999999999
 11
165.0
 21
100.3
  0
LINE
  8
1
  6
CENTER
 62
     1
 10
262.8
 20
187.5
 11
257.2
 21
187.5
  0
LINE
  8
1
  6
CENTER
 62
     1
 10
215.0
 20
187.5
 11
115.0
 21
187.5
  0
LINE
  8
1
  6
CENTER
 62
     1
 10
165.0
 20
237.5
 11
165.0
 21
137.5
  0
INSERT
  8
0
 62
     7
  2
D_FRAME_DRAWING_17
 10
0.0
 20
0.0
 30
0.0
  0
LINE
  8
1
  6
CONTINUOUS
 62
     7
 10
260.8
 20
134.5
 11
259.2
 21
134.5
  0
LINE
  8
1
  6
CONTINUOUS
 62
     7
 10
259.1625
 20
136.6022727272727
 11
259.2
 21
136.6022727272727
  0
LINE
  8
1
  6
CONTINUOUS
 62
     7
 10
260.8
 20
235.5
 11
260.8
 21
240.5
  0
LINE
  8
1
  6
CONTINUOUS
 62
     7
 10
259.2
 20
134.5
 11
259.2
 21
139.5
  0
LINE
  8
1
  6
CONTINUOUS
 62
     7
 10
112.0
 20
96.69999999999999
 11
117.0
 21
96.69999999999999
  0
LINE
  8
1
  6
CONTINUOUS
 62
     7
 10
112.0
 20
96.69999999999999
 11
112.0
 21
98.3
  0
LINE
  8
1
  6
CONTINUOUS
 62
     7
 10
259.2
 20
235.5
 11
259.2
 21
240.5
  0
LINE
  8
1
  6
CONTINUOUS
 62
     7
 10
218.0
 20
96.69999999999999
 11
218.0
 21
98.3
  0
LINE
  8
1
  6
CONTINUOUS
 62
     7
 10
259.2
 20
139.5
 11
259.2
 21
235.5
  0
LINE
  8
1
  6
CONTINUOUS
 62
     7
 10
117.0
 20
98.3
 11
213.0
 21
98.3
  0
LINE
  8
1
  6
CONTINUOUS
 62
     7
 10
260.8
 20
139.5
 11
260.8
 21
235.5
  0
LINE
  8
1
  6
CONTINUOUS
 62
     7
 10
260.8
 20
240.5
 11
259.2
 21
240.5
  0
LINE
  8
1
  6
CONTINUOUS
 62
     7
 10
260.8
 20
134.5
 11
260.8
 21
139.5
  0
LINE
  8
1
  6
CONTINUOUS
 62
     7
 10
117.0
 20
96.69999999999999
 11
213.0
 21
96.69999999999999
  0
LINE
  8
1
  6
CONTINUOUS
 62
     7
 10
213.0
 20
96.69999999999999
 11
218.0
 21
96.69999999999999
  0
LINE
  8
1
  6
CONTINUOUS
 62
     7
 10
213.0
 20
98.3
 11
218.0
 21
98.3
  0
LINE
  8
1
  6
CONTINUOUS
 62
     7
 10
112.0
 20
98.3
 11
117.0
 21
98.3
  0
LINE
  8
1
  6
CONTINUOUS
 62
     7
 10
167.5
 20
141.75
 11
167.5
 21
138.75
  0
LINE
  8
1
  6
CONTINUOUS
 62
     7
 10
162.5
 20
141.75
 11
167.5
 21
141.75
  0
LINE
  8
1
  6
CONTINUOUS
 62
     7
 10
167.5
 20
236.25
 11
167.5
 21
233.25
  0
LINE
  8
1
  6
CONTINUOUS
 62
     7
 10
162.5
 20
236.25
 11
167.5
 21
236.25
  0
LINE
  8
1
  6
CONTINUOUS
 62
     7
 10
162.5
 20
233.25
 11
162.5
 21
236.25
  0
LINE
  8
1
  6
CONTINUOUS
 62
     7
 10
167.5
 20
233.25
 11
162.5
 21
233.25
  0
LINE
  8
1
  6
CONTINUOUS
 62
     7
 10
167.5
 20
138.75
 11
162.5
 21
138.75
  0
LINE
  8
1
  6
CONTINUOUS
 62
     7
 10
162.5
 20
138.75
 11
162.5
 21
141.75
  0
ARC
  8
1
  6
CONTINUOUS
 62
     7
 10
165.0
 20
187.5
 40
56.16999999999999
 50
227.5563261930998
 51
236.0138328903514
  0
ARC
  8
1
  6
CONTINUOUS
 62
     7
 10
165.0
 20
187.5
 40
51.16999999999999
 50
304.0965495704681
 51
312.3216687165578
  0
ARC
  8
1
  6
CONTINUOUS
 62
     7
 10
127.049579053718
 20
149.549579053718
 40
3.5
 50
1.907887268746549
 51
88.09211273125435
  0
ARC
  8
1
  6
CONTINUOUS
 62
     7
 10
165.0
 20
187.5
 40
51.16999999999999
 50
213.8757846488292
 51
222.3216687165578
  0
ARC
  8
1
  6
CONTINUOUS
 62
     7
 10
120.5
 20
157.5
 40
2.499999999999995
 50
36.24605983316599
 51
213.9861671096486
  0
ARC
  8
1
  6
CONTINUOUS
 62
     7
 10
135.0
 20
143.0
 40
2.499999999999994
 50
236.0138328903514
 51
58.27372561387143
  0
LINE
  8
1
  6
CONTINUOUS
 62
     7
 10
118.4253776392904
 20
156.1013781837913
 11
118.4270686148874
 21
156.1025181673398
  0
ARC
  8
1
  6
CONTINUOUS
 62
     7
 10
165.0
 20
187.5
 40
56.16999999999999
 50
213.9861671096487
 51
222.4436738069001
  0
ARC
  8
1
  6
CONTINUOUS
 62
     7
 10
127.049579053718
 20
149.549579053718
 40
3.500000000000004
 50
179.2919800806317
 51
270.7080199193688
  0
ARC
  8
1
  6
CONTINUOUS
 62
     7
 10
195.0
 20
143.0
 40
2.499999999999997
 50
121.7262743861286
 51
303.9861671096487
  0
ARC
  8
1
  6
CONTINUOUS
 62
     7
 10
165.0
 20
187.5
 40
56.16999999999999
 50
47.55632619309984
 51
56.0138328903514
  0
LINE
  8
1
  6
CONTINUOUS
 62
     7
 10
196.3974818326602
 20
234.0729313851126
 11
196.3986218162087
 21
234.0746223607096
  0
CIRCLE
  8
1
  6
CONTINUOUS
 62
     7
 10
214.0
 20
187.5
 40
1.500000000000001
  0
CIRCLE
  8
1
  6
CONTINUOUS
 62
     7
 10
116.0
 20
187.5
 40
1.500000000000001
  0
ARC
  8
1
  6
CONTINUOUS
 62
     7
 10
209.5
 20
157.5
 40
2.499999999999999
 50
326.0138328903514
 51
143.753940166834
  0
ARC
  8
1
  6
CONTINUOUS
 62
     7
 10
165.0
 20
187.5
 40
51.16999999999999
 50
317.6783312834422
 51
326.1242153511707
  0
ARC
  8
1
  6
CONTINUOUS
 62
     7
 10
202.950420946282
 20
149.549579053718
 40
3.500000000000002
 50
91.90788726874564
 51
178.0921127312533
  0
LINE
  8
1
  6
CONTINUOUS
 62
     7
 10
196.3986218162087
 20
140.9253776392905
 11
196.3974818326602
 21
140.9270686148874
  0
ARC
  8
1
  6
CONTINUOUS
 62
     7
 10
165.0
 20
187.5
 40
56.17
 50
317.5563261930999
 51
326.0138328903514
  0
LINE
  8
1
  6
CONTINUOUS
 62
     7
 10
211.5729313851126
 20
156.1025181673398
 11
211.5746223607096
 21
156.1013781837913
  0
ARC
  8
1
  6
CONTINUOUS
 62
     7
 10
165.0
 20
187.5
 40
51.16999999999998
 50
227.6783312834421
 51
235.9034504295319
  0
LINE
  8
1
  6
CONTINUOUS
 62
     7
 10
133.6025181673398
 20
140.9270686148874
 11
133.6013781837913
 21
140.9253776392904
  0
ARC
  8
1
  6
CONTINUOUS
 62
     7
 10
165.0
 20
187.5
 40
56.17
 50
303.9861671096485
 51
312.4436738069001
  0
ARC
  8
1
  6
CONTINUOUS
 62
     7
 10
202.950420946282
 20
149.549579053718
 40
3.500000000000004
 50
269.2919800806312
 51
0.7080199193682688
  0
ARC
  8
1
  6
CONTINUOUS
 62
     7
 10
195.0
 20
232.0
 40
2.499999999999994
 50
56.01383289035135
 51
238.2737256138714
  0
ARC
  8
1
  6
CONTINUOUS
 62
     7
 10
202.950420946282
 20
225.450420946282
 40
3.500000000000004
 50
359.2919800806317
 51
90.70801991936872
  0
ARC
  8
1
  6
CONTINUOUS
 62
     7
 10
165.0
 20
187.5
 40
56.17
 50
123.9861671096485
 51
132.4436738069001
  0
CIRCLE
  8
1
  6
CONTINUOUS
 62
     7
 10
165.0
 20
229.25
 40
1.65
  0
LINE
  8
1
  6
CONTINUOUS
 62
     7
 10
160.5
 20
145.75
 11
160.5
 21
145.0
  0
ARC
  8
1
  6
CONTINUOUS
 62
     7
 10
165.0
 20
187.5
 40
56.16999999999999
 50
33.98616710964864
 51
42.44367380690006
  0
ARC
  8
1
  6
CONTINUOUS
 62
     7
 10
127.049579053718
 20
225.450420946282
 40
3.500000000000002
 50
271.9078872687456
 51
358.0921127312533
  0
ARC
  8
1
  6
CONTINUOUS
 62
     7
 10
157.0
 20
145.0
 40
3.500000000000003
 50
270.0
 51
0.0
  0
ARC
  8
1
  6
CONTINUOUS
 62
     7
 10
147.5
 20
223.5
 40
9.999999999999998
 50
90.0
 51
180.0
  0
ARC
  8
1
  6
CONTINUOUS
 62
     7
 10
173.0
 20
145.0
 40
3.500000000000003
 50
180.0
 51
270.0
  0
ARC
  8
1
  6
CONTINUOUS
 62
     7
 10
117.0
 20
139.5
 40
4.999999999999997
 50
180.0000000000001
 51
270.0
  0
ARC
  8
1
  6
CONTINUOUS
 62
     7
 10
135.0
 20
232.0
 40
2.499999999999997
 50
301.7262743861286
 51
123.9861671096486
  0
ARC
  8
1
  6
CONTINUOUS
 62
     7
 10
182.5
 20
151.5
 40
9.999999999999998
 50
270.0
 51
0.0
  0
ARC
  8
1
  6
CONTINUOUS
 62
     7
 10
213.0
 20
139.5
 40
4.999999999999997
 50
270.0000000000002
 51
0.0
  0
ARC
  8
1
  6
CONTINUOUS
 62
     7
 10
182.5
 20
223.5
 40
10.0
 50
0.0
 51
90.0
  0
LINE
  8
1
  6
CONTINUOUS
 62
     7
 10
112.0
 20
235.5
 11
112.0
 21
139.5
  0
ARC
  8
1
  6
CONTINUOUS
 62
     7
 10
209.5
 20
217.5
 40
2.499999999999995
 50
216.246059833166
 51
33.98616710964859
  0
ARC
  8
1
  6
CONTINUOUS
 62
     7
 10
127.049579053718
 20
225.450420946282
 40
3.500000000000004
 50
89.29198008063122
 51
180.7080199193683
  0
LINE
  8
1
  6
CONTINUOUS
 62
     7
 10
118.4270686148874
 20
218.8974818326602
 11
118.4253776392904
 21
218.8986218162087
  0
ARC
  8
1
  6
CONTINUOUS
 62
     7
 10
165.0
 20
187.5
 40
51.16999999999999
 50
124.0965495704681
 51
132.3216687165578
  0
LINE
  8
1
  6
CONTINUOUS
 62
     7
 10
160.5
 20
230.0
 11
160.5
 21
229.25
  0
ARC
  8
1
  6
CONTINUOUS
 62
     7
 10
165.0
 20
187.5
 40
56.17
 50
137.5563261931
 51
146.0138328903514
  0
ARC
  8
1
  6
CONTINUOUS
 62
     7
 10
165.0
 20
229.25
 40
4.5
 50
180.0
 51
0.0
  0
ARC
  8
1
  6
CONTINUOUS
 62
     7
 10
202.950420946282
 20
225.450420946282
 40
3.5
 50
181.9078872687466
 51
268.0921127312542
  0
ARC
  8
1
  6
CONTINUOUS
 62
     7
 10
165.0
 20
187.5
 40
51.16999999999999
 50
137.6783312834422
 51
146.1242153511708
  0
LINE
  8
1
  6
CONTINUOUS
 62
     7
 10
169.5
 20
145.0
 11
169.5
 21
145.75
  0
LINE
  8
1
  6
CONTINUOUS
 62
     7
 10
182.5
 20
141.5
 11
173.0
 21
141.5
  0
ARC
  8
1
  6
CONTINUOUS
 62
     7
 10
117.0
 20
235.5
 40
4.99999999999999
 50
90.00000000000016
 51
180.0
  0
LINE
  8
1
  6
CONTINUOUS
 62
     7
 10
157.0
 20
141.5
 11
147.5
 21
141.5
  0
LINE
  8
1
  6
CONTINUOUS
 62
     7
 10
117.0
 20
134.5
 11
213.0
 21
134.5
  0
CIRCLE
  8
1
  6
CONTINUOUS
 62
     7
 10
165.0
 20
145.75
 40
1.65
  0
LINE
  8
1
  6
CONTINUOUS
 62
     7
 10
173.0
 20
233.5
 11
182.5
 21
233.5
  0
LINE
  8
1
  6
CONTINUOUS
 62
     7
 10
211.5746223607096
 20
218.8986218162087
 11
211.5729313851126
 21
218.8974818326602
  0
ARC
  8
1
  6
CONTINUOUS
 62
     7
 10
147.5
 20
151.5
 40
10.0
 50
180.0
 51
270.0
  0
ARC
  8
1
  6
CONTINUOUS
 62
     7
 10
213.0
 20
235.5
 40
5.000000000000004
 50
0.0
 51
90.0
  0
LINE
  8
1
  6
CONTINUOUS
 62
     7
 10
137.5
 20
151.5
 11
137.5
 21
223.5
  0
ARC
  8
1
  6
CONTINUOUS
 62
     7
 10
165.0
 20
187.5
 40
51.16999999999999
 50
33.87578464882922
 51
42.32166871655784
  0
LINE
  8
1
  6
CONTINUOUS
 62
     7
 10
213.0
 20
240.5
 11
117.0
 21
240.5
  0
ARC
  8
1
  6
CONTINUOUS
 62
     7
 10
120.5
 20
217.5
 40
2.499999999999999
 50
146.0138328903514
 51
323.753940166834
  0
ARC
  8
1
  6
CONTINUOUS
 62
     7
 10
165.0
 20
145.75
 40
4.5
 50
0.0
 51
180.0
  0
LINE
  8
1
  6
CONTINUOUS
 62
     7
 10
218.0
 20
139.5
 11
218.0
 21
235.5
  0
ARC
  8
1
  6
CONTINUOUS
 62
     7
 10
165.0
 20
187.5
 40
51.16999999999998
 50
47.67833128344213
 51
55.9034504295319
  0
LINE
  8
1
  6
CONTINUOUS
 62
     7
 10
133.6013781837913
 20
234.0746223607095
 11
133.6025181673398
 21
234.0729313851126
  0
LINE
  8
1
  6
CONTINUOUS
 62
     7
 10
147.5
 20
233.5
 11
157.0
 21
233.5
  0
ARC
  8
1
  6
CONTINUOUS
 62
     7
 10
173.0
 20
230.0
 40
3.500000000000003
 50
89.99999999999994
 51
180.0
  0
LINE
  8
1
  6
CONTINUOUS
 62
     7
 10
169.5
 20
229.25
 11
169.5
 21
230.0
  0
LINE
  8
1
  6
CONTINUOUS
 62
     7
 10
192.5
 20
223.5
 11
192.5
 21
151.5
  0
ARC
  8
1
  6
CONTINUOUS
 62
     7
 10
157.0
 20
230.0
 40
3.500000000000003
 50
0.0
 51
90.0
  0
INSERT
  8
1
  6
CONTINUOUS
 62
     7
  2
D_FRAME_VIEW_1617
 10
0.0
 20
0.0
 30
0.0
  0
INSERT
  8
1
  6
CONTINUOUS
 62
     7
  2
D_FRAME_VIEW_1444
 10
0.0
 20
0.0
 30
0.0
  0
INSERT
  8
1
  6
CONTINUOUS
 62
     7
  2
D_FRAME_VIEW_1627
 10
0.0
 20
0.0
 30
0.0
  0
ENDSEC
  0
EOF
