  0
SECTION
  2
HEADER
  9
$ACADVER
  1
AC1004
  9
$INSBASE
 10
0.0
 20
0.0
  9
$EXTMIN
 10
-374.6934309267586
 20
11.85089299862783
  9
$EXTMAX
 10
-185.1544297127132
 20
184.4595518782394
  9
$LIMMIN
 10
0.0
 20
0.0
  9
$LIMMAX
 10
12.0
 20
9.0
  9
$ORTHOMODE
 70
     0
  9
$REGENMODE
 70
     1
  9
$FILLMODE
 70
     1
  9
$QTEXTMODE
 70
     0
  9
$DRAGMODE
 70
     2
  9
$LTSCALE
 40
1.0
  9
$OSMODE
 70
    37
  9
$ATTMODE
 70
     1
  9
$TEXTSIZE
 40
0.2
  9
$TRACEWID
 40
0.05
  9
$TEXTSTYLE
  7
STANDARD
  9
$CLAYER
  8
0
  9
$CELTYPE
  6
BYLAYER
  9
$CECOLOR
 62
   256
  9
$DIMSCALE
 40
1.0
  9
$DIMASZ
 40
3.0
  9
$DIMEXO
 40
0.0625
  9
$DIMDLI
 40
0.38
  9
$DIMRND
 40
0.0
  9
$DIMDLE
 40
0.0
  9
$DIMEXE
 40
1.5
  9
$DIMTP
 40
0.0
  9
$DIMTM
 40
0.0
  9
$DIMTXT
 40
3.0
  9
$DIMCEN
 40
0.09
  9
$DIMTSZ
 40
0.0
  9
$DIMTOL
 70
     0
  9
$DIMLIM
 70
     0
  9
$DIMTIH
 70
     1
  9
$DIMTOH
 70
     1
  9
$DIMSE1
 70
     0
  9
$DIMSE2
 70
     0
  9
$DIMTAD
 70
     1
  9
$DIMZIN
 70
     0
  9
$DIMBLK
  1

  9
$DIMASO
 70
     1
  9
$DIMSHO
 70
     1
  9
$DIMPOST
  1

  9
$DIMAPOST
  1

  9
$DIMALT
 70
     0
  9
$DIMALTD
 70
     2
  9
$DIMALTF
 40
25.4
  9
$DIMLFAC
 40
1.0
  9
$DIMTOFL
 70
     0
  9
$DIMTVP
 40
0.0
  9
$DIMTIX
 70
     0
  9
$DIMSOXD
 70
     0
  9
$DIMSAH
 70
     0
  9
$DIMBLK1
  1

  9
$DIMBLK2
  1

  9
$LUNITS
 70
     2
  9
$LUPREC
 70
     4
  9
$SKETCHINC
 40
0.1
  9
$FILLETRAD
 40
0.5
  9
$AUNITS
 70
     0
  9
$AUPREC
 70
     0
  9
$MENU
  1
.
  9
$ELEVATION
 40
0.0
  9
$THICKNESS
 40
0.0
  9
$LIMCHECK
 70
     0
  9
$CHAMFERA
 40
0.0
  9
$CHAMFERB
 40
0.0
  9
$SKPOLY
 70
     0
  9
$TDCREATE
 40
2459531.47848154
  9
$TDUPDATE
 40
2459531.47848191
  9
$TDINDWG
 40
0.0000000116
  9
$TDUSRTIMER
 40
0.0000000116
  9
$USRTIMER
 70
     1
  9
$ANGBASE
 50
0.0
  9
$ANGDIR
 70
     0
  9
$PDMODE
 70
     0
  9
$PDSIZE
 40
0.0
  9
$PLINEWID
 40
0.0
  9
$COORDS
 70
     1
  9
$SPLFRAME
 70
     0
  9
$SPLINETYPE
 70
     6
  9
$SPLINESEGS
 70
     8
  9
$ATTDIA
 70
     0
  9
$ATTREQ
 70
     1
  9
$SURFTAB1
 70
     6
  9
$SURFTAB2
 70
     6
  9
$SURFTYPE
 70
     6
  9
$SURFU
 70
     6
  9
$SURFV
 70
     6
  9
$UCSNAME
  2

  9
$UCSORG
 10
0.0
 20
0.0
 30
0.0
  9
$UCSXDIR
 10
1.0
 20
0.0
 30
0.0
  9
$UCSYDIR
 10
0.0
 20
1.0
 30
0.0
  9
$USERI1
 70
     0
  9
$USERI2
 70
     0
  9
$USERI3
 70
     0
  9
$USERI4
 70
     0
  9
$USERI5
 70
     0
  9
$USERR1
 40
0.0
  9
$USERR2
 40
0.0
  9
$USERR3
 40
0.0
  9
$USERR4
 40
0.0
  9
$USERR5
 40
0.0
  9
$WORLDVIEW
 70
     1
  0
ENDSEC
  0
SECTION
  2
TABLES
  0
TABLE
  2
LTYPE
 70
     2
  0
LTYPE
  2
CONTINUOUS
 70
     0
  3
Solid line
 72
    65
 73
     0
 40
0.0
  0
LTYPE
  2
CENTER
 70
     0
  3

 72
    65
 73
     0
 40
0.0
  0
ENDTAB
  0
TABLE
  2
LAYER
 70
     2
  0
LAYER
  2
0
 70
     0
 62
     7
  6
CONTINUOUS
  0
LAYER
  2
2
 70
     0
 62
     7
  6
CONTINUOUS
  0
ENDTAB
  0
TABLE
  2
STYLE
 70
     2
  0
STYLE
  2
STANDARD
 70
     0
 40
0.0
 41
1.0
 50
0.0
 71
     0
 42
0.2
  3
txt
  4

  0
STYLE
  2
ＭＳ_ゴシック
 70
     0
 40
0.0
 41
1.0
 50
0.0
 71
     0
 42
0.2
  3
ＭＳ ゴシック.shx
  4

  0
ENDTAB
  0
TABLE
  2
VIEW
 70
     0
  0
ENDTAB
  0
ENDSEC
  0
SECTION
  2
BLOCKS
  0
BLOCK
  8
0
  2
D_FRAME_VIEW_3588
 70
     0
 10
0.0
 20
0.0
  0
LINE
  8
2
  6
CONTINUOUS
 62
     7
 10
-204.4544297127132
 20
166.4683555747255
 11
-204.4544297127132
 21
166.4951455557843
  0
ARC
  8
2
  6
CONTINUOUS
 62
     7
 10
-203.9544297127132
 20
166.4683555747255
 40
0.5000000000000004
 50
180.0
 51
270.999999999973
  0
LINE
  8
2
  6
CONTINUOUS
 62
     7
 10
-201.7544266470637
 20
166.0066806070567
 11
-203.9457035094948
 21
165.9684317271473
  0
LINE
  8
2
  6
CONTINUOUS
 62
     7
 10
-201.9544297127132
 20
177.4595518782394
 11
-201.9544297127132
 21
177.2595518782394
  0
LINE
  8
2
  6
CONTINUOUS
 62
     7
 10
-202.7544297127132
 20
178.9595518782394
 11
-201.9544297127132
 21
177.7595518782394
  0
LINE
  8
2
  6
CONTINUOUS
 62
     7
 10
-203.9544297127132
 20
178.9595518782394
 11
-202.7544297127132
 21
178.9595518782394
  0
LINE
  8
2
  6
CONTINUOUS
 62
     7
 10
-201.9544297127132
 20
177.7595518782394
 11
-201.9544297127132
 21
177.4595518782394
  0
ARC
  8
2
  6
CONTINUOUS
 62
     7
 10
-203.9544297127132
 20
178.4595518782394
 40
0.5000000000000004
 50
90.00000000000006
 51
180.0
  0
LINE
  8
2
  6
CONTINUOUS
 62
     7
 10
-204.4544297127132
 20
177.924565584361
 11
-204.4544297127132
 21
178.4595518782394
  0
LINE
  8
2
  6
CONTINUOUS
 62
     7
 10
-186.1544297127132
 20
173.5595518782394
 11
-188.7544096932076
 21
173.5595518782394
  0
LINE
  8
2
  6
CONTINUOUS
 62
     7
 10
-186.1457031772148
 20
173.5595138013036
 11
-186.1544297127132
 21
173.5595518782394
  0
ARC
  8
2
  6
CONTINUOUS
 62
     7
 10
-186.154430570984
 20
172.559551027426
 40
1.000000858271175
 50
0.0000487479047138
 51
89.49995125201974
  0
LINE
  8
2
  6
CONTINUOUS
 62
     7
 10
-185.1544297127132
 20
172.5595518782381
 11
-185.1544297127132
 21
172.4097543763645
  0
LINE
  8
2
  6
CONTINUOUS
 62
     7
 10
-185.1544297127132
 20
167.7317661056958
 11
-185.1544297127132
 21
167.5817661056958
  0
ARC
  8
2
  6
CONTINUOUS
 62
     7
 10
-204.1547194161514
 20
82.79325398343782
 40
4.001064894919943
 50
61.7867549192684
 51
87.44920754076739
  0
LINE
  8
2
  6
CONTINUOUS
 62
     7
 10
-204.4544297127132
 20
87.88139314405005
 11
-204.4544297127132
 21
90.55074818175336
  0
ARC
  8
2
  6
CONTINUOUS
 62
     7
 10
-203.9544297127132
 20
90.55074818175336
 40
0.5000000000000004
 50
88.99999999999994
 51
180.0
  0
LINE
  8
2
  6
CONTINUOUS
 62
     7
 10
-203.9457035094946
 20
91.05067202933157
 11
-201.7544266470637
 21
91.01242314942212
  0
ARC
  8
2
  6
CONTINUOUS
 62
     7
 10
-203.9544297127132
 20
87.28986039445732
 40
0.5000000000000125
 50
180.0
 51
267.4526818174296
  0
LINE
  8
2
  6
CONTINUOUS
 62
     7
 10
-204.4544297127132
 20
87.28986039445732
 11
-204.4544297127132
 21
87.88139314405008
  0
ARC
  8
2
  6
CONTINUOUS
 62
     7
 10
-204.1544297127132
 20
82.79430703585952
 40
4.000000000000002
 50
53.13010235415579
 51
61.78328064260559
  0
LINE
  8
2
  6
CONTINUOUS
 62
     7
 10
-201.9544297127132
 20
84.50955187823942
 11
-201.9544297127132
 21
79.55955187823943
  0
LINE
  8
2
  6
CONTINUOUS
 62
     7
 10
-201.9544297127132
 20
84.50955187823942
 11
-201.7544297127132
 21
84.50955187823942
  0
LINE
  8
2
  6
CONTINUOUS
 62
     7
 10
-201.9544297127132
 20
79.55955187823943
 11
-201.9544297127132
 21
79.25955187823942
  0
LINE
  8
2
  6
CONTINUOUS
 62
     7
 10
-201.9544297127132
 20
79.25955187823942
 11
-202.7544297127132
 21
78.05955187823943
  0
LINE
  8
2
  6
CONTINUOUS
 62
     7
 10
-202.7544297127132
 20
78.05955187823943
 11
-203.9544297127132
 21
78.05955187823943
  0
ARC
  8
2
  6
CONTINUOUS
 62
     7
 10
-203.9544297127132
 20
78.55955187823943
 40
0.5000000000000004
 50
180.0
 51
270.0
  0
LINE
  8
2
  6
CONTINUOUS
 62
     7
 10
-204.4544297127132
 20
78.55955187823943
 11
-204.4544297127132
 21
79.55955187823943
  0
LINE
  8
2
  6
CONTINUOUS
 62
     7
 10
-204.4544297127132
 20
79.55955187823943
 11
-204.4544297127132
 21
87.28986039445732
  0
LINE
  8
2
  6
CONTINUOUS
 62
     7
 10
-187.1544297127132
 20
87.38774923331977
 11
-187.1544297127132
 21
84.61463405471669
  0
LINE
  8
2
  6
CONTINUOUS
 62
     7
 10
-188.7544297127132
 20
87.38774923331978
 11
-187.1544297127132
 21
87.38774923331978
  0
LINE
  8
2
  6
CONTINUOUS
 62
     7
 10
-185.1544297127132
 20
89.43733765078306
 11
-185.1544297127132
 21
88.34555493536736
  0
LINE
  8
2
  6
CONTINUOUS
 62
     7
 10
-185.1544297127132
 20
84.72464899589437
 11
-185.1544297127132
 21
88.34555493536736
  0
LINE
  8
2
  6
CONTINUOUS
 62
     7
 10
-188.7544025032552
 20
84.84685370999884
 11
-187.1544297127132
 21
84.86059205073477
  0
LINE
  8
2
  6
CONTINUOUS
 62
     7
 10
-185.1544297127132
 20
84.72464899589437
 11
-185.1544297127132
 21
84.45955187823942
  0
LINE
  8
2
  6
CONTINUOUS
 62
     7
 10
-187.1544297127132
 20
84.60554476624421
 11
-188.7544297127132
 21
84.60554476624421
  0
LINE
  8
2
  6
CONTINUOUS
 62
     7
 10
-187.1544297127132
 20
84.61463405471669
 11
-187.1544297127132
 21
84.60554476624421
  0
ARC
  8
2
  6
CONTINUOUS
 62
     7
 10
-186.1544297127132
 20
84.45955187823942
 40
1.000000000000001
 50
270.0
 51
0.0
  0
LINE
  8
2
  6
CONTINUOUS
 62
     7
 10
-186.1544297127132
 20
83.45955187823942
 11
-188.7544297127132
 21
83.45955187823942
  0
LINE
  8
2
  6
CONTINUOUS
 62
     7
 10
-201.7544328321553
 20
166.0573002962875
 11
-203.9631559159318
 21
166.0958537011233
  0
LINE
  8
2
  6
CONTINUOUS
 62
     7
 10
-204.4544297127132
 20
166.5957775487015
 11
-204.4544297127132
 21
169.3132814190795
  0
ARC
  8
2
  6
CONTINUOUS
 62
     7
 10
-203.9544297127132
 20
166.5957775487015
 40
0.5000000000000004
 50
180.0
 51
269.0
  0
LINE
  8
2
  6
CONTINUOUS
 62
     7
 10
-204.3113878591239
 20
170.114114045877
 11
-203.9766519349354
 21
170.2635044483747
  0
ARC
  8
2
  6
CONTINUOUS
 62
     7
 10
-204.1544297127132
 20
174.2595518782394
 40
4.000000000000002
 50
272.5473181825704
 51
306.8698976458439
  0
LINE
  8
2
  6
CONTINUOUS
 62
     7
 10
-204.4544297127132
 20
169.3132814190795
 11
-204.4544297127132
 21
169.7639985196416
  0
LINE
  8
2
  6
CONTINUOUS
 62
     7
 10
-204.4544297127132
 20
169.7639985196416
 11
-204.3113878591239
 21
170.114114045877
  0
LINE
  8
2
  6
CONTINUOUS
 62
     7
 10
-201.9544297127132
 20
177.2595518782394
 11
-202.0380674721162
 21
177.458853175189
  0
LINE
  8
2
  6
CONTINUOUS
 62
     7
 10
-201.9544297127132
 20
174.5579906896833
 11
-201.9544297127132
 21
177.2595518782394
  0
ARC
  8
2
  6
CONTINUOUS
 62
     7
 10
-200.4544297127132
 20
174.5579906896833
 40
1.5
 50
180.0
 51
209.9264348666142
  0
LINE
  8
2
  6
CONTINUOUS
 62
     7
 10
-203.9631559159318
 20
178.4244894319392
 11
-202.4543535602914
 21
178.4508256750208
  0
LINE
  8
2
  6
CONTINUOUS
 62
     7
 10
-202.4543535602914
 20
178.4508256750208
 11
-202.0380674721162
 21
177.458853175189
  0
ARC
  8
2
  6
CONTINUOUS
 62
     7
 10
-203.9544297127132
 20
177.924565584361
 40
0.5000000000000004
 50
91.00000000000006
 51
180.0
  0
LINE
  8
2
  6
CONTINUOUS
 62
     7
 10
-204.4544297127132
 20
177.4249461840962
 11
-204.4544297127132
 21
177.924565584361
  0
LINE
  8
2
  6
CONTINUOUS
 62
     7
 10
-204.4544297127132
 20
169.7639985196416
 11
-204.4544297127132
 21
177.4249461840962
  0
LINE
  8
2
  6
CONTINUOUS
 62
     7
 10
-186.1544297127132
 20
173.4095518782394
 11
-188.7544118274763
 21
173.4095518782394
  0
LINE
  8
2
  6
CONTINUOUS
 62
     7
 10
-186.1457031772148
 20
173.4095138013036
 11
-186.1544297127132
 21
173.4095518782394
  0
ARC
  8
2
  6
CONTINUOUS
 62
     7
 10
-186.1544297127132
 20
172.4095518782395
 40
0.9999999999999468
 50
359.9999999999968
 51
89.50000000000426
  0
LINE
  8
2
  6
CONTINUOUS
 62
     7
 10
-185.1544297127132
 20
172.4095518782394
 11
-185.1544297127132
 21
167.7317661056958
  0
LINE
  8
2
  6
CONTINUOUS
 62
     7
 10
-188.7544297127132
 20
72.55955187823942
 11
-190.3544297127132
 21
72.55955187823942
  0
LINE
  8
2
  6
CONTINUOUS
 62
     7
 10
-190.3544297127132
 20
72.55955187823942
 11
-190.3544297127132
 21
77.55955187823943
  0
LINE
  8
2
  6
CONTINUOUS
 62
     7
 10
-188.7544297127132
 20
77.55955187823943
 11
-188.7544297127132
 21
72.55955187823942
  0
LINE
  8
2
  6
CONTINUOUS
 62
     7
 10
-190.3544297127132
 20
179.4595518782394
 11
-190.3544297127132
 21
184.4595518782394
  0
LINE
  8
2
  6
CONTINUOUS
 62
     7
 10
-190.3544297127132
 20
184.4595518782394
 11
-188.7544297127132
 21
184.4595518782394
  0
LINE
  8
2
  6
CONTINUOUS
 62
     7
 10
-188.7544297127132
 20
184.4595518782394
 11
-188.7544297127132
 21
179.4595518782394
  0
LINE
  8
2
  6
CONTINUOUS
 62
     7
 10
-190.3544297127132
 20
77.55955187823943
 11
-190.3544297127132
 21
179.4595518782394
  0
LINE
  8
2
  6
CONTINUOUS
 62
     7
 10
-188.7544297127132
 20
77.55955187823943
 11
-188.7544297127132
 21
179.4595518782394
  0
ARC
  8
2
  6
CONTINUOUS
 62
     7
 10
-191.9544297127132
 20
182.2308552394062
 40
1.59999999999999
 50
271.0000000000002
 51
0.0
  0
ARC
  8
2
  6
CONTINUOUS
 62
     7
 10
-191.9544297127132
 20
74.78824851707263
 40
1.600000000000007
 50
0.0
 51
88.99999999999983
  0
LINE
  8
2
  6
CONTINUOUS
 62
     7
 10
-199.2980607288064
 20
180.5024279583412
 11
-191.9265058624136
 21
180.631098927156
  0
LINE
  8
2
  6
CONTINUOUS
 62
     7
 10
-191.9265058624136
 20
76.38800482932287
 11
-199.2980607288064
 21
76.51667579813767
  0
LINE
  8
2
  6
CONTINUOUS
 62
     7
 10
-201.7544297127132
 20
81.61589904343528
 11
-201.7544297127132
 21
175.4032047130436
  0
LINE
  8
2
  6
CONTINUOUS
 62
     7
 10
-201.7544297127132
 20
175.4032047130436
 11
-201.7544297127132
 21
178.0028087204502
  0
ARC
  8
2
  6
CONTINUOUS
 62
     7
 10
-199.2544297127132
 20
178.0028087204502
 40
2.499999999999988
 50
90.99999999999996
 51
180.0
  0
ARC
  8
2
  6
CONTINUOUS
 62
     7
 10
-199.2544297127132
 20
79.01629503602864
 40
2.499999999999988
 50
180.0
 51
269.0
  0
LINE
  8
2
  6
CONTINUOUS
 62
     7
 10
-201.7544297127132
 20
79.01629503602864
 11
-201.7544297127132
 21
81.61589904343528
  0
LINE
  8
2
  6
CONTINUOUS
 62
     7
 10
-188.7544297127132
 20
166.5590381710541
 11
-186.1457031772148
 21
166.5818041826316
  0
ARC
  8
2
  6
CONTINUOUS
 62
     7
 10
-186.1544297127132
 20
167.5817661056958
 40
1.000000000000003
 50
270.5000000000001
 51
0.0
  0
ARC
  8
2
  6
CONTINUOUS
 62
     7
 10
-186.1544297127132
 20
89.43733765078306
 40
1.000000000000001
 50
0.0
 51
89.50000000000003
  0
LINE
  8
2
  6
CONTINUOUS
 62
     7
 10
-186.1457031772148
 20
90.43729957384724
 11
-188.7544297127132
 21
90.46006558542477
  0
LINE
  8
2
  6
CONTINUOUS
 62
     7
 10
-188.7544297127132
 20
166.7090381710541
 11
-186.1457031772148
 21
166.7318041826316
  0
ARC
  8
2
  6
CONTINUOUS
 62
     7
 10
-186.1544297127132
 20
167.7317661056958
 40
1.000000000000003
 50
270.5000000000001
 51
0.0
  0
ENDBLK
  8
0
  0
BLOCK
  8
0
  2
D_FRAME_VIEW_3863
 70
     0
 10
0.0
 20
0.0
  0
LINE
  8
2
  6
CONTINUOUS
 62
     7
 10
-362.4726932035032
 20
31.15089299862784
 11
-359.4913789673485
 21
31.15089299862784
  0
LINE
  8
2
  6
CONTINUOUS
 62
     7
 10
-332.7411765389853
 20
31.15089299862784
 11
-332.7141686500139
 21
31.15089299862784
  0
LINE
  8
2
  6
CONTINUOUS
 62
     7
 10
-359.4913789673485
 20
31.15089299862784
 11
-355.902480039685
 21
31.15089299862784
  0
LINE
  8
2
  6
CONTINUOUS
 62
     7
 10
-340.1656451542149
 20
11.85089299862784
 11
-340.315645154215
 21
11.85089299862784
  0
LINE
  8
2
  6
CONTINUOUS
 62
     7
 10
-362.5208203255378
 20
31.15089299862784
 11
-362.4902905832255
 21
31.15089299862784
  0
LINE
  8
2
  6
CONTINUOUS
 62
     7
 10
-362.9963022514524
 20
28.45089299862783
 11
-363.0009040729108
 21
28.71453117341479
  0
LINE
  8
2
  6
CONTINUOUS
 62
     7
 10
-363.0200668825671
 20
30.6421667954092
 11
-363.0104376779042
 21
29.71031258947145
  0
LINE
  8
2
  6
CONTINUOUS
 62
     7
 10
-363.0104376779042
 20
29.71031258947145
 11
-363.0070269558731
 21
29.23011552919905
  0
LINE
  8
2
  6
CONTINUOUS
 62
     7
 10
-332.1859577806063
 20
28.71453117341479
 11
-332.1827135514133
 21
28.93729557362946
  0
LINE
  8
2
  6
CONTINUOUS
 62
     7
 10
-332.1905596020648
 20
28.45089299862783
 11
-332.1859577806063
 21
28.71453117341479
  0
LINE
  8
2
  6
CONTINUOUS
 62
     7
 10
-332.1827135514133
 20
28.93729557362946
 11
-332.1786540247297
 21
29.38624560644415
  0
LINE
  8
2
  6
CONTINUOUS
 62
     7
 10
-363.0070269558731
 20
29.23011552919905
 11
-363.0009040729111
 21
28.71453117341443
  0
ARC
  8
2
  6
CONTINUOUS
 62
     7
 10
-332.1783975390069
 20
30.64350001918047
 40
0.0122999732150563
 50
353.4450261390043
 51
359.1314276776825
  0
ARC
  8
2
  6
CONTINUOUS
 62
     7
 10
-363.0084643145102
 20
30.64350001918045
 40
0.0122999732150005
 50
180.8685723222407
 51
186.5549738609592
  0
LINE
  8
2
  6
CONTINUOUS
 62
     7
 10
-355.902480039685
 20
31.15089299862784
 11
-355.5994731877898
 21
31.15089299862784
  0
ARC
  8
2
  6
CONTINUOUS
 62
     7
 10
455.567202805949
 20
0.7430858632297248
 40
810.5116440289945
 50
177.8499139968537
 51
178.0267560528748
  0
LINE
  8
2
  6
CONTINUOUS
 62
     7
 10
-355.4394480078002
 20
28.65089299862784
 11
-354.4529332377315
 21
28.65089299862784
  0
LINE
  8
2
  6
CONTINUOUS
 62
     7
 10
-355.5994731877898
 20
31.15089299862784
 11
-354.3637129345324
 21
31.15089299862784
  0
LINE
  8
2
  6
CONTINUOUS
 62
     7
 10
-353.4483842595529
 20
28.65089299862784
 11
-353.8989347946705
 21
28.65089299862784
  0
LINE
  8
2
  6
CONTINUOUS
 62
     7
 10
-353.926280875077
 20
31.15089299862784
 11
-353.4770486921735
 21
31.15089299862784
  0
LINE
  8
2
  6
CONTINUOUS
 62
     7
 10
-353.8989347946705
 20
28.65089299862784
 11
-354.4529332377315
 21
28.65089299862784
  0
LINE
  8
2
  6
CONTINUOUS
 62
     7
 10
-353.926280875077
 20
31.15089299862784
 11
-354.3637129345324
 21
31.15089299862784
  0
LINE
  8
2
  6
CONTINUOUS
 62
     7
 10
-353.4770486921735
 20
31.15089299862784
 11
-352.8959993286352
 21
31.15089299862784
  0
LINE
  8
2
  6
CONTINUOUS
 62
     7
 10
-334.737764929468
 20
28.65089299862783
 11
-350.9490969240491
 21
28.65089299862783
  0
LINE
  8
2
  6
CONTINUOUS
 62
     7
 10
-350.9490969240491
 20
28.65089299862783
 11
-350.9447136548146
 21
28.73453075803087
  0
ARC
  8
2
  6
CONTINUOUS
 62
     7
 10
-350.0057197622302
 20
27.64423414905043
 40
1.508882717515811
 50
86.83604053591746
 51
125.3583887503037
  0
POLYLINE
  8
2
  6
CONTINUOUS
 62
     7
 66
     1
  0
VERTEX
  8
2
  6
CONTINUOUS
 62
     7
 10
-350.8788936389615
 20
28.87480086248456
  0
VERTEX
  8
2
  6
CONTINUOUS
 62
     7
 10
-350.9377583536004
 20
28.77534571399264
  0
VERTEX
  8
2
  6
CONTINUOUS
 62
     7
 10
-350.9447136548146
 20
28.73453075803087
  0
SEQEND
  8
2
  6
CONTINUOUS
 62
     7
  0
LINE
  8
2
  6
CONTINUOUS
 62
     7
 10
-349.9224393212535
 20
29.15081684620603
 11
-335.7644225322637
 21
29.15081684620603
  0
LINE
  8
2
  6
CONTINUOUS
 62
     7
 10
-334.7421481987026
 20
28.73453075803087
 11
-334.7774255903964
 21
28.83570338085767
  0
ARC
  8
2
  6
CONTINUOUS
 62
     7
 10
-335.6615516417461
 20
27.76973820895846
 40
1.384904553526158
 50
50.32722485558804
 51
94.2598614265333
  0
LINE
  8
2
  6
CONTINUOUS
 62
     7
 10
-334.7421481987026
 20
28.73453075803087
 11
-334.737764929468
 21
28.65089299862783
  0
LINE
  8
2
  6
CONTINUOUS
 62
     7
 10
-334.8439518936559
 20
30.6770609767493
 11
-334.7421481987026
 21
28.73453075803087
  0
LINE
  8
2
  6
CONTINUOUS
 62
     7
 10
-350.9447136548146
 20
28.73453075803087
 11
-350.8429099598614
 21
30.67706097674931
  0
LINE
  8
2
  6
CONTINUOUS
 62
     7
 10
-349.8433663404174
 20
31.15089299862783
 11
-335.8434955130998
 21
31.15089299862783
  0
LINE
  8
2
  6
CONTINUOUS
 62
     7
 10
-335.8434955130998
 20
31.15089299862783
 11
-335.3432666610331
 21
31.15089299862783
  0
ARC
  8
2
  6
CONTINUOUS
 62
     7
 10
-335.3432666610331
 20
30.65089299862783
 40
0.5000000000000004
 50
3.0
 51
90.0
  0
LINE
  8
2
  6
CONTINUOUS
 62
     7
 10
-350.3435951924841
 20
31.15089299862783
 11
-349.8433663404174
 21
31.15089299862783
  0
ARC
  8
2
  6
CONTINUOUS
 62
     7
 10
-350.3435951924841
 20
30.65089299862783
 40
0.5000000000000004
 50
90.0
 51
176.9999999999999
  0
LINE
  8
2
  6
CONTINUOUS
 62
     7
 10
-334.7272833736114
 20
28.45089299862783
 11
-334.737764929468
 21
28.65089299862783
  0
LINE
  8
2
  6
CONTINUOUS
 62
     7
 10
-350.9490969240491
 20
28.65089299862783
 11
-350.9595784799057
 21
28.45089299862783
  0
LINE
  8
2
  6
CONTINUOUS
 62
     7
 10
-353.3992773839534
 20
30.65961920184647
 11
-353.2563051584535
 21
31.00785114503848
  0
LINE
  8
2
  6
CONTINUOUS
 62
     7
 10
-341.2052470309252
 20
15.45087511339095
 11
-341.2550225651632
 21
12.85089299862783
  0
LINE
  8
2
  6
CONTINUOUS
 62
     7
 10
-344.431839288354
 20
12.85089299862783
 11
-344.481614822592
 21
15.45087511339095
  0
LINE
  8
2
  6
CONTINUOUS
 62
     7
 10
-340.315645154215
 20
11.85089299862783
 11
-341.5140698351533
 21
11.85089299862783
  0
ARC
  8
2
  6
CONTINUOUS
 62
     7
 10
-342.0459544571857
 20
12.76961541269156
 40
2.386894072064426
 50
178.2581927756567
 51
200.4872884851166
  0
POLYLINE
  8
2
  6
CONTINUOUS
 62
     7
 66
     1
  0
VERTEX
  8
2
  6
CONTINUOUS
 62
     7
 10
-344.2818771508286
 20
11.93420352666833
  0
VERTEX
  8
2
  6
CONTINUOUS
 62
     7
 10
-344.208034621874
 20
11.85881916489691
  0
VERTEX
  8
2
  6
CONTINUOUS
 62
     7
 10
-344.1727920183639
 20
11.85089299862783
  0
SEQEND
  8
2
  6
CONTINUOUS
 62
     7
  0
LINE
  8
2
  6
CONTINUOUS
 62
     7
 10
-344.1727920183639
 20
11.85089299862783
 11
-345.3712166993022
 21
11.85089299862783
  0
LINE
  8
2
  6
CONTINUOUS
 62
     7
 10
-341.5140698351533
 20
11.85089299862783
 11
-341.4264011200518
 21
11.90302486143632
  0
ARC
  8
2
  6
CONTINUOUS
 62
     7
 10
-343.3348853707473
 20
12.73629357961082
 40
2.082462218586683
 50
336.413300741187
 51
2.914187624940269
  0
LINE
  8
2
  6
CONTINUOUS
 62
     7
 10
-344.4317456585143
 20
12.84216646312946
 11
-344.431839288354
 21
12.85089299862783
  0
LINE
  8
2
  6
CONTINUOUS
 62
     7
 10
-341.2550225651632
 20
12.85089299862783
 11
-341.2551161950029
 21
12.84216646312946
  0
LINE
  8
2
  6
CONTINUOUS
 62
     7
 10
-341.5140698351533
 20
11.85089299862783
 11
-344.1727920183639
 21
11.85089299862783
  0
ARC
  8
2
  6
CONTINUOUS
 62
     7
 10
-332.3042590033701
 20
30.66048400711067
 40
0.0122998383283061
 50
355.7768250652516
 51
1.126839352447973
  0
LINE
  8
2
  6
CONTINUOUS
 62
     7
 10
-352.8949970049699
 20
31.15089299862783
 11
-353.2563051584535
 21
31.00785114503848
  0
LINE
  8
2
  6
CONTINUOUS
 62
     7
 10
-352.8949970049699
 20
31.15089299862783
 11
-350.3435951924841
 21
31.15089299862783
  0
LINE
  8
2
  6
CONTINUOUS
 62
     7
 10
-335.3432666610331
 20
31.15089299862783
 11
-332.7918648485472
 21
31.15089299862783
  0
LINE
  8
2
  6
CONTINUOUS
 62
     7
 10
-303.4051121816258
 20
29.45089299862783
 11
-280.7817496718914
 21
29.45089299862783
  0
ARC
  8
2
  6
CONTINUOUS
 62
     7
 10
-304.3435951924841
 20
30.65089299862783
 40
0.4999999999999587
 50
90.00000000000021
 51
177.0000000000001
  0
LINE
  8
2
  6
CONTINUOUS
 62
     7
 10
-304.3435951924841
 20
31.15089299862783
 11
-303.3422228464862
 21
31.15089299862783
  0
LINE
  8
2
  6
CONTINUOUS
 62
     7
 10
-303.3422228464862
 20
31.15089299862783
 11
-280.844639007031
 21
31.15089299862783
  0
LINE
  8
2
  6
CONTINUOUS
 62
     7
 10
-280.844639007031
 20
31.15089299862783
 11
-279.8432666610331
 21
31.15089299862783
  0
ARC
  8
2
  6
CONTINUOUS
 62
     7
 10
-279.8432666610331
 20
30.65089299862783
 40
0.4999999999999589
 50
3.000000000000166
 51
90.00000000000009
  0
ARC
  8
2
  6
CONTINUOUS
 62
     7
 10
-279.8680123709425
 20
28.41509868083927
 40
0.6416239179290181
 50
21.45761778082505
 51
36.43192405487468
  0
ARC
  8
2
  6
CONTINUOUS
 62
     7
 10
-281.0871550376179
 20
27.51522024624214
 40
2.156909382375064
 50
36.43192405488432
 51
47.77640243133065
  0
ARC
  8
2
  6
CONTINUOUS
 62
     7
 10
-280.3890640645654
 20
28.28447040785672
 40
1.118123159034797
 50
47.77640243133045
 51
76.7723835947536
  0
ARC
  8
2
  6
CONTINUOUS
 62
     7
 10
-280.8108232946999
 20
26.49018131520337
 40
2.961314466582255
 50
76.77238359474792
 51
87.62032543397288
  0
ARC
  8
2
  6
CONTINUOUS
 62
     7
 10
-280.8108232947
 20
26.49018131520235
 40
2.961314466583277
 50
87.62032543397258
 51
89.43738448055285
  0
LINE
  8
2
  6
CONTINUOUS
 62
     7
 10
-279.2681126743278
 20
28.65089299862783
 11
-304.9187491791894
 21
28.65089299862783
  0
ARC
  8
2
  6
CONTINUOUS
 62
     7
 10
-303.3760385588172
 20
26.49018131520209
 40
2.96131446658353
 50
90.56261551944714
 51
92.37967456602722
  0
ARC
  8
2
  6
CONTINUOUS
 62
     7
 10
-303.3760385588173
 20
26.49018131520337
 40
2.961314466582255
 50
92.37967456602715
 51
103.2276164052521
  0
ARC
  8
2
  6
CONTINUOUS
 62
     7
 10
-303.7977977889518
 20
28.28447040785672
 40
1.118123159034797
 50
103.2276164052464
 51
132.2235975686696
  0
ARC
  8
2
  6
CONTINUOUS
 62
     7
 10
-303.0997068158993
 20
27.51522024624214
 40
2.156909382375064
 50
132.2235975686693
 51
143.5680759451156
  0
ARC
  8
2
  6
CONTINUOUS
 62
     7
 10
-304.3188494825747
 20
28.41509868083927
 40
0.6416239179290181
 50
143.5680759451253
 51
158.542382219175
  0
LINE
  8
2
  6
CONTINUOUS
 62
     7
 10
-279.237764929468
 20
28.65089299862783
 11
-279.2681126743278
 21
28.65089299862783
  0
LINE
  8
2
  6
CONTINUOUS
 62
     7
 10
-279.3439518936559
 20
30.67706097674931
 11
-279.237764929468
 21
28.65089299862783
  0
LINE
  8
2
  6
CONTINUOUS
 62
     7
 10
-304.9187491791894
 20
28.65089299862783
 11
-304.9490969240491
 21
28.65089299862783
  0
LINE
  8
2
  6
CONTINUOUS
 62
     7
 10
-304.9490969240491
 20
28.65089299862783
 11
-304.8429099598613
 21
30.6770609767493
  0
LINE
  8
2
  6
CONTINUOUS
 62
     7
 10
-276.6905596020648
 20
28.45089299862783
 11
-276.6859577806063
 21
28.71453117341478
  0
LINE
  8
2
  6
CONTINUOUS
 62
     7
 10
-298.4670316839878
 20
12.84216646312946
 11
-298.4671267968233
 21
12.85089299862783
  0
LINE
  8
2
  6
CONTINUOUS
 62
     7
 10
-296.3333182508294
 20
11.85089299862783
 11
-298.2147575266767
 21
11.85089299862783
  0
ARC
  8
2
  6
CONTINUOUS
 62
     7
 10
-296.0286424246922
 20
12.76953870777325
 40
2.439470633292467
 50
178.2939418162633
 51
200.0371887468067
  0
POLYLINE
  8
2
  6
CONTINUOUS
 62
     7
 66
     1
  0
VERTEX
  8
2
  6
CONTINUOUS
 62
     7
 10
-298.3204529475453
 20
11.93370289971289
  0
VERTEX
  8
2
  6
CONTINUOUS
 62
     7
 10
-298.2488248760332
 20
11.85876113297111
  0
VERTEX
  8
2
  6
CONTINUOUS
 62
     7
 10
-298.2147575266767
 20
11.85089299862783
  0
SEQEND
  8
2
  6
CONTINUOUS
 62
     7
  0
LINE
  8
2
  6
CONTINUOUS
 62
     7
 10
-298.2147575266767
 20
11.85089299862783
 11
-299.5212166993023
 21
11.85089299862783
  0
LINE
  8
2
  6
CONTINUOUS
 62
     7
 10
-298.4671267968233
 20
12.85089299862783
 11
-298.5178861826706
 21
15.45087297912223
  0
LINE
  8
2
  6
CONTINUOUS
 62
     7
 10
-296.3039754945424
 20
11.85089299862783
 11
-296.3333182508294
 21
11.85089299862783
  0
LINE
  8
2
  6
CONTINUOUS
 62
     7
 10
-279.237764929468
 20
28.65089299862782
 11
-279.2272833736114
 21
28.45089299862783
  0
LINE
  8
2
  6
CONTINUOUS
 62
     7
 10
-304.9490969240491
 20
28.65089299862782
 11
-304.9595784799057
 21
28.45089299862783
  0
LINE
  8
2
  6
CONTINUOUS
 62
     7
 10
-296.3039754945424
 20
11.85089299862783
 11
-294.68585567977
 21
11.85089299862783
  0
ARC
  8
2
  6
CONTINUOUS
 62
     7
 10
-276.8104396961899
 20
28.71670401333369
 40
0.124500877670266
 50
358.9999999999936
 51
21.01539487315796
  0
ARC
  8
2
  6
CONTINUOUS
 62
     7
 10
-276.6783975390069
 20
30.64350001918045
 40
0.0122999732150005
 50
359.1314276777431
 51
37.22502701985343
  0
ARC
  8
2
  6
CONTINUOUS
 62
     7
 10
-307.5084643145102
 20
30.64350001918045
 40
0.0122999732150005
 50
142.7770780498697
 51
180.8685723222407
  0
LINE
  8
2
  6
CONTINUOUS
 62
     7
 10
-279.8432666610331
 20
31.15089299862783
 11
-277.1660415279794
 21
31.15089299862783
  0
LINE
  8
2
  6
CONTINUOUS
 62
     7
 10
-307.0208203255378
 20
31.15089299862783
 11
-304.3435951924841
 21
31.15089299862783
  0
LINE
  8
2
  6
CONTINUOUS
 62
     7
 10
-294.3156451542149
 20
11.85089299862784
 11
-294.6855552017548
 21
11.85089299862784
  0
LINE
  8
2
  6
CONTINUOUS
 62
     7
 10
-269.9934309267586
 20
17.05089299862783
 11
-264.9934309267586
 21
17.05089299862783
  0
LINE
  8
2
  6
CONTINUOUS
 62
     7
 10
-264.9934309267586
 20
17.05089299862783
 11
-264.9934309267586
 21
15.45089299862783
  0
LINE
  8
2
  6
CONTINUOUS
 62
     7
 10
-264.9934309267586
 20
15.45089299862783
 11
-269.9934309267586
 21
15.45089299862783
  0
LINE
  8
2
  6
CONTINUOUS
 62
     7
 10
-369.6934309267586
 20
15.45089299862783
 11
-269.9934309267586
 21
15.45089299862783
  0
LINE
  8
2
  6
CONTINUOUS
 62
     7
 10
-369.6934309267586
 20
17.05089299862783
 11
-269.9934309267586
 21
17.05089299862783
  0
LINE
  8
2
  6
CONTINUOUS
 62
     7
 10
-374.6934309267586
 20
15.45089299862783
 11
-374.6934309267586
 21
17.05089299862783
  0
LINE
  8
2
  6
CONTINUOUS
 62
     7
 10
-369.6934309267586
 20
15.45089299862783
 11
-374.6934309267586
 21
15.45089299862783
  0
LINE
  8
2
  6
CONTINUOUS
 62
     7
 10
-374.6934309267586
 20
17.05089299862783
 11
-369.6934309267586
 21
17.05089299862783
  0
ARC
  8
2
  6
CONTINUOUS
 62
     7
 10
-267.2221275655918
 20
18.65089299862783
 40
1.600000000000007
 50
181.0000000000001
 51
270.0
  0
ARC
  8
2
  6
CONTINUOUS
 62
     7
 10
-372.4647342879254
 20
18.65089299862783
 40
1.600000000000007
 50
270.0
 51
358.9999999999999
  0
LINE
  8
2
  6
CONTINUOUS
 62
     7
 10
-268.9505548466569
 20
25.99452401472104
 11
-268.8218838778421
 21
18.62296914832817
  0
LINE
  8
2
  6
CONTINUOUS
 62
     7
 10
-370.8649779756751
 20
18.62296914832817
 11
-370.7363070068603
 21
25.99452401472104
  0
LINE
  8
2
  6
CONTINUOUS
 62
     7
 10
-368.2366877689694
 20
28.45089299862783
 11
-365.6370837615628
 21
28.45089299862783
  0
ARC
  8
2
  6
CONTINUOUS
 62
     7
 10
-368.2366877689694
 20
25.95089299862783
 40
2.499999999999999
 50
90.0
 51
179.0000000000001
  0
LINE
  8
2
  6
CONTINUOUS
 62
     7
 10
-365.6370837615628
 20
28.45089299862783
 11
-274.0497780919544
 21
28.45089299862783
  0
LINE
  8
2
  6
CONTINUOUS
 62
     7
 10
-274.0497780919545
 20
28.45089299862783
 11
-271.4501740845478
 21
28.45089299862783
  0
ARC
  8
2
  6
CONTINUOUS
 62
     7
 10
-271.4501740845478
 20
25.95089299862783
 40
2.49999999999996
 50
0.9999999999999558
 51
90.0
  0
ARC
  8
2
  6
CONTINUOUS
 62
     7
 10
-355.902480039685
 20
30.65089299862784
 40
0.5000000000000183
 50
358.934787261794
 51
90.0
  0
LINE
  8
2
  6
CONTINUOUS
 62
     7
 10
-355.442866027788
 20
28.45089906775478
 11
-355.4025664947823
 21
30.64160535410094
  0
LINE
  8
2
  6
CONTINUOUS
 62
     7
 10
-339.1656832311508
 20
12.84216646312946
 11
-339.1429172195732
 21
15.45089299862783
  0
ARC
  8
2
  6
CONTINUOUS
 62
     7
 10
-340.1656451542149
 20
12.85089299862784
 40
1.000000000000001
 50
270.0
 51
359.5000000000001
  0
LINE
  8
2
  6
CONTINUOUS
 62
     7
 10
-332.182715085526
 20
28.93716845611479
 11
-332.1786316305282
 21
29.38643781820824
  0
LINE
  8
2
  6
CONTINUOUS
 62
     7
 10
-363.0134284987869
 20
30.64723203750636
 11
-363.0104819221481
 21
29.71037627866132
  0
LINE
  8
2
  6
CONTINUOUS
 62
     7
 10
-363.0104819221481
 20
29.71037627866132
 11
-363.0070118105659
 21
29.22824961269877
  0
ARC
  8
2
  6
CONTINUOUS
 62
     7
 10
-332.6660415279794
 20
30.65089299862784
 40
0.5000000000000298
 50
359.1314276778347
 51
90.0
  0
ARC
  8
2
  6
CONTINUOUS
 62
     7
 10
-362.5208203255378
 20
30.65089299862784
 40
0.5000000000000004
 50
90.0
 51
180.8685723221653
  0
LINE
  8
2
  6
CONTINUOUS
 62
     7
 10
-353.3980788037409
 20
30.62826154599972
 11
-353.4361996227117
 21
28.45033269309883
  0
ARC
  8
2
  6
CONTINUOUS
 62
     7
 10
-345.3712166993022
 20
12.85089299862784
 40
1.000000000000003
 50
180.5000000000001
 51
270.0
  0
LINE
  8
2
  6
CONTINUOUS
 62
     7
 10
-346.3939446339439
 20
15.45089299862783
 11
-346.3711786223664
 21
12.84216646312946
  0
LINE
  8
2
  6
CONTINUOUS
 62
     7
 10
-307.4920063012468
 20
28.76104732000431
 11
-307.4865543713166
 21
28.44957418018998
  0
ARC
  8
2
  6
CONTINUOUS
 62
     7
 10
-299.5212166993023
 20
12.85089299862783
 40
1.000000000000003
 50
180.5
 51
270.0
  0
LINE
  8
2
  6
CONTINUOUS
 62
     7
 10
-300.543944633944
 20
15.45089299862783
 11
-300.5211786223664
 21
12.84216646312946
  0
LINE
  8
2
  6
CONTINUOUS
 62
     7
 10
-276.6948555522703
 20
28.76104732000431
 11
-276.6734333547302
 21
30.64723203750636
  0
LINE
  8
2
  6
CONTINUOUS
 62
     7
 10
-307.513428498787
 20
30.64723203750636
 11
-307.4920063012468
 21
28.76104732000431
  0
ARC
  8
2
  6
CONTINUOUS
 62
     7
 10
-307.0208203255378
 20
30.65089299862783
 40
0.5000000000000004
 50
90.0000000000002
 51
180.8685723221653
  0
ARC
  8
2
  6
CONTINUOUS
 62
     7
 10
-277.1660415279794
 20
30.65089299862783
 40
0.4999999999999742
 50
359.1314276778347
 51
90.0
  0
LINE
  8
2
  6
CONTINUOUS
 62
     7
 10
-293.3156832311507
 20
12.84216646312946
 11
-293.2929172195732
 21
15.45089299862783
  0
ARC
  8
2
  6
CONTINUOUS
 62
     7
 10
-294.3156451542149
 20
12.85089299862784
 40
0.9999999999999991
 50
270.0
 51
359.4999999999999
  0
LINE
  8
2
  6
CONTINUOUS
 62
     7
 10
-319.0457036540313
 20
28.45089299862783
 11
-319.0457036540313
 21
28.47589299862783
  0
LINE
  8
2
  6
CONTINUOUS
 62
     7
 10
-316.4547945631222
 20
28.45089299862783
 11
-316.4547945631222
 21
28.47589299862783
  0
ENDBLK
  8
0
  0
BLOCK
  8
0
  2
D_FRAME_VIEW_2607
 70
     0
 10
0.0
 20
0.0
  0
ARC
  8
2
  6
CONTINUOUS
 62
     7
 10
-340.0434309267586
 20
174.0172571784674
 40
0.4998964140351947
 50
67.49473240331764
 51
90.0
  0
ARC
  8
2
  6
CONTINUOUS
 62
     7
 10
-340.0435042040476
 20
174.0170803174342
 40
0.5000878543290751
 50
44.99819256060016
 51
67.49473240333111
  0
ARC
  8
2
  6
CONTINUOUS
 62
     7
 10
-340.0434338354432
 20
174.0171506815991
 40
0.4999883412335385
 50
22.49473306797211
 51
44.99819256059862
  0
ARC
  8
2
  6
CONTINUOUS
 62
     7
 10
-340.0436107301076
 20
174.0170774284806
 40
0.5001798033489879
 50
0.0
 51
22.49473306794664
  0
LINE
  8
2
  6
CONTINUOUS
 62
     7
 10
-340.0434309267586
 20
174.5171535925026
 11
-345.7674289256812
 21
174.5171535925026
  0
ARC
  8
2
  6
CONTINUOUS
 62
     7
 10
-345.7672676301547
 20
175.0173366796586
 40
0.5001831131627271
 50
206.2397924930467
 51
269.9815236603635
  0
ARC
  8
2
  6
CONTINUOUS
 62
     7
 10
-349.8434309267586
 20
173.0095518782394
 40
4.043637662320536
 50
26.22131615340665
 51
153.974809591967
  0
ARC
  8
2
  6
CONTINUOUS
 62
     7
 10
-353.9264415827344
 20
175.0033707000011
 40
0.5001811852587393
 50
270.0184090704155
 51
333.9564005215503
  0
LINE
  8
2
  6
CONTINUOUS
 62
     7
 10
-353.926280875077
 20
174.50318954056
 11
-354.3637129345324
 21
174.50318954056
  0
ARC
  8
2
  6
CONTINUOUS
 62
     7
 10
-352.3434309267586
 20
170.2595518782394
 40
4.700000000000032
 50
115.4578657282279
 51
133.8501735422421
  0
ARC
  8
2
  6
CONTINUOUS
 62
     7
 10
-355.9458606623676
 20
174.0095518782394
 40
0.5000000000000004
 50
270.0
 51
313.8501735422419
  0
LINE
  8
2
  6
CONTINUOUS
 62
     7
 10
-355.9458606623676
 20
173.5095518782394
 11
-357.1434309267586
 21
173.5095518782394
  0
ARC
  8
2
  6
CONTINUOUS
 62
     7
 10
-357.1434309267586
 20
173.0095518782394
 40
0.5000000000000004
 50
90.0
 51
180.0
  0
LINE
  8
2
  6
CONTINUOUS
 62
     7
 10
-357.6434309267586
 20
173.0095518782394
 11
-357.6434309267586
 21
172.0095518782394
  0
LINE
  8
2
  6
CONTINUOUS
 62
     9
 10
-357.5434309267586
 20
172.0095518782394
 11
-357.6434309267586
 21
172.0095518782394
  0
LINE
  8
2
  6
CONTINUOUS
 62
     9
 10
-337.5434309267586
 20
172.0095518782394
 11
-337.6434309267586
 21
172.0095518782394
  0
LINE
  8
2
  6
CONTINUOUS
 62
     7
 10
-337.5434309267586
 20
172.0095518782394
 11
-337.5434309267586
 21
173.0095518782394
  0
ARC
  8
2
  6
CONTINUOUS
 62
     7
 10
-338.0434309267586
 20
173.0095518782394
 40
0.5000000000000004
 50
0.0
 51
90.0
  0
LINE
  8
2
  6
CONTINUOUS
 62
     7
 10
-338.0434309267586
 20
173.5095518782394
 11
-339.0434309267586
 21
173.5095518782394
  0
ARC
  8
2
  6
CONTINUOUS
 62
     7
 10
-339.0434309267586
 20
174.0095518782394
 40
0.5000000000000004
 50
180.0
 51
270.0
  0
LINE
  8
2
  6
CONTINUOUS
 62
     7
 10
-339.5434309267586
 20
174.0095518782394
 11
-339.5434309267586
 21
174.0170774284806
  0
LINE
  8
2
  6
CONTINUOUS
 62
     7
 10
-360.3431167481656
 20
170.2287492907546
 11
-360.3429099598613
 21
170.2285581293988
  0
LINE
  8
2
  6
CONTINUOUS
 62
     9
 10
-339.5437570542699
 20
173.991498572434
 11
-339.5434309267586
 21
174.0095518782394
  0
ARC
  8
2
  6
CONTINUOUS
 62
     7
 10
-340.0436107301076
 20
173.9734397661601
 40
0.5001798033490434
 50
2.069092633240814
 51
22.49473306794716
  0
ARC
  8
2
  6
CONTINUOUS
 62
     7
 10
-340.0434338354434
 20
173.9735130192784
 40
0.4999883412337741
 50
22.49473306798536
 51
44.99819256059861
  0
ARC
  8
2
  6
CONTINUOUS
 62
     7
 10
-340.0435042040476
 20
173.9734426551137
 40
0.5000878543290751
 50
44.99819256060017
 51
67.49473240333113
  0
ARC
  8
2
  6
CONTINUOUS
 62
     7
 10
-340.0434309267586
 20
173.9736195161468
 40
0.4998964140351947
 50
67.49473240331766
 51
90.00000000000001
  0
LINE
  8
2
  6
CONTINUOUS
 62
     9
 10
-357.5434309267586
 20
172.0095518782394
 11
-357.0434309267586
 21
172.0095518782394
  0
ARC
  8
2
  6
CONTINUOUS
 62
     7
 10
-357.5434309267586
 20
172.0095518782394
 40
0.5000000000000004
 50
0.0
 51
90.0
  0
LINE
  8
2
  6
CONTINUOUS
 62
     7
 10
-338.1434309267586
 20
170.2595518782394
 11
-338.1434309267586
 21
172.0095518782394
  0
LINE
  8
2
  6
CONTINUOUS
 62
     9
 10
-338.1434309267586
 20
172.0095518782394
 11
-337.6434309267586
 21
172.0095518782394
  0
ARC
  8
2
  6
CONTINUOUS
 62
     7
 10
-342.8434309267586
 20
170.2595518782394
 40
4.699999999999998
 50
313.1909945269739
 51
0.0000000000000568
  0
LINE
  8
2
  6
CONTINUOUS
 62
     7
 10
-335.6954828861687
 20
165.9684317271473
 11
-339.2843818138322
 21
165.9684317271473
  0
LINE
  8
2
  6
CONTINUOUS
 62
     7
 10
-358.8422228464862
 20
178.9595518782394
 11
-336.344639007031
 21
178.9595518782394
  0
ARC
  8
2
  6
CONTINUOUS
 62
     7
 10
-342.8434309267586
 20
170.2595518782394
 40
10.69112015109211
 50
353.6801045702214
 51
357.0172129120262
  0
LINE
  8
2
  6
CONTINUOUS
 62
     7
 10
-357.6434309267586
 20
172.5095518782394
 11
-357.5434309267586
 21
172.5095518782394
  0
LINE
  8
2
  6
CONTINUOUS
 62
     7
 10
-357.0434309267586
 20
172.0095518782394
 11
-357.0434309267586
 21
170.2595518782394
  0
ARC
  8
2
  6
CONTINUOUS
 62
     7
 10
-352.3434309267586
 20
170.2595518782394
 40
10.69112015109214
 50
182.9827870879735
 51
186.3198954297786
  0
ARC
  8
2
  6
CONTINUOUS
 62
     7
 10
-352.3434309267586
 20
170.2595518782394
 40
4.700000000000037
 50
179.9999999999999
 51
226.8090054730261
  0
LINE
  8
2
  6
CONTINUOUS
 62
     7
 10
-334.8439518936559
 20
170.2285581293988
 11
-334.8437451053515
 21
170.2287492907546
  0
LINE
  8
2
  6
CONTINUOUS
 62
     7
 10
-337.6434309267586
 20
172.5095518782394
 11
-337.5434309267586
 21
172.5095518782394
  0
LINE
  8
2
  6
CONTINUOUS
 62
     7
 10
-355.902480039685
 20
165.9684317271473
 11
-359.4913789673485
 21
165.9684317271473
  0
ARC
  8
2
  6
CONTINUOUS
 62
     7
 10
-335.6955333102552
 20
169.4679549771869
 40
3.499523250402917
 50
270.0008255659804
 51
353.6792790042409
  0
ARC
  8
2
  6
CONTINUOUS
 62
     7
 10
-337.6434309267586
 20
172.0095518782394
 40
0.5000000000000004
 50
90.0
 51
180.0
  0
ARC
  8
2
  6
CONTINUOUS
 62
     7
 10
-359.4913285431722
 20
169.4679549772873
 40
3.499523250503219
 50
186.3207209972303
 51
269.999174432549
  0
ARC
  8
2
  6
CONTINUOUS
 62
     7
 10
-358.9518908254671
 20
177.4595518782394
 40
1.49720609858206
 50
168.4413392107658
 51
180.0
  0
ARC
  8
2
  6
CONTINUOUS
 62
     7
 10
-358.990460353364
 20
177.4236093089058
 40
1.469388416426856
 50
154.6845898101637
 51
166.7642463138176
  0
ARC
  8
2
  6
CONTINUOUS
 62
     7
 10
-358.8694982514286
 20
177.3663909769607
 40
1.603200850883474
 50
133.3752575993927
 51
154.6845898101542
  0
ARC
  8
2
  6
CONTINUOUS
 62
     7
 10
-358.8694982514291
 20
177.3663909769614
 40
1.603200850882649
 50
112.0659253886205
 51
133.3752575993933
  0
ARC
  8
2
  6
CONTINUOUS
 62
     7
 10
-358.9197679937957
 20
177.4904019467081
 40
1.469388416426286
 50
89.42845293622514
 51
112.0659253886272
  0
LINE
  8
2
  6
CONTINUOUS
 62
     7
 10
-358.9051121816258
 20
178.9595518782394
 11
-358.8422228464862
 21
178.9595518782394
  0
LINE
  8
2
  6
CONTINUOUS
 62
     7
 10
-360.4490969240491
 20
172.5095518782394
 11
-360.5231793293285
 21
172.5095518782394
  0
LINE
  8
2
  6
CONTINUOUS
 62
     7
 10
-360.4490969240491
 20
172.5095518782394
 11
-360.4490969240491
 21
177.4595518782394
  0
ARC
  8
2
  6
CONTINUOUS
 62
     7
 10
-343.2093977045876
 20
172.5786226545386
 40
17.31391939802644
 50
180.228571843018
 51
187.5980923556134
  0
LINE
  8
2
  6
CONTINUOUS
 62
     7
 10
-360.3712999057561
 20
170.2893175724487
 11
-360.3431167481656
 21
170.2287492907546
  0
ARC
  8
2
  6
CONTINUOUS
 62
     7
 10
-336.2670938597215
 20
177.4904019467081
 40
1.469388416426286
 50
67.93407461137275
 51
90.57154706377486
  0
ARC
  8
2
  6
CONTINUOUS
 62
     7
 10
-336.3173636020879
 20
177.3663909769614
 40
1.603200850882611
 50
46.62474240060811
 51
67.9340746113814
  0
ARC
  8
2
  6
CONTINUOUS
 62
     7
 10
-336.3173636020886
 20
177.3663909769607
 40
1.603200850883474
 50
25.31541018984575
 51
46.62474240060727
  0
ARC
  8
2
  6
CONTINUOUS
 62
     7
 10
-336.1964015001532
 20
177.4236093089058
 40
1.469388416426856
 50
13.23575368618242
 51
25.31541018983637
  0
ARC
  8
2
  6
CONTINUOUS
 62
     7
 10
-336.23497102805
 20
177.4595518782394
 40
1.49720609858206
 50
0.0
 51
11.55866078923321
  0
LINE
  8
2
  6
CONTINUOUS
 62
     7
 10
-336.344639007031
 20
178.9595518782394
 11
-336.2817496718914
 21
178.9595518782394
  0
LINE
  8
2
  6
CONTINUOUS
 62
     7
 10
-334.737764929468
 20
177.4595518782394
 11
-334.737764929468
 21
172.5095518782394
  0
LINE
  8
2
  6
CONTINUOUS
 62
     7
 10
-334.737764929468
 20
172.5095518782394
 11
-334.6636825241886
 21
172.5095518782394
  0
LINE
  8
2
  6
CONTINUOUS
 62
     7
 10
-334.8437451053515
 20
170.2287492907546
 11
-334.8062948918851
 21
170.3256076980583
  0
ARC
  8
2
  6
CONTINUOUS
 62
     7
 10
-353.2496637476428
 20
172.6265949582665
 40
18.5863497524708
 50
352.8885462375393
 51
359.6391911849841
  0
ARC
  8
2
  6
CONTINUOUS
 62
     7
 10
-362.6259769963455
 20
170.2636181183386
 40
0.3749371075330926
 50
166.2352381207449
 51
178.136781748314
  0
ARC
  8
2
  6
CONTINUOUS
 62
     7
 10
-362.6259769963452
 20
170.2636181183386
 40
0.3749371075334255
 50
178.1367817483157
 51
180.621372199649
  0
ARC
  8
2
  6
CONTINUOUS
 62
     7
 10
-332.5608848571717
 20
170.2636181183386
 40
0.3749371075330926
 50
1.863218251685964
 51
13.76443622604557
  0
ARC
  8
2
  6
CONTINUOUS
 62
     7
 10
-332.560884857172
 20
170.2636181183386
 40
0.3749371075334255
 50
359.3786278003595
 51
1.863218251684315
  0
LINE
  8
2
  6
CONTINUOUS
 62
     7
 10
-332.2273675548578
 20
174.2247967206193
 11
-332.1869820172476
 21
170.2916007355858
  0
LINE
  8
2
  6
CONTINUOUS
 62
     7
 10
-332.1869820172476
 20
170.2916007355858
 11
-332.1859577806063
 21
170.2595518782394
  0
LINE
  8
2
  6
CONTINUOUS
 62
     7
 10
-363.0009040729108
 20
170.2595518782394
 11
-362.9998798364101
 21
170.2916007311111
  0
LINE
  8
2
  6
CONTINUOUS
 62
     7
 10
-362.9998798364101
 20
170.2916007311111
 11
-362.9594942986594
 21
174.2247967206194
  0
LINE
  8
2
  6
CONTINUOUS
 62
     7
 10
-332.2273675548578
 20
174.5095518782394
 11
-332.2273675548578
 21
174.2247967206193
  0
LINE
  8
2
  6
CONTINUOUS
 62
     7
 10
-362.9594942986594
 20
174.2247967206194
 11
-362.9594942986594
 21
174.5095518782394
  0
LINE
  8
2
  6
CONTINUOUS
 62
     7
 10
-355.653756072731
 20
166.0346086574307
 11
-353.8925773952834
 21
166.0346086574307
  0
LINE
  8
2
  6
CONTINUOUS
 62
     7
 10
-341.2942844582337
 20
166.0346086574307
 11
-339.5331057807862
 21
166.0346086574307
  0
ARC
  8
2
  6
CONTINUOUS
 62
     7
 10
-342.8434309267586
 20
86.75955187823942
 40
4.700000000000006
 50
223.7481206849316
 51
237.6678530097831
  0
LINE
  8
2
  6
CONTINUOUS
 62
     7
 10
-345.1434309267586
 20
82.50195016397629
 11
-345.35711555671
 21
82.7882309920422
  0
LINE
  8
2
  6
CONTINUOUS
 62
     7
 10
-340.5434309267586
 20
82.50195016397629
 11
-345.1434309267586
 21
82.50195016397629
  0
LINE
  8
2
  6
CONTINUOUS
 62
     7
 10
-340.3297462968072
 20
82.78823099204219
 11
-340.5434309267586
 21
82.50195016397629
  0
ARC
  8
2
  6
CONTINUOUS
 62
     7
 10
-342.8434309267586
 20
86.75955187823942
 40
4.699999999999995
 50
302.3321469902166
 51
316.2518793150684
  0
ARC
  8
2
  6
CONTINUOUS
 62
     7
 10
-342.8434309267586
 20
86.7595518782394
 40
4.700000000000037
 50
0.0000000000001692
 51
44.79497585040797
  0
LINE
  8
2
  6
CONTINUOUS
 62
     7
 10
-350.8429099598614
 20
86.75579046945994
 11
-350.8431167481656
 21
86.75559930810414
  0
ARC
  8
2
  6
CONTINUOUS
 62
     7
 10
-342.8434309267586
 20
86.75955187823942
 40
4.699999999999982
 50
135.2050241495922
 51
179.9999999999999
  0
LINE
  8
2
  6
CONTINUOUS
 62
     7
 10
-347.5434309267586
 20
86.75955187823942
 11
-347.5434309267586
 21
83.50955187823944
  0
LINE
  8
2
  6
CONTINUOUS
 62
     7
 10
-334.8437451053515
 20
86.75559930810414
 11
-334.8439518936559
 21
86.75579046945994
  0
LINE
  8
2
  6
CONTINUOUS
 62
     7
 10
-338.1434309267586
 20
83.50955187823944
 11
-338.1434309267586
 21
86.75955187823942
  0
ARC
  8
2
  6
CONTINUOUS
 62
     7
 10
-349.9907429558606
 20
87.5504947561172
 40
3.500177330998664
 50
90.01041112227493
 51
173.669693447946
  0
ARC
  8
2
  6
CONTINUOUS
 62
     7
 10
-335.6961188973412
 20
87.55049475646953
 40
3.500177330646305
 50
6.330306546891076
 51
89.98958888288625
  0
ARC
  8
2
  6
CONTINUOUS
 62
     7
 10
-349.9222171203062
 20
79.59124421936762
 40
1.022966162041975
 50
181.736202542508
 51
269.9875546454447
  0
ARC
  8
2
  6
CONTINUOUS
 62
     7
 10
-335.764644733211
 20
79.5912442193676
 40
1.022966162041931
 50
270.0124453545523
 51
358.2637974574926
  0
LINE
  8
2
  6
CONTINUOUS
 62
     7
 10
-350.8431167481656
 20
86.75559930810414
 11
-350.8841468035774
 21
86.6424757795758
  0
ARC
  8
2
  6
CONTINUOUS
 62
     7
 10
-329.4823432534944
 20
84.12572104970674
 40
21.54927491974301
 50
173.2930797813683
 51
180.1072425128606
  0
LINE
  8
2
  6
CONTINUOUS
 62
     7
 10
-350.9490969240491
 20
79.75955187823942
 11
-350.9447136548146
 21
79.56025058128986
  0
LINE
  8
2
  6
CONTINUOUS
 62
     7
 10
-350.9490969240491
 20
82.46111306679555
 11
-350.9490969240491
 21
79.75955187823942
  0
LINE
  8
2
  6
CONTINUOUS
 62
     7
 10
-351.0006980292987
 20
83.86979004215695
 11
-350.9490969240491
 21
82.46111306679552
  0
LINE
  8
2
  6
CONTINUOUS
 62
     7
 10
-351.0006980292987
 20
83.86979004215695
 11
-351.0315804254728
 21
84.08538654229682
  0
LINE
  8
2
  6
CONTINUOUS
 62
     7
 10
-334.7421481987026
 20
79.56025058128985
 11
-334.737764929468
 21
79.7595518782394
  0
ARC
  8
2
  6
CONTINUOUS
 62
     7
 10
-353.1332861320712
 20
84.18073835688314
 40
18.478250723772
 50
359.704339936043
 51
7.96708253550338
  0
LINE
  8
2
  6
CONTINUOUS
 62
     7
 10
-334.8333900198999
 20
86.74190061146989
 11
-334.8437451053516
 21
86.75559930810414
  0
LINE
  8
2
  6
CONTINUOUS
 62
     7
 10
-334.6861638242186
 20
83.86979004215694
 11
-334.6552814280444
 21
84.0853865422968
  0
LINE
  8
2
  6
CONTINUOUS
 62
     7
 10
-334.737764929468
 20
82.46111306679555
 11
-334.6861638242186
 21
83.86979004215694
  0
LINE
  8
2
  6
CONTINUOUS
 62
     7
 10
-334.737764929468
 20
79.7595518782394
 11
-334.737764929468
 21
82.46111306679555
  0
ARC
  8
2
  6
CONTINUOUS
 62
     7
 10
-342.8434309267586
 20
86.75955187823942
 40
4.700000000000003
 50
134.1657184855454
 51
135.2050241495922
  0
ARC
  8
2
  6
CONTINUOUS
 62
     7
 10
-346.4663326325845
 20
90.48975077350394
 40
0.4999808459937328
 50
314.147778118937
 51
89.99642892289546
  0
ARC
  8
2
  6
CONTINUOUS
 62
     7
 10
-342.8434309267586
 20
86.7595518782394
 40
4.699999999999996
 50
44.79497585040797
 51
45.83428151445472
  0
ARC
  8
2
  6
CONTINUOUS
 62
     7
 10
-339.2205288057737
 20
90.48975060516075
 40
0.4999810143629834
 50
90.0036186514277
 51
225.8521743067336
  0
LINE
  8
2
  6
CONTINUOUS
 62
     7
 10
-349.9224393212535
 20
78.56827808145806
 11
-335.7644225322637
 21
78.56827808145805
  0
LINE
  8
2
  6
CONTINUOUS
 62
     7
 10
-335.6954828861687
 20
91.05067202933157
 11
-341.4883339380191
 21
91.05067202933157
  0
LINE
  8
2
  6
CONTINUOUS
 62
     7
 10
-344.1985279154981
 20
91.05067202933157
 11
-349.9913789673485
 21
91.05067202933157
  0
LINE
  8
2
  6
CONTINUOUS
 62
     7
 10
-346.4663014702517
 20
90.98973161852655
 11
-344.3782206077456
 21
90.98973161852655
  0
LINE
  8
2
  6
CONTINUOUS
 62
     7
 10
-341.3086412457715
 20
90.98973161852655
 11
-339.2205603832655
 21
90.98973161852655
  0
ARC
  8
2
  6
CONTINUOUS
 62
     7
 10
-342.8434309267586
 20
86.75955187823942
 40
10.69112015109213
 50
173.6801045702215
 51
179.9999999999999
  0
ARC
  8
2
  6
CONTINUOUS
 62
     7
 10
-342.8434309267586
 20
86.75955187823942
 40
10.69112015109214
 50
0.0000000000000372
 51
6.319895429778552
  0
LINE
  8
2
  6
CONTINUOUS
 62
     7
 10
-332.1523107756665
 20
82.5095518782394
 11
-332.1523107756665
 21
86.75955187823942
  0
LINE
  8
2
  6
CONTINUOUS
 62
     7
 10
-353.5345510778507
 20
86.75955187823942
 11
-353.5345510778507
 21
82.5095518782394
  0
CIRCLE
  8
2
  6
CONTINUOUS
 62
     9
 10
-342.8434309267586
 20
86.75955187823942
 40
1.540895113422647
  0
ARC
  8
2
  6
CONTINUOUS
 62
     7
 10
-287.3434309267586
 20
86.75955187823942
 40
4.70000000000002
 50
295.4578657282278
 51
313.850173542242
  0
ARC
  8
2
  6
CONTINUOUS
 62
     7
 10
-283.7410011911496
 20
83.00955187823942
 40
0.5000000000000004
 50
90.0
 51
133.8501735422419
  0
LINE
  8
2
  6
CONTINUOUS
 62
     7
 10
-283.7410011911496
 20
83.50955187823942
 11
-282.5434309267586
 21
83.50955187823942
  0
ARC
  8
2
  6
CONTINUOUS
 62
     7
 10
-282.5434309267586
 20
84.00955187823942
 40
0.5000000000000004
 50
270.0
 51
0.0
  0
LINE
  8
2
  6
CONTINUOUS
 62
     7
 10
-282.0434309267586
 20
84.00955187823942
 11
-282.0434309267586
 21
85.00955187823942
  0
LINE
  8
2
  6
CONTINUOUS
 62
     7
 10
-302.1434309267586
 20
85.00955187823942
 11
-302.1434309267586
 21
84.00955187823942
  0
ARC
  8
2
  6
CONTINUOUS
 62
     7
 10
-301.6434309267586
 20
84.00955187823942
 40
0.5000000000000004
 50
180.0
 51
270.0
  0
LINE
  8
2
  6
CONTINUOUS
 62
     7
 10
-301.6434309267586
 20
83.50955187823942
 11
-300.6434309267586
 21
83.50955187823942
  0
ARC
  8
2
  6
CONTINUOUS
 62
     7
 10
-300.6434309267586
 20
83.00955187823942
 40
0.5000000000000004
 50
0.0
 51
90.0
  0
LINE
  8
2
  6
CONTINUOUS
 62
     7
 10
-300.1434309267586
 20
83.00955187823942
 11
-300.1434309267586
 21
83.00202632799825
  0
LINE
  8
2
  6
CONTINUOUS
 62
     9
 10
-300.1431047992473
 20
83.02760518404489
 11
-300.1434309267586
 21
83.00955187823942
  0
ARC
  8
2
  6
CONTINUOUS
 62
     7
 10
-299.6432511234095
 20
83.04566399031879
 40
0.5001798033490434
 50
182.0690926332408
 51
202.4947330679457
  0
ARC
  8
2
  6
CONTINUOUS
 62
     7
 10
-299.6434280180739
 20
83.04559073720036
 40
0.4999883412336367
 50
202.49473306798
 51
224.9981925606009
  0
ARC
  8
2
  6
CONTINUOUS
 62
     7
 10
-299.6433576494695
 20
83.04566110136527
 40
0.5000878543292321
 50
224.9981925606002
 51
247.4947324033248
  0
ARC
  8
2
  6
CONTINUOUS
 62
     7
 10
-299.6434309267586
 20
83.04548424033221
 40
0.4998964140353751
 50
247.4947324033262
 51
270.0
  0
LINE
  8
2
  6
CONTINUOUS
 62
     7
 10
-282.0434309267586
 20
84.5095518782394
 11
-282.1434309267586
 21
84.50955187823942
  0
ARC
  8
2
  6
CONTINUOUS
 62
     7
 10
-282.1434309267586
 20
85.00955187823942
 40
0.5000000000000004
 50
180.0
 51
270.0
  0
LINE
  8
2
  6
CONTINUOUS
 62
     7
 10
-283.7843818138322
 20
91.05067202933157
 11
-280.1954828861687
 21
91.05067202933157
  0
LINE
  8
2
  6
CONTINUOUS
 62
     7
 10
-282.6434309267586
 20
85.00955187823942
 11
-282.6434309267586
 21
86.7595518782394
  0
LINE
  8
2
  6
CONTINUOUS
 62
     7
 10
-301.5434309267586
 20
86.75955187823942
 11
-301.5434309267586
 21
85.00955187823942
  0
LINE
  8
2
  6
CONTINUOUS
 62
     7
 10
-302.0434309267586
 20
84.50955187823942
 11
-302.1434309267586
 21
84.50955187823944
  0
ARC
  8
2
  6
CONTINUOUS
 62
     7
 10
-302.0434309267586
 20
85.00955187823942
 40
0.5000000000000004
 50
270.0
 51
0.0
  0
ARC
  8
2
  6
CONTINUOUS
 62
     7
 10
-280.1955333103451
 20
87.55114877919156
 40
3.499523250503275
 50
6.320720997230638
 51
89.9991744325481
  0
LINE
  8
2
  6
CONTINUOUS
 62
     7
 10
-279.3437451053516
 20
86.79035446572422
 11
-279.3439518936559
 21
86.79054562708002
  0
ARC
  8
2
  6
CONTINUOUS
 62
     7
 10
-293.8923513656403
 20
82.04540811827005
 40
0.5001797337021772
 50
25.89448406832537
 51
89.98164167480122
  0
ARC
  8
2
  6
CONTINUOUS
 62
     7
 10
-296.8434309267586
 20
86.75955187823942
 40
10.69112015109217
 50
173.6801045702214
 51
177.0172129120263
  0
ARC
  8
2
  6
CONTINUOUS
 62
     7
 10
-287.3434309267586
 20
86.75955187823942
 40
10.69112015109214
 50
2.982787087973577
 51
6.319895429778626
  0
LINE
  8
2
  6
CONTINUOUS
 62
     7
 10
-304.8429099598613
 20
86.79054562708002
 11
-304.8431167481656
 21
86.79035446572422
  0
LINE
  8
2
  6
CONTINUOUS
 62
     7
 10
-280.844639007031
 20
78.05955187823943
 11
-303.3422228464862
 21
78.05955187823943
  0
LINE
  8
2
  6
CONTINUOUS
 62
     7
 10
-299.1434309267586
 20
82.54558782629684
 11
-299.1434309267586
 21
82.55955187823942
  0
LINE
  8
2
  6
CONTINUOUS
 62
     7
 10
-294.5434309267586
 20
82.55955187823942
 11
-299.1434309267586
 21
82.55955187823942
  0
LINE
  8
2
  6
CONTINUOUS
 62
     7
 10
-294.5434309267586
 20
82.54558782629684
 11
-294.5434309267586
 21
82.55955187823942
  0
LINE
  8
2
  6
CONTINUOUS
 62
     7
 10
-294.5434309267586
 20
82.54558782629684
 11
-293.892191101444
 21
82.54558782629684
  0
LINE
  8
2
  6
CONTINUOUS
 62
     7
 10
-299.6434309267586
 20
82.54558782629684
 11
-299.1434309267586
 21
82.54558782629684
  0
ARC
  8
2
  6
CONTINUOUS
 62
     7
 10
-289.8434309267586
 20
84.00955187823942
 40
3.999999999999956
 50
205.876125743122
 51
334.3213210442037
  0
ARC
  8
2
  6
CONTINUOUS
 62
     7
 10
-287.3434309267586
 20
86.75955187823942
 40
4.700000000000037
 50
359.9999999999999
 51
46.80900547302623
  0
ARC
  8
2
  6
CONTINUOUS
 62
     7
 10
-285.7877673776797
 20
82.05937407474347
 40
0.5001778289849537
 50
90.01829160862297
 51
154.3030294355809
  0
ARC
  8
2
  6
CONTINUOUS
 62
     7
 10
-303.991328543262
 20
87.55114877929194
 40
3.499523250402917
 50
90.00082556598046
 51
173.6792790042409
  0
ARC
  8
2
  6
CONTINUOUS
 62
     7
 10
-296.8434309267586
 20
86.75955187823942
 40
4.700000000000037
 50
133.1909945269739
 51
180.0000000000001
  0
LINE
  8
2
  6
CONTINUOUS
 62
     7
 10
-285.7879270588467
 20
82.55955187823942
 11
-285.2339286157857
 21
82.55955187823942
  0
LINE
  8
2
  6
CONTINUOUS
 62
     7
 10
-303.9913789673485
 20
91.05067202933157
 11
-300.402480039685
 21
91.05067202933157
  0
ARC
  8
2
  6
CONTINUOUS
 62
     7
 10
-280.7349710280493
 20
79.55955187823943
 40
1.497206098581227
 50
348.4413392107604
 51
0.0
  0
ARC
  8
2
  6
CONTINUOUS
 62
     7
 10
-280.6964015001531
 20
79.59549444757299
 40
1.469388416426801
 50
334.6845898101636
 51
346.7642463138176
  0
ARC
  8
2
  6
CONTINUOUS
 62
     7
 10
-280.8173636020884
 20
79.65271277951796
 40
1.603200850883259
 50
313.3752575993918
 51
334.6845898101567
  0
ARC
  8
2
  6
CONTINUOUS
 62
     7
 10
-280.8173636020882
 20
79.65271277951777
 40
1.603200850883013
 50
292.0659253886238
 51
313.3752575993919
  0
ARC
  8
2
  6
CONTINUOUS
 62
     7
 10
-280.7670938597215
 20
79.528701809771
 40
1.469388416426577
 50
269.4284529362252
 51
292.0659253886225
  0
LINE
  8
2
  6
CONTINUOUS
 62
     7
 10
-280.7817496718914
 20
78.05955187823943
 11
-280.844639007031
 21
78.05955187823943
  0
LINE
  8
2
  6
CONTINUOUS
 62
     7
 10
-279.237764929468
 20
84.50955187823942
 11
-279.1636825241886
 21
84.50955187823942
  0
LINE
  8
2
  6
CONTINUOUS
 62
     7
 10
-279.237764929468
 20
84.50955187823942
 11
-279.237764929468
 21
79.55955187823943
  0
ARC
  8
2
  6
CONTINUOUS
 62
     7
 10
-296.4774641489291
 20
84.4404811019403
 40
17.31391939802593
 50
0.2285718430177884
 51
7.598092355613468
  0
LINE
  8
2
  6
CONTINUOUS
 62
     7
 10
-279.3155619477611
 20
86.72978618403019
 11
-279.3437451053516
 21
86.79035446572422
  0
ARC
  8
2
  6
CONTINUOUS
 62
     7
 10
-303.4197679937957
 20
79.528701809771
 40
1.469388416426577
 50
247.9340746113774
 51
270.5715470637748
  0
ARC
  8
2
  6
CONTINUOUS
 62
     7
 10
-303.3694982514289
 20
79.65271277951777
 40
1.603200850883013
 50
226.624742400608
 51
247.9340746113762
  0
ARC
  8
2
  6
CONTINUOUS
 62
     7
 10
-303.3694982514288
 20
79.65271277951796
 40
1.603200850883259
 50
205.3154101898433
 51
226.6247424006082
  0
ARC
  8
2
  6
CONTINUOUS
 62
     7
 10
-303.4904603533641
 20
79.59549444757299
 40
1.469388416426801
 50
193.2357536861824
 51
205.3154101898363
  0
ARC
  8
2
  6
CONTINUOUS
 62
     7
 10
-303.4518908254672
 20
79.55955187823943
 40
1.497206098581949
 50
180.0
 51
191.5586607892341
  0
LINE
  8
2
  6
CONTINUOUS
 62
     7
 10
-303.3422228464862
 20
78.05955187823943
 11
-303.4051121816258
 21
78.05955187823943
  0
LINE
  8
2
  6
CONTINUOUS
 62
     7
 10
-304.9490969240491
 20
79.55955187823943
 11
-304.9490969240491
 21
84.50955187823942
  0
LINE
  8
2
  6
CONTINUOUS
 62
     7
 10
-304.9490969240491
 20
84.50955187823942
 11
-305.0231793293285
 21
84.50955187823942
  0
LINE
  8
2
  6
CONTINUOUS
 62
     7
 10
-304.8431167481656
 20
86.79035446572422
 11
-304.880566961632
 21
86.6934960584205
  0
ARC
  8
2
  6
CONTINUOUS
 62
     7
 10
-286.437198105875
 20
84.3925087982124
 40
18.58634975247024
 50
172.8885462375394
 51
179.6391911849842
  0
ARC
  8
2
  6
CONTINUOUS
 62
     7
 10
-277.0608848571717
 20
86.7554856381402
 40
0.3749371075330917
 50
346.2352381207489
 51
358.1367817483183
  0
ARC
  8
2
  6
CONTINUOUS
 62
     7
 10
-277.060884857172
 20
86.7554856381402
 40
0.3749371075333691
 50
358.1367817483197
 51
0.6213721996512049
  0
ARC
  8
2
  6
CONTINUOUS
 62
     7
 10
-307.1259769963455
 20
86.7554856381402
 40
0.3749371075330917
 50
181.8632182516817
 51
193.7644362260478
  0
ARC
  8
2
  6
CONTINUOUS
 62
     7
 10
-307.1259769963452
 20
86.7554856381402
 40
0.3749371075333691
 50
179.3786278003488
 51
181.8632182516803
  0
LINE
  8
2
  6
CONTINUOUS
 62
     7
 10
-307.4594942986594
 20
82.79430703585952
 11
-307.4998798362695
 21
86.72750302089113
  0
LINE
  8
2
  6
CONTINUOUS
 62
     7
 10
-307.4998798362695
 20
86.7275030208911
 11
-307.5009040729109
 21
86.75955187823942
  0
LINE
  8
2
  6
CONTINUOUS
 62
     7
 10
-276.6859577806063
 20
86.75955187823942
 11
-276.68698201695
 21
86.72750303037107
  0
LINE
  8
2
  6
CONTINUOUS
 62
     7
 10
-276.68698201695
 20
86.72750303037107
 11
-276.7273675548578
 21
82.79430703585952
  0
LINE
  8
2
  6
CONTINUOUS
 62
     7
 10
-307.4594942986594
 20
82.5095518782394
 11
-307.4594942986594
 21
82.79430703585952
  0
LINE
  8
2
  6
CONTINUOUS
 62
     7
 10
-284.0331057807862
 20
90.98449509904809
 11
-285.7942844582338
 21
90.98449509904809
  0
LINE
  8
2
  6
CONTINUOUS
 62
     7
 10
-298.3925773952835
 20
90.98449509904809
 11
-300.153756072731
 21
90.98449509904809
  0
LINE
  8
2
  6
CONTINUOUS
 62
     7
 10
-276.7273675548578
 20
82.79430703585952
 11
-276.7273675548578
 21
82.50955187823942
  0
ARC
  8
2
  6
CONTINUOUS
 62
     7
 10
-296.8434309267586
 20
170.2595518782394
 40
4.699999999999987
 50
43.74812068493156
 51
57.66785300978313
  0
LINE
  8
2
  6
CONTINUOUS
 62
     7
 10
-294.5434309267586
 20
174.5171535925026
 11
-294.3297462968072
 21
174.2308727644367
  0
LINE
  8
2
  6
CONTINUOUS
 62
     7
 10
-299.1434309267586
 20
174.5171535925026
 11
-294.5434309267586
 21
174.5171535925026
  0
LINE
  8
2
  6
CONTINUOUS
 62
     7
 10
-299.35711555671
 20
174.2308727644367
 11
-299.1434309267586
 21
174.5171535925026
  0
ARC
  8
2
  6
CONTINUOUS
 62
     7
 10
-296.8434309267586
 20
170.2595518782394
 40
4.699999999999984
 50
122.3321469902168
 51
136.2518793150684
  0
ARC
  8
2
  6
CONTINUOUS
 62
     7
 10
-300.5332668723278
 20
166.5960289107887
 40
0.4996432414401302
 50
22.28451643777646
 51
44.79497585040241
  0
ARC
  8
2
  6
CONTINUOUS
 62
     7
 10
-300.5336184864802
 20
166.595884814306
 40
0.5000232365828342
 50
359.7913871968
 51
22.28451643776441
  0
ARC
  8
2
  6
CONTINUOUS
 62
     7
 10
-300.533420950382
 20
166.5958840950778
 40
0.4998256991753394
 50
337.2845190579069
 51
359.7913871967987
  0
ARC
  8
2
  6
CONTINUOUS
 62
     7
 10
-300.5337715500731
 20
166.5960308654239
 40
0.5002057803218448
 50
314.7949758504068
 51
337.2845190578985
  0
ARC
  8
2
  6
CONTINUOUS
 62
     7
 10
-300.5337715500734
 20
166.5960308654242
 40
0.5002057803222176
 50
292.3054326429306
 51
314.7949758504092
  0
ARC
  8
2
  6
CONTINUOUS
 62
     7
 10
-300.5336272925986
 20
166.59567922433
 40
0.4998256991754393
 50
270.0122945549442
 51
292.3054326429045
  0
ARC
  8
2
  6
CONTINUOUS
 62
     7
 10
-296.8434309267586
 20
170.2595518782394
 40
4.700000000000037
 50
180.0000000000002
 51
224.794975850408
  0
LINE
  8
2
  6
CONTINUOUS
 62
     7
 10
-304.8431167481656
 20
170.2635044483747
 11
-304.8429099598613
 21
170.2633132870189
  0
ARC
  8
2
  6
CONTINUOUS
 62
     7
 10
-296.8434309267586
 20
170.2595518782394
 40
4.699999999999982
 50
315.2050241495921
 51
359.9999999999999
  0
ARC
  8
2
  6
CONTINUOUS
 62
     7
 10
-293.1532345609186
 20
166.5956792243304
 40
0.4998256991757171
 50
247.6945673571147
 51
269.9877054450558
  0
ARC
  8
2
  6
CONTINUOUS
 62
     7
 10
-293.1530903034438
 20
166.5960308654241
 40
0.5002057803220412
 50
225.2050241495977
 51
247.6945673570823
  0
ARC
  8
2
  6
CONTINUOUS
 62
     7
 10
-293.1530903034437
 20
166.5960308654242
 40
0.5002057803221786
 50
202.7154809421127
 51
225.2050241495954
  0
ARC
  8
2
  6
CONTINUOUS
 62
     7
 10
-293.1534409031344
 20
166.5958840950778
 40
0.4998256991760057
 50
180.2086128032043
 51
202.7154809420613
  0
ARC
  8
2
  6
CONTINUOUS
 62
     7
 10
-293.1532433670371
 20
166.595884814306
 40
0.5000232365826123
 50
157.7154835622259
 51
180.2086128032034
  0
ARC
  8
2
  6
CONTINUOUS
 62
     7
 10
-293.1535949811897
 20
166.5960289107891
 40
0.4996432414395611
 50
135.2050241496001
 51
157.7154835622455
  0
LINE
  8
2
  6
CONTINUOUS
 62
     7
 10
-288.8439518936558
 20
170.2633132870189
 11
-288.8437451053516
 21
170.2635044483747
  0
LINE
  8
2
  6
CONTINUOUS
 62
     7
 10
-301.5434309267586
 20
173.5095518782394
 11
-301.5434309267586
 21
170.2595518782394
  0
LINE
  8
2
  6
CONTINUOUS
 62
     7
 10
-292.1434309267586
 20
170.2595518782394
 11
-292.1434309267586
 21
173.5095518782394
  0
ARC
  8
2
  6
CONTINUOUS
 62
     7
 10
-289.6961188976566
 20
169.4686090003617
 40
3.500177330998664
 50
270.0104111222749
 51
353.669693447946
  0
ARC
  8
2
  6
CONTINUOUS
 62
     7
 10
-303.990742956176
 20
169.4686090000093
 40
3.500177330646305
 50
186.3303065468911
 51
269.9895888828862
  0
ARC
  8
2
  6
CONTINUOUS
 62
     7
 10
-289.7646447332109
 20
177.4278595371113
 40
1.022966162041933
 50
1.736202542506589
 51
89.98755464545093
  0
LINE
  8
2
  6
CONTINUOUS
 62
     9
 10
-289.8434955130998
 20
178.4244894319392
 11
-289.7644225322637
 21
178.4508256750208
  0
ARC
  8
2
  6
CONTINUOUS
 62
     7
 10
-303.9222171203062
 20
177.4278595371112
 40
1.022966162042044
 50
90.01244535455534
 51
178.2637974574889
  0
LINE
  8
2
  6
CONTINUOUS
 62
     7
 10
-288.8437451053516
 20
170.2635044483747
 11
-288.8027150499398
 21
170.3766279769031
  0
ARC
  8
2
  6
CONTINUOUS
 62
     7
 10
-310.2045186000089
 20
172.8933827067708
 40
21.54927491972908
 50
353.2930797813674
 51
0.1072425128641612
  0
LINE
  8
2
  6
CONTINUOUS
 62
     7
 10
-288.7377649294681
 20
177.2595518782394
 11
-288.7421481987026
 21
177.458853175189
  0
LINE
  8
2
  6
CONTINUOUS
 62
     7
 10
-288.7377649294681
 20
174.5579906896833
 11
-288.7377649294681
 21
177.2595518782394
  0
LINE
  8
2
  6
CONTINUOUS
 62
     7
 10
-288.6861638242185
 20
173.1493137143219
 11
-288.7377649294681
 21
174.5579906896833
  0
LINE
  8
2
  6
CONTINUOUS
 62
     7
 10
-288.6861638242185
 20
173.1493137143219
 11
-288.6552814280444
 21
172.9337172141821
  0
LINE
  8
2
  6
CONTINUOUS
 62
     7
 10
-304.9447136548146
 20
177.458853175189
 11
-304.9490969240491
 21
177.2595518782394
  0
ARC
  8
2
  6
CONTINUOUS
 62
     7
 10
-286.5535757214673
 20
172.8383653995943
 40
18.47825072375069
 50
179.7043399360383
 51
187.9670825355083
  0
LINE
  8
2
  6
CONTINUOUS
 62
     7
 10
-304.8534718336173
 20
170.277203145009
 11
-304.8431167481656
 21
170.2635044483747
  0
LINE
  8
2
  6
CONTINUOUS
 62
     7
 10
-305.0006980292986
 20
173.1493137143219
 11
-305.0315804254728
 21
172.9337172141821
  0
LINE
  8
2
  6
CONTINUOUS
 62
     7
 10
-304.9490969240491
 20
174.5579906896833
 11
-305.0006980292986
 21
173.1493137143219
  0
LINE
  8
2
  6
CONTINUOUS
 62
     7
 10
-304.9490969240491
 20
177.2595518782394
 11
-304.9490969240491
 21
174.5579906896833
  0
ARC
  8
2
  6
CONTINUOUS
 62
     7
 10
-296.8434309267586
 20
170.2595518782394
 40
4.700000000000003
 50
314.1657184855454
 51
315.2050241495922
  0
ARC
  8
2
  6
CONTINUOUS
 62
     7
 10
-293.2205292209327
 20
166.5293529829749
 40
0.4999808459937189
 50
134.147778118937
 51
269.9964289228955
  0
ARC
  8
2
  6
CONTINUOUS
 62
     7
 10
-296.8434309267586
 20
170.2595518782394
 40
4.699999999999996
 50
224.7949758504078
 51
225.8342815144547
  0
ARC
  8
2
  6
CONTINUOUS
 62
     7
 10
-300.4663330477435
 20
166.5293531513181
 40
0.4999810143629834
 50
270.0036186514278
 51
45.85217430673357
  0
LINE
  8
2
  6
CONTINUOUS
 62
     7
 10
-303.9913789673485
 20
165.9684317271473
 11
-298.1985279154982
 21
165.9684317271473
  0
LINE
  8
2
  6
CONTINUOUS
 62
     7
 10
-295.488333938019
 20
165.9684317271473
 11
-289.6954828861687
 21
165.9684317271473
  0
LINE
  8
2
  6
CONTINUOUS
 62
     7
 10
-293.2205603832655
 20
166.0293721379523
 11
-295.3086412457715
 21
166.0293721379523
  0
LINE
  8
2
  6
CONTINUOUS
 62
     7
 10
-298.3782206077456
 20
166.0293721379523
 11
-300.4663014702517
 21
166.0293721379523
  0
LINE
  8
2
  6
CONTINUOUS
 62
     7
 10
-289.7644225322637
 20
178.4508256750208
 11
-303.9224393212535
 21
178.4508256750208
  0
ARC
  8
2
  6
CONTINUOUS
 62
     7
 10
-296.8434309267586
 20
170.2595518782394
 40
10.69112015109213
 50
353.6801045702216
 51
0.0
  0
ARC
  8
2
  6
CONTINUOUS
 62
     7
 10
-296.8434309267586
 20
170.2595518782394
 40
10.69112015109214
 50
180.0
 51
186.3198954297784
  0
LINE
  8
2
  6
CONTINUOUS
 62
     7
 10
-307.5345510778507
 20
174.5095518782394
 11
-307.5345510778507
 21
170.2595518782394
  0
LINE
  8
2
  6
CONTINUOUS
 62
     7
 10
-286.1523107756664
 20
170.2595518782394
 11
-286.1523107756664
 21
174.5095518782394
  0
CIRCLE
  8
2
  6
CONTINUOUS
 62
     9
 10
-296.8434309267586
 20
170.2595518782394
 40
1.540895113422647
  0
LINE
  8
2
  6
CONTINUOUS
 62
     7
 10
-299.3434309267586
 20
82.75955187823944
 11
-299.3434309267586
 21
82.54558782629684
  0
ARC
  8
2
  6
CONTINUOUS
 62
     7
 10
-279.3434309267586
 20
86.0095518782394
 40
3.499999999999996
 50
180.0
 51
218.6070398882605
  0
LINE
  8
2
  6
CONTINUOUS
 62
     7
 10
-275.0934309267586
 20
82.5095518782394
 11
-279.237764929468
 21
82.5095518782394
  0
ARC
  8
2
  6
CONTINUOUS
 62
     7
 10
-275.0934309267586
 20
86.0095518782394
 40
3.500000000000003
 50
270.0
 51
0.0
  0
LINE
  8
2
  6
CONTINUOUS
 62
     7
 10
-271.5934309267586
 20
171.0095518782394
 11
-271.5934309267586
 21
86.00955187823942
  0
ARC
  8
2
  6
CONTINUOUS
 62
     7
 10
-275.0934309267586
 20
171.0095518782394
 40
3.500000000000003
 50
0.0
 51
90.0
  0
LINE
  8
2
  6
CONTINUOUS
 62
     7
 10
-288.7377239303302
 20
174.5095518782394
 11
-275.0934309267586
 21
174.5095518782394
  0
ARC
  8
2
  6
CONTINUOUS
 62
     7
 10
-288.8434309267586
 20
171.0095518782394
 40
3.500000000000003
 50
160.5370490536851
 51
180.0
  0
LINE
  8
2
  6
CONTINUOUS
 62
     7
 10
-292.3434309267586
 20
170.2595518782394
 11
-292.3434309267586
 21
171.0095518782394
  0
ARC
  8
2
  6
CONTINUOUS
 62
     7
 10
-296.8434309267586
 20
170.2595518782394
 40
4.500000000000004
 50
179.9999999999999
 51
0.0
  0
LINE
  8
2
  6
CONTINUOUS
 62
     7
 10
-301.3434309267586
 20
171.0095518782394
 11
-301.3434309267586
 21
170.2595518782394
  0
ARC
  8
2
  6
CONTINUOUS
 62
     7
 10
-304.8434309267586
 20
171.0095518782394
 40
3.499999999999972
 50
0.0
 51
19.46295094631517
  0
LINE
  8
2
  6
CONTINUOUS
 62
     7
 10
-334.737764929468
 20
174.5095518782394
 11
-304.949137923187
 21
174.5095518782394
  0
ARC
  8
2
  6
CONTINUOUS
 62
     7
 10
-334.8434309267586
 20
171.0095518782394
 40
3.500000000000003
 50
141.392960112698
 51
180.0
  0
LINE
  8
2
  6
CONTINUOUS
 62
     7
 10
-338.3434309267586
 20
170.2595518782394
 11
-338.3434309267586
 21
171.0095518782394
  0
ARC
  8
2
  6
CONTINUOUS
 62
     7
 10
-342.8434309267586
 20
170.2595518782394
 40
4.500000000000004
 50
270.0
 51
0.0
  0
LINE
  8
2
  6
CONTINUOUS
 62
     7
 10
-352.3434309267586
 20
165.7595518782394
 11
-342.8434309267586
 21
165.7595518782394
  0
ARC
  8
2
  6
CONTINUOUS
 62
     7
 10
-352.3434309267586
 20
170.2595518782394
 40
4.500000000000004
 50
180.0
 51
270.0
  0
LINE
  8
2
  6
CONTINUOUS
 62
     7
 10
-356.8434309267586
 20
171.0095518782394
 11
-356.8434309267586
 21
170.2595518782394
  0
ARC
  8
2
  6
CONTINUOUS
 62
     7
 10
-360.3434309267586
 20
171.0095518782394
 40
3.500000000000008
 50
0.0
 51
38.60703988529679
  0
LINE
  8
2
  6
CONTINUOUS
 62
     7
 10
-364.5934309267586
 20
174.5095518782394
 11
-360.4490969240491
 21
174.5095518782394
  0
ARC
  8
2
  6
CONTINUOUS
 62
     7
 10
-364.5934309267586
 20
171.0095518782394
 40
3.500000000000003
 50
90.0
 51
179.9999999999999
  0
LINE
  8
2
  6
CONTINUOUS
 62
     7
 10
-368.0934309267586
 20
86.0095518782394
 11
-368.0934309267586
 21
171.0095518782394
  0
ARC
  8
2
  6
CONTINUOUS
 62
     7
 10
-364.5934309267586
 20
86.0095518782394
 40
3.499999999999989
 50
180.0
 51
270.0
  0
LINE
  8
2
  6
CONTINUOUS
 62
     7
 10
-350.949137923187
 20
82.5095518782394
 11
-364.5934309267586
 21
82.5095518782394
  0
ARC
  8
2
  6
CONTINUOUS
 62
     7
 10
-350.8434309267586
 20
86.0095518782394
 40
3.500000000000003
 50
340.5370490536845
 51
0.0
  0
LINE
  8
2
  6
CONTINUOUS
 62
     7
 10
-347.3434309267586
 20
86.75955187823942
 11
-347.3434309267586
 21
86.0095518782394
  0
ARC
  8
2
  6
CONTINUOUS
 62
     7
 10
-342.8434309267586
 20
86.75955187823942
 40
4.500000000000004
 50
0.0
 51
180.0
  0
LINE
  8
2
  6
CONTINUOUS
 62
     7
 10
-338.3434309267586
 20
86.0095518782394
 11
-338.3434309267586
 21
86.75955187823942
  0
ARC
  8
2
  6
CONTINUOUS
 62
     7
 10
-334.8434309267586
 20
86.0095518782394
 40
3.499999999999954
 50
180.0
 51
199.4629509463145
  0
LINE
  8
2
  6
CONTINUOUS
 62
     7
 10
-304.9490969240491
 20
82.5095518782394
 11
-334.7377239303302
 21
82.5095518782394
  0
ARC
  8
2
  6
CONTINUOUS
 62
     7
 10
-304.8434309267586
 20
86.0095518782394
 40
3.499999999999948
 50
321.392960112806
 51
0.0
  0
LINE
  8
2
  6
CONTINUOUS
 62
     7
 10
-301.3434309267586
 20
86.75955187823944
 11
-301.3434309267586
 21
86.0095518782394
  0
ARC
  8
2
  6
CONTINUOUS
 62
     7
 10
-296.8434309267586
 20
86.75955187823944
 40
4.500000000000004
 50
90.0
 51
180.0
  0
LINE
  8
2
  6
CONTINUOUS
 62
     7
 10
-287.3434309267586
 20
91.25955187823942
 11
-296.8434309267586
 21
91.25955187823942
  0
ARC
  8
2
  6
CONTINUOUS
 62
     7
 10
-287.3434309267586
 20
86.75955187823944
 40
4.500000000000004
 50
0.0
 51
90.0
  0
LINE
  8
2
  6
CONTINUOUS
 62
     7
 10
-282.8434309267586
 20
86.0095518782394
 11
-282.8434309267586
 21
86.75955187823944
  0
CIRCLE
  8
2
  6
CONTINUOUS
 62
     7
 10
-296.8434309267586
 20
86.75955187823942
 40
1.699999999999979
  0
CIRCLE
  8
2
  6
CONTINUOUS
 62
     7
 10
-289.8434309267586
 20
84.00955187823942
 40
2.500000000000002
  0
LINE
  8
2
  6
CONTINUOUS
 62
     7
 10
-294.3434309267586
 20
82.54558782629684
 11
-294.3434309267586
 21
82.75955187823944
  0
CIRCLE
  8
2
  6
CONTINUOUS
 62
     7
 10
-349.8434309267586
 20
173.0095518782394
 40
2.500000000000002
  0
CIRCLE
  8
2
  6
CONTINUOUS
 62
     7
 10
-296.8434309267586
 20
170.2595518782394
 40
1.699999999999979
  0
LINE
  8
2
  6
CONTINUOUS
 62
     7
 10
-294.3434309267586
 20
82.75955187823944
 11
-299.3434309267586
 21
82.75955187823944
  0
CIRCLE
  8
2
  6
CONTINUOUS
 62
     7
 10
-342.8434309267586
 20
86.75955187823942
 40
1.700000000000035
  0
CIRCLE
  8
2
  6
CONTINUOUS
 62
     7
 10
-342.8434309267586
 20
170.2595518782394
 40
1.700000000000035
  0
ARC
  8
2
  6
CONTINUOUS
 62
     7
 10
-365.7655016411077
 20
175.5281812694257
 40
5.102917551249036
 50
90.00284169723435
 51
112.482857306831
  0
ARC
  8
2
  6
CONTINUOUS
 62
     7
 10
-365.7679315112073
 20
175.5340524626881
 40
5.096563404648119
 50
112.4828573068313
 51
134.9999999999995
  0
ARC
  8
2
  6
CONTINUOUS
 62
     7
 10
-365.7679315112071
 20
175.5340524626879
 40
5.096563404648414
 50
134.9999999999998
 51
157.5171426931664
  0
ARC
  8
2
  6
CONTINUOUS
 62
     7
 10
-365.7620603179444
 20
175.5316225925885
 40
5.102917551249425
 50
157.5171426931699
 51
179.9971583027659
  0
ARC
  8
2
  6
CONTINUOUS
 62
     7
 10
-365.7620603179444
 20
81.48748116389038
 40
5.102917551249425
 50
180.002841697234
 51
202.4828573068302
  0
ARC
  8
2
  6
CONTINUOUS
 62
     7
 10
-365.7679315112071
 20
81.48505129379095
 40
5.096563404648414
 50
202.4828573068334
 51
225.0000000000002
  0
ARC
  8
2
  6
CONTINUOUS
 62
     7
 10
-365.7679315112073
 20
81.48505129379065
 40
5.096563404648002
 50
225.0
 51
247.5171426931688
  0
ARC
  8
2
  6
CONTINUOUS
 62
     7
 10
-365.7655016411077
 20
81.49092248705303
 40
5.102917551248884
 50
247.5171426931683
 51
269.9971583027656
  0
ARC
  8
2
  6
CONTINUOUS
 62
     7
 10
-273.924801535572
 20
175.5316225925885
 40
5.102917551248704
 50
0.0028416972340892
 51
22.48285730683347
  0
ARC
  8
2
  6
CONTINUOUS
 62
     7
 10
-273.9189303423095
 20
175.5340524626885
 40
5.096563404647569
 50
22.48285730683014
 51
45.00000000000045
  0
ARC
  8
2
  6
CONTINUOUS
 62
     7
 10
-273.9189303423099
 20
175.5340524626881
 40
5.0965634046481
 50
45.00000000000023
 51
67.51714269316794
  0
ARC
  8
2
  6
CONTINUOUS
 62
     7
 10
-273.9213602124095
 20
175.5281812694255
 40
5.102917551249175
 50
67.51714269316908
 51
89.9971583027656
  0
ARC
  8
2
  6
CONTINUOUS
 62
     7
 10
-273.9213602124096
 20
81.49092248705287
 40
5.102917551248732
 50
270.0028416972349
 51
292.4828573068329
  0
ARC
  8
2
  6
CONTINUOUS
 62
     7
 10
-273.9189303423097
 20
81.48505129379053
 40
5.096563404647805
 50
292.4828573068301
 51
314.9999999999995
  0
ARC
  8
2
  6
CONTINUOUS
 62
     7
 10
-273.9189303423101
 20
81.48505129379095
 40
5.096563404648414
 50
314.9999999999998
 51
337.5171426931665
  0
ARC
  8
2
  6
CONTINUOUS
 62
     7
 10
-273.9248015355727
 20
81.48748116389038
 40
5.102917551249425
 50
337.5171426931698
 51
359.9971583027659
  0
LINE
  8
2
  6
CONTINUOUS
 62
     9
 10
-365.7657547303775
 20
76.38800482932287
 11
-273.9211071231397
 21
76.38800482932287
  0
LINE
  8
2
  6
CONTINUOUS
 62
     9
 10
-273.9211071231396
 20
180.631098927156
 11
-365.7657547303775
 21
180.631098927156
  0
LINE
  8
2
  6
CONTINUOUS
 62
     9
 10
-370.8649779756751
 20
175.5318756818584
 11
-370.8649779756751
 21
81.48722807462052
  0
LINE
  8
2
  6
CONTINUOUS
 62
     9
 10
-268.8218838778421
 20
81.48722807462048
 11
-268.821883877842
 21
175.5318756818584
  0
ARC
  8
2
  6
CONTINUOUS
 62
     7
 10
-369.6934309267586
 20
179.4595518782394
 40
5.000000000000004
 50
90.0
 51
180.0
  0
ARC
  8
2
  6
CONTINUOUS
 62
     7
 10
-269.9934309267586
 20
179.4595518782394
 40
5.000000000000004
 50
0.0
 51
90.0
  0
LINE
  8
2
  6
CONTINUOUS
 62
     7
 10
-264.9934309267586
 20
77.55955187823943
 11
-264.9934309267586
 21
179.4595518782394
  0
LINE
  8
2
  6
CONTINUOUS
 62
     7
 10
-374.6934309267586
 20
179.4595518782394
 11
-374.6934309267586
 21
77.55955187823943
  0
LINE
  8
2
  6
CONTINUOUS
 62
     7
 10
-369.6934309267586
 20
72.55955187823942
 11
-269.9934309267586
 21
72.55955187823942
  0
LINE
  8
2
  6
CONTINUOUS
 62
     7
 10
-269.9934309267586
 20
184.4595518782394
 11
-369.6934309267586
 21
184.4595518782394
  0
ARC
  8
2
  6
CONTINUOUS
 62
     7
 10
-369.6934309267586
 20
77.55955187823943
 40
5.000000000000004
 50
180.0
 51
270.0
  0
ARC
  8
2
  6
CONTINUOUS
 62
     7
 10
-269.9934309267586
 20
77.55955187823943
 40
5.000000000000004
 50
270.0
 51
0.0
  0
ARC
  8
2
  6
CONTINUOUS
 62
     7
 10
-332.6660415279794
 20
169.7292433620215
 40
0.4999999999999951
 50
357.0172129120262
 51
18.81790972799473
  0
ARC
  8
2
  6
CONTINUOUS
 62
     7
 10
-362.5208203255378
 20
169.7292433620215
 40
0.5000000000000059
 50
161.1820902720052
 51
180.0
  0
ARC
  8
2
  6
CONTINUOUS
 62
     7
 10
-362.5208203255378
 20
169.7292433620215
 40
0.5000000000000004
 50
180.0
 51
182.9827870879735
  0
ARC
  8
2
  6
CONTINUOUS
 62
     7
 10
-339.2843818138322
 20
166.4683555747255
 40
0.4999999999999724
 50
133.1909945269743
 51
180.0
  0
ARC
  8
2
  6
CONTINUOUS
 62
     7
 10
-339.2843818138322
 20
166.4683555747255
 40
0.5000000000000004
 50
180.0
 51
270.0
  0
ARC
  8
2
  6
CONTINUOUS
 62
     7
 10
-355.902480039685
 20
166.4683555747255
 40
0.5000000000000004
 50
270.0
 51
46.80900547303612
  0
LINE
  8
2
  6
CONTINUOUS
 62
     7
 10
-362.990537417355
 20
170.352440901342
 11
-362.9927125517574
 21
169.8945239938959
  0
LINE
  8
2
  6
CONTINUOUS
 62
     7
 10
-332.1941493017597
 20
169.8945239938959
 11
-332.1963244361621
 21
170.352440901342
  0
ARC
  8
2
  6
CONTINUOUS
 62
     7
 10
-307.0208203255378
 20
87.28986039445732
 40
0.4999999999999951
 50
177.0172129120263
 51
198.8179097279948
  0
ARC
  8
2
  6
CONTINUOUS
 62
     7
 10
-300.402480039685
 20
90.55074818175336
 40
0.4999999999999825
 50
313.1909945269743
 51
0.0
  0
ARC
  8
2
  6
CONTINUOUS
 62
     7
 10
-300.402480039685
 20
90.55074818175336
 40
0.5000000000000004
 50
0.0
 51
90.0
  0
ARC
  8
2
  6
CONTINUOUS
 62
     7
 10
-277.1660415279794
 20
87.28986039445732
 40
0.5000000000000149
 50
341.1820902720052
 51
0.0
  0
ARC
  8
2
  6
CONTINUOUS
 62
     7
 10
-277.1660415279794
 20
87.28986039445732
 40
0.5000000000000004
 50
0.0
 51
2.982787087973515
  0
ARC
  8
2
  6
CONTINUOUS
 62
     7
 10
-283.7843818138322
 20
90.55074818175336
 40
0.5000000000000004
 50
90.0
 51
226.8090054730361
  0
LINE
  8
2
  6
CONTINUOUS
 62
     7
 10
-276.6963244361622
 20
86.66666285513682
 11
-276.6941493017598
 21
87.12457976258297
  0
LINE
  8
2
  6
CONTINUOUS
 62
     7
 10
-307.4927125517574
 20
87.12457976258297
 11
-307.490537417355
 21
86.66666285513682
  0
ENDBLK
  8
0
  0
ENDSEC
  0
SECTION
  2
ENTITIES
  0
LINE
  8
2
  6
CONTINUOUS
 62
     7
 10
-332.6660415279794
 20
31.15089299862783
 11
-335.3432666610331
 21
31.15089299862783
  0
LINE
  8
2
  6
CONTINUOUS
 62
     7
 10
-332.182715085526
 20
28.93716845611479
 11
-332.1668763622733
 21
30.67977443463134
  0
ARC
  8
2
  6
CONTINUOUS
 62
     7
 10
-332.6660415279794
 20
30.65089299862784
 40
0.5000000000000298
 50
3.311411970632378
 51
90.0
  0
INSERT
  8
2
  6
CONTINUOUS
 62
     7
  2
D_FRAME_VIEW_3588
 10
0.0
 20
0.0
 30
0.0
  0
INSERT
  8
2
  6
CONTINUOUS
 62
     7
  2
D_FRAME_VIEW_3863
 10
0.0
 20
0.0
 30
0.0
  0
INSERT
  8
2
  6
CONTINUOUS
 62
     7
  2
D_FRAME_VIEW_2607
 10
0.0
 20
0.0
 30
0.0
  0
LINE
  8
2
  6
CONTINUOUS
 62
     7
 10
-293.4482137024856
 20
173.5095518782394
 11
-292.1434309267586
 21
173.5095518782394
  0
LINE
  8
2
  6
CONTINUOUS
 62
     7
 10
-338.1434309267586
 20
83.5095518782394
 11
-339.4482137024856
 21
83.5095518782394
  0
LINE
  8
2
  6
CONTINUOUS
 62
     7
 10
-301.5434309267586
 20
173.5095518782394
 11
-300.2386481510316
 21
173.5095518782394
  0
LINE
  8
2
  6
CONTINUOUS
 62
     7
 10
-346.2386481510316
 20
83.50955187823942
 11
-347.5434309267586
 21
83.5095518782394
  0
LINE
  8
2
  6
CENTER
 62
     1
 10
-346.3843260401812
 20
86.75955187823942
 11
-339.302535813336
 21
86.75955187823942
  0
LINE
  8
2
  6
CENTER
 62
     1
 10
-294.3434309267586
 20
84.00955187823942
 11
-285.3434309267586
 21
84.00955187823942
  0
LINE
  8
2
  6
CENTER
 62
     1
 10
-349.8434309267586
 20
168.5095518782394
 11
-349.8434309267586
 21
177.5095518782394
  0
LINE
  8
2
  6
CENTER
 62
     1
 10
-300.3843260401812
 20
170.2595518782394
 11
-293.3025358133359
 21
170.2595518782394
  0
LINE
  8
2
  6
CENTER
 62
     1
 10
-319.8434309267586
 20
181.4595518782394
 11
-319.8434309267586
 21
75.55955187823943
  0
LINE
  8
2
  6
CENTER
 62
     1
 10
-319.8434309267586
 20
16.17771085275299
 11
-319.8434309267586
 21
27.55038861367831
  0
LINE
  8
2
  6
CENTER
 62
     1
 10
-346.5434309267587
 20
170.2595518782394
 11
-339.1434309267586
 21
170.2595518782394
  0
LINE
  8
2
  6
CENTER
 62
     1
 10
-296.8434309267586
 20
83.05955187823943
 11
-296.8434309267586
 21
90.4595518782394
  0
LINE
  8
2
  6
CENTER
 62
     1
 10
-354.3434309267586
 20
173.0095518782394
 11
-345.3434309267586
 21
173.0095518782394
  0
LINE
  8
2
  6
CENTER
 62
     1
 10
-200.8443257731938
 20
128.5095518782394
 11
-189.4716480122684
 21
128.5095518782394
  0
LINE
  8
2
  6
CENTER
 62
     1
 10
-342.8434309267586
 20
83.21865676481677
 11
-342.8434309267586
 21
90.30044699166206
  0
LINE
  8
2
  6
CENTER
 62
     1
 10
-300.5434309267586
 20
86.75955187823942
 11
-293.1434309267586
 21
86.75955187823942
  0
LINE
  8
2
  6
CENTER
 62
     1
 10
-289.8434309267586
 20
79.50955187823942
 11
-289.8434309267586
 21
88.50955187823944
  0
LINE
  8
2
  6
CENTER
 62
     1
 10
-296.8434309267586
 20
166.7186567648168
 11
-296.8434309267586
 21
173.8004469916621
  0
LINE
  8
2
  6
CENTER
 62
     1
 10
-342.8434309267586
 20
166.5595518782394
 11
-342.8434309267586
 21
173.9595518782395
  0
TEXT
  8
2
  6
CONTINUOUS
 62
     7
 10
-222.2308411351686
 20
33.41668506604927
 40
3.0
  1
OF-122-BS
  0
LINE
  8
2
  6
CONTINUOUS
 62
     2
 10
-222.2044687455225
 20
32.85871957899161
 11
-206.7544687455225
 21
32.85871957899161
  0
ENDSEC
  0
EOF
