  0
SECTION
  2
HEADER
  9
$ACADVER
  1
AC1004
  9
$INSBASE
 10
0.0
 20
0.0
  9
$EXTMIN
 10
0.0
 20
0.0
  9
$EXTMAX
 10
404.2371507359818
 20
235.5
  9
$LIMMIN
 10
0.0
 20
0.0
  9
$LIMMAX
 10
12.0
 20
9.0
  9
$ORTHOMODE
 70
     0
  9
$REGENMODE
 70
     1
  9
$FILLMODE
 70
     1
  9
$QTEXTMODE
 70
     0
  9
$DRAGMODE
 70
     2
  9
$LTSCALE
 40
1.0
  9
$OSMODE
 70
    37
  9
$ATTMODE
 70
     1
  9
$TEXTSIZE
 40
0.2
  9
$TRACEWID
 40
0.05
  9
$TEXTSTYLE
  7
STANDARD
  9
$CLAYER
  8
0
  9
$CELTYPE
  6
BYLAYER
  9
$CECOLOR
 62
   256
  9
$DIMSCALE
 40
1.0
  9
$DIMASZ
 40
3.0
  9
$DIMEXO
 40
0.0625
  9
$DIMDLI
 40
0.38
  9
$DIMRND
 40
0.0
  9
$DIMDLE
 40
0.0
  9
$DIMEXE
 40
1.5
  9
$DIMTP
 40
0.0
  9
$DIMTM
 40
0.0
  9
$DIMTXT
 40
3.0
  9
$DIMCEN
 40
0.09
  9
$DIMTSZ
 40
0.0
  9
$DIMTOL
 70
     0
  9
$DIMLIM
 70
     0
  9
$DIMTIH
 70
     1
  9
$DIMTOH
 70
     1
  9
$DIMSE1
 70
     0
  9
$DIMSE2
 70
     0
  9
$DIMTAD
 70
     1
  9
$DIMZIN
 70
     0
  9
$DIMBLK
  1

  9
$DIMASO
 70
     1
  9
$DIMSHO
 70
     1
  9
$DIMPOST
  1

  9
$DIMAPOST
  1

  9
$DIMALT
 70
     0
  9
$DIMALTD
 70
     2
  9
$DIMALTF
 40
25.4
  9
$DIMLFAC
 40
1.0
  9
$DIMTOFL
 70
     0
  9
$DIMTVP
 40
0.0
  9
$DIMTIX
 70
     0
  9
$DIMSOXD
 70
     0
  9
$DIMSAH
 70
     0
  9
$DIMBLK1
  1

  9
$DIMBLK2
  1

  9
$LUNITS
 70
     2
  9
$LUPREC
 70
     4
  9
$SKETCHINC
 40
0.1
  9
$FILLETRAD
 40
0.5
  9
$AUNITS
 70
     0
  9
$AUPREC
 70
     0
  9
$MENU
  1
.
  9
$ELEVATION
 40
0.0
  9
$THICKNESS
 40
0.0
  9
$LIMCHECK
 70
     0
  9
$CHAMFERA
 40
0.0
  9
$CHAMFERB
 40
0.0
  9
$SKPOLY
 70
     0
  9
$TDCREATE
 40
2460474.645254503
  9
$TDUPDATE
 40
2460474.645258924
  9
$TDINDWG
 40
0.0000000116
  9
$TDUSRTIMER
 40
0.0000000116
  9
$USRTIMER
 70
     1
  9
$ANGBASE
 50
0.0
  9
$ANGDIR
 70
     0
  9
$PDMODE
 70
     0
  9
$PDSIZE
 40
0.0
  9
$PLINEWID
 40
0.0
  9
$COORDS
 70
     1
  9
$SPLFRAME
 70
     0
  9
$SPLINETYPE
 70
     6
  9
$SPLINESEGS
 70
     8
  9
$ATTDIA
 70
     0
  9
$ATTREQ
 70
     1
  9
$SURFTAB1
 70
     6
  9
$SURFTAB2
 70
     6
  9
$SURFTYPE
 70
     6
  9
$SURFU
 70
     6
  9
$SURFV
 70
     6
  9
$UCSNAME
  2

  9
$UCSORG
 10
0.0
 20
0.0
 30
0.0
  9
$UCSXDIR
 10
1.0
 20
0.0
 30
0.0
  9
$UCSYDIR
 10
0.0
 20
1.0
 30
0.0
  9
$USERI1
 70
     0
  9
$USERI2
 70
     0
  9
$USERI3
 70
     0
  9
$USERI4
 70
     0
  9
$USERI5
 70
     0
  9
$USERR1
 40
0.0
  9
$USERR2
 40
0.0
  9
$USERR3
 40
0.0
  9
$USERR4
 40
0.0
  9
$USERR5
 40
0.0
  9
$WORLDVIEW
 70
     1
  0
ENDSEC
  0
SECTION
  2
TABLES
  0
TABLE
  2
LTYPE
 70
     2
  0
LTYPE
  2
CONTINUOUS
 70
     0
  3
Solid line
 72
    65
 73
     0
 40
0.0
  0
LTYPE
  2
CENTER
 70
     0
  3

 72
    65
 73
     0
 40
0.0
  0
ENDTAB
  0
TABLE
  2
LAYER
 70
     2
  0
LAYER
  2
0
 70
     0
 62
     7
  6
CONTINUOUS
  0
LAYER
  2
1
 70
     0
 62
     7
  6
CONTINUOUS
  0
ENDTAB
  0
TABLE
  2
STYLE
 70
     2
  0
STYLE
  2
STANDARD
 70
     0
 40
0.0
 41
1.0
 50
0.0
 71
     0
 42
0.2
  3
txt
  4

  0
STYLE
  2
ＭＳ_ゴシック
 70
     0
 40
0.0
 41
1.0
 50
0.0
 71
     0
 42
0.2
  3
ＭＳ ゴシック.shx
  4

  0
ENDTAB
  0
TABLE
  2
VIEW
 70
     0
  0
ENDTAB
  0
ENDSEC
  0
SECTION
  2
BLOCKS
  0
BLOCK
  8
0
  2
D_FRAME_VIEW_1604
 70
     0
 10
0.0
 20
0.0
  0
LINE
  8
1
  6
CONTINUOUS
 62
     7
 10
107.0
 20
101.7
 11
107.0
 21
103.3
  0
LINE
  8
1
  6
CONTINUOUS
 62
     7
 10
107.0
 20
101.7
 11
112.0
 21
101.7
  0
LINE
  8
1
  6
CONTINUOUS
 62
     7
 10
107.0
 20
103.3
 11
112.0
 21
103.3
  0
LINE
  8
1
  6
CONTINUOUS
 62
     7
 10
112.0
 20
101.7
 11
208.0
 21
101.7
  0
LINE
  8
1
  6
CONTINUOUS
 62
     7
 10
112.0
 20
103.3
 11
208.0
 21
103.3
  0
LINE
  8
1
  6
CONTINUOUS
 62
     7
 10
213.0
 20
101.7
 11
213.0
 21
103.3
  0
LINE
  8
1
  6
CONTINUOUS
 62
     7
 10
208.0
 20
101.7
 11
213.0
 21
101.7
  0
LINE
  8
1
  6
CONTINUOUS
 62
     7
 10
208.0
 20
103.3
 11
213.0
 21
103.3
  0
ENDBLK
  8
0
  0
BLOCK
  8
0
  2
D_FRAME_VIEW_1616
 70
     0
 10
0.0
 20
0.0
  0
LINE
  8
1
  6
CONTINUOUS
 62
     7
 10
258.3
 20
129.5
 11
256.7
 21
129.5
  0
LINE
  8
1
  6
CONTINUOUS
 62
     7
 10
258.3
 20
129.5
 11
258.3
 21
134.5
  0
LINE
  8
1
  6
CONTINUOUS
 62
     7
 10
256.7
 20
129.5
 11
256.7
 21
134.5
  0
LINE
  8
1
  6
CONTINUOUS
 62
     7
 10
258.3
 20
134.5
 11
258.3
 21
230.5
  0
LINE
  8
1
  6
CONTINUOUS
 62
     7
 10
256.7
 20
134.5
 11
256.7
 21
230.5
  0
LINE
  8
1
  6
CONTINUOUS
 62
     7
 10
258.3
 20
235.5
 11
256.7
 21
235.5
  0
LINE
  8
1
  6
CONTINUOUS
 62
     7
 10
258.3
 20
230.5
 11
258.3
 21
235.5
  0
LINE
  8
1
  6
CONTINUOUS
 62
     7
 10
256.7
 20
230.5
 11
256.7
 21
235.5
  0
LINE
  8
1
  6
CONTINUOUS
 62
     7
 10
256.675
 20
132.9113636363636
 11
256.7
 21
132.9113636363636
  0
LINE
  8
1
  6
CONTINUOUS
 62
     7
 10
256.675
 20
131.6022727272727
 11
256.7
 21
131.6022727272727
  0
ENDBLK
  8
0
  0
BLOCK
  8
0
  2
D_FRAME_DRAWING_17
 70
     0
 10
0.0
 20
0.0
  0
LINE
  8
0
  6
CONTINUOUS
 62
     7
 10
0.0
 20
0.0
 11
420.0
 21
0.0
  0
LINE
  8
0
  6
CONTINUOUS
 62
     7
 10
420.0
 20
0.0
 11
420.0
 21
297.0
  0
LINE
  8
0
  6
CONTINUOUS
 62
     7
 10
420.0
 20
297.0
 11
0.0
 21
297.0
  0
LINE
  8
0
  6
CONTINUOUS
 62
     7
 10
0.0
 20
297.0
 11
0.0
 21
0.0
  0
ENDBLK
  8
0
  0
BLOCK
  8
0
  2
D_FRAME_VIEW_1444
 70
     0
 10
0.0
 20
0.0
  0
LINE
  8
1
  6
CONTINUOUS
 62
     7
 10
185.5
 20
136.75
 11
185.5
 21
133.75
  0
LINE
  8
1
  6
CONTINUOUS
 62
     7
 10
180.5
 20
136.75
 11
185.5
 21
136.75
  0
LINE
  8
1
  6
CONTINUOUS
 62
     7
 10
180.5
 20
133.75
 11
180.5
 21
136.75
  0
LINE
  8
1
  6
CONTINUOUS
 62
     7
 10
185.5
 20
133.75
 11
180.5
 21
133.75
  0
LINE
  8
1
  6
CONTINUOUS
 62
     7
 10
134.5
 20
133.75
 11
134.5
 21
136.75
  0
LINE
  8
1
  6
CONTINUOUS
 62
     7
 10
139.5
 20
133.75
 11
134.5
 21
133.75
  0
LINE
  8
1
  6
CONTINUOUS
 62
     7
 10
139.5
 20
136.75
 11
139.5
 21
133.75
  0
LINE
  8
1
  6
CONTINUOUS
 62
     7
 10
134.5
 20
136.75
 11
139.5
 21
136.75
  0
LINE
  8
1
  6
CONTINUOUS
 62
     7
 10
185.5
 20
231.25
 11
185.5
 21
228.25
  0
LINE
  8
1
  6
CONTINUOUS
 62
     7
 10
180.5
 20
231.25
 11
185.5
 21
231.25
  0
LINE
  8
1
  6
CONTINUOUS
 62
     7
 10
180.5
 20
228.25
 11
180.5
 21
231.25
  0
LINE
  8
1
  6
CONTINUOUS
 62
     7
 10
185.5
 20
228.25
 11
180.5
 21
228.25
  0
LINE
  8
1
  6
CONTINUOUS
 62
     7
 10
134.5
 20
228.25
 11
134.5
 21
231.25
  0
LINE
  8
1
  6
CONTINUOUS
 62
     7
 10
139.5
 20
228.25
 11
134.5
 21
228.25
  0
LINE
  8
1
  6
CONTINUOUS
 62
     7
 10
139.5
 20
231.25
 11
139.5
 21
228.25
  0
LINE
  8
1
  6
CONTINUOUS
 62
     7
 10
134.5
 20
231.25
 11
139.5
 21
231.25
  0
LINE
  8
1
  6
CONTINUOUS
 62
     7
 10
107.0
 20
230.5
 11
107.0
 21
134.5
  0
ARC
  8
1
  6
CONTINUOUS
 62
     7
 10
112.0
 20
230.5
 40
4.99999999999999
 50
90.00000000000016
 51
180.0
  0
LINE
  8
1
  6
CONTINUOUS
 62
     7
 10
208.0
 20
235.5
 11
112.0
 21
235.5
  0
ARC
  8
1
  6
CONTINUOUS
 62
     7
 10
208.0
 20
230.5
 40
5.000000000000004
 50
0.0
 51
90.0
  0
LINE
  8
1
  6
CONTINUOUS
 62
     7
 10
213.0
 20
134.5
 11
213.0
 21
230.5
  0
ARC
  8
1
  6
CONTINUOUS
 62
     7
 10
208.0
 20
134.5
 40
4.999999999999997
 50
270.0000000000002
 51
0.0
  0
LINE
  8
1
  6
CONTINUOUS
 62
     7
 10
112.0
 20
129.5
 11
208.0
 21
129.5
  0
ARC
  8
1
  6
CONTINUOUS
 62
     7
 10
112.0
 20
134.5
 40
4.999999999999997
 50
180.0000000000001
 51
270.0
  0
LINE
  8
1
  6
CONTINUOUS
 62
     7
 10
178.5
 20
140.75
 11
178.5
 21
140.0
  0
ARC
  8
1
  6
CONTINUOUS
 62
     7
 10
183.0
 20
140.75
 40
4.499999999999997
 50
90.00000000000009
 51
179.9999999999999
  0
LINE
  8
1
  6
CONTINUOUS
 62
     7
 10
192.5
 20
145.25
 11
183.0
 21
145.25
  0
ARC
  8
1
  6
CONTINUOUS
 62
     7
 10
192.5
 20
140.75
 40
4.500000000000004
 50
359.9999999999998
 51
90.00000000000011
  0
LINE
  8
1
  6
CONTINUOUS
 62
     7
 10
197.0
 20
140.0
 11
197.0
 21
140.75
  0
ARC
  8
1
  6
CONTINUOUS
 62
     7
 10
200.5
 20
140.0
 40
3.500000000000003
 50
180.0000000000001
 51
270.0
  0
LINE
  8
1
  6
CONTINUOUS
 62
     7
 10
204.75
 20
136.5
 11
200.5
 21
136.5
  0
ARC
  8
1
  6
CONTINUOUS
 62
     7
 10
204.75
 20
140.0
 40
3.500000000000003
 50
270.0000000000001
 51
0.0000000000001137
  0
LINE
  8
1
  6
CONTINUOUS
 62
     7
 10
208.25
 20
225.0
 11
208.25
 21
140.0
  0
ARC
  8
1
  6
CONTINUOUS
 62
     7
 10
204.75
 20
225.0
 40
3.500000000000003
 50
0.0
 51
89.9999999999999
  0
LINE
  8
1
  6
CONTINUOUS
 62
     7
 10
191.0
 20
228.5
 11
204.75
 21
228.5
  0
ARC
  8
1
  6
CONTINUOUS
 62
     7
 10
191.0
 20
225.0
 40
3.500000000000003
 50
89.99999999999994
 51
179.9999999999998
  0
LINE
  8
1
  6
CONTINUOUS
 62
     7
 10
187.5
 20
224.25
 11
187.5
 21
225.0
  0
ARC
  8
1
  6
CONTINUOUS
 62
     7
 10
183.0
 20
224.25
 40
4.5
 50
180.0000000000002
 51
359.9999999999998
  0
LINE
  8
1
  6
CONTINUOUS
 62
     7
 10
178.5
 20
225.0
 11
178.5
 21
224.25
  0
ARC
  8
1
  6
CONTINUOUS
 62
     7
 10
175.0
 20
225.0
 40
3.499999999999996
 50
0.0
 51
90.0
  0
LINE
  8
1
  6
CONTINUOUS
 62
     7
 10
145.0
 20
228.5
 11
175.0
 21
228.5
  0
ARC
  8
1
  6
CONTINUOUS
 62
     7
 10
145.0
 20
225.0
 40
3.499999999999996
 50
90.0
 51
179.9999999999998
  0
LINE
  8
1
  6
CONTINUOUS
 62
     7
 10
141.5
 20
224.25
 11
141.5
 21
225.0
  0
ARC
  8
1
  6
CONTINUOUS
 62
     7
 10
137.0
 20
224.25
 40
4.499999999999997
 50
269.9999999999999
 51
359.9999999999998
  0
LINE
  8
1
  6
CONTINUOUS
 62
     7
 10
127.5
 20
219.75
 11
137.0
 21
219.75
  0
ARC
  8
1
  6
CONTINUOUS
 62
     7
 10
127.5
 20
224.25
 40
4.500000000000004
 50
180.0
 51
270.0000000000002
  0
LINE
  8
1
  6
CONTINUOUS
 62
     7
 10
123.0
 20
225.0
 11
123.0
 21
224.25
  0
ARC
  8
1
  6
CONTINUOUS
 62
     7
 10
119.5
 20
225.0
 40
3.500000000000003
 50
0.0
 51
90.00000000000011
  0
LINE
  8
1
  6
CONTINUOUS
 62
     7
 10
115.25
 20
228.5
 11
119.5
 21
228.5
  0
ARC
  8
1
  6
CONTINUOUS
 62
     7
 10
115.25
 20
225.0
 40
3.500000000000003
 50
90.00000000000011
 51
179.9999999999998
  0
LINE
  8
1
  6
CONTINUOUS
 62
     7
 10
111.75
 20
140.0
 11
111.75
 21
225.0
  0
ARC
  8
1
  6
CONTINUOUS
 62
     7
 10
115.25
 20
140.0
 40
3.500000000000003
 50
180.0000000000001
 51
270.0000000000001
  0
LINE
  8
1
  6
CONTINUOUS
 62
     7
 10
129.0
 20
136.5
 11
115.25
 21
136.5
  0
ARC
  8
1
  6
CONTINUOUS
 62
     7
 10
129.0
 20
140.0
 40
3.5
 50
270.0
 51
359.9999999999998
  0
LINE
  8
1
  6
CONTINUOUS
 62
     7
 10
132.5
 20
140.75
 11
132.5
 21
140.0
  0
ARC
  8
1
  6
CONTINUOUS
 62
     7
 10
137.0
 20
140.75
 40
4.5
 50
0.0
 51
180.0
  0
LINE
  8
1
  6
CONTINUOUS
 62
     7
 10
141.5
 20
140.0
 11
141.5
 21
140.75
  0
ARC
  8
1
  6
CONTINUOUS
 62
     7
 10
145.0
 20
140.0
 40
3.500000000000003
 50
180.0000000000001
 51
269.9999999999999
  0
LINE
  8
1
  6
CONTINUOUS
 62
     7
 10
175.0
 20
136.5
 11
145.0
 21
136.5
  0
ARC
  8
1
  6
CONTINUOUS
 62
     7
 10
175.0
 20
140.0
 40
3.500000000000003
 50
270.0
 51
359.9999999999998
  0
CIRCLE
  8
1
  6
CONTINUOUS
 62
     7
 10
137.0
 20
224.25
 40
1.649999999999999
  0
CIRCLE
  8
1
  6
CONTINUOUS
 62
     7
 10
183.0
 20
224.25
 40
1.649999999999999
  0
CIRCLE
  8
1
  6
CONTINUOUS
 62
     7
 10
137.0
 20
140.75
 40
1.649999999999999
  0
CIRCLE
  8
1
  6
CONTINUOUS
 62
     7
 10
183.0
 20
140.75
 40
1.649999999999999
  0
CIRCLE
  8
1
  6
CONTINUOUS
 62
     7
 10
130.0
 20
227.0
 40
2.499999999999999
  0
CIRCLE
  8
1
  6
CONTINUOUS
 62
     7
 10
190.0
 20
138.0
 40
2.499999999999999
  0
ENDBLK
  8
0
  0
ENDSEC
  0
SECTION
  2
ENTITIES
  0
LINE
  8
1
  6
CENTER
 62
     1
 10
260.3
 20
182.5
 11
254.7
 21
182.5
  0
INSERT
  8
1
  6
CONTINUOUS
 62
     7
  2
D_FRAME_VIEW_1604
 10
0.0
 20
0.0
 30
0.0
  0
INSERT
  8
1
  6
CONTINUOUS
 62
     7
  2
D_FRAME_VIEW_1616
 10
0.0
 20
0.0
 30
0.0
  0
LINE
  8
1
  6
CENTER
 62
     1
 10
213.0
 20
182.5
 11
107.0
 21
182.5
  0
LINE
  8
1
  6
CENTER
 62
     1
 10
160.0
 20
235.5
 11
160.0
 21
129.5
  0
LINE
  8
1
  6
CENTER
 62
     1
 10
137.0
 20
129.5
 11
137.0
 21
235.5
  0
LINE
  8
1
  6
CENTER
 62
     1
 10
183.0
 20
129.5
 11
183.0
 21
235.5
  0
INSERT
  8
0
 62
     7
  2
D_FRAME_DRAWING_17
 10
0.0
 20
0.0
 30
0.0
  0
LINE
  8
1
  6
CENTER
 62
     1
 10
133.35
 20
140.75
 11
140.65
 21
140.75
  0
INSERT
  8
1
  6
CONTINUOUS
 62
     7
  2
D_FRAME_VIEW_1444
 10
0.0
 20
0.0
 30
0.0
  0
TEXT
  8
1
  6
CONTINUOUS
 62
     7
 10
236.6387645367013
 20
103.0424534200325
 40
8.0
  1
OF-122-F
  0
LINE
  8
1
  6
CENTER
 62
     1
 10
160.0
 20
99.7
 11
160.0
 21
105.3
  0
LINE
  8
1
  6
CENTER
 62
     1
 10
179.35
 20
224.25
 11
186.65
 21
224.25
  0
ENDSEC
  0
EOF
