  0
SECTION
  2
HEADER
  9
$ACADVER
  1
AC1004
  9
$INSBASE
 10
0.0
 20
0.0
  9
$EXTMIN
 10
-369.827507132242
 20
-45.83972251153286
  9
$EXTMAX
 10
-177.6673871575916
 20
155.7918653909614
  9
$LIMMIN
 10
0.0
 20
0.0
  9
$LIMMAX
 10
12.0
 20
9.0
  9
$ORTHOMODE
 70
     0
  9
$REGENMODE
 70
     1
  9
$FILLMODE
 70
     1
  9
$QTEXTMODE
 70
     0
  9
$DRAGMODE
 70
     2
  9
$LTSCALE
 40
1.0
  9
$OSMODE
 70
    37
  9
$ATTMODE
 70
     1
  9
$TEXTSIZE
 40
0.2
  9
$TRACEWID
 40
0.05
  9
$TEXTSTYLE
  7
STANDARD
  9
$CLAYER
  8
0
  9
$CELTYPE
  6
BYLAYER
  9
$CECOLOR
 62
   256
  9
$DIMSCALE
 40
1.0
  9
$DIMASZ
 40
3.0
  9
$DIMEXO
 40
0.0625
  9
$DIMDLI
 40
0.38
  9
$DIMRND
 40
0.0
  9
$DIMDLE
 40
0.0
  9
$DIMEXE
 40
1.5
  9
$DIMTP
 40
0.0
  9
$DIMTM
 40
0.0
  9
$DIMTXT
 40
3.0
  9
$DIMCEN
 40
0.09
  9
$DIMTSZ
 40
0.0
  9
$DIMTOL
 70
     0
  9
$DIMLIM
 70
     0
  9
$DIMTIH
 70
     1
  9
$DIMTOH
 70
     1
  9
$DIMSE1
 70
     0
  9
$DIMSE2
 70
     0
  9
$DIMTAD
 70
     1
  9
$DIMZIN
 70
     0
  9
$DIMBLK
  1

  9
$DIMASO
 70
     1
  9
$DIMSHO
 70
     1
  9
$DIMPOST
  1

  9
$DIMAPOST
  1

  9
$DIMALT
 70
     0
  9
$DIMALTD
 70
     2
  9
$DIMALTF
 40
25.4
  9
$DIMLFAC
 40
1.0
  9
$DIMTOFL
 70
     0
  9
$DIMTVP
 40
0.0
  9
$DIMTIX
 70
     0
  9
$DIMSOXD
 70
     0
  9
$DIMSAH
 70
     0
  9
$DIMBLK1
  1

  9
$DIMBLK2
  1

  9
$LUNITS
 70
     2
  9
$LUPREC
 70
     4
  9
$SKETCHINC
 40
0.1
  9
$FILLETRAD
 40
0.5
  9
$AUNITS
 70
     0
  9
$AUPREC
 70
     0
  9
$MENU
  1
.
  9
$ELEVATION
 40
0.0
  9
$THICKNESS
 40
0.0
  9
$LIMCHECK
 70
     0
  9
$CHAMFERA
 40
0.0
  9
$CHAMFERB
 40
0.0
  9
$SKPOLY
 70
     0
  9
$TDCREATE
 40
2459531.479128947
  9
$TDUPDATE
 40
2459531.479129306
  9
$TDINDWG
 40
0.0000000116
  9
$TDUSRTIMER
 40
0.0000000116
  9
$USRTIMER
 70
     1
  9
$ANGBASE
 50
0.0
  9
$ANGDIR
 70
     0
  9
$PDMODE
 70
     0
  9
$PDSIZE
 40
0.0
  9
$PLINEWID
 40
0.0
  9
$COORDS
 70
     1
  9
$SPLFRAME
 70
     0
  9
$SPLINETYPE
 70
     6
  9
$SPLINESEGS
 70
     8
  9
$ATTDIA
 70
     0
  9
$ATTREQ
 70
     1
  9
$SURFTAB1
 70
     6
  9
$SURFTAB2
 70
     6
  9
$SURFTYPE
 70
     6
  9
$SURFU
 70
     6
  9
$SURFV
 70
     6
  9
$UCSNAME
  2

  9
$UCSORG
 10
0.0
 20
0.0
 30
0.0
  9
$UCSXDIR
 10
1.0
 20
0.0
 30
0.0
  9
$UCSYDIR
 10
0.0
 20
1.0
 30
0.0
  9
$USERI1
 70
     0
  9
$USERI2
 70
     0
  9
$USERI3
 70
     0
  9
$USERI4
 70
     0
  9
$USERI5
 70
     0
  9
$USERR1
 40
0.0
  9
$USERR2
 40
0.0
  9
$USERR3
 40
0.0
  9
$USERR4
 40
0.0
  9
$USERR5
 40
0.0
  9
$WORLDVIEW
 70
     1
  0
ENDSEC
  0
SECTION
  2
TABLES
  0
TABLE
  2
LTYPE
 70
     2
  0
LTYPE
  2
CONTINUOUS
 70
     0
  3
Solid line
 72
    65
 73
     0
 40
0.0
  0
LTYPE
  2
CENTER
 70
     0
  3

 72
    65
 73
     0
 40
0.0
  0
ENDTAB
  0
TABLE
  2
LAYER
 70
     2
  0
LAYER
  2
0
 70
     0
 62
     7
  6
CONTINUOUS
  0
LAYER
  2
2
 70
     0
 62
     7
  6
CONTINUOUS
  0
ENDTAB
  0
TABLE
  2
STYLE
 70
     2
  0
STYLE
  2
STANDARD
 70
     0
 40
0.0
 41
1.0
 50
0.0
 71
     0
 42
0.2
  3
txt
  4

  0
STYLE
  2
ＭＳ_ゴシック
 70
     0
 40
0.0
 41
1.0
 50
0.0
 71
     0
 42
0.2
  3
ＭＳ ゴシック.shx
  4

  0
ENDTAB
  0
TABLE
  2
VIEW
 70
     0
  0
ENDTAB
  0
ENDSEC
  0
SECTION
  2
BLOCKS
  0
BLOCK
  8
0
  2
D_FRAME_VIEW_2607
 70
     0
 10
0.0
 20
0.0
  0
LINE
  8
2
  6
CONTINUOUS
 62
     7
 10
-296.327507132242
 20
56.82790133901883
 11
-296.327507132242
 21
57.04186539096141
  0
LINE
  8
2
  6
CONTINUOUS
 62
     7
 10
-298.327507132242
 20
61.04186539096141
 11
-298.327507132242
 21
60.29186539096141
  0
ARC
  8
2
  6
CONTINUOUS
 62
     7
 10
-276.3275071322421
 20
60.29186539096141
 40
3.499999999999976
 50
180.0000000000001
 51
199.4629509463155
  0
LINE
  8
2
  6
CONTINUOUS
 62
     7
 10
-272.077507132242
 20
56.79186539096141
 11
-276.2217841996815
 21
56.79186539096141
  0
LINE
  8
2
  6
CONTINUOUS
 62
     7
 10
-349.327507132242
 20
140.0418653909614
 11
-339.8275071322421
 21
140.0418653909614
  0
LINE
  8
2
  6
CONTINUOUS
 62
     7
 10
-353.827507132242
 20
145.2918653909614
 11
-353.8275071322421
 21
144.5418653909614
  0
ARC
  8
2
  6
CONTINUOUS
 62
     7
 10
-357.327507132242
 20
145.2918653909614
 40
3.499999999999972
 50
359.9999999999999
 51
19.46295094631512
  0
LINE
  8
2
  6
CONTINUOUS
 62
     7
 10
-361.5775071322421
 20
148.7918653909614
 11
-357.4332300648026
 21
148.7918653909614
  0
ARC
  8
2
  6
CONTINUOUS
 62
     7
 10
-361.5775071322421
 20
145.2918653909614
 40
3.500000000000003
 50
90.00000000000011
 51
179.9999999999998
  0
CIRCLE
  8
2
  6
CONTINUOUS
 62
     7
 10
-346.827507132242
 20
147.2918653909614
 40
2.500000000000002
  0
LINE
  8
2
  6
CONTINUOUS
 62
     7
 10
-291.3275071322421
 20
57.04186539096141
 11
-291.3275071322421
 21
56.82790133901883
  0
LINE
  8
2
  6
CONTINUOUS
 62
     7
 10
-335.3275071322421
 20
144.5418653909614
 11
-335.3275071322421
 21
145.2918653909614
  0
CIRCLE
  8
2
  6
CONTINUOUS
 62
     7
 10
-286.827507132242
 20
58.29186539096141
 40
2.500000000000002
  0
LINE
  8
2
  6
CONTINUOUS
 62
     7
 10
-268.577507132242
 20
145.2918653909614
 11
-268.577507132242
 21
60.29186539096143
  0
ARC
  8
2
  6
CONTINUOUS
 62
     7
 10
-301.827507132242
 20
60.29186539096141
 40
3.500000000000003
 50
340.5370490536845
 51
359.9999999999998
  0
LINE
  8
2
  6
CONTINUOUS
 62
     7
 10
-279.8275071322421
 20
60.29186539096141
 11
-279.8275071322421
 21
61.04186539096141
  0
LINE
  8
2
  6
CONTINUOUS
 62
     7
 10
-284.3275071322421
 20
65.54186539096142
 11
-293.827507132242
 21
65.5418653909614
  0
ARC
  8
2
  6
CONTINUOUS
 62
     7
 10
-293.827507132242
 20
144.5418653909614
 40
4.500000000000004
 50
180.0000000000002
 51
359.9999999999998
  0
ARC
  8
2
  6
CONTINUOUS
 62
     7
 10
-364.827507132242
 20
54.79186539096141
 40
5.000000000000004
 50
180.0000000000001
 51
270.0
  0
ARC
  8
2
  6
CONTINUOUS
 62
     7
 10
-349.327507132242
 20
144.5418653909614
 40
4.50000000000006
 50
180.0
 51
270.0000000000002
  0
ARC
  8
2
  6
CONTINUOUS
 62
     7
 10
-339.8275071322421
 20
144.5418653909614
 40
4.500000000000004
 50
269.9999999999999
 51
359.9999999999998
  0
LINE
  8
2
  6
CONTINUOUS
 62
     7
 10
-331.7217841996815
 20
148.7918653909614
 11
-301.9332141286704
 21
148.7918653909614
  0
ARC
  8
2
  6
CONTINUOUS
 62
     7
 10
-285.827507132242
 20
145.2918653909614
 40
3.500000000000003
 50
160.537049053685
 51
179.9999999999998
  0
ARC
  8
2
  6
CONTINUOUS
 62
     7
 10
-301.827507132242
 20
145.2918653909614
 40
3.499999999999972
 50
359.9999999999999
 51
19.462950946315
  0
LINE
  8
2
  6
CONTINUOUS
 62
     7
 10
-296.327507132242
 20
57.04186539096141
 11
-291.3275071322421
 21
57.04186539096141
  0
ARC
  8
2
  6
CONTINUOUS
 62
     7
 10
-284.3275071322421
 20
61.04186539096141
 40
4.500000000000004
 50
359.9999999999998
 51
90.00000000000011
  0
ARC
  8
2
  6
CONTINUOUS
 62
     7
 10
-272.077507132242
 20
60.29186539096141
 40
3.500000000000003
 50
270.0000000000001
 51
0.0000000000001137
  0
LINE
  8
2
  6
CONTINUOUS
 62
     7
 10
-298.327507132242
 20
145.2918653909614
 11
-298.327507132242
 21
144.5418653909614
  0
ARC
  8
2
  6
CONTINUOUS
 62
     7
 10
-361.5775071322421
 20
60.29186539096141
 40
3.500000000000003
 50
180.0000000000001
 51
270.0000000000001
  0
CIRCLE
  8
2
  6
CONTINUOUS
 62
     7
 10
-339.8275071322421
 20
61.04186539096141
 40
1.65000000000004
  0
CIRCLE
  8
2
  6
CONTINUOUS
 62
     7
 10
-293.827507132242
 20
144.5418653909614
 40
1.649999999999985
  0
LINE
  8
2
  6
CONTINUOUS
 62
     7
 10
-285.7218001358136
 20
148.7918653909614
 11
-272.077507132242
 21
148.7918653909614
  0
ARC
  8
2
  6
CONTINUOUS
 62
     7
 10
-339.8275071322421
 20
61.04186539096141
 40
4.500000000000004
 50
0.0
 51
180.0
  0
LINE
  8
2
  6
CONTINUOUS
 62
     7
 10
-289.327507132242
 20
144.5418653909614
 11
-289.327507132242
 21
145.2918653909614
  0
LINE
  8
2
  6
CONTINUOUS
 62
     7
 10
-335.3275071322421
 20
60.29186539096141
 11
-335.3275071322421
 21
61.04186539096141
  0
ARC
  8
2
  6
CONTINUOUS
 62
     7
 10
-293.827507132242
 20
61.04186539096141
 40
4.499999999999997
 50
90.00000000000009
 51
179.9999999999999
  0
LINE
  8
2
  6
CONTINUOUS
 62
     7
 10
-268.8275071322421
 20
155.7918653909614
 11
-364.827507132242
 21
155.7918653909614
  0
LINE
  8
2
  6
CONTINUOUS
 62
     7
 10
-263.8275071322421
 20
54.79186539096141
 11
-263.8275071322421
 21
150.7918653909614
  0
LINE
  8
2
  6
CONTINUOUS
 62
     7
 10
-364.827507132242
 20
49.79186539096141
 11
-268.8275071322421
 21
49.79186539096141
  0
LINE
  8
2
  6
CONTINUOUS
 62
     7
 10
-347.9332141286705
 20
56.79186539096141
 11
-361.5775071322421
 21
56.79186539096141
  0
CIRCLE
  8
2
  6
CONTINUOUS
 62
     7
 10
-339.8275071322421
 20
144.5418653909614
 40
1.65000000000004
  0
ARC
  8
2
  6
CONTINUOUS
 62
     7
 10
-331.8275071322421
 20
60.29186539096141
 40
3.499999999999967
 50
180.0
 51
199.462950946315
  0
LINE
  8
2
  6
CONTINUOUS
 62
     7
 10
-301.9332300648026
 20
56.79186539096141
 11
-331.7218001358136
 21
56.79186539096141
  0
ARC
  8
2
  6
CONTINUOUS
 62
     7
 10
-268.8275071322421
 20
150.7918653909614
 40
5.000000000000004
 50
0.0
 51
90.0
  0
LINE
  8
2
  6
CONTINUOUS
 62
     7
 10
-365.0775071322421
 20
60.29186539096141
 11
-365.0775071322421
 21
145.2918653909614
  0
ARC
  8
2
  6
CONTINUOUS
 62
     7
 10
-268.8275071322421
 20
54.79186539096141
 40
4.999999999999997
 50
270.0000000000002
 51
0.0
  0
CIRCLE
  8
2
  6
CONTINUOUS
 62
     7
 10
-293.827507132242
 20
61.04186539096141
 40
1.649999999999985
  0
ARC
  8
2
  6
CONTINUOUS
 62
     7
 10
-331.8275071322421
 20
145.2918653909614
 40
3.500000000000003
 50
160.5370490536847
 51
179.9999999999998
  0
LINE
  8
2
  6
CONTINUOUS
 62
     7
 10
-369.827507132242
 20
150.7918653909614
 11
-369.827507132242
 21
54.79186539096143
  0
ARC
  8
2
  6
CONTINUOUS
 62
     7
 10
-364.827507132242
 20
150.7918653909614
 40
4.999999999999977
 50
90.00000000000016
 51
180.0
  0
ARC
  8
2
  6
CONTINUOUS
 62
     7
 10
-272.077507132242
 20
145.2918653909614
 40
3.500000000000003
 50
0.0
 51
89.9999999999999
  0
ARC
  8
2
  6
CONTINUOUS
 62
     7
 10
-347.8275071322421
 20
60.29186539096141
 40
3.500000000000003
 50
340.5370490536845
 51
359.9999999999998
  0
LINE
  8
2
  6
CONTINUOUS
 62
     7
 10
-344.3275071322421
 20
61.04186539096141
 11
-344.3275071322421
 21
60.2918653909614
  0
LINE
  8
2
  6
CONTINUOUS
 62
     9
 10
-337.0224039735764
 20
148.7908918892042
 11
-342.7568440166542
 21
148.7908918892042
  0
ARC
  8
2
  6
CONTINUOUS
 62
     7
 10
-337.0225598809698
 20
148.2907108174742
 40
0.5001810960282819
 50
5.80082127802886
 51
89.98214079690064
  0
LINE
  8
2
  6
CONTINUOUS
 62
     7
 10
-357.3271929536491
 20
144.5110628034766
 11
-357.3269861653448
 21
144.5108716421208
  0
LINE
  8
2
  6
CONTINUOUS
 62
     7
 10
-357.3269861653448
 20
144.5108716421208
 11
-356.8276713979675
 21
144.0115568747435
  0
LINE
  8
2
  6
CONTINUOUS
 62
     7
 10
-356.3269852249686
 20
153.2418653909614
 11
-332.8280290395155
 21
153.2418653909614
  0
LINE
  8
2
  6
CONTINUOUS
 62
     7
 10
-354.0275071322421
 20
147.3918653909614
 11
-354.0275071322421
 21
144.5418653909614
  0
ARC
  8
2
  6
CONTINUOUS
 62
     7
 10
-349.327507132242
 20
144.5418653909614
 40
4.700000000000037
 50
180.0000000000001
 51
224.7949758504079
  0
ARC
  8
2
  6
CONTINUOUS
 62
     7
 10
-346.827507132242
 20
147.2918653909614
 40
4.035062446300193
 50
26.15392745499992
 51
154.0424557944474
  0
ARC
  8
2
  6
CONTINUOUS
 62
     7
 10
-353.5275071322421
 20
147.3918653909614
 40
0.5000000000000004
 50
90.0
 51
180.0
  0
ARC
  8
2
  6
CONTINUOUS
 62
     7
 10
-352.8228611915613
 20
148.3918653909614
 40
0.4999999999999767
 50
270.0
 51
312.2358107889702
  0
LINE
  8
2
  6
CONTINUOUS
 62
     7
 10
-351.3658795011929
 20
148.7769278372616
 11
-351.3660203630158
 21
148.7767755208179
  0
ARC
  8
2
  6
CONTINUOUS
 62
     7
 10
-349.327507132242
 20
144.5418653909614
 40
4.700000000000035
 50
115.7042688974822
 51
132.2358107889705
  0
LINE
  8
2
  6
CONTINUOUS
 62
     7
 10
-350.9049977942524
 20
148.7769278372616
 11
-351.3658795011929
 21
148.7769278372616
  0
LINE
  8
2
  6
CONTINUOUS
 62
     7
 10
-352.8228611915613
 20
147.8918653909614
 11
-353.5275071322421
 21
147.8918653909614
  0
ARC
  8
2
  6
CONTINUOUS
 62
     7
 10
-350.9049135699967
 20
149.276909134968
 40
0.4998778672894836
 50
324.5139016539414
 51
334.0323095940066
  0
ARC
  8
2
  6
CONTINUOUS
 62
     7
 10
-350.9051303948067
 20
149.2770637152409
 40
0.5001441529613012
 50
302.0212278972247
 51
324.5139016539625
  0
ARC
  8
2
  6
CONTINUOUS
 62
     7
 10
-350.9051303948069
 20
149.2770637152412
 40
0.5001441529616013
 50
279.5285541404943
 51
302.0212278972256
  0
ARC
  8
2
  6
CONTINUOUS
 62
     7
 10
-350.9050863141125
 20
149.2768011034528
 40
0.4998778672898233
 50
270.0101462003955
 51
279.5285541404825
  0
ARC
  8
2
  6
CONTINUOUS
 62
     7
 10
-342.7567555995243
 20
149.2907654148532
 40
0.4998781281590624
 50
260.569653136891
 51
269.9898655798515
  0
ARC
  8
2
  6
CONTINUOUS
 62
     7
 10
-342.7567120622446
 20
149.291027540542
 40
0.50014384487189
 50
238.0769637275011
 51
260.5696531368687
  0
ARC
  8
2
  6
CONTINUOUS
 62
     7
 10
-342.7567120622448
 20
149.2910275405417
 40
0.5001438448715428
 50
215.584274318114
 51
238.0769637274989
  0
ARC
  8
2
  6
CONTINUOUS
 62
     7
 10
-342.7569281591521
 20
149.2908729200448
 40
0.4998781281588646
 50
206.1640618751729
 51
215.584274318108
  0
ARC
  8
2
  6
CONTINUOUS
 62
     7
 10
-339.827507132242
 20
144.5418653909614
 40
4.699999999999982
 50
315.2050241495924
 51
0.0000000000001137
  0
ARC
  8
2
  6
CONTINUOUS
 62
     7
 10
-336.027507132242
 20
148.3918653909614
 40
0.5000000000000004
 50
185.8083901516686
 51
270.0
  0
LINE
  8
2
  6
CONTINUOUS
 62
     7
 10
-335.127507132242
 20
144.5418653909614
 11
-335.127507132242
 21
147.8918653909614
  0
LINE
  8
2
  6
CONTINUOUS
 62
     7
 10
-335.127507132242
 20
147.8918653909614
 11
-336.027507132242
 21
147.8918653909614
  0
LINE
  8
2
  6
CONTINUOUS
 62
     7
 10
-332.3273428665165
 20
144.0115568747435
 11
-331.8280280991393
 21
144.5108716421208
  0
LINE
  8
2
  6
CONTINUOUS
 62
     7
 10
-331.8280280991393
 20
144.5108716421208
 11
-331.827821310835
 21
144.5110628034766
  0
ARC
  8
2
  6
CONTINUOUS
 62
     7
 10
-356.4752149943996
 20
143.7504804202534
 40
3.499735188625541
 50
186.3238275017131
 51
269.996067928064
  0
ARC
  8
2
  6
CONTINUOUS
 62
     7
 10
-332.6797992701175
 20
143.7504804202902
 40
3.499735188662369
 50
270.0039320724749
 51
353.6761724977461
  0
ARC
  8
2
  6
CONTINUOUS
 62
     7
 10
-356.4009815559381
 20
152.2162729432071
 40
1.025413090572426
 50
177.9604473480531
 51
178.570006600256
  0
ARC
  8
2
  6
CONTINUOUS
 62
     7
 10
-356.4467733412671
 20
152.2179036780724
 40
0.9795922776177555
 50
154.6845898101624
 51
177.9604473480531
  0
ARC
  8
2
  6
CONTINUOUS
 62
     7
 10
-356.3661319399769
 20
152.1797581234424
 40
1.068800567255519
 50
133.3752575993926
 51
154.6845898101584
  0
ARC
  8
2
  6
CONTINUOUS
 62
     7
 10
-356.366131939977
 20
152.1797581234426
 40
1.068800567255225
 50
112.0659253886197
 51
133.375257599391
  0
ARC
  8
2
  6
CONTINUOUS
 62
     7
 10
-356.3996451015549
 20
152.2624321032741
 40
0.979592277617331
 50
89.42845293622179
 51
112.0659253886281
  0
LINE
  8
2
  6
CONTINUOUS
 62
     7
 10
-356.3898745601082
 20
153.2418653909614
 11
-356.3269852249686
 21
153.2418653909614
  0
LINE
  8
2
  6
CONTINUOUS
 62
     7
 10
-357.4261854256281
 20
152.2418653909614
 11
-357.4331731295326
 21
152.0418653909614
  0
ARC
  8
2
  6
CONTINUOUS
 62
     7
 10
-338.6506417261953
 20
147.1182644616168
 40
18.86609411540345
 50
179.6775231744055
 51
187.9008652607394
  0
LINE
  8
2
  6
CONTINUOUS
 62
     7
 10
-357.3376473205104
 20
144.5249405155399
 11
-357.3271929536491
 21
144.5110628034766
  0
LINE
  8
2
  6
CONTINUOUS
 62
     7
 10
-357.485344832969
 20
147.4363313179247
 11
-357.5164370264506
 21
147.2244476058737
  0
LINE
  8
2
  6
CONTINUOUS
 62
     7
 10
-357.4331731295326
 20
148.848944185317
 11
-357.4853448329691
 21
147.4363313179247
  0
LINE
  8
2
  6
CONTINUOUS
 62
     7
 10
-357.4331731295326
 20
148.848944185317
 11
-357.4331731295326
 21
152.0418653909614
  0
LINE
  8
2
  6
CONTINUOUS
 62
     7
 10
-331.827821310835
 20
144.5110628034766
 11
-331.7864041272604
 21
144.6260213783624
  0
ARC
  8
2
  6
CONTINUOUS
 62
     7
 10
-353.641465358418
 20
147.1727942942522
 40
22.00294875017342
 50
353.353293544999
 51
0.1345055840349687
  0
LINE
  8
2
  6
CONTINUOUS
 62
     7
 10
-331.7218411349515
 20
152.0418653909614
 11
-331.728828838856
 21
152.2418653909614
  0
LINE
  8
2
  6
CONTINUOUS
 62
     7
 10
-331.7218411349515
 20
152.0418653909614
 11
-331.7218411349515
 21
148.848944185317
  0
LINE
  8
2
  6
CONTINUOUS
 62
     7
 10
-331.669669431515
 20
147.4363313179247
 11
-331.7218411349515
 21
148.848944185317
  0
LINE
  8
2
  6
CONTINUOUS
 62
     7
 10
-331.669669431515
 20
147.4363313179247
 11
-331.6385772380335
 21
147.2244476058737
  0
ARC
  8
2
  6
CONTINUOUS
 62
     7
 10
-332.7553691629292
 20
152.2624321032741
 40
0.979592277617331
 50
67.9340746113719
 51
90.57154706377823
  0
ARC
  8
2
  6
CONTINUOUS
 62
     7
 10
-332.788882324507
 20
152.1797581234426
 40
1.068800567255225
 50
46.62474240060897
 51
67.93407461138031
  0
ARC
  8
2
  6
CONTINUOUS
 62
     7
 10
-332.7888823245073
 20
152.1797581234424
 40
1.068800567255519
 50
25.3154101898416
 51
46.62474240060742
  0
ARC
  8
2
  6
CONTINUOUS
 62
     7
 10
-332.7082409232169
 20
152.2179036780724
 40
0.9795922776177555
 50
2.039552651946963
 51
25.31541018983762
  0
ARC
  8
2
  6
CONTINUOUS
 62
     7
 10
-332.754032708546
 20
152.2162729432071
 40
1.025413090572426
 50
1.429993399744035
 51
2.039552651946906
  0
LINE
  8
2
  6
CONTINUOUS
 62
     7
 10
-332.8280290395155
 20
153.2418653909614
 11
-332.7651397043759
 21
153.2418653909614
  0
LINE
  8
2
  6
CONTINUOUS
 62
     7
 10
-357.5275071322421
 20
148.5071102333413
 11
-357.5164370264506
 21
147.2244476058737
  0
LINE
  8
2
  6
CONTINUOUS
 62
     7
 10
-331.6385772380335
 20
147.2244476058737
 11
-331.627507132242
 21
148.5071102333413
  0
ARC
  8
2
  6
CONTINUOUS
 62
     7
 10
-349.327507132242
 20
144.5418653909614
 40
4.700000000000021
 50
224.7949758504078
 51
225.8342815144547
  0
ARC
  8
2
  6
CONTINUOUS
 62
     7
 10
-352.9504157386286
 20
140.811669293811
 40
0.499983644585594
 50
270.0043618289845
 51
45.85143112917796
  0
ARC
  8
2
  6
CONTINUOUS
 62
     7
 10
-339.827507132242
 20
144.5418653909614
 40
4.700000000000018
 50
314.1657184855454
 51
315.2050241495922
  0
ARC
  8
2
  6
CONTINUOUS
 62
     7
 10
-336.2046054264161
 20
140.8116664956969
 40
0.4999808459937189
 50
134.147778118937
 51
269.9964289229018
  0
ARC
  8
2
  6
CONTINUOUS
 62
     7
 10
-349.327507132242
 20
144.5418653909614
 40
10.69112015109214
 50
180.0
 51
186.3198954297786
  0
LINE
  8
2
  6
CONTINUOUS
 62
     7
 10
-337.8830778455996
 20
140.2507452398693
 11
-332.6795590916522
 21
140.2507452398693
  0
LINE
  8
2
  6
CONTINUOUS
 62
     7
 10
-356.475455172832
 20
140.2507452398693
 11
-350.6826041209817
 21
140.2507452398693
  0
LINE
  8
2
  6
CONTINUOUS
 62
     7
 10
-352.9503776757352
 20
140.3116856506743
 11
-350.8622968132291
 21
140.3116856506743
  0
LINE
  8
2
  6
CONTINUOUS
 62
     7
 10
-338.292717451255
 20
140.3116856506743
 11
-336.2046365887489
 21
140.3116856506743
  0
ARC
  8
2
  6
CONTINUOUS
 62
     7
 10
-339.827507132242
 20
144.5418653909614
 40
10.69112015109214
 50
353.6801045702214
 51
0.0
  0
LINE
  8
2
  6
CONTINUOUS
 62
     7
 10
-360.0186272833342
 20
148.7918653909614
 11
-360.0186272833342
 21
144.5418653909614
  0
LINE
  8
2
  6
CONTINUOUS
 62
     7
 10
-329.1363869811499
 20
144.5418653909614
 11
-329.1363869811499
 21
148.7918653909614
  0
LINE
  8
2
  6
CONTINUOUS
 62
     7
 10
-357.5275071322421
 20
148.5071102333413
 11
-357.5275071322421
 21
148.7918653909614
  0
LINE
  8
2
  6
CONTINUOUS
 62
     7
 10
-331.627507132242
 20
148.7918653909614
 11
-331.627507132242
 21
148.5071102333413
  0
LINE
  8
2
  6
CONTINUOUS
 62
     7
 10
-338.4770678613446
 20
140.2502532344278
 11
-337.8830778455996
 21
140.2507452398693
  0
POLYLINE
  8
2
  6
CONTINUOUS
 62
     7
 10
0.0
 20
0.0
 30
0.0
 66
     1
 70
     8
  0
VERTEX
  8
2
  6
CONTINUOUS
 62
     7
 10
-337.8830778455996
 20
140.2506775524561
 30
0.0
 70
    32
  0
VERTEX
  8
2
  6
CONTINUOUS
 62
     7
 10
-337.8830778455996
 20
140.2507452398693
 30
0.0
 70
    32
  0
SEQEND
  8
2
  6
CONTINUOUS
 62
     7
  0
ARC
  8
2
  6
CONTINUOUS
 62
     7
 10
-280.127507132242
 20
58.19186539096141
 40
0.5000000000000004
 50
270.0
 51
0.0
  0
LINE
  8
2
  6
CONTINUOUS
 62
     7
 10
-280.8321530729227
 20
57.69186539096141
 11
-280.127507132242
 21
57.69186539096141
  0
ARC
  8
2
  6
CONTINUOUS
 62
     7
 10
-280.8321530729227
 20
57.19186539096141
 40
0.4999999999999767
 50
90.0
 51
132.2358107889703
  0
LINE
  8
2
  6
CONTINUOUS
 62
     7
 10
-282.2891347632913
 20
56.80680294466121
 11
-282.2885917913735
 21
56.80442267680102
  0
LINE
  8
2
  6
CONTINUOUS
 62
     7
 10
-282.2891347632913
 20
56.80680294466121
 11
-282.2889939014683
 21
56.80695526110497
  0
ARC
  8
2
  6
CONTINUOUS
 62
     7
 10
-284.3275071322421
 20
61.0418653909614
 40
4.700000000000022
 50
295.7042688974822
 51
312.2358107889705
  0
LINE
  8
2
  6
CONTINUOUS
 62
     7
 10
-276.327821310835
 20
61.07266797844622
 11
-276.3280280991393
 21
61.07285913980201
  0
LINE
  8
2
  6
CONTINUOUS
 62
     7
 10
-301.8269861653448
 20
61.07285913980201
 11
-301.8271929536491
 21
61.07266797844622
  0
ARC
  8
2
  6
CONTINUOUS
 62
     7
 10
-284.3275071322421
 20
61.0418653909614
 40
4.700000000000037
 50
0.0000000000000846
 51
44.79497585040785
  0
LINE
  8
2
  6
CONTINUOUS
 62
     7
 10
-298.5275071322421
 20
57.6918653909614
 11
-297.627507132242
 21
57.69186539096141
  0
ARC
  8
2
  6
CONTINUOUS
 62
     7
 10
-297.627507132242
 20
57.19186539096141
 40
0.5000000000000004
 50
5.808390151668676
 51
90.0
  0
LINE
  8
2
  6
CONTINUOUS
 62
     7
 10
-277.3280290395155
 20
52.34186539096141
 11
-300.8269852249686
 21
52.34186539096141
  0
LINE
  8
2
  6
CONTINUOUS
 62
     7
 10
-279.627507132242
 20
58.19186539096141
 11
-279.627507132242
 21
61.04186539096141
  0
LINE
  8
2
  6
CONTINUOUS
 62
     7
 10
-298.5275071322421
 20
61.04186539096141
 11
-298.5275071322421
 21
57.6918653909614
  0
ARC
  8
2
  6
CONTINUOUS
 62
     7
 10
-293.827507132242
 20
61.04186539096141
 40
4.700000000000017
 50
135.2050241495924
 51
180.0000000000001
  0
ARC
  8
2
  6
CONTINUOUS
 62
     7
 10
-277.1797992700846
 20
61.83325036166941
 40
3.499735188625603
 50
6.323827501714104
 51
89.99606792806313
  0
ARC
  8
2
  6
CONTINUOUS
 62
     7
 10
-300.9752149943666
 20
61.83325036163262
 40
3.499735188662369
 50
90.00393207247487
 51
173.6761724977461
  0
ARC
  8
2
  6
CONTINUOUS
 62
     7
 10
-296.6367533387639
 20
57.32795854977486
 40
0.5000572123112041
 50
187.8198401880068
 51
269.9954812447496
  0
ARC
  8
2
  6
CONTINUOUS
 62
     7
 10
-277.254032708546
 20
53.36745783871574
 40
1.025413090572371
 50
357.9604473480522
 51
358.570006600256
  0
ARC
  8
2
  6
CONTINUOUS
 62
     7
 10
-277.208240923217
 20
53.36582710385045
 40
0.9795922776178668
 50
334.6845898101632
 51
357.9604473480524
  0
ARC
  8
2
  6
CONTINUOUS
 62
     7
 10
-277.2888823245074
 20
53.40397265848053
 40
1.068800567255675
 50
313.3752575993929
 51
334.684589810154
  0
ARC
  8
2
  6
CONTINUOUS
 62
     7
 10
-277.2888823245072
 20
53.40397265848036
 40
1.068800567255435
 50
292.0659253886251
 51
313.3752575993926
  0
ARC
  8
2
  6
CONTINUOUS
 62
     7
 10
-277.2553691629292
 20
53.32129867864879
 40
0.9795922776173935
 50
269.4284529362219
 51
292.0659253886265
  0
LINE
  8
2
  6
CONTINUOUS
 62
     7
 10
-277.2651397043759
 20
52.34186539096141
 11
-277.3280290395155
 21
52.34186539096141
  0
LINE
  8
2
  6
CONTINUOUS
 62
     7
 10
-276.228828838856
 20
53.34186539096141
 11
-276.2218411349515
 21
53.54186539096141
  0
ARC
  8
2
  6
CONTINUOUS
 62
     7
 10
-295.004372538289
 20
58.46546632030601
 40
18.86609411540362
 50
359.6775231744056
 51
7.900865260739522
  0
LINE
  8
2
  6
CONTINUOUS
 62
     7
 10
-276.3173669439738
 20
61.05879026638289
 11
-276.327821310835
 21
61.07266797844622
  0
LINE
  8
2
  6
CONTINUOUS
 62
     7
 10
-276.169669431515
 20
58.14739946399813
 11
-276.1385772380335
 21
58.35928317604914
  0
LINE
  8
2
  6
CONTINUOUS
 62
     7
 10
-276.2218411349515
 20
56.73478659660587
 11
-276.169669431515
 21
58.14739946399813
  0
LINE
  8
2
  6
CONTINUOUS
 62
     7
 10
-276.2218411349515
 20
56.73478659660587
 11
-276.2218411349515
 21
53.54186539096141
  0
LINE
  8
2
  6
CONTINUOUS
 62
     7
 10
-301.8271929536491
 20
61.07266797844622
 11
-301.8686101372237
 21
60.95770940356044
  0
ARC
  8
2
  6
CONTINUOUS
 62
     7
 10
-280.0135489060658
 20
58.41093648767062
 40
22.00294875017375
 50
173.3532935449992
 51
180.134505584035
  0
LINE
  8
2
  6
CONTINUOUS
 62
     7
 10
-301.9331731295326
 20
53.54186539096141
 11
-301.9261854256281
 21
53.34186539096141
  0
LINE
  8
2
  6
CONTINUOUS
 62
     7
 10
-301.9331731295326
 20
53.54186539096141
 11
-301.9331731295326
 21
56.73478659660586
  0
LINE
  8
2
  6
CONTINUOUS
 62
     7
 10
-301.9853448329691
 20
58.14739946399812
 11
-301.9331731295326
 21
56.73478659660586
  0
LINE
  8
2
  6
CONTINUOUS
 62
     7
 10
-301.9853448329691
 20
58.14739946399812
 11
-302.0164370264506
 21
58.35928317604913
  0
ARC
  8
2
  6
CONTINUOUS
 62
     7
 10
-300.8996451015549
 20
53.3212986786488
 40
0.9795922776174004
 50
247.9340746113735
 51
270.5715470637781
  0
ARC
  8
2
  6
CONTINUOUS
 62
     7
 10
-300.8661319399769
 20
53.40397265848036
 40
1.068800567255435
 50
226.6247424006072
 51
247.9340746113749
  0
ARC
  8
2
  6
CONTINUOUS
 62
     7
 10
-300.8661319399768
 20
53.40397265848053
 40
1.068800567255675
 50
205.3154101898461
 51
226.6247424006071
  0
ARC
  8
2
  6
CONTINUOUS
 62
     7
 10
-300.9467733412671
 20
53.36582710385045
 40
0.9795922776178668
 50
182.0395526519474
 51
205.3154101898367
  0
ARC
  8
2
  6
CONTINUOUS
 62
     7
 10
-300.9009815559381
 20
53.36745783871574
 40
1.025413090572371
 50
181.429993399744
 51
182.0395526519478
  0
LINE
  8
2
  6
CONTINUOUS
 62
     7
 10
-300.8269852249686
 20
52.34186539096141
 11
-300.8898745601082
 21
52.34186539096141
  0
LINE
  8
2
  6
CONTINUOUS
 62
     7
 10
-302.0164370264506
 20
58.35928317604913
 11
-302.0275071322421
 21
57.0766205485815
  0
LINE
  8
2
  6
CONTINUOUS
 62
     7
 10
-276.127507132242
 20
57.0766205485815
 11
-276.1385772380335
 21
58.35928317604914
  0
ARC
  8
2
  6
CONTINUOUS
 62
     7
 10
-293.827507132242
 20
61.04186539096141
 40
4.700000000000002
 50
134.1657184855459
 51
135.2050241495927
  0
ARC
  8
2
  6
CONTINUOUS
 62
     7
 10
-297.450408838068
 20
64.77206428622594
 40
0.4999808459937328
 50
314.147778118937
 51
89.99642892289546
  0
ARC
  8
2
  6
CONTINUOUS
 62
     7
 10
-284.3275071322421
 20
61.0418653909614
 40
4.700000000000003
 50
44.79497585040742
 51
45.83428151445476
  0
ARC
  8
2
  6
CONTINUOUS
 62
     7
 10
-280.7045985258555
 20
64.7720614881118
 40
0.4999836445855552
 50
90.00436182897819
 51
225.8514311291825
  0
ARC
  8
2
  6
CONTINUOUS
 62
     7
 10
-282.7718435831632
 20
56.34168758746545
 40
0.5001778289849625
 50
90.01829160862309
 51
154.3030294355788
  0
ARC
  8
2
  6
CONTINUOUS
 62
     7
 10
-290.8764275711238
 20
56.32772163099199
 40
0.5001797337022257
 50
25.89448406832696
 51
89.9816416747949
  0
ARC
  8
2
  6
CONTINUOUS
 62
     7
 10
-284.3275071322421
 20
61.04186539096141
 40
10.69112015109214
 50
0.0000000000000372
 51
6.319895429778552
  0
ARC
  8
2
  6
CONTINUOUS
 62
     7
 10
-286.8275071322421
 20
58.29186539096141
 40
3.999999999999956
 50
205.876125743122
 51
334.3213210442037
  0
ARC
  8
2
  6
CONTINUOUS
 62
     7
 10
-293.827507132242
 20
61.04186539096141
 40
10.69112015109214
 50
173.6801045702214
 51
180.0
  0
LINE
  8
2
  6
CONTINUOUS
 62
     7
 10
-295.7719364188844
 20
65.33298554205355
 11
-300.975455172832
 21
65.33298554205355
  0
LINE
  8
2
  6
CONTINUOUS
 62
     7
 10
-277.1795590916522
 20
65.33298554205355
 11
-282.9724101435025
 21
65.33298554205355
  0
LINE
  8
2
  6
CONTINUOUS
 62
     7
 10
-280.7046365887489
 20
65.27204513124853
 11
-282.792717451255
 21
65.27204513124853
  0
LINE
  8
2
  6
CONTINUOUS
 62
     7
 10
-295.3622968132291
 20
65.27204513124853
 11
-297.4503776757352
 21
65.27204513124853
  0
LINE
  8
2
  6
CONTINUOUS
 62
     7
 10
-282.7720032643301
 20
56.84186539096141
 11
-282.2180048212691
 21
56.84186539096141
  0
LINE
  8
2
  6
CONTINUOUS
 62
     7
 10
-296.6367927768546
 20
56.82790133901883
 11
-296.127507132242
 21
56.82790133901883
  0
LINE
  8
2
  6
CONTINUOUS
 62
     7
 10
-296.127507132242
 20
56.82790133901883
 11
-296.127507132242
 21
56.84186539096141
  0
LINE
  8
2
  6
CONTINUOUS
 62
     7
 10
-291.5275071322421
 20
56.84186539096141
 11
-296.127507132242
 21
56.84186539096141
  0
LINE
  8
2
  6
CONTINUOUS
 62
     7
 10
-291.5275071322421
 20
56.82790133901883
 11
-291.5275071322421
 21
56.84186539096141
  0
LINE
  8
2
  6
CONTINUOUS
 62
     7
 10
-291.5275071322421
 20
56.82790133901883
 11
-290.8762673069275
 21
56.82790133901883
  0
LINE
  8
2
  6
CONTINUOUS
 62
     7
 10
-273.6363869811499
 20
56.79186539096141
 11
-273.6363869811499
 21
61.04186539096141
  0
LINE
  8
2
  6
CONTINUOUS
 62
     7
 10
-304.5186272833342
 20
61.04186539096141
 11
-304.5186272833342
 21
56.79186539096141
  0
LINE
  8
2
  6
CONTINUOUS
 62
     7
 10
-276.127507132242
 20
57.0766205485815
 11
-276.127507132242
 21
56.79186539096141
  0
LINE
  8
2
  6
CONTINUOUS
 62
     7
 10
-302.0275071322421
 20
56.79186539096141
 11
-302.0275071322421
 21
57.0766205485815
  0
LINE
  8
2
  6
CONTINUOUS
 62
     7
 10
-295.1779464031394
 20
65.33347754749505
 11
-295.7719364188844
 21
65.33298554205355
  0
POLYLINE
  8
2
  6
CONTINUOUS
 62
     7
 10
0.0
 20
0.0
 30
0.0
 66
     1
 70
     8
  0
VERTEX
  8
2
  6
CONTINUOUS
 62
     7
 10
-295.7719364188844
 20
65.33305322946673
 30
0.0
 70
    32
  0
VERTEX
  8
2
  6
CONTINUOUS
 62
     7
 10
-295.7719364188844
 20
65.33298554205355
 30
0.0
 70
    32
  0
SEQEND
  8
2
  6
CONTINUOUS
 62
     7
  0
ARC
  8
2
  6
CONTINUOUS
 62
     7
 10
-339.8275071322421
 20
61.04186539096141
 40
4.700000000000006
 50
223.7481206849316
 51
237.6678530097831
  0
LINE
  8
2
  6
CONTINUOUS
 62
     7
 10
-342.127507132242
 20
56.78426367669829
 11
-342.3411917621934
 21
57.07054450476419
  0
LINE
  8
2
  6
CONTINUOUS
 62
     7
 10
-337.527507132242
 20
56.78426367669829
 11
-342.127507132242
 21
56.78426367669829
  0
LINE
  8
2
  6
CONTINUOUS
 62
     7
 10
-337.3138225022907
 20
57.07054450476418
 11
-337.527507132242
 21
56.78426367669829
  0
ARC
  8
2
  6
CONTINUOUS
 62
     7
 10
-339.8275071322421
 20
61.04186539096141
 40
4.699999999999995
 50
302.3321469902168
 51
316.2518793150684
  0
ARC
  8
2
  6
CONTINUOUS
 62
     7
 10
-339.8275071322421
 20
61.04186539096139
 40
4.700000000000037
 50
0.0000000000001692
 51
44.794975850408
  0
LINE
  8
2
  6
CONTINUOUS
 62
     7
 10
-347.8269861653449
 20
61.03810398218193
 11
-347.8271929536491
 21
61.03791282082613
  0
LINE
  8
2
  6
CONTINUOUS
 62
     7
 10
-344.5275071322421
 20
61.04186539096141
 11
-344.5275071322421
 21
57.79186539096142
  0
ARC
  8
2
  6
CONTINUOUS
 62
     7
 10
-339.8275071322421
 20
61.0418653909614
 40
4.699999999999988
 50
135.2050241495921
 51
179.9999999999999
  0
LINE
  8
2
  6
CONTINUOUS
 62
     7
 10
-335.1275071322421
 20
57.79186539096142
 11
-335.127507132242
 21
61.04186539096141
  0
LINE
  8
2
  6
CONTINUOUS
 62
     7
 10
-331.827821310835
 20
61.03791282082613
 11
-331.8280280991393
 21
61.03810398218193
  0
ARC
  8
2
  6
CONTINUOUS
 62
     7
 10
-346.9748191613441
 20
61.83280826883919
 40
3.500177330998657
 50
90.01041112227493
 51
173.6696934479462
  0
ARC
  8
2
  6
CONTINUOUS
 62
     7
 10
-332.6801951028247
 20
61.83280826919152
 40
3.500177330646304
 50
6.330306546890961
 51
89.98958888288625
  0
ARC
  8
2
  6
CONTINUOUS
 62
     7
 10
-346.9062933257898
 20
53.87355773208959
 40
1.022966162041947
 50
181.736202542507
 51
269.9875546454477
  0
ARC
  8
2
  6
CONTINUOUS
 62
     7
 10
-332.7487209386944
 20
53.87355773208959
 40
1.022966162041931
 50
270.0124453545523
 51
358.263797457493
  0
LINE
  8
2
  6
CONTINUOUS
 62
     7
 10
-347.8271929536491
 20
61.03791282082613
 11
-347.8682230090609
 21
60.92478929229778
  0
ARC
  8
2
  6
CONTINUOUS
 62
     7
 10
-326.4664194589778
 20
58.40803456242872
 40
21.54927491974301
 50
173.2930797813683
 51
180.1072425128606
  0
LINE
  8
2
  6
CONTINUOUS
 62
     7
 10
-347.9331731295326
 20
54.04186539096141
 11
-347.9287898602981
 21
53.84256409401184
  0
LINE
  8
2
  6
CONTINUOUS
 62
     7
 10
-347.9331731295326
 20
56.74342657951752
 11
-347.9331731295326
 21
54.04186539096141
  0
LINE
  8
2
  6
CONTINUOUS
 62
     7
 10
-347.9847742347822
 20
58.15210355487893
 11
-347.9331731295326
 21
56.7434265795175
  0
LINE
  8
2
  6
CONTINUOUS
 62
     7
 10
-347.9847742347822
 20
58.15210355487893
 11
-348.0156566309563
 21
58.36770005501879
  0
LINE
  8
2
  6
CONTINUOUS
 62
     7
 10
-331.7262244041861
 20
53.84256409401184
 11
-331.7218411349515
 21
54.04186539096141
  0
ARC
  8
2
  6
CONTINUOUS
 62
     7
 10
-350.1173623375543
 20
58.46305186960515
 40
18.47825072377167
 50
359.704339936043
 51
7.967082535503437
  0
LINE
  8
2
  6
CONTINUOUS
 62
     7
 10
-331.8174662253834
 20
61.02421412419187
 11
-331.827821310835
 21
61.03791282082613
  0
LINE
  8
2
  6
CONTINUOUS
 62
     7
 10
-331.670240029702
 20
58.15210355487893
 11
-331.6393576335279
 21
58.36770005501879
  0
LINE
  8
2
  6
CONTINUOUS
 62
     7
 10
-331.7218411349515
 20
56.74342657951752
 11
-331.670240029702
 21
58.15210355487893
  0
LINE
  8
2
  6
CONTINUOUS
 62
     7
 10
-331.7218411349515
 20
54.04186539096141
 11
-331.7218411349515
 21
56.74342657951752
  0
LINE
  8
2
  6
CONTINUOUS
 62
     7
 10
-348.0156566309563
 20
58.36770005501879
 11
-348.0275071322421
 21
57.0418653909614
  0
LINE
  8
2
  6
CONTINUOUS
 62
     7
 10
-331.6275071322421
 20
57.04186539096141
 11
-331.6393576335279
 21
58.36770005501879
  0
ARC
  8
2
  6
CONTINUOUS
 62
     7
 10
-339.827507132242
 20
61.0418653909614
 40
4.700000000000017
 50
134.1657184855459
 51
135.2050241495926
  0
ARC
  8
2
  6
CONTINUOUS
 62
     7
 10
-343.450408838068
 20
64.77206428622594
 40
0.4999808459937328
 50
314.147778118937
 51
89.99642892289546
  0
ARC
  8
2
  6
CONTINUOUS
 62
     7
 10
-339.827507132242
 20
61.04186539096139
 40
4.700000000000014
 50
44.79497585040843
 51
45.83428151445518
  0
ARC
  8
2
  6
CONTINUOUS
 62
     7
 10
-336.2046050112571
 20
64.77206411788273
 40
0.4999810143629834
 50
90.0036186514277
 51
225.8521743067336
  0
ARC
  8
2
  6
CONTINUOUS
 62
     7
 10
-339.8275071322421
 20
61.04186539096141
 40
10.69112015109213
 50
173.6801045702214
 51
180.0
  0
LINE
  8
2
  6
CONTINUOUS
 62
     7
 10
-332.6795590916522
 20
65.33298554205355
 11
-338.4724101435025
 21
65.33298554205355
  0
LINE
  8
2
  6
CONTINUOUS
 62
     7
 10
-341.1826041209816
 20
65.33298554205355
 11
-346.975455172832
 21
65.33298554205355
  0
LINE
  8
2
  6
CONTINUOUS
 62
     7
 10
-343.4503776757352
 20
65.27204513124853
 11
-341.3622968132291
 21
65.27204513124853
  0
LINE
  8
2
  6
CONTINUOUS
 62
     7
 10
-338.292717451255
 20
65.27204513124853
 11
-336.2046365887489
 21
65.27204513124853
  0
LINE
  8
2
  6
CONTINUOUS
 62
     7
 10
-346.906515526737
 20
52.85059159418005
 11
-332.7484987377471
 21
52.85059159418005
  0
ARC
  8
2
  6
CONTINUOUS
 62
     7
 10
-339.8275071322421
 20
61.04186539096141
 40
10.69112015109214
 50
0.0000000000000372
 51
6.319895429778552
  0
LINE
  8
2
  6
CONTINUOUS
 62
     7
 10
-329.1363869811499
 20
56.79186539096141
 11
-329.1363869811499
 21
61.04186539096141
  0
LINE
  8
2
  6
CONTINUOUS
 62
     7
 10
-350.5186272833342
 20
61.04186539096141
 11
-350.5186272833342
 21
56.79186539096141
  0
LINE
  8
2
  6
CONTINUOUS
 62
     7
 10
-348.0275071322421
 20
56.79186539096141
 11
-348.0275071322421
 21
57.04186539096141
  0
LINE
  8
2
  6
CONTINUOUS
 62
     7
 10
-331.6275071322421
 20
57.04186539096141
 11
-331.6275071322421
 21
56.79186539096141
  0
CIRCLE
  8
2
  6
CONTINUOUS
 62
     9
 10
-339.8275071322421
 20
61.0418653909614
 40
1.540895113422647
  0
ARC
  8
2
  6
CONTINUOUS
 62
     7
 10
-293.827507132242
 20
144.5418653909614
 40
4.699999999999987
 50
43.74812068493156
 51
57.66785300978313
  0
LINE
  8
2
  6
CONTINUOUS
 62
     7
 10
-291.5275071322421
 20
148.7994671052246
 11
-291.3138225022907
 21
148.5131862771586
  0
LINE
  8
2
  6
CONTINUOUS
 62
     7
 10
-296.127507132242
 20
148.7994671052246
 11
-291.5275071322421
 21
148.7994671052246
  0
LINE
  8
2
  6
CONTINUOUS
 62
     7
 10
-296.3411917621934
 20
148.5131862771586
 11
-296.127507132242
 21
148.7994671052246
  0
ARC
  8
2
  6
CONTINUOUS
 62
     7
 10
-293.827507132242
 20
144.5418653909614
 40
4.699999999999984
 50
122.3321469902168
 51
136.2518793150684
  0
ARC
  8
2
  6
CONTINUOUS
 62
     7
 10
-293.827507132242
 20
144.5418653909614
 40
4.700000000000037
 50
180.0000000000002
 51
224.794975850408
  0
LINE
  8
2
  6
CONTINUOUS
 62
     7
 10
-301.8271929536491
 20
144.5458179610967
 11
-301.8269861653448
 21
144.5456267997409
  0
LINE
  8
2
  6
CONTINUOUS
 62
     7
 10
-301.3276713979675
 20
144.0463120323636
 11
-301.8269861653448
 21
144.5456267997409
  0
LINE
  8
2
  6
CONTINUOUS
 62
     7
 10
-298.5275071322421
 20
147.7918653909614
 11
-298.5275071322421
 21
144.5418653909614
  0
LINE
  8
2
  6
CONTINUOUS
 62
     7
 10
-289.127507132242
 20
144.5418653909614
 11
-289.127507132242
 21
147.7918653909614
  0
LINE
  8
2
  6
CONTINUOUS
 62
     7
 10
-286.3273428665166
 20
144.0463120323636
 11
-285.8280280991393
 21
144.5456267997409
  0
LINE
  8
2
  6
CONTINUOUS
 62
     7
 10
-285.8280280991393
 20
144.5456267997409
 11
-285.827821310835
 21
144.5458179610967
  0
ARC
  8
2
  6
CONTINUOUS
 62
     7
 10
-293.827507132242
 20
144.5418653909614
 40
4.699999999999982
 50
315.2050241495921
 51
359.9999999999999
  0
ARC
  8
2
  6
CONTINUOUS
 62
     7
 10
-286.68019510314
 20
143.7509225130836
 40
3.500177330998664
 50
270.0104111222749
 51
353.669693447946
  0
ARC
  8
2
  6
CONTINUOUS
 62
     7
 10
-300.9748191616595
 20
143.7509225127313
 40
3.500177330646305
 50
186.3303065468911
 51
269.9895888828862
  0
ARC
  8
2
  6
CONTINUOUS
 62
     7
 10
-300.9062933257896
 20
151.7101730498332
 40
1.022966162042044
 50
90.01244535455534
 51
178.2637974574889
  0
ARC
  8
2
  6
CONTINUOUS
 62
     7
 10
-286.7487209386944
 20
151.7101730498333
 40
1.022966162041933
 50
1.736202542506589
 51
89.98755464545093
  0
LINE
  8
2
  6
CONTINUOUS
 62
     7
 10
-285.827821310835
 20
144.5458179610967
 11
-285.7867912554232
 21
144.6589414896251
  0
ARC
  8
2
  6
CONTINUOUS
 62
     7
 10
-307.1885948054924
 20
147.1756962194928
 40
21.54927491972908
 50
353.2930797813674
 51
0.1072425128641612
  0
LINE
  8
2
  6
CONTINUOUS
 62
     7
 10
-285.7218411349515
 20
151.5418653909614
 11
-285.726224404186
 21
151.741166687911
  0
LINE
  8
2
  6
CONTINUOUS
 62
     7
 10
-285.7218411349515
 20
148.8403042024053
 11
-285.7218411349515
 21
151.5418653909614
  0
LINE
  8
2
  6
CONTINUOUS
 62
     7
 10
-285.670240029702
 20
147.4316272270439
 11
-285.7218411349515
 21
148.8403042024053
  0
LINE
  8
2
  6
CONTINUOUS
 62
     7
 10
-285.670240029702
 20
147.4316272270439
 11
-285.6393576335279
 21
147.216030726904
  0
LINE
  8
2
  6
CONTINUOUS
 62
     7
 10
-301.9287898602981
 20
151.741166687911
 11
-301.9331731295326
 21
151.5418653909614
  0
ARC
  8
2
  6
CONTINUOUS
 62
     7
 10
-283.5376519269508
 20
147.1206789123163
 40
18.47825072375069
 50
179.7043399360383
 51
187.9670825355083
  0
LINE
  8
2
  6
CONTINUOUS
 62
     7
 10
-301.8375480391007
 20
144.5595166577309
 11
-301.8271929536491
 21
144.5458179610967
  0
LINE
  8
2
  6
CONTINUOUS
 62
     7
 10
-301.9847742347821
 20
147.4316272270439
 11
-302.0156566309562
 21
147.216030726904
  0
LINE
  8
2
  6
CONTINUOUS
 62
     7
 10
-301.9331731295326
 20
148.8403042024053
 11
-301.9847742347821
 21
147.4316272270439
  0
LINE
  8
2
  6
CONTINUOUS
 62
     7
 10
-301.9331731295326
 20
151.5418653909614
 11
-301.9331731295326
 21
148.8403042024053
  0
LINE
  8
2
  6
CONTINUOUS
 62
     7
 10
-302.0275071322421
 20
148.5418653909614
 11
-302.0156566309562
 21
147.216030726904
  0
LINE
  8
2
  6
CONTINUOUS
 62
     7
 10
-285.6393576335279
 20
147.216030726904
 11
-285.627507132242
 21
148.5418653909614
  0
ARC
  8
2
  6
CONTINUOUS
 62
     7
 10
-293.827507132242
 20
144.5418653909614
 40
4.700000000000003
 50
314.1657184855454
 51
315.2050241495922
  0
ARC
  8
2
  6
CONTINUOUS
 62
     7
 10
-290.2046054264162
 20
140.8116664956969
 40
0.4999808459937189
 50
134.147778118937
 51
269.9964289228955
  0
ARC
  8
2
  6
CONTINUOUS
 62
     7
 10
-293.827507132242
 20
144.5418653909614
 40
4.699999999999996
 50
224.7949758504078
 51
225.8342815144547
  0
ARC
  8
2
  6
CONTINUOUS
 62
     7
 10
-297.450409253227
 20
140.8116666640401
 40
0.4999810143629834
 50
270.0036186514278
 51
45.85217430673357
  0
ARC
  8
2
  6
CONTINUOUS
 62
     7
 10
-293.827507132242
 20
144.5418653909614
 40
10.69112015109213
 50
353.6801045702216
 51
0.0
  0
LINE
  8
2
  6
CONTINUOUS
 62
     7
 10
-286.7484987377471
 20
152.7331391877428
 11
-300.9065155267369
 21
152.7331391877428
  0
LINE
  8
2
  6
CONTINUOUS
 62
     7
 10
-300.975455172832
 20
140.2507452398693
 11
-295.1826041209816
 21
140.2507452398693
  0
LINE
  8
2
  6
CONTINUOUS
 62
     7
 10
-292.4724101435025
 20
140.2507452398693
 11
-286.6795590916522
 21
140.2507452398693
  0
LINE
  8
2
  6
CONTINUOUS
 62
     7
 10
-290.2046365887489
 20
140.3116856506743
 11
-292.292717451255
 21
140.3116856506743
  0
LINE
  8
2
  6
CONTINUOUS
 62
     7
 10
-295.3622968132291
 20
140.3116856506743
 11
-297.4503776757352
 21
140.3116856506743
  0
ARC
  8
2
  6
CONTINUOUS
 62
     7
 10
-293.827507132242
 20
144.5418653909614
 40
10.69112015109214
 50
180.0
 51
186.3198954297784
  0
LINE
  8
2
  6
CONTINUOUS
 62
     7
 10
-304.5186272833342
 20
148.7918653909614
 11
-304.5186272833342
 21
144.5418653909614
  0
LINE
  8
2
  6
CONTINUOUS
 62
     7
 10
-283.1363869811499
 20
144.5418653909614
 11
-283.1363869811499
 21
148.7918653909614
  0
LINE
  8
2
  6
CONTINUOUS
 62
     7
 10
-302.0275071322421
 20
148.5418653909614
 11
-302.0275071322421
 21
148.7918653909614
  0
LINE
  8
2
  6
CONTINUOUS
 62
     7
 10
-285.627507132242
 20
148.7918653909614
 11
-285.627507132242
 21
148.5418653909614
  0
CIRCLE
  8
2
  6
CONTINUOUS
 62
     9
 10
-293.827507132242
 20
144.5418653909614
 40
1.540895113422647
  0
ENDBLK
  8
0
  0
BLOCK
  8
0
  2
D_FRAME_VIEW_3630
 70
     0
 10
0.0
 20
0.0
  0
LINE
  8
2
  6
CONTINUOUS
 62
     7
 10
-192.6673871575917
 20
54.79186539096141
 11
-192.6673871575917
 21
150.7918653909614
  0
LINE
  8
2
  6
CONTINUOUS
 62
     7
 10
-194.2673871575917
 20
54.79186539096141
 11
-194.2673871575917
 21
150.7918653909614
  0
LINE
  8
2
  6
CONTINUOUS
 62
     7
 10
-192.6673871575917
 20
155.7918653909614
 11
-194.2673871575917
 21
155.7918653909614
  0
LINE
  8
2
  6
CONTINUOUS
 62
     7
 10
-192.6673871575917
 20
150.7918653909614
 11
-192.6673871575917
 21
155.7918653909614
  0
LINE
  8
2
  6
CONTINUOUS
 62
     7
 10
-194.2673871575917
 20
150.7918653909614
 11
-194.2673871575917
 21
155.7918653909614
  0
LINE
  8
2
  6
CONTINUOUS
 62
     7
 10
-192.6673871575917
 20
49.79186539096141
 11
-194.2673871575917
 21
49.79186539096141
  0
LINE
  8
2
  6
CONTINUOUS
 62
     7
 10
-192.6673871575917
 20
49.79186539096141
 11
-192.6673871575917
 21
54.79186539096141
  0
LINE
  8
2
  6
CONTINUOUS
 62
     7
 10
-194.2673871575917
 20
49.79186539096141
 11
-194.2673871575917
 21
54.79186539096141
  0
LINE
  8
2
  6
CONTINUOUS
 62
     7
 10
-194.4673871575916
 20
152.0418653909614
 11
-194.600720490925
 21
152.2418653909614
  0
LINE
  8
2
  6
CONTINUOUS
 62
     7
 10
-194.4673871575916
 20
152.0418653909614
 11
-194.4673871575916
 21
151.5418653909614
  0
ARC
  8
2
  6
CONTINUOUS
 62
     7
 10
-192.9673871575916
 20
148.848944185317
 40
1.5
 50
183.5609440675846
 51
209.9264348666152
  0
LINE
  8
2
  6
CONTINUOUS
 62
     7
 10
-196.4673871575916
 20
153.2418653909614
 11
-195.2673871575917
 21
153.2418653909614
  0
LINE
  8
2
  6
CONTINUOUS
 62
     7
 10
-195.2673871575917
 20
153.2418653909614
 11
-194.600720490925
 21
152.2418653909614
  0
ARC
  8
2
  6
CONTINUOUS
 62
     7
 10
-196.4673871575916
 20
152.7418653909614
 40
0.5000000000000004
 50
90.0
 51
180.0
  0
LINE
  8
2
  6
CONTINUOUS
 62
     7
 10
-196.9673871575916
 20
152.2418653909614
 11
-196.9673871575916
 21
152.7418653909614
  0
LINE
  8
2
  6
CONTINUOUS
 62
     7
 10
-178.6673871575916
 20
147.8418653909614
 11
-188.6673757916607
 21
147.8418653909614
  0
LINE
  8
2
  6
CONTINUOUS
 62
     7
 10
-178.6586606220933
 20
147.8418273140256
 11
-178.6673871575916
 21
147.8418653909614
  0
ARC
  8
2
  6
CONTINUOUS
 62
     7
 10
-178.6673871575916
 20
146.8418653909614
 40
0.9999999999999748
 50
359.9999999999237
 51
89.50000000000266
  0
LINE
  8
2
  6
CONTINUOUS
 62
     7
 10
-177.6673871575916
 20
146.8418653909601
 11
-177.6673871575916
 21
146.6920678890873
  0
LINE
  8
2
  6
CONTINUOUS
 62
     7
 10
-177.6673871575916
 20
142.0140796184178
 11
-177.6673871575916
 21
141.8640796184178
  0
ARC
  8
2
  6
CONTINUOUS
 62
     7
 10
-196.6676710540048
 20
57.07558860430326
 40
4.001043549252463
 50
61.78668529652071
 51
87.44927716351414
  0
LINE
  8
2
  6
CONTINUOUS
 62
     7
 10
-196.4761133608103
 20
65.20556356807755
 11
-194.2673902770338
 21
65.24411697291332
  0
LINE
  8
2
  6
CONTINUOUS
 62
     7
 10
-192.6673908200894
 20
65.2720450673194
 11
-189.1761133608101
 21
65.33298554205355
  0
LINE
  8
2
  6
CONTINUOUS
 62
     7
 10
-188.6673871575917
 20
64.83306169447535
 11
-188.6673871575917
 21
62.16370665677208
  0
ARC
  8
2
  6
CONTINUOUS
 62
     7
 10
-189.1673871575917
 20
64.83306169447535
 40
0.5000000000000004
 50
0.0
 51
90.99999999997301
  0
LINE
  8
2
  6
CONTINUOUS
 62
     7
 10
-196.9673871575916
 20
61.98813585012125
 11
-196.9673871575916
 21
64.70563972049936
  0
ARC
  8
2
  6
CONTINUOUS
 62
     7
 10
-196.4673871575916
 20
64.70563972049936
 40
0.5000000000000004
 50
90.99999999999996
 51
180.0
  0
LINE
  8
2
  6
CONTINUOUS
 62
     7
 10
-188.6673871575917
 20
61.04186539096141
 11
-188.6673871575917
 21
55.33823202105998
  0
LINE
  8
2
  6
CONTINUOUS
 62
     7
 10
-188.6673871575917
 20
55.33823202105998
 11
-188.6673871575917
 21
54.8381368294453
  0
LINE
  8
2
  6
CONTINUOUS
 62
     7
 10
-188.6673871575917
 20
62.16370665677208
 11
-188.6673871575917
 21
61.04186539096142
  0
ARC
  8
2
  6
CONTINUOUS
 62
     7
 10
-196.6673871575916
 20
57.0766205485815
 40
4.000000000000002
 50
53.13010235415616
 51
61.78328064260584
  0
ARC
  8
2
  6
CONTINUOUS
 62
     7
 10
-196.4673871575916
 20
61.57217390717931
 40
0.4999999999999974
 50
180.0
 51
267.4526818174296
  0
LINE
  8
2
  6
CONTINUOUS
 62
     7
 10
-196.9673871575916
 20
61.57217390717931
 11
-196.9673871575916
 21
61.98813585012125
  0
LINE
  8
2
  6
CONTINUOUS
 62
     7
 10
-194.600720490925
 20
53.34186539096141
 11
-194.4673871575916
 21
53.54186539096141
  0
ARC
  8
2
  6
CONTINUOUS
 62
     7
 10
-192.9673871575916
 20
56.73478659660587
 40
1.5
 50
150.0735651333856
 51
180.0
  0
LINE
  8
2
  6
CONTINUOUS
 62
     7
 10
-194.4673871575916
 20
56.73478659660587
 11
-194.4673871575916
 21
53.54186539096141
  0
LINE
  8
2
  6
CONTINUOUS
 62
     7
 10
-195.2673871575917
 20
52.34186539096141
 11
-196.4673871575916
 21
52.34186539096141
  0
LINE
  8
2
  6
CONTINUOUS
 62
     7
 10
-194.600720490925
 20
53.34186539096141
 11
-195.2673871575917
 21
52.34186539096141
  0
ARC
  8
2
  6
CONTINUOUS
 62
     7
 10
-196.4673871575916
 20
52.84186539096141
 40
0.5000000000000004
 50
180.0
 51
270.0
  0
LINE
  8
2
  6
CONTINUOUS
 62
     7
 10
-196.9673871575916
 20
52.84186539096141
 11
-196.9673871575916
 21
53.34186539096141
  0
LINE
  8
2
  6
CONTINUOUS
 62
     7
 10
-196.9673871575916
 20
53.34186539096141
 11
-196.9673871575916
 21
61.57217390717931
  0
ARC
  8
2
  6
CONTINUOUS
 62
     7
 10
-708.050101248099
 20
-35826.35842681708
 40
35891.73315125048
 50
89.15648549691349
 51
89.1708541952583
  0
LINE
  8
2
  6
CONTINUOUS
 62
     7
 10
-177.6673871575916
 20
63.71965116350506
 11
-177.6673871575916
 21
62.62786844808934
  0
LINE
  8
2
  6
CONTINUOUS
 62
     7
 10
-177.6673871575916
 20
59.00696250861635
 11
-177.6673871575916
 21
62.62786844808934
  0
LINE
  8
2
  6
CONTINUOUS
 62
     7
 10
-189.1761133608103
 20
65.33298554205355
 11
-189.0961156574382
 21
65.33438190716001
  0
LINE
  8
2
  6
CONTINUOUS
 62
     7
 10
-189.0961156574382
 20
65.33438190716001
 11
-189.0603055140082
 21
65.33500697553866
  0
LINE
  8
2
  6
CONTINUOUS
 62
     7
 10
-179.6673871575916
 20
59.11998543763906
 11
-188.6673871575917
 21
58.95928202009632
  0
LINE
  8
2
  6
CONTINUOUS
 62
     7
 10
-177.6673871575916
 20
59.00696250861635
 11
-177.6673871575916
 21
58.74186539096141
  0
ARC
  8
2
  6
CONTINUOUS
 62
     7
 10
-178.6673871575916
 20
58.74186539096141
 40
1.000000000000001
 50
270.0
 51
0.0
  0
LINE
  8
2
  6
CONTINUOUS
 62
     7
 10
-178.6673871575916
 20
57.7418653909614
 11
-188.6673871575917
 21
57.7418653909614
  0
ARC
  8
2
  6
CONTINUOUS
 62
     7
 10
-189.1673871575917
 20
54.80303428223212
 40
0.5000000000000004
 50
271.0000000000001
 51
0.0
  0
LINE
  8
2
  6
CONTINUOUS
 62
     7
 10
-189.158660954373
 20
54.30311043465393
 11
-191.801124226491
 21
54.25698606666867
  0
LINE
  8
2
  6
CONTINUOUS
 62
     7
 10
-192.2839212460005
 20
54.5979858407359
 11
-192.4506386770823
 21
55.09530425761741
  0
ARC
  8
2
  6
CONTINUOUS
 62
     7
 10
-191.8098504297097
 20
54.75690991424687
 40
0.4999999999999762
 50
198.5328397444424
 51
270.9999999999999
  0
LINE
  8
2
  6
CONTINUOUS
 62
     7
 10
-192.4506386770823
 20
55.09530425761742
 11
-192.6673871575917
 21
55.74186539096141
  0
LINE
  8
2
  6
CONTINUOUS
 62
     7
 10
-188.6673871575917
 20
143.4200241251507
 11
-188.6673871575917
 21
140.7506690874475
  0
ARC
  8
2
  6
CONTINUOUS
 62
     7
 10
-189.1673871575917
 20
140.7506690874475
 40
0.5000000000000194
 50
268.9999999999999
 51
0.0
  0
LINE
  8
2
  6
CONTINUOUS
 62
     7
 10
-189.1761133608103
 20
140.2507452398693
 11
-192.6673908200894
 21
140.3116857146034
  0
LINE
  8
2
  6
CONTINUOUS
 62
     7
 10
-194.2673902770338
 20
140.3396138090095
 11
-196.4761133608103
 21
140.3781672138453
  0
LINE
  8
2
  6
CONTINUOUS
 62
     7
 10
-196.9673871575916
 20
140.8780910614234
 11
-196.9673871575916
 21
143.5955949318015
  0
ARC
  8
2
  6
CONTINUOUS
 62
     7
 10
-196.4673871575916
 20
140.8780910614234
 40
0.5000000000000004
 50
180.0
 51
268.9999999999999
  0
LINE
  8
2
  6
CONTINUOUS
 62
     7
 10
-188.6673871575917
 20
144.5418653909614
 11
-188.6673871575917
 21
143.4200241251507
  0
ARC
  8
2
  6
CONTINUOUS
 62
     7
 10
-189.1673871575917
 20
150.7806964996907
 40
0.5000000000000199
 50
0.0
 51
88.99999999999994
  0
LINE
  8
2
  6
CONTINUOUS
 62
     7
 10
-188.6673871575917
 20
150.7806964996907
 11
-188.6673871575917
 21
150.280468019225
  0
LINE
  8
2
  6
CONTINUOUS
 62
     7
 10
-188.6673871575917
 20
150.280468019225
 11
-188.6673871575917
 21
144.5418653909614
  0
LINE
  8
2
  6
CONTINUOUS
 62
     7
 10
-191.801124226491
 20
151.3267447152541
 11
-189.158660954373
 21
151.2806203472689
  0
LINE
  8
2
  6
CONTINUOUS
 62
     7
 10
-192.4506386770822
 20
150.4884265243054
 11
-192.2839212460005
 21
150.9857449411869
  0
ARC
  8
2
  6
CONTINUOUS
 62
     7
 10
-191.8098504297096
 20
150.826820867676
 40
0.4999999999999916
 50
88.99999999999994
 51
161.4671602555575
  0
LINE
  8
2
  6
CONTINUOUS
 62
     7
 10
-192.6673871575917
 20
149.8418653909614
 11
-192.4506386770822
 21
150.4884265243054
  0
LINE
  8
2
  6
CONTINUOUS
 62
     7
 10
-196.8243453040023
 20
144.396427558599
 11
-196.4896093798139
 21
144.5458179610967
  0
ARC
  8
2
  6
CONTINUOUS
 62
     7
 10
-196.6673871575916
 20
148.5418653909614
 40
4.000000000000002
 50
272.5473181825704
 51
306.8698976458437
  0
LINE
  8
2
  6
CONTINUOUS
 62
     7
 10
-196.9673871575916
 20
143.5955949318015
 11
-196.9673871575916
 21
144.0463120323636
  0
LINE
  8
2
  6
CONTINUOUS
 62
     7
 10
-196.9673871575916
 20
144.0463120323636
 11
-196.8243453040023
 21
144.396427558599
  0
LINE
  8
2
  6
CONTINUOUS
 62
     7
 10
-194.4673871575916
 20
148.8403042024053
 11
-194.4673871575916
 21
151.5418653909614
  0
ARC
  8
2
  6
CONTINUOUS
 62
     7
 10
-192.9673871575916
 20
148.8403042024053
 40
1.5
 50
180.0
 51
209.9264348666142
  0
LINE
  8
2
  6
CONTINUOUS
 62
     7
 10
-196.9673871575916
 20
144.0463120323636
 11
-196.9673871575916
 21
151.7072596968182
  0
LINE
  8
2
  6
CONTINUOUS
 62
     7
 10
-196.9673871575916
 20
151.7072596968182
 11
-196.9673871575916
 21
152.206879097083
  0
LINE
  8
2
  6
CONTINUOUS
 62
     7
 10
-178.6586606220933
 20
147.6918273140256
 11
-178.6673871575916
 21
147.6918653909614
  0
LINE
  8
2
  6
CONTINUOUS
 62
     7
 10
-177.6673871575916
 20
146.6918653909614
 11
-177.6673871575916
 21
142.0140796184178
  0
LINE
  8
2
  6
CONTINUOUS
 62
     7
 10
-194.2923871575916
 20
53.20322902732505
 11
-194.2673871575917
 21
53.20322902732505
  0
LINE
  8
2
  6
CONTINUOUS
 62
     7
 10
-194.2923871575916
 20
51.89413811823414
 11
-194.2673871575917
 21
51.89413811823414
  0
ARC
  8
2
  6
CONTINUOUS
 62
     7
 10
-188.1673871575917
 20
140.2811172568269
 40
0.500000000000013
 50
90.49999999999686
 51
152.0683504262017
  0
LINE
  8
2
  6
CONTINUOUS
 62
     7
 10
-188.1717504253408
 20
140.781098218359
 11
-178.6586606220933
 21
140.8641176953536
  0
ARC
  8
2
  6
CONTINUOUS
 62
     7
 10
-178.6673871575916
 20
141.8640796184178
 40
1.000000000000003
 50
270.5000000000001
 51
0.0
  0
ARC
  8
2
  6
CONTINUOUS
 62
     7
 10
-189.0513661207642
 20
140.7486439327166
 40
0.4999999999999921
 50
269.0000000000001
 51
332.1261328779073
  0
ARC
  8
2
  6
CONTINUOUS
 62
     7
 10
-188.1673871575917
 20
65.30261352509586
 40
0.5000000000000013
 50
207.9316495737974
 51
269.5000000000031
  0
ARC
  8
2
  6
CONTINUOUS
 62
     7
 10
-178.6673871575916
 20
63.71965116350506
 40
1.000000000000001
 50
0.0
 51
89.50000000000003
  0
LINE
  8
2
  6
CONTINUOUS
 62
     7
 10
-178.6586606220933
 20
64.71961308656923
 11
-188.1717504253408
 21
64.80263256356378
  0
ARC
  8
2
  6
CONTINUOUS
 62
     7
 10
-189.0513661207642
 20
64.83508684920622
 40
0.5000000000000027
 50
27.87386712209272
 51
87.51586039008626
  0
ARC
  8
2
  6
CONTINUOUS
 62
     7
 10
-189.0513661207642
 20
64.83508684920622
 40
0.4999999999999866
 50
87.51586039008627
 51
90.99999999999996
  0
ENDBLK
  8
0
  0
BLOCK
  8
0
  2
D_FRAME_VIEW_4075
 70
     0
 10
0.0
 20
0.0
  0
LINE
  8
2
  6
CONTINUOUS
 62
     7
 10
-369.827507132242
 20
-30.83958267790991
 11
-369.827507132242
 21
-29.2395826779099
  0
LINE
  8
2
  6
CONTINUOUS
 62
     7
 10
-369.827507132242
 20
-30.83958267790991
 11
-364.827507132242
 21
-30.83958267790991
  0
LINE
  8
2
  6
CONTINUOUS
 62
     7
 10
-369.827507132242
 20
-29.2395826779099
 11
-364.827507132242
 21
-29.2395826779099
  0
LINE
  8
2
  6
CONTINUOUS
 62
     7
 10
-364.827507132242
 20
-30.83958267790991
 11
-268.8275071322421
 21
-30.83958267790991
  0
LINE
  8
2
  6
CONTINUOUS
 62
     7
 10
-364.827507132242
 20
-29.2395826779099
 11
-268.8275071322421
 21
-29.2395826779099
  0
LINE
  8
2
  6
CONTINUOUS
 62
     7
 10
-263.8275071322421
 20
-30.83958267790991
 11
-263.8275071322421
 21
-29.2395826779099
  0
LINE
  8
2
  6
CONTINUOUS
 62
     7
 10
-268.827507132242
 20
-30.83958267790991
 11
-263.8275071322421
 21
-30.83958267790991
  0
LINE
  8
2
  6
CONTINUOUS
 62
     7
 10
-268.827507132242
 20
-29.2395826779099
 11
-263.8275071322421
 21
-29.2395826779099
  0
LINE
  8
2
  6
CONTINUOUS
 62
     7
 10
-356.475455172832
 20
-34.8395826779099
 11
-359.4567694089866
 21
-34.8395826779099
  0
LINE
  8
2
  6
CONTINUOUS
 62
     7
 10
-359.3466950221854
 20
-26.53958267790989
 11
-356.3604410807503
 21
-26.53958267790989
  0
LINE
  8
2
  6
CONTINUOUS
 62
     7
 10
-350.018703435756
 20
-34.8395826779099
 11
-356.475455172832
 21
-34.8395826779099
  0
ARC
  8
2
  6
CONTINUOUS
 62
     7
 10
-335.6087060221673
 20
-35.35355866414209
 40
0.5132203516235619
 50
96.94940215349601
 51
177.9521747397921
  0
LINE
  8
2
  6
CONTINUOUS
 62
     7
 10
-356.3604410807503
 20
-26.53958267790989
 11
-353.0175962452878
 21
-26.53958267790989
  0
LINE
  8
2
  6
CONTINUOUS
 62
     7
 10
-337.1497213596984
 20
-45.8395826779099
 11
-337.2997213596984
 21
-45.8395826779099
  0
ARC
  8
2
  6
CONTINUOUS
 62
     7
 10
-359.518703435756
 20
-34.3395826779099
 40
0.5000000000000004
 50
179.0
 51
270.0
  0
LINE
  8
2
  6
CONTINUOUS
 62
     7
 10
-360.0186272833342
 20
-34.33085647469125
 11
-359.9576868725292
 21
-30.83958267790991
  0
LINE
  8
2
  6
CONTINUOUS
 62
     7
 10
-359.929758768644
 20
-29.2395826779099
 11
-359.9248523142981
 21
-28.95849209668566
  0
LINE
  8
2
  6
CONTINUOUS
 62
     7
 10
-359.8765287854073
 20
-27.03085647469125
 11
-359.8993051908417
 21
-27.95412965581178
  0
LINE
  8
2
  6
CONTINUOUS
 62
     7
 10
-359.8993051908417
 20
-27.95412965581178
 11
-359.912986678086
 21
-28.44417005148719
  0
LINE
  8
2
  6
CONTINUOUS
 62
     7
 10
-359.912986678086
 20
-28.44417005148719
 11
-359.9248523142981
 21
-28.95849209668566
  0
LINE
  8
2
  6
CONTINUOUS
 62
     7
 10
-353.0175962452878
 20
-26.53958267790989
 11
-352.8228611915613
 21
-26.53958267790989
  0
ARC
  8
2
  6
CONTINUOUS
 62
     7
 10
458.5831266004655
 20
-56.94738981330798
 40
810.5116440289945
 50
177.8852833639777
 51
178.0267560528748
  0
LINE
  8
2
  6
CONTINUOUS
 62
     7
 10
-352.4867694550884
 20
-29.03958267790989
 11
-351.437009443215
 21
-29.03958267790989
  0
LINE
  8
2
  6
CONTINUOUS
 62
     7
 10
-351.3658795011929
 20
-27.03085647469126
 11
-351.4769035118761
 21
-26.53958267790989
  0
LINE
  8
2
  6
CONTINUOUS
 62
     7
 10
-351.3658795011929
 20
-27.03085647469126
 11
-351.3660203630158
 21
-27.0395826779099
  0
LINE
  8
2
  6
CONTINUOUS
 62
     7
 10
-351.4769035118761
 20
-26.53958267790989
 11
-352.8228611915613
 21
-26.53958267790989
  0
LINE
  8
2
  6
CONTINUOUS
 62
     7
 10
-350.4324604650364
 20
-29.03958267790989
 11
-350.883011000154
 21
-29.03958267790989
  0
LINE
  8
2
  6
CONTINUOUS
 62
     7
 10
-350.883011000154
 20
-29.03958267790989
 11
-351.437009443215
 21
-29.03958267790989
  0
LINE
  8
2
  6
CONTINUOUS
 62
     7
 10
-351.4769035118761
 20
-26.53958267790989
 11
-350.9049977942522
 21
-26.53958267790989
  0
LINE
  8
2
  6
CONTINUOUS
 62
     7
 10
-349.8798419967252
 20
-26.53958267790989
 11
-350.9049977942522
 21
-26.53958267790989
  0
LINE
  8
2
  6
CONTINUOUS
 62
     7
 10
-277.3280290395155
 20
-26.53958267790991
 11
-276.8273428665166
 21
-26.53958267790991
  0
ARC
  8
2
  6
CONTINUOUS
 62
     7
 10
-276.8273428665166
 20
-27.03958267790991
 40
0.4999999999999589
 50
3.000000000000166
 51
90.00000000000001
  0
LINE
  8
2
  6
CONTINUOUS
 62
     7
 10
-300.8898745601082
 20
-28.2395826779099
 11
-277.2651397043759
 21
-28.2395826779099
  0
ARC
  8
2
  6
CONTINUOUS
 62
     7
 10
-300.9393684738896
 20
-29.38046292480456
 40
1.141953320086165
 50
87.51593965950839
 51
146.1434223512424
  0
POLYLINE
  8
2
  6
CONTINUOUS
 62
     7
 66
     1
  0
VERTEX
  8
2
  6
CONTINUOUS
 62
     7
 10
-301.887686183574
 20
-28.74426255797439
  0
VERTEX
  8
2
  6
CONTINUOUS
 62
     7
 10
-301.9179389703084
 20
-28.84090458435686
  0
VERTEX
  8
2
  6
CONTINUOUS
 62
     7
 10
-301.9261854256281
 20
-28.90624934457657
  0
SEQEND
  8
2
  6
CONTINUOUS
 62
     7
  0
ARC
  8
2
  6
CONTINUOUS
 62
     7
 10
-277.0753136050667
 20
-29.13431095413108
 40
0.8766690123299332
 50
15.07870328608776
 51
86.63030231238923
  0
ARC
  8
2
  6
CONTINUOUS
 62
     7
 10
-277.2622430428012
 20
-29.70158490299357
 40
1.462005094655241
 50
80.61289912530542
 51
90.11351984483277
  0
LINE
  8
2
  6
CONTINUOUS
 62
     7
 10
-276.228828838856
 20
-28.90624934457657
 11
-276.2218411349515
 21
-29.0395826779099
  0
LINE
  8
2
  6
CONTINUOUS
 62
     7
 10
-276.2218411349515
 20
-29.0395826779099
 11
-301.9331731295326
 21
-29.0395826779099
  0
LINE
  8
2
  6
CONTINUOUS
 62
     7
 10
-301.9331731295326
 20
-29.0395826779099
 11
-301.9261854256281
 21
-28.90624934457657
  0
ARC
  8
2
  6
CONTINUOUS
 62
     7
 10
-301.3276713979675
 20
-27.03958267790991
 40
0.4999999999999587
 50
90.00000000000021
 51
177.0000000000001
  0
LINE
  8
2
  6
CONTINUOUS
 62
     7
 10
-301.3276713979675
 20
-26.53958267790991
 11
-300.8269852249686
 21
-26.53958267790991
  0
LINE
  8
2
  6
CONTINUOUS
 62
     7
 10
-301.9261854256281
 20
-28.90624934457657
 11
-301.8269861653448
 21
-27.01341469978843
  0
LINE
  8
2
  6
CONTINUOUS
 62
     7
 10
-276.3280280991393
 20
-27.01341469978843
 11
-276.228828838856
 21
-28.90624934457657
  0
LINE
  8
2
  6
CONTINUOUS
 62
     7
 10
-300.8269852249686
 20
-26.53958267790991
 11
-277.3280290395155
 21
-26.53958267790991
  0
LINE
  8
2
  6
CONTINUOUS
 62
     7
 10
-276.0697393069713
 20
-31.94185844805434
 11
-276.0930652909396
 21
-31.49677215957939
  0
LINE
  8
2
  6
CONTINUOUS
 62
     7
 10
-302.0619489735445
 20
-31.49677215957938
 11
-302.0852749575128
 21
-31.94185844805434
  0
LINE
  8
2
  6
CONTINUOUS
 62
     7
 10
-273.6829709672687
 20
-31.66206169734136
 11
-273.6363869811499
 21
-34.33085647469127
  0
LINE
  8
2
  6
CONTINUOUS
 62
     7
 10
-304.5186272833342
 20
-34.33085647469127
 11
-304.4720432972155
 21
-31.66206169734136
  0
LINE
  8
2
  6
CONTINUOUS
 62
     7
 10
-275.9438512355782
 20
-34.34394594565909
 11
-276.0697393069713
 21
-31.94185844805434
  0
LINE
  8
2
  6
CONTINUOUS
 62
     7
 10
-302.2111630289059
 20
-34.34394594565909
 11
-302.0852749575128
 21
-31.94185844805434
  0
LINE
  8
2
  6
CONTINUOUS
 62
     7
 10
-303.5185511106122
 20
-34.8395826779099
 11
-304.018703435756
 21
-34.8395826779099
  0
ARC
  8
2
  6
CONTINUOUS
 62
     7
 10
-304.018703435756
 20
-34.3395826779099
 40
0.5000000000000004
 50
179.0
 51
270.0
  0
LINE
  8
2
  6
CONTINUOUS
 62
     7
 10
-274.1363108287281
 20
-34.8395826779099
 11
-274.6364631538719
 21
-34.8395826779099
  0
ARC
  8
2
  6
CONTINUOUS
 62
     7
 10
-274.1363108287281
 20
-34.3395826779099
 40
0.5000000000000004
 50
270.0
 51
1.000000000000057
  0
LINE
  8
2
  6
CONTINUOUS
 62
     7
 10
-274.6364631538719
 20
-34.8395826779099
 11
-275.4433937317525
 21
-34.8395826779099
  0
ARC
  8
2
  6
CONTINUOUS
 62
     7
 10
-275.4433937317525
 20
-34.33958267790995
 40
0.4999999999999588
 50
182.9999999999957
 51
270.0000000000064
  0
LINE
  8
2
  6
CONTINUOUS
 62
     7
 10
-275.9427084991297
 20
-34.36575065603137
 11
-275.9438512355782
 21
-34.34394594565909
  0
ARC
  8
2
  6
CONTINUOUS
 62
     7
 10
-302.7116205327317
 20
-34.33958267790995
 40
0.4999999999999588
 50
270.0
 51
357.0000000000044
  0
LINE
  8
2
  6
CONTINUOUS
 62
     7
 10
-302.7116205327317
 20
-34.8395826779099
 11
-303.5185511106122
 21
-34.8395826779099
  0
LINE
  8
2
  6
CONTINUOUS
 62
     7
 10
-302.2111630289059
 20
-34.34394594565909
 11
-302.2123057653544
 21
-34.36575065603137
  0
LINE
  8
2
  6
CONTINUOUS
 62
     7
 10
-276.0930652909396
 20
-31.49677215957939
 11
-276.1244005573957
 21
-30.89885965718414
  0
LINE
  8
2
  6
CONTINUOUS
 62
     7
 10
-302.0275071322421
 20
-30.83958267790991
 11
-302.0619489735445
 21
-31.49677215957939
  0
LINE
  8
2
  6
CONTINUOUS
 62
     7
 10
-304.4720432972155
 20
-31.66206169734136
 11
-304.4662620885495
 21
-31.33085647469126
  0
ARC
  8
2
  6
CONTINUOUS
 62
     7
 10
-303.9663382409714
 20
-31.33958267790989
 40
0.4999999999999867
 50
89.99999892939348
 51
179.0000000000013
  0
LINE
  8
2
  6
CONTINUOUS
 62
     7
 10
-273.6887521759346
 20
-31.33085647469126
 11
-273.6829709672687
 21
-31.66206169734136
  0
ARC
  8
2
  6
CONTINUOUS
 62
     7
 10
-274.1886760235128
 20
-31.33958267790991
 40
0.5000000000000004
 50
0.9999999999999432
 51
90.0
  0
LINE
  8
2
  6
CONTINUOUS
 62
     7
 10
-276.1244005573957
 20
-30.89885965718414
 11
-276.127507132242
 21
-30.83958267790991
  0
LINE
  8
2
  6
CONTINUOUS
 62
     7
 10
-301.9331731295326
 20
-29.0395826779099
 11
-301.9436546853892
 21
-29.2395826779099
  0
LINE
  8
2
  6
CONTINUOUS
 62
     7
 10
-276.2113595790949
 20
-29.23958267790991
 11
-276.2218411349515
 21
-29.0395826779099
  0
LINE
  8
2
  6
CONTINUOUS
 62
     7
 10
-304.4576868725292
 20
-30.83958267790991
 11
-304.4662620885495
 21
-31.33085647469126
  0
LINE
  8
2
  6
CONTINUOUS
 62
     7
 10
-304.4248523142981
 20
-28.95849209668567
 11
-304.429758768644
 21
-29.23958267790991
  0
ARC
  8
2
  6
CONTINUOUS
 62
     7
 10
-292.9954442198068
 20
-44.9200223909754
 40
2.456710572767339
 50
178.3272566961728
 51
199.8303882117179
  0
POLYLINE
  8
2
  6
CONTINUOUS
 62
     7
 66
     1
  0
VERTEX
  8
2
  6
CONTINUOUS
 62
     7
 10
-295.3064742600544
 20
-45.75342924925059
  0
VERTEX
  8
2
  6
CONTINUOUS
 62
     7
 10
-295.2328138848797
 20
-45.83175542182204
  0
VERTEX
  8
2
  6
CONTINUOUS
 62
     7
 10
-295.1988337321602
 20
-45.8395826779099
  0
SEQEND
  8
2
  6
CONTINUOUS
 62
     7
  0
LINE
  8
2
  6
CONTINUOUS
 62
     7
 10
-295.1988337321602
 20
-45.8395826779099
 11
-296.5052929047857
 21
-45.8395826779099
  0
LINE
  8
2
  6
CONTINUOUS
 62
     7
 10
-292.8696842964611
 20
-31.5895826779099
 11
-295.6984159201289
 21
-31.58958267790991
  0
LINE
  8
2
  6
CONTINUOUS
 62
     7
 10
-295.4512030023067
 20
-44.8395826779099
 11
-295.6984159201289
 21
-31.58958267790991
  0
ARC
  8
2
  6
CONTINUOUS
 62
     7
 10
-293.0020519412786
 20
-30.97228420029793
 40
0.6313308196632099
 50
282.1026903499644
 51
4.559782274367535
  0
ARC
  8
2
  6
CONTINUOUS
 62
     7
 10
-290.5241028541208
 20
-26.38164799141593
 40
7.367780760386111
 50
217.2031069085007
 51
222.1516450629082
  0
ARC
  8
2
  6
CONTINUOUS
 62
     7
 10
-293.8882976898705
 20
-29.42694395693117
 40
2.829980146601038
 50
222.1516450629095
 51
230.0708296660117
  0
LINE
  8
2
  6
CONTINUOUS
 62
     7
 10
-295.4511078894712
 20
-44.84830921340828
 11
-295.4512030023067
 21
-44.8395826779099
  0
LINE
  8
2
  6
CONTINUOUS
 62
     7
 10
-292.3727193297084
 20
-30.92209388379318
 11
-292.3666307278491
 21
-30.83958267790991
  0
LINE
  8
2
  6
CONTINUOUS
 62
     7
 10
-293.3173944563129
 20
-45.8395826779099
 11
-295.1988337321602
 21
-45.8395826779099
  0
LINE
  8
2
  6
CONTINUOUS
 62
     7
 10
-300.5519423620562
 20
-31.83958267790989
 11
-302.0799149115251
 21
-31.83958267790984
  0
LINE
  8
2
  6
CONTINUOUS
 62
     7
 10
-300.5432154942654
 20
-30.83958267790991
 11
-300.5519423620562
 21
-31.83958267790989
  0
LINE
  8
2
  6
CONTINUOUS
 62
     7
 10
-276.0750993529591
 20
-31.83958267790986
 11
-277.6030719024279
 21
-31.83958267790986
  0
LINE
  8
2
  6
CONTINUOUS
 62
     7
 10
-277.6117987702187
 20
-30.83958267790991
 11
-277.6030719024279
 21
-31.83958267790986
  0
LINE
  8
2
  6
CONTINUOUS
 62
     7
 10
-293.2880517000259
 20
-45.8395826779099
 11
-293.3173944563129
 21
-45.8395826779099
  0
ARC
  8
2
  6
CONTINUOUS
 62
     7
 10
-299.0275071322421
 20
-34.33958267790991
 40
0.5000000000000004
 50
270.0
 51
0.0
  0
LINE
  8
2
  6
CONTINUOUS
 62
     7
 10
-299.0275071322421
 20
-34.8395826779099
 11
-302.7116205327317
 21
-34.8395826779099
  0
LINE
  8
2
  6
CONTINUOUS
 62
     7
 10
-275.4433937317525
 20
-34.8395826779099
 11
-279.127507132242
 21
-34.8395826779099
  0
LINE
  8
2
  6
CONTINUOUS
 62
     7
 10
-279.627507132242
 20
-34.33958267790991
 11
-279.627507132242
 21
-30.83958267790991
  0
LINE
  8
2
  6
CONTINUOUS
 62
     7
 10
-298.5275071322421
 20
-30.83958267790991
 11
-298.5275071322421
 21
-34.33958267790991
  0
ARC
  8
2
  6
CONTINUOUS
 62
     7
 10
-279.127507132242
 20
-34.33958267790991
 40
0.5000000000000004
 50
179.9999999999999
 51
270.0
  0
LINE
  8
2
  6
CONTINUOUS
 62
     7
 10
-293.2880517000259
 20
-45.8395826779099
 11
-291.6699318852534
 21
-45.8395826779099
  0
ARC
  8
2
  6
CONTINUOUS
 62
     7
 10
-273.7901104284018
 20
-27.02991498645974
 40
0.0122998329921216
 50
1.135849931782161
 51
38.8994933177583
  0
ARC
  8
2
  6
CONTINUOUS
 62
     7
 10
-304.3003703987143
 20
-28.96066493660458
 40
0.1245008776704323
 50
157.2235546475744
 51
178.9999999999982
  0
LINE
  8
2
  6
CONTINUOUS
 62
     7
 10
-298.0530913732704
 20
-34.8395826779099
 11
-298.0530913732704
 21
-34.83014945160784
  0
LINE
  8
2
  6
CONTINUOUS
 62
     7
 10
-276.8273428665166
 20
-26.53958267790991
 11
-274.2777147645613
 21
-26.53958267790991
  0
LINE
  8
2
  6
CONTINUOUS
 62
     7
 10
-303.8772994999228
 20
-26.53958267790991
 11
-301.3276713979675
 21
-26.53958267790991
  0
LINE
  8
2
  6
CONTINUOUS
 62
     7
 10
-298.0530913732704
 20
-34.8395826779099
 11
-299.0275071322421
 21
-34.8395826779099
  0
LINE
  8
2
  6
CONTINUOUS
 62
     7
 10
-279.127507132242
 20
-34.8395826779099
 11
-281.8140657389638
 21
-34.8395826779099
  0
ARC
  8
2
  6
CONTINUOUS
 62
     7
 10
-290.1902570142494
 20
-34.67964841633773
 40
0.1599342615721672
 50
270.0
 51
290.4177145795898
  0
LINE
  8
2
  6
CONTINUOUS
 62
     7
 10
-290.1902570142494
 20
-34.8395826779099
 11
-281.8140657389638
 21
-34.8395826779099
  0
LINE
  8
2
  6
CONTINUOUS
 62
     7
 10
-331.7218411349515
 20
-29.0395826779099
 11
-347.9331731295326
 21
-29.0395826779099
  0
LINE
  8
2
  6
CONTINUOUS
 62
     7
 10
-347.9331731295326
 20
-29.0395826779099
 11
-347.9287898602981
 21
-28.95594491850686
  0
ARC
  8
2
  6
CONTINUOUS
 62
     7
 10
-346.9897959677137
 20
-30.0462415274873
 40
1.508882717515811
 50
86.83604053591746
 51
125.3583887503037
  0
POLYLINE
  8
2
  6
CONTINUOUS
 62
     7
 66
     1
  0
VERTEX
  8
2
  6
CONTINUOUS
 62
     7
 10
-347.8629698444449
 20
-28.81567481405318
  0
VERTEX
  8
2
  6
CONTINUOUS
 62
     7
 10
-347.9218345590839
 20
-28.91512996254509
  0
VERTEX
  8
2
  6
CONTINUOUS
 62
     7
 10
-347.9287898602981
 20
-28.95594491850686
  0
SEQEND
  8
2
  6
CONTINUOUS
 62
     7
  0
LINE
  8
2
  6
CONTINUOUS
 62
     7
 10
-346.906515526737
 20
-28.5396588303317
 11
-332.7484987377471
 21
-28.5396588303317
  0
LINE
  8
2
  6
CONTINUOUS
 62
     7
 10
-331.7262244041861
 20
-28.95594491850686
 11
-331.7615017958798
 21
-28.85477229568006
  0
ARC
  8
2
  6
CONTINUOUS
 62
     7
 10
-332.6456278472296
 20
-29.92073746757927
 40
1.384904553526158
 50
50.32722485558804
 51
94.2598614265333
  0
LINE
  8
2
  6
CONTINUOUS
 62
     7
 10
-331.7262244041861
 20
-28.95594491850686
 11
-331.7218411349515
 21
-29.0395826779099
  0
LINE
  8
2
  6
CONTINUOUS
 62
     7
 10
-347.9287898602981
 20
-28.95594491850686
 11
-347.8269861653449
 21
-27.01341469978843
  0
LINE
  8
2
  6
CONTINUOUS
 62
     7
 10
-331.8280280991393
 20
-27.01341469978843
 11
-331.7262244041861
 21
-28.95594491850686
  0
LINE
  8
2
  6
CONTINUOUS
 62
     7
 10
-346.8274425459009
 20
-26.5395826779099
 11
-332.8275717185833
 21
-26.53958267790991
  0
LINE
  8
2
  6
CONTINUOUS
 62
     7
 10
-347.3276713979675
 20
-26.5395826779099
 11
-346.8274425459009
 21
-26.5395826779099
  0
ARC
  8
2
  6
CONTINUOUS
 62
     7
 10
-347.3276713979675
 20
-27.0395826779099
 40
0.5000000000000004
 50
90.0
 51
176.9999999999999
  0
LINE
  8
2
  6
CONTINUOUS
 62
     7
 10
-332.8275717185833
 20
-26.53958267790991
 11
-332.3273428665166
 21
-26.53958267790991
  0
ARC
  8
2
  6
CONTINUOUS
 62
     7
 10
-332.3273428665166
 20
-27.0395826779099
 40
0.4999999999999969
 50
3.0
 51
90.0
  0
LINE
  8
2
  6
CONTINUOUS
 62
     7
 10
-348.0476037290993
 20
-31.22304858950104
 11
-348.0729060487362
 21
-31.70584560901055
  0
LINE
  8
2
  6
CONTINUOUS
 62
     7
 10
-331.5821082157478
 20
-31.70584560901055
 11
-331.6074105353848
 21
-31.22304858950104
  0
LINE
  8
2
  6
CONTINUOUS
 62
     7
 10
-350.5186272833342
 20
-34.33085647469126
 11
-350.4695928517648
 21
-31.52167577149152
  0
LINE
  8
2
  6
CONTINUOUS
 62
     7
 10
-329.1854214127194
 20
-31.52167577149152
 11
-329.1363869811499
 21
-34.33085647469126
  0
LINE
  8
2
  6
CONTINUOUS
 62
     7
 10
-331.4436225838191
 20
-34.34830888112855
 11
-331.5821082157478
 21
-31.70584560901055
  0
LINE
  8
2
  6
CONTINUOUS
 62
     7
 10
-348.2113916806649
 20
-34.34830888112855
 11
-348.0729060487362
 21
-31.70584560901055
  0
LINE
  8
2
  6
CONTINUOUS
 62
     7
 10
-349.5184749552903
 20
-34.8395826779099
 11
-350.018703435756
 21
-34.8395826779099
  0
ARC
  8
2
  6
CONTINUOUS
 62
     7
 10
-350.018703435756
 20
-34.3395826779099
 40
0.5000000000000004
 50
179.0
 51
269.9999999999992
  0
LINE
  8
2
  6
CONTINUOUS
 62
     7
 10
-329.6363108287281
 20
-34.8395826779099
 11
-330.1365393091938
 21
-34.8395826779099
  0
ARC
  8
2
  6
CONTINUOUS
 62
     7
 10
-329.6363108287281
 20
-34.3395826779099
 40
0.499999999999992
 50
269.9999999999998
 51
1.000000000000057
  0
LINE
  8
2
  6
CONTINUOUS
 62
     7
 10
-330.1365393091938
 20
-34.8395826779099
 11
-330.9433937317525
 21
-34.8395826779099
  0
ARC
  8
2
  6
CONTINUOUS
 62
     7
 10
-330.9433937317524
 20
-34.33958267790985
 40
0.5000000000000727
 50
183.0000000000061
 51
269.9999999999936
  0
LINE
  8
2
  6
CONTINUOUS
 62
     7
 10
-331.4427084991298
 20
-34.36575065603137
 11
-331.4436225838191
 21
-34.34830888112855
  0
ARC
  8
2
  6
CONTINUOUS
 62
     7
 10
-348.7116205327316
 20
-34.33958267790993
 40
0.4999999999999727
 50
269.9999999999936
 51
357.0000000000028
  0
LINE
  8
2
  6
CONTINUOUS
 62
     7
 10
-348.7116205327317
 20
-34.8395826779099
 11
-349.5184749552903
 21
-34.8395826779099
  0
LINE
  8
2
  6
CONTINUOUS
 62
     7
 10
-348.2113916806649
 20
-34.34830888112854
 11
-348.2123057653544
 21
-34.36575065603137
  0
LINE
  8
2
  6
CONTINUOUS
 62
     7
 10
-348.0275071322421
 20
-30.8395826779099
 11
-348.0476037290993
 21
-31.22304858950104
  0
LINE
  8
2
  6
CONTINUOUS
 62
     7
 10
-331.6074105353848
 20
-31.22304858950105
 11
-331.6275071322421
 21
-30.8395826779099
  0
LINE
  8
2
  6
CONTINUOUS
 62
     7
 10
-350.4695928517648
 20
-31.52167577149152
 11
-350.4662620885495
 21
-31.33085647469126
  0
ARC
  8
2
  6
CONTINUOUS
 62
     7
 10
-349.9663382409714
 20
-31.33958267790986
 40
0.4999999999999588
 50
89.99999979514045
 51
179.0000000000052
  0
ARC
  8
2
  6
CONTINUOUS
 62
     7
 10
-329.6886760235128
 20
-31.33958267790996
 40
0.5000000000000485
 50
1.000000000006507
 51
90.00000020485318
  0
LINE
  8
2
  6
CONTINUOUS
 62
     7
 10
-329.1887521759346
 20
-31.33085647469126
 11
-329.1854214127194
 21
-31.52167577149152
  0
LINE
  8
2
  6
CONTINUOUS
 62
     7
 10
-347.9331731295326
 20
-29.0395826779099
 11
-347.9436546853892
 21
-29.2395826779099
  0
LINE
  8
2
  6
CONTINUOUS
 62
     7
 10
-331.7113595790949
 20
-29.2395826779099
 11
-331.7218411349515
 21
-29.0395826779099
  0
LINE
  8
2
  6
CONTINUOUS
 62
     7
 10
-350.3833535894369
 20
-27.03085647469126
 11
-350.240381363937
 21
-26.68262453149925
  0
LINE
  8
2
  6
CONTINUOUS
 62
     7
 10
-329.2252435712786
 20
-29.2402658355804
 11
-329.231315429911
 21
-28.8924092875001
  0
LINE
  8
2
  6
CONTINUOUS
 62
     7
 10
-329.1887521759346
 20
-31.33085647469126
 11
-329.197327391955
 21
-30.83958267790991
  0
LINE
  8
2
  6
CONTINUOUS
 62
     7
 10
-337.2997213596984
 20
-45.8395826779099
 11
-338.4981460406368
 21
-45.8395826779099
  0
ARC
  8
2
  6
CONTINUOUS
 62
     7
 10
-338.9415381350643
 20
-44.91548747467366
 40
2.475195525620373
 50
178.4447678971388
 51
199.4388312595513
  0
POLYLINE
  8
2
  6
CONTINUOUS
 62
     7
 66
     1
  0
VERTEX
  8
2
  6
CONTINUOUS
 62
     7
 10
-341.2756408937657
 20
-45.73923331039816
  0
VERTEX
  8
2
  6
CONTINUOUS
 62
     7
 10
-341.2079811405515
 20
-45.82263690910545
  0
VERTEX
  8
2
  6
CONTINUOUS
 62
     7
 10
-341.1568682238474
 20
-45.8395826779099
  0
SEQEND
  8
2
  6
CONTINUOUS
 62
     7
  0
LINE
  8
2
  6
CONTINUOUS
 62
     7
 10
-341.1568682238474
 20
-45.8395826779099
 11
-342.3552929047857
 21
-45.8395826779099
  0
LINE
  8
2
  6
CONTINUOUS
 62
     7
 10
-338.4981460406368
 20
-45.8395826779099
 11
-338.4104023388077
 21
-45.78735620749517
  0
ARC
  8
2
  6
CONTINUOUS
 62
     7
 10
-340.2729901427153
 20
-44.962632207585
 40
2.037008346397504
 50
336.1170058213402
 51
3.21730080337386
  0
LINE
  8
2
  6
CONTINUOUS
 62
     7
 10
-337.9965884453952
 20
-31.5895826779099
 11
-341.658425819089
 21
-31.5895826779099
  0
LINE
  8
2
  6
CONTINUOUS
 62
     7
 10
-337.9965884453952
 20
-31.5895826779099
 11
-338.2390987706466
 21
-44.8395826779099
  0
LINE
  8
2
  6
CONTINUOUS
 62
     7
 10
-341.4159154938375
 20
-44.8395826779099
 11
-341.658425819089
 21
-31.5895826779099
  0
ARC
  8
2
  6
CONTINUOUS
 62
     7
 10
-336.6549452956505
 20
-26.61686436255717
 40
7.075955012708028
 50
216.6161794870234
 51
222.151645062908
  0
ARC
  8
2
  6
CONTINUOUS
 62
     7
 10
-339.8858898752911
 20
-29.54154113473037
 40
2.717889260749002
 50
222.1516450629121
 51
229.1245157342869
  0
ARC
  8
2
  6
CONTINUOUS
 62
     7
 10
-339.7691243891931
 20
-29.54154113473037
 40
2.717889260749002
 50
310.8754842657131
 51
317.8483549370879
  0
ARC
  8
2
  6
CONTINUOUS
 62
     7
 10
-343.0000689688336
 20
-26.61686436255717
 40
7.075955012708028
 50
317.848354937092
 51
323.3838205129766
  0
LINE
  8
2
  6
CONTINUOUS
 62
     7
 10
-341.4158218639977
 20
-44.84830921340827
 11
-341.4159154938375
 21
-44.8395826779099
  0
LINE
  8
2
  6
CONTINUOUS
 62
     7
 10
-338.2390987706466
 20
-44.8395826779099
 11
-338.2391924004864
 21
-44.84830921340827
  0
LINE
  8
2
  6
CONTINUOUS
 62
     7
 10
-338.4981460406368
 20
-45.8395826779099
 11
-341.1568682238474
 21
-45.8395826779099
  0
LINE
  8
2
  6
CONTINUOUS
 62
     7
 10
-348.0799149115251
 20
-31.83958267790985
 11
-346.5519423620561
 21
-31.8395826779099
  0
LINE
  8
2
  6
CONTINUOUS
 62
     7
 10
-346.5432154942654
 20
-30.8395826779099
 11
-346.5519423620561
 21
-31.8395826779099
  0
LINE
  8
2
  6
CONTINUOUS
 62
     7
 10
-331.575099352959
 20
-31.8395826779099
 11
-333.1030719024279
 21
-31.8395826779099
  0
LINE
  8
2
  6
CONTINUOUS
 62
     7
 10
-333.1117987702187
 20
-30.83958267790991
 11
-333.1030719024279
 21
-31.8395826779099
  0
LINE
  8
2
  6
CONTINUOUS
 62
     7
 10
-335.127507132242
 20
-34.3395826779099
 11
-335.127507132242
 21
-30.83958267790991
  0
LINE
  8
2
  6
CONTINUOUS
 62
     7
 10
-344.5275071322421
 20
-30.8395826779099
 11
-344.5275071322421
 21
-34.3395826779099
  0
LINE
  8
2
  6
CONTINUOUS
 62
     7
 10
-345.0275071322421
 20
-34.8395826779099
 11
-348.7116205327317
 21
-34.8395826779099
  0
ARC
  8
2
  6
CONTINUOUS
 62
     7
 10
-334.627507132242
 20
-34.3395826779099
 40
0.5000000000000004
 50
180.0000000000003
 51
270.0
  0
LINE
  8
2
  6
CONTINUOUS
 62
     7
 10
-330.9433937317525
 20
-34.8395826779099
 11
-334.627507132242
 21
-34.8395826779099
  0
ARC
  8
2
  6
CONTINUOUS
 62
     7
 10
-345.0275071322421
 20
-34.3395826779099
 40
0.5000000000000004
 50
270.0
 51
359.9999999999996
  0
LINE
  8
2
  6
CONTINUOUS
 62
     7
 10
-329.2766236584431
 20
-27.03085647469126
 11
-329.231315429911
 21
-28.8924092875001
  0
ARC
  8
2
  6
CONTINUOUS
 62
     7
 10
-329.2883352088536
 20
-27.02999166942707
 40
0.0122998383283061
 50
355.7768250652685
 51
1.126839352447973
  0
LINE
  8
2
  6
CONTINUOUS
 62
     7
 10
-349.8790732104534
 20
-26.5395826779099
 11
-350.240381363937
 21
-26.68262453149925
  0
LINE
  8
2
  6
CONTINUOUS
 62
     7
 10
-349.8790732104534
 20
-26.5395826779099
 11
-347.3276713979675
 21
-26.5395826779099
  0
LINE
  8
2
  6
CONTINUOUS
 62
     7
 10
-332.3273428665166
 20
-26.5395826779099
 11
-329.7759410540307
 21
-26.5395826779099
  0
LINE
  8
2
  6
CONTINUOUS
 62
     7
 10
-343.442599661079
 20
-34.8395826779099
 11
-345.0275071322421
 21
-34.8395826779099
  0
LINE
  8
2
  6
CONTINUOUS
 62
     7
 10
-290.1902570142494
 20
-34.8395826779099
 11
-290.228481034875
 21
-34.8395826779099
  0
LINE
  8
2
  6
CONTINUOUS
 62
     7
 10
-297.9594162202423
 20
-34.8395826779099
 11
-298.0530913732704
 21
-34.8395826779099
  0
LINE
  8
2
  6
CONTINUOUS
 62
     7
 10
-291.2997213596984
 20
-45.8395826779099
 11
-291.6696314072382
 21
-45.8395826779099
  0
LINE
  8
2
  6
CONTINUOUS
 62
     7
 10
-304.4248523142981
 20
-28.95849209668567
 11
-304.4236988345731
 21
-28.89240928750009
  0
LINE
  8
2
  6
CONTINUOUS
 62
     7
 10
-304.378390606041
 20
-27.03085647469126
 11
-304.4236988345731
 21
-28.89240928750009
  0
ARC
  8
2
  6
CONTINUOUS
 62
     7
 10
-304.3666790556305
 20
-27.02999166942706
 40
0.0122998383283061
 50
178.8731606475521
 51
184.2231749347316
  0
LINE
  8
2
  6
CONTINUOUS
 62
     7
 10
-352.4789897837431
 20
-29.23958833844146
 11
-352.5176713512139
 21
-27.03092554046087
  0
ARC
  8
2
  6
CONTINUOUS
 62
     7
 10
-353.0175962452878
 20
-27.03958267790989
 40
0.5000000000000149
 50
0.9928702272282127
 51
90.00000000000477
  0
LINE
  8
2
  6
CONTINUOUS
 62
     7
 10
-336.1497594366342
 20
-44.84830921340827
 11
-336.0648434079724
 21
-35.11789611470601
  0
ARC
  8
2
  6
CONTINUOUS
 62
     7
 10
-337.1497213596984
 20
-44.8395826779099
 40
1.000000000000001
 50
270.0
 51
359.5000000000001
  0
LINE
  8
2
  6
CONTINUOUS
 62
     7
 10
-329.2346970456966
 20
-28.73581281593869
 11
-329.2471282437057
 21
-28.2585537198325
  0
LINE
  8
2
  6
CONTINUOUS
 62
     7
 10
-359.869777020812
 20
-27.02602196477116
 11
-359.8993475825667
 21
-27.95408673850337
  0
LINE
  8
2
  6
CONTINUOUS
 62
     7
 10
-359.8993475825667
 20
-27.95408673850337
 11
-359.9130395198985
 21
-28.446136766058
  0
LINE
  8
2
  6
CONTINUOUS
 62
     7
 10
-336.0978530119545
 20
-35.20201201581473
 11
-336.0316598368091
 21
-35.06085016521394
  0
LINE
  8
2
  6
CONTINUOUS
 62
     7
 10
-336.0316598368091
 20
-35.06085016521394
 11
-335.6807217886328
 21
-34.84557247983674
  0
LINE
  8
2
  6
CONTINUOUS
 62
     7
 10
-335.6807217886328
 20
-34.84557247983674
 11
-335.6753268086849
 21
-34.84472525250685
  0
ARC
  8
2
  6
CONTINUOUS
 62
     7
 10
-359.3772994999227
 20
-27.03958267790989
 40
0.5000000000000004
 50
90.0
 51
91.50000000000037
  0
ARC
  8
2
  6
CONTINUOUS
 62
     7
 10
-359.3772994999227
 20
-27.03958267790989
 40
0.4999999999999999
 50
91.50000000000037
 51
178.8641500683528
  0
LINE
  8
2
  6
CONTINUOUS
 62
     7
 10
-273.7030732537392
 20
-31.18462612255626
 11
-273.7011955438659
 21
-31.1786881225937
  0
LINE
  8
2
  6
CONTINUOUS
 62
     7
 10
-273.7011955438659
 20
-31.1786881225937
 11
-273.7067357362918
 21
-30.84002214732977
  0
LINE
  8
2
  6
CONTINUOUS
 62
     7
 10
-273.7347259354059
 20
-29.2408571927712
 11
-273.7404681465313
 21
-28.91278948744903
  0
ARC
  8
2
  6
CONTINUOUS
 62
     7
 10
-296.5052929047857
 20
-44.8395826779099
 40
1.000000000000003
 50
180.5
 51
270.0
  0
LINE
  8
2
  6
CONTINUOUS
 62
     7
 10
-297.627507132242
 20
-30.83958267790991
 11
-297.5052548278499
 21
-44.84830921340827
  0
LINE
  8
2
  6
CONTINUOUS
 62
     7
 10
-273.7404681465313
 20
-28.91278948744903
 11
-273.785237243672
 21
-27.02602196477117
  0
ARC
  8
2
  6
CONTINUOUS
 62
     7
 10
-298.0583580546321
 20
-35.35483667418873
 40
0.5247816713305814
 50
26.85438755936883
 51
89.42497290526018
  0
ARC
  8
2
  6
CONTINUOUS
 62
     7
 10
-274.2777147645613
 20
-27.03958267790991
 40
0.499999999999974
 50
1.135849931647181
 51
90.00000000000001
  0
LINE
  8
2
  6
CONTINUOUS
 62
     7
 10
-291.6699318852534
 20
-45.8395826779099
 11
-291.6342943318912
 21
-45.83909620272016
  0
ARC
  8
2
  6
CONTINUOUS
 62
     7
 10
-291.5978399473499
 20
-44.77849329995854
 40
1.06122921157432
 50
268.0314400057574
 51
356.1722192122766
  0
ARC
  8
2
  6
CONTINUOUS
 62
     7
 10
-290.0210390593272
 20
-35.26621699076134
 40
0.461117456672964
 50
108.4493625150315
 51
188.4673618551164
  0
LINE
  8
2
  6
CONTINUOUS
 62
     7
 10
-290.1669672467364
 20
-34.8287992579612
 11
-290.1355870178043
 21
-34.82997531811152
  0
LINE
  8
2
  6
CONTINUOUS
 62
     7
 10
-290.5389221079024
 20
-44.8428705035965
 11
-290.4772089587515
 21
-35.33416905104676
  0
LINE
  8
2
  6
CONTINUOUS
 62
     7
 10
-350.381208404396
 20
-27.00813288059297
 11
-350.4202758281951
 21
-29.2401429834389
  0
LINE
  8
2
  6
CONTINUOUS
 62
     7
 10
-350.4482908780189
 20
-30.84072773433632
 11
-350.4530946345978
 21
-31.13314324449239
  0
LINE
  8
2
  6
CONTINUOUS
 62
     7
 10
-350.4530946345978
 20
-31.13314324449239
 11
-350.4488665495184
 21
-31.15029264960078
  0
ARC
  8
2
  6
CONTINUOUS
 62
     7
 10
-342.3552929047857
 20
-44.8395826779099
 40
1.000000000000003
 50
180.5000000000001
 51
270.0
  0
LINE
  8
2
  6
CONTINUOUS
 62
     7
 10
-343.4775071322421
 20
-30.8395826779099
 11
-343.3552548278499
 21
-44.84830921340827
  0
ARC
  8
2
  6
CONTINUOUS
 62
     7
 10
-329.7759410540307
 20
-27.03958267790991
 40
0.4999999999999924
 50
1.126839352334427
 51
90.00000000000001
  0
LINE
  8
2
  6
CONTINUOUS
 62
     7
 10
-290.2997594366342
 20
-44.84830921340827
 11
-290.2124146034051
 21
-34.8395826779099
  0
ARC
  8
2
  6
CONTINUOUS
 62
     7
 10
-291.2997213596984
 20
-44.8395826779099
 40
1.000000000000001
 50
270.0
 51
359.4999999999999
  0
ARC
  8
2
  6
CONTINUOUS
 62
     7
 10
-303.8790732104534
 20
-27.0395826779099
 40
0.5000000000000004
 50
90.0000000000002
 51
91.49999999999977
  0
ARC
  8
2
  6
CONTINUOUS
 62
     7
 10
-303.8790732104534
 20
-27.0395826779099
 40
0.500000000000002
 50
91.49999999999977
 51
178.8731606476656
  0
ENDBLK
  8
0
  0
ENDSEC
  0
SECTION
  2
ENTITIES
  0
INSERT
  8
2
  6
CONTINUOUS
 62
     7
  2
D_FRAME_VIEW_2607
 10
0.0
 20
0.0
 30
0.0
  0
TEXT
  8
2
  6
CONTINUOUS
 62
     7
 10
-198.7799016579432
 20
-5.695248083571043
 40
3.0
  1
OF-122F-BS
  0
LINE
  8
2
  6
CONTINUOUS
 62
     2
 10
-198.7535292682971
 20
-6.253213570628689
 11
-181.5580747228425
 21
-6.253213570628689
  0
INSERT
  8
2
  6
CONTINUOUS
 62
     7
  2
D_FRAME_VIEW_3630
 10
0.0
 20
0.0
 30
0.0
  0
LINE
  8
2
  6
CENTER
 62
     1
 10
-339.8275071322421
 20
57.50097027753875
 11
-339.8275071322421
 21
64.58276050438404
  0
LINE
  8
2
  6
CENTER
 62
     1
 10
-343.4775071322421
 20
144.5418653909614
 11
-336.1775071322421
 21
144.5418653909614
  0
LINE
  8
2
  6
CENTER
 62
     1
 10
-297.3684022456647
 20
144.5418653909614
 11
-290.2866120188194
 21
144.5418653909614
  0
LINE
  8
2
  6
CENTER
 62
     1
 10
-293.827507132242
 20
141.0009702775388
 11
-293.827507132242
 21
148.0827605043841
  0
LINE
  8
2
  6
CENTER
 62
     1
 10
-343.3684022456647
 20
61.0418653909614
 11
-336.2866120188194
 21
61.0418653909614
  0
LINE
  8
2
  6
CENTER
 62
     1
 10
-351.327507132242
 20
147.2918653909614
 11
-342.327507132242
 21
147.2918653909614
  0
LINE
  8
2
  6
CENTER
 62
     1
 10
-339.8275071322421
 20
140.8918653909614
 11
-339.8275071322421
 21
148.1918653909615
  0
LINE
  8
2
  6
CENTER
 62
     1
 10
-291.327507132242
 20
58.29186539096141
 11
-282.327507132242
 21
58.29186539096141
  0
LINE
  8
2
  6
CENTER
 62
     1
 10
-316.827507132242
 20
152.7918653909614
 11
-316.827507132242
 21
52.79186539096141
  0
LINE
  8
2
  6
CENTER
 62
     1
 10
-316.827507132242
 20
-32.83958267790991
 11
-316.827507132242
 21
-27.23958267790991
  0
LINE
  8
2
  6
CENTER
 62
     1
 10
-286.827507132242
 20
53.79186539096141
 11
-286.827507132242
 21
62.79186539096141
  0
LINE
  8
2
  6
CENTER
 62
     1
 10
-293.827507132242
 20
57.39186539096142
 11
-293.827507132242
 21
64.69186539096138
  0
LINE
  8
2
  6
CENTER
 62
     1
 10
-346.827507132242
 20
142.7918653909614
 11
-346.827507132242
 21
151.7918653909614
  0
LINE
  8
2
  6
CENTER
 62
     1
 10
-190.6673871575917
 20
102.7918653909614
 11
-196.2673871575917
 21
102.7918653909614
  0
LINE
  8
2
  6
CENTER
 62
     1
 10
-297.477507132242
 20
61.04186539096141
 11
-290.1775071322421
 21
61.04186539096141
  0
INSERT
  8
2
  6
CONTINUOUS
 62
     7
  2
D_FRAME_VIEW_4075
 10
0.0
 20
0.0
 30
0.0
  0
LINE
  8
2
  6
CONTINUOUS
 62
     7
 10
-335.1275071322421
 20
57.79186539096141
 11
-336.4322899079691
 21
57.79186539096141
  0
LINE
  8
2
  6
CONTINUOUS
 62
     7
 10
-290.4322899079691
 20
147.7918653909614
 11
-289.127507132242
 21
147.7918653909614
  0
LINE
  8
2
  6
CONTINUOUS
 62
     7
 10
-298.5275071322421
 20
147.7918653909614
 11
-297.2227243565151
 21
147.7918653909614
  0
LINE
  8
2
  6
CONTINUOUS
 62
     7
 10
-179.6673871575916
 20
61.48005848107026
 11
-179.6673871575916
 21
59.11998543763906
  0
LINE
  8
2
  6
CONTINUOUS
 62
     7
 10
-343.2227243565151
 20
57.79186539096141
 11
-344.5275071322421
 21
57.79186539096141
  0
LINE
  8
2
  6
CONTINUOUS
 62
     7
 10
-334.627507132242
 20
-34.8395826779099
 11
-335.6709574259518
 21
-34.8395826779099
  0
ENDSEC
  0
EOF
