  0
SECTION
  2
HEADER
  9
$ACADVER
  1
AC1004
  9
$INSBASE
 10
0.0
 20
0.0
  9
$EXTMIN
 10
0.0
 20
0.0
  9
$EXTMAX
 10
404.2371507359818
 20
237.5
  9
$LIMMIN
 10
0.0
 20
0.0
  9
$LIMMAX
 10
12.0
 20
9.0
  9
$ORTHOMODE
 70
     0
  9
$REGENMODE
 70
     1
  9
$FILLMODE
 70
     1
  9
$QTEXTMODE
 70
     0
  9
$DRAGMODE
 70
     2
  9
$LTSCALE
 40
1.0
  9
$OSMODE
 70
    37
  9
$ATTMODE
 70
     1
  9
$TEXTSIZE
 40
0.2
  9
$TRACEWID
 40
0.05
  9
$TEXTSTYLE
  7
STANDARD
  9
$CLAYER
  8
0
  9
$CELTYPE
  6
BYLAYER
  9
$CECOLOR
 62
   256
  9
$DIMSCALE
 40
1.0
  9
$DIMASZ
 40
3.0
  9
$DIMEXO
 40
0.0625
  9
$DIMDLI
 40
0.38
  9
$DIMRND
 40
0.0
  9
$DIMDLE
 40
0.0
  9
$DIMEXE
 40
1.5
  9
$DIMTP
 40
0.0
  9
$DIMTM
 40
0.0
  9
$DIMTXT
 40
3.0
  9
$DIMCEN
 40
0.09
  9
$DIMTSZ
 40
0.0
  9
$DIMTOL
 70
     0
  9
$DIMLIM
 70
     0
  9
$DIMTIH
 70
     1
  9
$DIMTOH
 70
     1
  9
$DIMSE1
 70
     0
  9
$DIMSE2
 70
     0
  9
$DIMTAD
 70
     1
  9
$DIMZIN
 70
     0
  9
$DIMBLK
  1

  9
$DIMASO
 70
     1
  9
$DIMSHO
 70
     1
  9
$DIMPOST
  1

  9
$DIMAPOST
  1

  9
$DIMALT
 70
     0
  9
$DIMALTD
 70
     2
  9
$DIMALTF
 40
25.4
  9
$DIMLFAC
 40
1.0
  9
$DIMTOFL
 70
     0
  9
$DIMTVP
 40
0.0
  9
$DIMTIX
 70
     0
  9
$DIMSOXD
 70
     0
  9
$DIMSAH
 70
     0
  9
$DIMBLK1
  1

  9
$DIMBLK2
  1

  9
$LUNITS
 70
     2
  9
$LUPREC
 70
     4
  9
$SKETCHINC
 40
0.1
  9
$FILLETRAD
 40
0.5
  9
$AUNITS
 70
     0
  9
$AUPREC
 70
     0
  9
$MENU
  1
.
  9
$ELEVATION
 40
0.0
  9
$THICKNESS
 40
0.0
  9
$LIMCHECK
 70
     0
  9
$CHAMFERA
 40
0.0
  9
$CHAMFERB
 40
0.0
  9
$SKPOLY
 70
     0
  9
$TDCREATE
 40
2460255.454479572
  9
$TDUPDATE
 40
2460255.454484039
  9
$TDINDWG
 40
0.0000000116
  9
$TDUSRTIMER
 40
0.0000000116
  9
$USRTIMER
 70
     1
  9
$ANGBASE
 50
0.0
  9
$ANGDIR
 70
     0
  9
$PDMODE
 70
     0
  9
$PDSIZE
 40
0.0
  9
$PLINEWID
 40
0.0
  9
$COORDS
 70
     1
  9
$SPLFRAME
 70
     0
  9
$SPLINETYPE
 70
     6
  9
$SPLINESEGS
 70
     8
  9
$ATTDIA
 70
     0
  9
$ATTREQ
 70
     1
  9
$SURFTAB1
 70
     6
  9
$SURFTAB2
 70
     6
  9
$SURFTYPE
 70
     6
  9
$SURFU
 70
     6
  9
$SURFV
 70
     6
  9
$UCSNAME
  2

  9
$UCSORG
 10
0.0
 20
0.0
 30
0.0
  9
$UCSXDIR
 10
1.0
 20
0.0
 30
0.0
  9
$UCSYDIR
 10
0.0
 20
1.0
 30
0.0
  9
$USERI1
 70
     0
  9
$USERI2
 70
     0
  9
$USERI3
 70
     0
  9
$USERI4
 70
     0
  9
$USERI5
 70
     0
  9
$USERR1
 40
0.0
  9
$USERR2
 40
0.0
  9
$USERR3
 40
0.0
  9
$USERR4
 40
0.0
  9
$USERR5
 40
0.0
  9
$WORLDVIEW
 70
     1
  0
ENDSEC
  0
SECTION
  2
TABLES
  0
TABLE
  2
LTYPE
 70
     2
  0
LTYPE
  2
CONTINUOUS
 70
     0
  3
Solid line
 72
    65
 73
     0
 40
0.0
  0
LTYPE
  2
CENTER
 70
     0
  3

 72
    65
 73
     0
 40
0.0
  0
ENDTAB
  0
TABLE
  2
LAYER
 70
     2
  0
LAYER
  2
0
 70
     0
 62
     7
  6
CONTINUOUS
  0
LAYER
  2
1
 70
     0
 62
     7
  6
CONTINUOUS
  0
ENDTAB
  0
TABLE
  2
STYLE
 70
     2
  0
STYLE
  2
STANDARD
 70
     0
 40
0.0
 41
1.0
 50
0.0
 71
     0
 42
0.2
  3
txt
  4

  0
STYLE
  2
ＭＳ_ゴシック
 70
     0
 40
0.0
 41
1.0
 50
0.0
 71
     0
 42
0.2
  3
ＭＳ ゴシック.shx
  4

  0
ENDTAB
  0
TABLE
  2
VIEW
 70
     0
  0
ENDTAB
  0
ENDSEC
  0
SECTION
  2
BLOCKS
  0
BLOCK
  8
0
  2
D_FRAME_DRAWING_17
 70
     0
 10
0.0
 20
0.0
  0
LINE
  8
0
  6
CONTINUOUS
 62
     7
 10
0.0
 20
0.0
 11
420.0
 21
0.0
  0
LINE
  8
0
  6
CONTINUOUS
 62
     7
 10
420.0
 20
0.0
 11
420.0
 21
297.0
  0
LINE
  8
0
  6
CONTINUOUS
 62
     7
 10
420.0
 20
297.0
 11
0.0
 21
297.0
  0
LINE
  8
0
  6
CONTINUOUS
 62
     7
 10
0.0
 20
297.0
 11
0.0
 21
0.0
  0
ENDBLK
  8
0
  0
BLOCK
  8
0
  2
D_FRAME_VIEW_1612
 70
     0
 10
0.0
 20
0.0
  0
LINE
  8
1
  6
CONTINUOUS
 62
     7
 10
89.0
 20
71.69999999999996
 11
151.0
 21
71.69999999999996
  0
LINE
  8
1
  6
CONTINUOUS
 62
     7
 10
89.0
 20
73.29999999999995
 11
151.0
 21
73.29999999999995
  0
LINE
  8
1
  6
CONTINUOUS
 62
     7
 10
83.99999999999999
 20
71.69999999999996
 11
83.99999999999999
 21
73.29999999999995
  0
LINE
  8
1
  6
CONTINUOUS
 62
     7
 10
83.99999999999999
 20
71.69999999999996
 11
89.0
 21
71.69999999999996
  0
LINE
  8
1
  6
CONTINUOUS
 62
     7
 10
83.99999999999999
 20
73.29999999999995
 11
89.0
 21
73.29999999999995
  0
LINE
  8
1
  6
CONTINUOUS
 62
     7
 10
156.0
 20
71.69999999999996
 11
156.0
 21
73.29999999999995
  0
LINE
  8
1
  6
CONTINUOUS
 62
     7
 10
151.0
 20
71.69999999999996
 11
156.0
 21
71.69999999999996
  0
LINE
  8
1
  6
CONTINUOUS
 62
     7
 10
151.0
 20
73.29999999999995
 11
156.0
 21
73.29999999999995
  0
ENDBLK
  8
0
  0
BLOCK
  8
0
  2
D_FRAME_VIEW_1599
 70
     0
 10
0.0
 20
0.0
  0
LINE
  8
1
  6
CONTINUOUS
 62
     7
 10
205.8
 20
237.5
 11
204.2
 21
237.5
  0
LINE
  8
1
  6
CONTINUOUS
 62
     7
 10
205.8
 20
232.5
 11
205.8
 21
237.4999999999999
  0
LINE
  8
1
  6
CONTINUOUS
 62
     7
 10
204.2
 20
232.5
 11
204.2
 21
237.4999999999999
  0
LINE
  8
1
  6
CONTINUOUS
 62
     7
 10
205.8
 20
117.5
 11
204.2
 21
117.5
  0
LINE
  8
1
  6
CONTINUOUS
 62
     7
 10
205.8
 20
117.5
 11
205.8
 21
122.5
  0
LINE
  8
1
  6
CONTINUOUS
 62
     7
 10
204.2
 20
117.5
 11
204.2
 21
122.5
  0
LINE
  8
1
  6
CONTINUOUS
 62
     7
 10
205.8
 20
122.5
 11
205.8
 21
232.5
  0
LINE
  8
1
  6
CONTINUOUS
 62
     7
 10
204.2
 20
122.5
 11
204.2
 21
232.5
  0
LINE
  8
1
  6
CONTINUOUS
 62
     7
 10
204.1625000000001
 20
120.1002485795454
 11
204.2
 21
120.1002485795454
  0
ENDBLK
  8
0
  0
BLOCK
  8
0
  2
D_FRAME_VIEW_1444
 70
     0
 10
0.0
 20
0.0
  0
ARC
  8
1
  6
CONTINUOUS
 62
     7
 10
142.25
 20
230.0
 40
2.499999999999999
 50
270.0000000000004
 51
0.0000000000001705
  0
LINE
  8
1
  6
CONTINUOUS
 62
     7
 10
144.75
 20
237.5
 11
144.75
 21
230.0
  0
LINE
  8
1
  6
CONTINUOUS
 62
     7
 10
151.0
 20
237.5
 11
144.75
 21
237.5
  0
ARC
  8
1
  6
CONTINUOUS
 62
     7
 10
151.0
 20
232.5
 40
4.999999999999987
 50
359.9999999999998
 51
90.0
  0
LINE
  8
1
  6
CONTINUOUS
 62
     7
 10
156.0
 20
122.5
 11
156.0
 21
232.5
  0
ARC
  8
1
  6
CONTINUOUS
 62
     7
 10
151.0
 20
122.5
 40
4.999999999999997
 50
269.9999999999998
 51
359.9999999999998
  0
LINE
  8
1
  6
CONTINUOUS
 62
     7
 10
89.0
 20
117.5
 11
151.0
 21
117.5
  0
ARC
  8
1
  6
CONTINUOUS
 62
     7
 10
89.0
 20
122.5
 40
4.999999999999997
 50
179.9999999999998
 51
270.0000000000001
  0
LINE
  8
1
  6
CONTINUOUS
 62
     7
 10
83.99999999999999
 20
232.5
 11
83.99999999999999
 21
122.5
  0
ARC
  8
1
  6
CONTINUOUS
 62
     7
 10
89.0
 20
232.5
 40
5.000000000000004
 50
89.99999999999996
 51
180.0
  0
LINE
  8
1
  6
CONTINUOUS
 62
     7
 10
139.75
 20
237.5
 11
89.0
 21
237.5
  0
LINE
  8
1
  6
CONTINUOUS
 62
     7
 10
139.75
 20
230.0
 11
139.75
 21
237.5
  0
ARC
  8
1
  6
CONTINUOUS
 62
     7
 10
142.25
 20
230.0
 40
2.500000000000002
 50
180.0
 51
270.0
  0
LINE
  8
1
  6
CONTINUOUS
 62
     7
 10
122.5
 20
131.75
 11
122.5
 21
128.75
  0
LINE
  8
1
  6
CONTINUOUS
 62
     7
 10
117.5
 20
131.75
 11
122.5
 21
131.75
  0
LINE
  8
1
  6
CONTINUOUS
 62
     7
 10
117.5
 20
128.75
 11
117.5
 21
131.75
  0
LINE
  8
1
  6
CONTINUOUS
 62
     7
 10
122.5
 20
128.75
 11
117.5
 21
128.75
  0
LINE
  8
1
  6
CONTINUOUS
 62
     7
 10
122.5
 20
226.25
 11
122.5
 21
223.25
  0
LINE
  8
1
  6
CONTINUOUS
 62
     7
 10
117.5
 20
226.25
 11
122.5
 21
226.25
  0
LINE
  8
1
  6
CONTINUOUS
 62
     7
 10
117.5
 20
223.25
 11
117.5
 21
226.25
  0
LINE
  8
1
  6
CONTINUOUS
 62
     7
 10
122.5
 20
223.25
 11
117.5
 21
223.25
  0
CIRCLE
  8
1
  6
CONTINUOUS
 62
     7
 10
152.0
 20
177.5
 40
1.500000000000001
  0
CIRCLE
  8
1
  6
CONTINUOUS
 62
     7
 10
87.99999999999999
 20
177.5
 40
1.499999999999998
  0
ARC
  8
1
  6
CONTINUOUS
 62
     7
 10
102.5
 20
125.0
 40
2.500000000000002
 50
0.0
 51
90.0
  0
LINE
  8
1
  6
CONTINUOUS
 62
     7
 10
93.0
 20
127.5
 11
102.5
 21
127.5
  0
ARC
  8
1
  6
CONTINUOUS
 62
     7
 10
93.0
 20
125.0
 40
2.500000000000002
 50
90.0
 51
180.0
  0
ARC
  8
1
  6
CONTINUOUS
 62
     7
 10
93.0
 20
125.0
 40
2.499999999999995
 50
180.0
 51
270.0
  0
LINE
  8
1
  6
CONTINUOUS
 62
     7
 10
102.5
 20
122.5
 11
92.99999999999999
 21
122.5
  0
ARC
  8
1
  6
CONTINUOUS
 62
     7
 10
102.5
 20
125.0
 40
2.500000000000002
 50
270.0
 51
0.0
  0
CIRCLE
  8
1
  6
CONTINUOUS
 62
     7
 10
120.0
 20
135.75
 40
1.65
  0
CIRCLE
  8
1
  6
CONTINUOUS
 62
     7
 10
120.0
 20
219.25
 40
1.65
  0
ARC
  8
1
  6
CONTINUOUS
 62
     7
 10
144.0
 20
220.0
 40
3.499999999999996
 50
0.0
 51
90.0
  0
LINE
  8
1
  6
CONTINUOUS
 62
     7
 10
128.0
 20
223.5
 11
144.0
 21
223.5
  0
ARC
  8
1
  6
CONTINUOUS
 62
     7
 10
128.0
 20
220.0
 40
3.500000000000003
 50
89.99999999999994
 51
180.0
  0
LINE
  8
1
  6
CONTINUOUS
 62
     7
 10
124.5
 20
219.25
 11
124.5
 21
220.0
  0
ARC
  8
1
  6
CONTINUOUS
 62
     7
 10
120.0
 20
219.25
 40
4.5
 50
179.9999999999999
 51
0.0
  0
LINE
  8
1
  6
CONTINUOUS
 62
     7
 10
115.5
 20
220.0
 11
115.5
 21
219.25
  0
ARC
  8
1
  6
CONTINUOUS
 62
     7
 10
112.0
 20
220.0
 40
3.500000000000003
 50
0.0
 51
90.0
  0
LINE
  8
1
  6
CONTINUOUS
 62
     7
 10
96.0
 20
223.5
 11
112.0
 21
223.5
  0
ARC
  8
1
  6
CONTINUOUS
 62
     7
 10
96.0
 20
220.0
 40
3.5
 50
90.0
 51
179.9999999999999
  0
LINE
  8
1
  6
CONTINUOUS
 62
     7
 10
92.5
 20
135.0
 11
92.5
 21
220.0
  0
ARC
  8
1
  6
CONTINUOUS
 62
     7
 10
96.0
 20
135.0
 40
3.499999999999996
 50
180.0000000000001
 51
270.0
  0
LINE
  8
1
  6
CONTINUOUS
 62
     7
 10
112.0
 20
131.5
 11
95.99999999999999
 21
131.5
  0
ARC
  8
1
  6
CONTINUOUS
 62
     7
 10
112.0
 20
135.0
 40
3.500000000000003
 50
269.9999999999999
 51
0.0
  0
LINE
  8
1
  6
CONTINUOUS
 62
     7
 10
115.5
 20
135.75
 11
115.5
 21
135.0
  0
ARC
  8
1
  6
CONTINUOUS
 62
     7
 10
120.0
 20
135.75
 40
4.5
 50
359.9999999999998
 51
180.0
  0
LINE
  8
1
  6
CONTINUOUS
 62
     7
 10
124.5
 20
135.0
 11
124.5
 21
135.75
  0
ARC
  8
1
  6
CONTINUOUS
 62
     7
 10
128.0
 20
135.0
 40
3.500000000000003
 50
180.0
 51
270.0
  0
LINE
  8
1
  6
CONTINUOUS
 62
     7
 10
144.0
 20
131.5
 11
128.0
 21
131.5
  0
ARC
  8
1
  6
CONTINUOUS
 62
     7
 10
144.0
 20
135.0
 40
3.5
 50
270.0
 51
0.0
  0
LINE
  8
1
  6
CONTINUOUS
 62
     7
 10
147.5
 20
220.0
 11
147.5
 21
135.0
  0
ENDBLK
  8
0
  0
ENDSEC
  0
SECTION
  2
ENTITIES
  0
TEXT
  8
1
  6
CONTINUOUS
 62
     7
 10
175.2381643116169
 20
74.1568400650244
 40
6.0
  1
OF-12CSW1F
  0
LINE
  8
1
  6
CENTER
 62
     1
 10
207.8
 20
177.5
 11
202.2
 21
177.5
  0
LINE
  8
1
  6
CENTER
 62
     1
 10
120.0
 20
69.69999999999996
 11
120.0
 21
75.29999999999997
  0
LINE
  8
1
  6
CENTER
 62
     1
 10
120.0
 20
234.5
 11
120.0
 21
120.5
  0
LINE
  8
1
  6
CENTER
 62
     1
 10
86.99999999999999
 20
177.5
 11
153.0
 21
177.5
  0
INSERT
  8
0
 62
     7
  2
D_FRAME_DRAWING_17
 10
0.0
 20
0.0
 30
0.0
  0
INSERT
  8
1
  6
CONTINUOUS
 62
     7
  2
D_FRAME_VIEW_1612
 10
0.0
 20
0.0
 30
0.0
  0
INSERT
  8
1
  6
CONTINUOUS
 62
     7
  2
D_FRAME_VIEW_1599
 10
0.0
 20
0.0
 30
0.0
  0
INSERT
  8
1
  6
CONTINUOUS
 62
     7
  2
D_FRAME_VIEW_1444
 10
0.0
 20
0.0
 30
0.0
  0
ENDSEC
  0
EOF
