  0
SECTION
  2
HEADER
  9
$ACADVER
  1
AC1004
  9
$INSBASE
 10
0.0
 20
0.0
  9
$EXTMIN
 10
0.0
 20
0.0
  9
$EXTMAX
 10
404.2371507359818
 20
245.0
  9
$LIMMIN
 10
0.0
 20
0.0
  9
$LIMMAX
 10
12.0
 20
9.0
  9
$ORTHOMODE
 70
     0
  9
$REGENMODE
 70
     1
  9
$FILLMODE
 70
     1
  9
$QTEXTMODE
 70
     0
  9
$DRAGMODE
 70
     2
  9
$LTSCALE
 40
1.0
  9
$OSMODE
 70
    37
  9
$ATTMODE
 70
     1
  9
$TEXTSIZE
 40
0.2
  9
$TRACEWID
 40
0.05
  9
$TEXTSTYLE
  7
STANDARD
  9
$CLAYER
  8
0
  9
$CELTYPE
  6
BYLAYER
  9
$CECOLOR
 62
   256
  9
$DIMSCALE
 40
1.0
  9
$DIMASZ
 40
3.0
  9
$DIMEXO
 40
0.0625
  9
$DIMDLI
 40
0.38
  9
$DIMRND
 40
0.0
  9
$DIMDLE
 40
0.0
  9
$DIMEXE
 40
1.5
  9
$DIMTP
 40
0.0
  9
$DIMTM
 40
0.0
  9
$DIMTXT
 40
3.0
  9
$DIMCEN
 40
0.09
  9
$DIMTSZ
 40
0.0
  9
$DIMTOL
 70
     0
  9
$DIMLIM
 70
     0
  9
$DIMTIH
 70
     1
  9
$DIMTOH
 70
     1
  9
$DIMSE1
 70
     0
  9
$DIMSE2
 70
     0
  9
$DIMTAD
 70
     1
  9
$DIMZIN
 70
     0
  9
$DIMBLK
  1

  9
$DIMASO
 70
     1
  9
$DIMSHO
 70
     1
  9
$DIMPOST
  1

  9
$DIMAPOST
  1

  9
$DIMALT
 70
     0
  9
$DIMALTD
 70
     2
  9
$DIMALTF
 40
25.4
  9
$DIMLFAC
 40
1.0
  9
$DIMTOFL
 70
     0
  9
$DIMTVP
 40
0.0
  9
$DIMTIX
 70
     0
  9
$DIMSOXD
 70
     0
  9
$DIMSAH
 70
     0
  9
$DIMBLK1
  1

  9
$DIMBLK2
  1

  9
$LUNITS
 70
     2
  9
$LUPREC
 70
     4
  9
$SKETCHINC
 40
0.1
  9
$FILLETRAD
 40
0.5
  9
$AUNITS
 70
     0
  9
$AUPREC
 70
     0
  9
$MENU
  1
.
  9
$ELEVATION
 40
0.0
  9
$THICKNESS
 40
0.0
  9
$LIMCHECK
 70
     0
  9
$CHAMFERA
 40
0.0
  9
$CHAMFERB
 40
0.0
  9
$SKPOLY
 70
     0
  9
$TDCREATE
 40
2460474.645946817
  9
$TDUPDATE
 40
2460474.645951331
  9
$TDINDWG
 40
0.0000000116
  9
$TDUSRTIMER
 40
0.0000000116
  9
$USRTIMER
 70
     1
  9
$ANGBASE
 50
0.0
  9
$ANGDIR
 70
     0
  9
$PDMODE
 70
     0
  9
$PDSIZE
 40
0.0
  9
$PLINEWID
 40
0.0
  9
$COORDS
 70
     1
  9
$SPLFRAME
 70
     0
  9
$SPLINETYPE
 70
     6
  9
$SPLINESEGS
 70
     8
  9
$ATTDIA
 70
     0
  9
$ATTREQ
 70
     1
  9
$SURFTAB1
 70
     6
  9
$SURFTAB2
 70
     6
  9
$SURFTYPE
 70
     6
  9
$SURFU
 70
     6
  9
$SURFV
 70
     6
  9
$UCSNAME
  2

  9
$UCSORG
 10
0.0
 20
0.0
 30
0.0
  9
$UCSXDIR
 10
1.0
 20
0.0
 30
0.0
  9
$UCSYDIR
 10
0.0
 20
1.0
 30
0.0
  9
$USERI1
 70
     0
  9
$USERI2
 70
     0
  9
$USERI3
 70
     0
  9
$USERI4
 70
     0
  9
$USERI5
 70
     0
  9
$USERR1
 40
0.0
  9
$USERR2
 40
0.0
  9
$USERR3
 40
0.0
  9
$USERR4
 40
0.0
  9
$USERR5
 40
0.0
  9
$WORLDVIEW
 70
     1
  0
ENDSEC
  0
SECTION
  2
TABLES
  0
TABLE
  2
LTYPE
 70
     2
  0
LTYPE
  2
CONTINUOUS
 70
     0
  3
Solid line
 72
    65
 73
     0
 40
0.0
  0
LTYPE
  2
CENTER
 70
     0
  3

 72
    65
 73
     0
 40
0.0
  0
ENDTAB
  0
TABLE
  2
LAYER
 70
     2
  0
LAYER
  2
0
 70
     0
 62
     7
  6
CONTINUOUS
  0
LAYER
  2
1
 70
     0
 62
     7
  6
CONTINUOUS
  0
ENDTAB
  0
TABLE
  2
STYLE
 70
     2
  0
STYLE
  2
STANDARD
 70
     0
 40
0.0
 41
1.0
 50
0.0
 71
     0
 42
0.2
  3
txt
  4

  0
STYLE
  2
ＭＳ_ゴシック
 70
     0
 40
0.0
 41
1.0
 50
0.0
 71
     0
 42
0.2
  3
ＭＳ ゴシック.shx
  4

  0
ENDTAB
  0
TABLE
  2
VIEW
 70
     0
  0
ENDTAB
  0
ENDSEC
  0
SECTION
  2
BLOCKS
  0
BLOCK
  8
0
  2
D_FRAME_VIEW_1653
 70
     0
 10
0.0
 20
0.0
  0
LINE
  8
1
  6
CONTINUOUS
 62
     7
 10
125.75
 20
91.7
 11
125.75
 21
93.30000000000001
  0
LINE
  8
1
  6
CONTINUOUS
 62
     7
 10
125.75
 20
91.7
 11
130.75
 21
91.7
  0
LINE
  8
1
  6
CONTINUOUS
 62
     7
 10
125.75
 20
93.30000000000001
 11
130.75
 21
93.30000000000001
  0
LINE
  8
1
  6
CONTINUOUS
 62
     7
 10
130.75
 20
91.7
 11
139.5
 21
91.7
  0
LINE
  8
1
  6
CONTINUOUS
 62
     7
 10
130.75
 20
93.30000000000001
 11
139.5
 21
93.30000000000001
  0
LINE
  8
1
  6
CONTINUOUS
 62
     7
 10
144.5
 20
91.7
 11
245.5
 21
91.7
  0
LINE
  8
1
  6
CONTINUOUS
 62
     7
 10
144.5
 20
93.30000000000001
 11
245.5
 21
93.30000000000001
  0
LINE
  8
1
  6
CONTINUOUS
 62
     7
 10
250.5
 20
91.7
 11
259.25
 21
91.7
  0
LINE
  8
1
  6
CONTINUOUS
 62
     7
 10
250.5
 20
93.30000000000001
 11
259.25
 21
93.30000000000001
  0
LINE
  8
1
  6
CONTINUOUS
 62
     7
 10
264.25
 20
91.7
 11
264.25
 21
93.30000000000001
  0
LINE
  8
1
  6
CONTINUOUS
 62
     7
 10
259.25
 20
91.7
 11
264.25
 21
91.7
  0
LINE
  8
1
  6
CONTINUOUS
 62
     7
 10
259.25
 20
93.30000000000001
 11
264.25
 21
93.30000000000001
  0
LINE
  8
1
  6
CONTINUOUS
 62
     7
 10
250.5
 20
91.7
 11
245.5
 21
91.7
  0
LINE
  8
1
  6
CONTINUOUS
 62
     7
 10
250.5
 20
93.30000000000001
 11
245.5
 21
93.30000000000001
  0
LINE
  8
1
  6
CONTINUOUS
 62
     7
 10
144.5
 20
91.7
 11
139.5
 21
91.7
  0
LINE
  8
1
  6
CONTINUOUS
 62
     7
 10
144.5
 20
93.30000000000001
 11
139.5
 21
93.30000000000001
  0
ENDBLK
  8
0
  0
BLOCK
  8
0
  2
D_FRAME_VIEW_1626
 70
     0
 10
0.0
 20
0.0
  0
LINE
  8
1
  6
CONTINUOUS
 62
     7
 10
308.3
 20
130.0
 11
308.3
 21
240.0
  0
LINE
  8
1
  6
CONTINUOUS
 62
     7
 10
306.7
 20
130.0
 11
306.7
 21
240.0
  0
LINE
  8
1
  6
CONTINUOUS
 62
     7
 10
308.3
 20
125.0
 11
306.7
 21
125.0
  0
LINE
  8
1
  6
CONTINUOUS
 62
     7
 10
308.3
 20
125.0
 11
308.3
 21
130.0
  0
LINE
  8
1
  6
CONTINUOUS
 62
     7
 10
306.7
 20
125.0
 11
306.7
 21
130.0
  0
LINE
  8
1
  6
CONTINUOUS
 62
     7
 10
308.3
 20
245.0
 11
306.7
 21
245.0
  0
LINE
  8
1
  6
CONTINUOUS
 62
     7
 10
308.3
 20
240.0
 11
308.3
 21
245.0
  0
LINE
  8
1
  6
CONTINUOUS
 62
     7
 10
306.7
 20
240.0
 11
306.7
 21
245.0
  0
LINE
  8
1
  6
CONTINUOUS
 62
     7
 10
306.6625
 20
127.1002485795455
 11
306.7
 21
127.1002485795455
  0
ENDBLK
  8
0
  0
BLOCK
  8
0
  2
D_FRAME_VIEW_1445
 70
     0
 10
0.0
 20
0.0
  0
LINE
  8
1
  6
CONTINUOUS
 62
     7
 10
220.5
 20
136.25
 11
215.5
 21
136.25
  0
LINE
  8
1
  6
CONTINUOUS
 62
     7
 10
220.5
 20
139.25
 11
220.5
 21
136.25
  0
LINE
  8
1
  6
CONTINUOUS
 62
     7
 10
215.5
 20
139.25
 11
220.5
 21
139.25
  0
LINE
  8
1
  6
CONTINUOUS
 62
     7
 10
215.5
 20
136.25
 11
215.5
 21
139.25
  0
LINE
  8
1
  6
CONTINUOUS
 62
     7
 10
215.5
 20
233.75
 11
220.5
 21
233.75
  0
LINE
  8
1
  6
CONTINUOUS
 62
     7
 10
215.5
 20
230.75
 11
215.5
 21
233.75
  0
LINE
  8
1
  6
CONTINUOUS
 62
     7
 10
220.5
 20
230.75
 11
215.5
 21
230.75
  0
LINE
  8
1
  6
CONTINUOUS
 62
     7
 10
220.5
 20
233.75
 11
220.5
 21
230.75
  0
LINE
  8
1
  6
CONTINUOUS
 62
     7
 10
174.5
 20
136.25
 11
169.5
 21
136.25
  0
LINE
  8
1
  6
CONTINUOUS
 62
     7
 10
174.5
 20
139.25
 11
174.5
 21
136.25
  0
LINE
  8
1
  6
CONTINUOUS
 62
     7
 10
169.5
 20
139.25
 11
174.5
 21
139.25
  0
LINE
  8
1
  6
CONTINUOUS
 62
     7
 10
169.5
 20
136.25
 11
169.5
 21
139.25
  0
LINE
  8
1
  6
CONTINUOUS
 62
     7
 10
169.5
 20
233.75
 11
174.5
 21
233.75
  0
LINE
  8
1
  6
CONTINUOUS
 62
     7
 10
169.5
 20
230.75
 11
169.5
 21
233.75
  0
LINE
  8
1
  6
CONTINUOUS
 62
     7
 10
174.5
 20
230.75
 11
169.5
 21
230.75
  0
LINE
  8
1
  6
CONTINUOUS
 62
     7
 10
174.5
 20
233.75
 11
174.5
 21
230.75
  0
CIRCLE
  8
1
  6
CONTINUOUS
 62
     7
 10
260.2500000000001
 20
185.0
 40
1.500000000000001
  0
CIRCLE
  8
1
  6
CONTINUOUS
 62
     7
 10
129.75
 20
185.0
 40
1.500000000000001
  0
ARC
  8
1
  6
CONTINUOUS
 62
     7
 10
145.3587572106361
 20
240.8587572106361
 40
2.500000000000001
 50
45.0
 51
135.0000000000002
  0
LINE
  8
1
  6
CONTINUOUS
 62
     7
 10
136.8734758363975
 20
235.9090097423303
 11
143.5909902576697
 21
242.6265241636025
  0
ARC
  8
1
  6
CONTINUOUS
 62
     7
 10
138.6412427893639
 20
234.1412427893639
 40
2.499999999999991
 50
135.0
 51
225.0
  0
ARC
  8
1
  6
CONTINUOUS
 62
     7
 10
138.6412427893639
 20
234.1412427893639
 40
2.500000000000001
 50
225.0
 51
315.0
  0
LINE
  8
1
  6
CONTINUOUS
 62
     7
 10
147.1265241636025
 20
239.0909902576697
 11
140.4090097423303
 21
232.3734758363975
  0
ARC
  8
1
  6
CONTINUOUS
 62
     7
 10
145.3587572106361
 20
240.8587572106361
 40
2.500000000000001
 50
315.0
 51
45.0
  0
LINE
  8
1
  6
CONTINUOUS
 62
     7
 10
139.5
 20
125.0
 11
139.5
 21
132.5
  0
LINE
  8
1
  6
CONTINUOUS
 62
     7
 10
130.75
 20
125.0
 11
139.5
 21
125.0
  0
ARC
  8
1
  6
CONTINUOUS
 62
     7
 10
130.75
 20
130.0
 40
5.000000000000004
 50
179.9999999999998
 51
270.0
  0
LINE
  8
1
  6
CONTINUOUS
 62
     7
 10
125.75
 20
240.0
 11
125.75
 21
130.0
  0
ARC
  8
1
  6
CONTINUOUS
 62
     7
 10
130.75
 20
240.0
 40
5.000000000000004
 50
90.0
 51
180.0
  0
LINE
  8
1
  6
CONTINUOUS
 62
     7
 10
245.5
 20
245.0
 11
130.75
 21
245.0
  0
LINE
  8
1
  6
CONTINUOUS
 62
     7
 10
245.5
 20
237.5
 11
245.5
 21
245.0
  0
ARC
  8
1
  6
CONTINUOUS
 62
     7
 10
248.0
 20
237.5
 40
2.500000000000002
 50
180.0
 51
0.0
  0
LINE
  8
1
  6
CONTINUOUS
 62
     7
 10
250.5
 20
245.0
 11
250.5
 21
237.5
  0
LINE
  8
1
  6
CONTINUOUS
 62
     7
 10
259.25
 20
245.0
 11
250.5
 21
245.0
  0
ARC
  8
1
  6
CONTINUOUS
 62
     7
 10
259.25
 20
240.0
 40
5.000000000000004
 50
359.9999999999998
 51
90.0
  0
LINE
  8
1
  6
CONTINUOUS
 62
     7
 10
264.25
 20
130.0
 11
264.25
 21
240.0
  0
ARC
  8
1
  6
CONTINUOUS
 62
     7
 10
259.25
 20
130.0
 40
4.999999999999997
 50
270.0
 51
0.0
  0
LINE
  8
1
  6
CONTINUOUS
 62
     7
 10
250.5
 20
125.0
 11
259.25
 21
125.0
  0
LINE
  8
1
  6
CONTINUOUS
 62
     7
 10
250.5
 20
132.5
 11
250.5
 21
125.0
  0
ARC
  8
1
  6
CONTINUOUS
 62
     7
 10
248.0
 20
132.5
 40
2.500000000000002
 50
0.0
 51
180.0
  0
LINE
  8
1
  6
CONTINUOUS
 62
     7
 10
245.5
 20
125.0
 11
245.5
 21
132.5
  0
LINE
  8
1
  6
CONTINUOUS
 62
     7
 10
144.5
 20
125.0
 11
245.5
 21
125.0
  0
LINE
  8
1
  6
CONTINUOUS
 62
     7
 10
144.5
 20
132.5
 11
144.5
 21
125.0
  0
ARC
  8
1
  6
CONTINUOUS
 62
     7
 10
142.0
 20
132.5
 40
2.500000000000002
 50
0.0
 51
180.0
  0
CIRCLE
  8
1
  6
CONTINUOUS
 62
     7
 10
218.0
 20
143.25
 40
1.649999999999999
  0
CIRCLE
  8
1
  6
CONTINUOUS
 62
     7
 10
218.0
 20
226.75
 40
1.649999999999999
  0
CIRCLE
  8
1
  6
CONTINUOUS
 62
     7
 10
172.0
 20
143.25
 40
1.649999999999999
  0
CIRCLE
  8
1
  6
CONTINUOUS
 62
     7
 10
172.0
 20
226.75
 40
1.649999999999999
  0
ARC
  8
1
  6
CONTINUOUS
 62
     7
 10
180.0
 20
142.5
 40
3.500000000000003
 50
180.0000000000002
 51
270.0
  0
LINE
  8
1
  6
CONTINUOUS
 62
     7
 10
210.0
 20
139.0
 11
180.0
 21
139.0
  0
ARC
  8
1
  6
CONTINUOUS
 62
     7
 10
210.0
 20
142.5
 40
3.499999999999996
 50
270.0
 51
0.0
  0
LINE
  8
1
  6
CONTINUOUS
 62
     7
 10
213.5
 20
143.25
 11
213.5
 21
142.5
  0
ARC
  8
1
  6
CONTINUOUS
 62
     7
 10
218.0
 20
143.25
 40
4.5
 50
0.0
 51
180.0
  0
LINE
  8
1
  6
CONTINUOUS
 62
     7
 10
222.5
 20
142.5
 11
222.5
 21
143.25
  0
ARC
  8
1
  6
CONTINUOUS
 62
     7
 10
226.0
 20
142.5
 40
3.500000000000003
 50
180.0
 51
270.0
  0
LINE
  8
1
  6
CONTINUOUS
 62
     7
 10
242.0
 20
139.0
 11
226.0
 21
139.0
  0
ARC
  8
1
  6
CONTINUOUS
 62
     7
 10
242.0
 20
142.5
 40
3.500000000000003
 50
270.0000000000001
 51
359.9999999999998
  0
LINE
  8
1
  6
CONTINUOUS
 62
     7
 10
245.5
 20
227.5
 11
245.5
 21
142.5
  0
ARC
  8
1
  6
CONTINUOUS
 62
     7
 10
242.0
 20
227.5
 40
3.500000000000003
 50
0.0
 51
89.9999999999999
  0
LINE
  8
1
  6
CONTINUOUS
 62
     7
 10
226.0
 20
231.0
 11
242.0
 21
231.0
  0
ARC
  8
1
  6
CONTINUOUS
 62
     7
 10
226.0
 20
227.5
 40
3.500000000000003
 50
90.0
 51
180.0
  0
LINE
  8
1
  6
CONTINUOUS
 62
     7
 10
222.5
 20
226.75
 11
222.5
 21
227.5
  0
ARC
  8
1
  6
CONTINUOUS
 62
     7
 10
218.0
 20
226.75
 40
4.5
 50
180.0
 51
0.0
  0
LINE
  8
1
  6
CONTINUOUS
 62
     7
 10
213.5
 20
227.5
 11
213.5
 21
226.75
  0
ARC
  8
1
  6
CONTINUOUS
 62
     7
 10
210.0
 20
227.5
 40
3.499999999999996
 50
0.0
 51
90.0
  0
LINE
  8
1
  6
CONTINUOUS
 62
     7
 10
180.0
 20
231.0
 11
210.0
 21
231.0
  0
ARC
  8
1
  6
CONTINUOUS
 62
     7
 10
180.0
 20
227.5
 40
3.500000000000003
 50
90.0
 51
179.9999999999998
  0
LINE
  8
1
  6
CONTINUOUS
 62
     7
 10
176.5
 20
226.75
 11
176.5
 21
227.5
  0
ARC
  8
1
  6
CONTINUOUS
 62
     7
 10
172.0
 20
226.75
 40
4.5
 50
180.0
 51
0.0
  0
LINE
  8
1
  6
CONTINUOUS
 62
     7
 10
167.5
 20
227.5
 11
167.5
 21
226.75
  0
ARC
  8
1
  6
CONTINUOUS
 62
     7
 10
164.0
 20
227.5
 40
3.500000000000003
 50
0.0
 51
90.0
  0
LINE
  8
1
  6
CONTINUOUS
 62
     7
 10
148.0
 20
231.0
 11
164.0
 21
231.0
  0
ARC
  8
1
  6
CONTINUOUS
 62
     7
 10
148.0
 20
227.5
 40
3.500000000000003
 50
90.00000000000011
 51
179.9999999999999
  0
LINE
  8
1
  6
CONTINUOUS
 62
     7
 10
144.5
 20
142.5
 11
144.5
 21
227.5
  0
ARC
  8
1
  6
CONTINUOUS
 62
     7
 10
148.0
 20
142.5
 40
3.500000000000003
 50
180.0000000000001
 51
269.9999999999999
  0
LINE
  8
1
  6
CONTINUOUS
 62
     7
 10
164.0
 20
139.0
 11
148.0
 21
139.0
  0
ARC
  8
1
  6
CONTINUOUS
 62
     7
 10
164.0
 20
142.5
 40
3.500000000000003
 50
269.9999999999999
 51
0.0
  0
LINE
  8
1
  6
CONTINUOUS
 62
     7
 10
167.5
 20
143.25
 11
167.5
 21
142.5
  0
ARC
  8
1
  6
CONTINUOUS
 62
     7
 10
172.0
 20
143.25
 40
4.5
 50
0.0
 51
180.0
  0
LINE
  8
1
  6
CONTINUOUS
 62
     7
 10
176.5
 20
142.5
 11
176.5
 21
143.25
  0
ENDBLK
  8
0
  0
BLOCK
  8
0
  2
D_FRAME_DRAWING_17
 70
     0
 10
0.0
 20
0.0
  0
LINE
  8
0
  6
CONTINUOUS
 62
     7
 10
0.0
 20
0.0
 11
420.0
 21
0.0
  0
LINE
  8
0
  6
CONTINUOUS
 62
     7
 10
420.0
 20
0.0
 11
420.0
 21
297.0
  0
LINE
  8
0
  6
CONTINUOUS
 62
     7
 10
420.0
 20
297.0
 11
0.0
 21
297.0
  0
LINE
  8
0
  6
CONTINUOUS
 62
     7
 10
0.0
 20
297.0
 11
0.0
 21
0.0
  0
ENDBLK
  8
0
  0
ENDSEC
  0
SECTION
  2
ENTITIES
  0
INSERT
  8
1
  6
CONTINUOUS
 62
     7
  2
D_FRAME_VIEW_1653
 10
0.0
 20
0.0
 30
0.0
  0
INSERT
  8
1
  6
CONTINUOUS
 62
     7
  2
D_FRAME_VIEW_1626
 10
0.0
 20
0.0
 30
0.0
  0
TEXT
  8
1
  6
CONTINUOUS
 62
     7
 10
284.4842190821558
 20
95.5424534200325
 40
8.0
  1
OF-12CSW2F
  0
LINE
  8
1
  6
CENTER
 62
     1
 10
310.3
 20
185.0
 11
304.7
 21
185.0
  0
INSERT
  8
1
  6
CONTINUOUS
 62
     7
  2
D_FRAME_VIEW_1445
 10
0.0
 20
0.0
 30
0.0
  0
LINE
  8
1
  6
CENTER
 62
     1
 10
195.0
 20
89.7
 11
195.0
 21
95.30000000000001
  0
LINE
  8
1
  6
CENTER
 62
     1
 10
165.5
 20
226.75
 11
178.5
 21
226.75
  0
LINE
  8
1
  6
CENTER
 62
     1
 10
211.5
 20
143.25
 11
224.5
 21
143.25
  0
INSERT
  8
0
 62
     7
  2
D_FRAME_DRAWING_17
 10
0.0
 20
0.0
 30
0.0
  0
LINE
  8
1
  6
CENTER
 62
     1
 10
172.0
 20
125.0
 11
172.0
 21
245.0
  0
LINE
  8
1
  6
CENTER
 62
     1
 10
264.25
 20
185.0
 11
125.75
 21
185.0
  0
LINE
  8
1
  6
CENTER
 62
     1
 10
218.0
 20
125.0
 11
218.0
 21
245.0
  0
LINE
  8
1
  6
CENTER
 62
     1
 10
195.0
 20
245.0
 11
195.0
 21
125.0
  0
ENDSEC
  0
EOF
