  0
SECTION
  2
HEADER
  9
$ACADVER
  1
AC1004
  9
$INSBASE
 10
0.0
 20
0.0
  9
$EXTMIN
 10
0.0
 20
0.0
  9
$EXTMAX
 10
404.2371507359818
 20
227.5
  9
$LIMMIN
 10
0.0
 20
0.0
  9
$LIMMAX
 10
12.0
 20
9.0
  9
$ORTHOMODE
 70
     0
  9
$REGENMODE
 70
     1
  9
$FILLMODE
 70
     1
  9
$QTEXTMODE
 70
     0
  9
$DRAGMODE
 70
     2
  9
$LTSCALE
 40
1.0
  9
$OSMODE
 70
    37
  9
$ATTMODE
 70
     1
  9
$TEXTSIZE
 40
0.2
  9
$TRACEWID
 40
0.05
  9
$TEXTSTYLE
  7
STANDARD
  9
$CLAYER
  8
0
  9
$CELTYPE
  6
BYLAYER
  9
$CECOLOR
 62
   256
  9
$DIMSCALE
 40
1.0
  9
$DIMASZ
 40
3.0
  9
$DIMEXO
 40
0.0625
  9
$DIMDLI
 40
0.38
  9
$DIMRND
 40
0.0
  9
$DIMDLE
 40
0.0
  9
$DIMEXE
 40
1.5
  9
$DIMTP
 40
0.0
  9
$DIMTM
 40
0.0
  9
$DIMTXT
 40
3.0
  9
$DIMCEN
 40
0.09
  9
$DIMTSZ
 40
0.0
  9
$DIMTOL
 70
     0
  9
$DIMLIM
 70
     0
  9
$DIMTIH
 70
     1
  9
$DIMTOH
 70
     1
  9
$DIMSE1
 70
     0
  9
$DIMSE2
 70
     0
  9
$DIMTAD
 70
     1
  9
$DIMZIN
 70
     0
  9
$DIMBLK
  1

  9
$DIMASO
 70
     1
  9
$DIMSHO
 70
     1
  9
$DIMPOST
  1

  9
$DIMAPOST
  1

  9
$DIMALT
 70
     0
  9
$DIMALTD
 70
     2
  9
$DIMALTF
 40
25.4
  9
$DIMLFAC
 40
1.0
  9
$DIMTOFL
 70
     0
  9
$DIMTVP
 40
0.0
  9
$DIMTIX
 70
     0
  9
$DIMSOXD
 70
     0
  9
$DIMSAH
 70
     0
  9
$DIMBLK1
  1

  9
$DIMBLK2
  1

  9
$LUNITS
 70
     2
  9
$LUPREC
 70
     4
  9
$SKETCHINC
 40
0.1
  9
$FILLETRAD
 40
0.5
  9
$AUNITS
 70
     0
  9
$AUPREC
 70
     0
  9
$MENU
  1
.
  9
$ELEVATION
 40
0.0
  9
$THICKNESS
 40
0.0
  9
$LIMCHECK
 70
     0
  9
$CHAMFERA
 40
0.0
  9
$CHAMFERB
 40
0.0
  9
$SKPOLY
 70
     0
  9
$TDCREATE
 40
2460474.645841725
  9
$TDUPDATE
 40
2460474.645846285
  9
$TDINDWG
 40
0.0000000116
  9
$TDUSRTIMER
 40
0.0000000116
  9
$USRTIMER
 70
     1
  9
$ANGBASE
 50
0.0
  9
$ANGDIR
 70
     0
  9
$PDMODE
 70
     0
  9
$PDSIZE
 40
0.0
  9
$PLINEWID
 40
0.0
  9
$COORDS
 70
     1
  9
$SPLFRAME
 70
     0
  9
$SPLINETYPE
 70
     6
  9
$SPLINESEGS
 70
     8
  9
$ATTDIA
 70
     0
  9
$ATTREQ
 70
     1
  9
$SURFTAB1
 70
     6
  9
$SURFTAB2
 70
     6
  9
$SURFTYPE
 70
     6
  9
$SURFU
 70
     6
  9
$SURFV
 70
     6
  9
$UCSNAME
  2

  9
$UCSORG
 10
0.0
 20
0.0
 30
0.0
  9
$UCSXDIR
 10
1.0
 20
0.0
 30
0.0
  9
$UCSYDIR
 10
0.0
 20
1.0
 30
0.0
  9
$USERI1
 70
     0
  9
$USERI2
 70
     0
  9
$USERI3
 70
     0
  9
$USERI4
 70
     0
  9
$USERI5
 70
     0
  9
$USERR1
 40
0.0
  9
$USERR2
 40
0.0
  9
$USERR3
 40
0.0
  9
$USERR4
 40
0.0
  9
$USERR5
 40
0.0
  9
$WORLDVIEW
 70
     1
  0
ENDSEC
  0
SECTION
  2
TABLES
  0
TABLE
  2
LTYPE
 70
     2
  0
LTYPE
  2
CONTINUOUS
 70
     0
  3
Solid line
 72
    65
 73
     0
 40
0.0
  0
LTYPE
  2
CENTER
 70
     0
  3

 72
    65
 73
     0
 40
0.0
  0
ENDTAB
  0
TABLE
  2
LAYER
 70
     2
  0
LAYER
  2
0
 70
     0
 62
     7
  6
CONTINUOUS
  0
LAYER
  2
1
 70
     0
 62
     7
  6
CONTINUOUS
  0
ENDTAB
  0
TABLE
  2
STYLE
 70
     2
  0
STYLE
  2
STANDARD
 70
     0
 40
0.0
 41
1.0
 50
0.0
 71
     0
 42
0.2
  3
txt
  4

  0
STYLE
  2
ＭＳ_ゴシック
 70
     0
 40
0.0
 41
1.0
 50
0.0
 71
     0
 42
0.2
  3
ＭＳ ゴシック.shx
  4

  0
ENDTAB
  0
TABLE
  2
VIEW
 70
     0
  0
ENDTAB
  0
ENDSEC
  0
SECTION
  2
BLOCKS
  0
BLOCK
  8
0
  2
D_FRAME_VIEW_1659
 70
     0
 10
0.0
 20
0.0
  0
LINE
  8
1
  6
CONTINUOUS
 62
     7
 10
102.75
 20
71.69999999999993
 11
102.75
 21
73.29999999999993
  0
LINE
  8
1
  6
CONTINUOUS
 62
     7
 10
102.75
 20
71.69999999999993
 11
107.75
 21
71.69999999999993
  0
LINE
  8
1
  6
CONTINUOUS
 62
     7
 10
102.75
 20
73.29999999999993
 11
107.75
 21
73.29999999999993
  0
LINE
  8
1
  6
CONTINUOUS
 62
     7
 10
107.75
 20
71.69999999999993
 11
116.5
 21
71.69999999999995
  0
LINE
  8
1
  6
CONTINUOUS
 62
     7
 10
107.75
 20
73.29999999999993
 11
116.5
 21
73.29999999999993
  0
LINE
  8
1
  6
CONTINUOUS
 62
     7
 10
121.5
 20
71.69999999999995
 11
268.4999999999999
 21
71.69999999999995
  0
LINE
  8
1
  6
CONTINUOUS
 62
     7
 10
121.5
 20
73.29999999999993
 11
268.5
 21
73.29999999999993
  0
LINE
  8
1
  6
CONTINUOUS
 62
     7
 10
273.4999999999999
 20
71.69999999999995
 11
282.25
 21
71.69999999999993
  0
LINE
  8
1
  6
CONTINUOUS
 62
     7
 10
273.4999999999999
 20
73.29999999999993
 11
282.25
 21
73.29999999999993
  0
LINE
  8
1
  6
CONTINUOUS
 62
     7
 10
287.25
 20
71.69999999999993
 11
287.25
 21
73.29999999999993
  0
LINE
  8
1
  6
CONTINUOUS
 62
     7
 10
282.25
 20
71.69999999999993
 11
287.25
 21
71.69999999999993
  0
LINE
  8
1
  6
CONTINUOUS
 62
     7
 10
282.25
 20
73.29999999999993
 11
287.25
 21
73.29999999999993
  0
LINE
  8
1
  6
CONTINUOUS
 62
     7
 10
273.4999999999999
 20
71.69999999999995
 11
268.4999999999999
 21
71.69999999999995
  0
LINE
  8
1
  6
CONTINUOUS
 62
     7
 10
273.4999999999999
 20
73.29999999999993
 11
268.4999999999999
 21
73.29999999999993
  0
LINE
  8
1
  6
CONTINUOUS
 62
     7
 10
121.5
 20
71.69999999999995
 11
116.5
 21
71.69999999999995
  0
LINE
  8
1
  6
CONTINUOUS
 62
     7
 10
121.5
 20
73.29999999999993
 11
116.5
 21
73.29999999999993
  0
ENDBLK
  8
0
  0
BLOCK
  8
0
  2
D_FRAME_VIEW_1674
 70
     0
 10
0.0
 20
0.0
  0
LINE
  8
1
  6
CONTINUOUS
 62
     7
 10
333.3000000000001
 20
107.5
 11
331.7000000000001
 21
107.5
  0
LINE
  8
1
  6
CONTINUOUS
 62
     7
 10
333.3000000000001
 20
107.5
 11
333.3000000000001
 21
112.5
  0
LINE
  8
1
  6
CONTINUOUS
 62
     7
 10
331.7000000000001
 20
107.5
 11
331.7000000000001
 21
112.5
  0
LINE
  8
1
  6
CONTINUOUS
 62
     7
 10
333.3000000000001
 20
112.5
 11
333.3000000000001
 21
222.5
  0
LINE
  8
1
  6
CONTINUOUS
 62
     7
 10
331.7000000000001
 20
112.5
 11
331.7000000000001
 21
222.5
  0
LINE
  8
1
  6
CONTINUOUS
 62
     7
 10
333.3000000000001
 20
227.5
 11
331.7000000000001
 21
227.5
  0
LINE
  8
1
  6
CONTINUOUS
 62
     7
 10
333.3000000000001
 20
222.5
 11
333.3000000000001
 21
227.5
  0
LINE
  8
1
  6
CONTINUOUS
 62
     7
 10
331.7000000000001
 20
222.5
 11
331.7000000000001
 21
227.5
  0
LINE
  8
1
  6
CONTINUOUS
 62
     7
 10
331.6625000000001
 20
109.6002485795455
 11
331.7000000000001
 21
109.6002485795455
  0
ENDBLK
  8
0
  0
BLOCK
  8
0
  2
D_FRAME_VIEW_1444
 70
     0
 10
0.0
 20
0.0
  0
LINE
  8
1
  6
CONTINUOUS
 62
     7
 10
243.4999999999999
 20
121.75
 11
243.4999999999999
 21
118.75
  0
LINE
  8
1
  6
CONTINUOUS
 62
     7
 10
238.4999999999999
 20
121.75
 11
243.4999999999999
 21
121.75
  0
LINE
  8
1
  6
CONTINUOUS
 62
     7
 10
238.4999999999999
 20
118.75
 11
238.4999999999999
 21
121.75
  0
LINE
  8
1
  6
CONTINUOUS
 62
     7
 10
243.4999999999999
 20
118.7499999999999
 11
238.4999999999999
 21
118.75
  0
LINE
  8
1
  6
CONTINUOUS
 62
     7
 10
197.4999999999999
 20
121.75
 11
197.4999999999999
 21
118.75
  0
LINE
  8
1
  6
CONTINUOUS
 62
     7
 10
192.4999999999999
 20
121.75
 11
197.4999999999999
 21
121.75
  0
LINE
  8
1
  6
CONTINUOUS
 62
     7
 10
192.4999999999999
 20
118.75
 11
192.4999999999999
 21
121.75
  0
LINE
  8
1
  6
CONTINUOUS
 62
     7
 10
197.4999999999999
 20
118.7499999999999
 11
192.5
 21
118.75
  0
LINE
  8
1
  6
CONTINUOUS
 62
     7
 10
151.5
 20
121.75
 11
151.5
 21
118.75
  0
LINE
  8
1
  6
CONTINUOUS
 62
     7
 10
146.5
 20
121.75
 11
151.5
 21
121.75
  0
LINE
  8
1
  6
CONTINUOUS
 62
     7
 10
146.5
 20
118.75
 11
146.5
 21
121.75
  0
LINE
  8
1
  6
CONTINUOUS
 62
     7
 10
151.4999999999999
 20
118.7499999999999
 11
146.5
 21
118.75
  0
LINE
  8
1
  6
CONTINUOUS
 62
     7
 10
243.4999999999999
 20
216.2500000000001
 11
243.4999999999999
 21
213.2500000000001
  0
LINE
  8
1
  6
CONTINUOUS
 62
     7
 10
238.4999999999999
 20
216.2500000000001
 11
243.4999999999999
 21
216.2500000000001
  0
LINE
  8
1
  6
CONTINUOUS
 62
     7
 10
238.4999999999999
 20
213.2500000000001
 11
238.4999999999999
 21
216.2500000000001
  0
LINE
  8
1
  6
CONTINUOUS
 62
     7
 10
243.4999999999999
 20
213.2500000000001
 11
238.4999999999999
 21
213.2500000000001
  0
LINE
  8
1
  6
CONTINUOUS
 62
     7
 10
197.4999999999999
 20
216.2500000000001
 11
197.4999999999999
 21
213.2500000000001
  0
LINE
  8
1
  6
CONTINUOUS
 62
     7
 10
192.4999999999999
 20
216.2500000000001
 11
197.4999999999999
 21
216.2500000000001
  0
LINE
  8
1
  6
CONTINUOUS
 62
     7
 10
192.4999999999999
 20
213.2500000000001
 11
192.4999999999999
 21
216.2500000000001
  0
LINE
  8
1
  6
CONTINUOUS
 62
     7
 10
197.4999999999999
 20
213.2500000000001
 11
192.4999999999999
 21
213.2500000000001
  0
LINE
  8
1
  6
CONTINUOUS
 62
     7
 10
151.4999999999999
 20
216.2500000000001
 11
151.4999999999999
 21
213.2500000000001
  0
LINE
  8
1
  6
CONTINUOUS
 62
     7
 10
146.5
 20
216.2500000000001
 11
151.5
 21
216.2500000000001
  0
LINE
  8
1
  6
CONTINUOUS
 62
     7
 10
146.5
 20
213.2500000000001
 11
146.5
 21
216.2500000000001
  0
LINE
  8
1
  6
CONTINUOUS
 62
     7
 10
151.5
 20
213.2500000000001
 11
146.5
 21
213.2500000000001
  0
CIRCLE
  8
1
  6
CONTINUOUS
 62
     7
 10
283.25
 20
167.5
 40
1.500000000000001
  0
CIRCLE
  8
1
  6
CONTINUOUS
 62
     7
 10
106.75
 20
167.5
 40
1.500000000000001
  0
ARC
  8
1
  6
CONTINUOUS
 62
     7
 10
115.6412427893639
 20
216.6412427893639
 40
2.500000000000001
 50
225.0000000000001
 51
314.9999999999998
  0
LINE
  8
1
  6
CONTINUOUS
 62
     7
 10
124.1265241636025
 20
221.5909902576697
 11
117.4090097423303
 21
214.8734758363975
  0
ARC
  8
1
  6
CONTINUOUS
 62
     7
 10
122.3587572106361
 20
223.3587572106361
 40
2.499999999999991
 50
314.9999999999998
 51
44.99999999999955
  0
ARC
  8
1
  6
CONTINUOUS
 62
     7
 10
122.3587572106361
 20
223.3587572106361
 40
2.500000000000006
 50
44.99999999999989
 51
135.0
  0
LINE
  8
1
  6
CONTINUOUS
 62
     7
 10
113.8734758363975
 20
218.4090097423303
 11
120.5909902576697
 21
225.1265241636025
  0
ARC
  8
1
  6
CONTINUOUS
 62
     7
 10
115.6412427893639
 20
216.6412427893639
 40
2.499999999999996
 50
134.9999999999998
 51
224.9999999999997
  0
LINE
  8
1
  6
CONTINUOUS
 62
     7
 10
116.5
 20
107.5
 11
116.5
 21
115.0
  0
LINE
  8
1
  6
CONTINUOUS
 62
     7
 10
107.75
 20
107.5
 11
116.5
 21
107.5
  0
ARC
  8
1
  6
CONTINUOUS
 62
     7
 10
107.75
 20
112.5
 40
5.000000000000004
 50
179.9999999999998
 51
270.0
  0
LINE
  8
1
  6
CONTINUOUS
 62
     7
 10
102.75
 20
222.5
 11
102.75
 21
112.5
  0
ARC
  8
1
  6
CONTINUOUS
 62
     7
 10
107.75
 20
222.5
 40
5.000000000000004
 50
90.0
 51
180.0
  0
LINE
  8
1
  6
CONTINUOUS
 62
     7
 10
268.4999999999999
 20
227.5
 11
107.75
 21
227.5
  0
LINE
  8
1
  6
CONTINUOUS
 62
     7
 10
268.5
 20
220.0
 11
268.5
 21
227.5
  0
ARC
  8
1
  6
CONTINUOUS
 62
     7
 10
271.0
 20
220.0
 40
2.500000000000002
 50
180.0
 51
0.0
  0
LINE
  8
1
  6
CONTINUOUS
 62
     7
 10
273.4999999999999
 20
227.5
 11
273.4999999999999
 21
220.0
  0
LINE
  8
1
  6
CONTINUOUS
 62
     7
 10
282.25
 20
227.5
 11
273.4999999999999
 21
227.5
  0
ARC
  8
1
  6
CONTINUOUS
 62
     7
 10
282.25
 20
222.5
 40
5.000000000000004
 50
359.9999999999998
 51
90.0
  0
LINE
  8
1
  6
CONTINUOUS
 62
     7
 10
287.25
 20
112.5
 11
287.25
 21
222.5
  0
ARC
  8
1
  6
CONTINUOUS
 62
     7
 10
282.25
 20
112.5
 40
4.999999999999997
 50
270.0
 51
0.0
  0
LINE
  8
1
  6
CONTINUOUS
 62
     7
 10
273.4999999999999
 20
107.5
 11
282.25
 21
107.5
  0
LINE
  8
1
  6
CONTINUOUS
 62
     7
 10
273.4999999999999
 20
115.0
 11
273.4999999999999
 21
107.5
  0
ARC
  8
1
  6
CONTINUOUS
 62
     7
 10
271.0
 20
115.0
 40
2.500000000000002
 50
0.0
 51
180.0
  0
LINE
  8
1
  6
CONTINUOUS
 62
     7
 10
268.5
 20
107.5
 11
268.5
 21
115.0
  0
LINE
  8
1
  6
CONTINUOUS
 62
     7
 10
121.5
 20
107.5
 11
268.5
 21
107.5
  0
LINE
  8
1
  6
CONTINUOUS
 62
     7
 10
121.5
 20
115.0
 11
121.5
 21
107.5
  0
ARC
  8
1
  6
CONTINUOUS
 62
     7
 10
119.0
 20
115.0
 40
2.500000000000002
 50
0.0
 51
180.0
  0
CIRCLE
  8
1
  6
CONTINUOUS
 62
     7
 10
241.0
 20
125.75
 40
1.649999999999999
  0
CIRCLE
  8
1
  6
CONTINUOUS
 62
     7
 10
195.0
 20
125.75
 40
1.649999999999999
  0
CIRCLE
  8
1
  6
CONTINUOUS
 62
     7
 10
149.0
 20
125.75
 40
1.649999999999999
  0
CIRCLE
  8
1
  6
CONTINUOUS
 62
     7
 10
241.0
 20
209.25
 40
1.649999999999999
  0
CIRCLE
  8
1
  6
CONTINUOUS
 62
     7
 10
195.0
 20
209.25
 40
1.649999999999999
  0
CIRCLE
  8
1
  6
CONTINUOUS
 62
     7
 10
149.0
 20
209.25
 40
1.649999999999999
  0
LINE
  8
1
  6
CONTINUOUS
 62
     7
 10
245.5
 20
125.0
 11
245.5
 21
125.75
  0
ARC
  8
1
  6
CONTINUOUS
 62
     7
 10
249.0
 20
125.0
 40
3.500000000000003
 50
180.0
 51
270.0000000000001
  0
LINE
  8
1
  6
CONTINUOUS
 62
     7
 10
265.0
 20
121.5
 11
249.0
 21
121.5
  0
ARC
  8
1
  6
CONTINUOUS
 62
     7
 10
265.0
 20
125.0
 40
3.500000000000003
 50
270.0
 51
359.9999999999998
  0
LINE
  8
1
  6
CONTINUOUS
 62
     7
 10
268.4999999999999
 20
210.0
 11
268.4999999999999
 21
125.0
  0
ARC
  8
1
  6
CONTINUOUS
 62
     7
 10
265.0
 20
210.0
 40
3.500000000000003
 50
0.0
 51
90.0
  0
LINE
  8
1
  6
CONTINUOUS
 62
     7
 10
249.0
 20
213.5
 11
264.9999999999999
 21
213.5
  0
ARC
  8
1
  6
CONTINUOUS
 62
     7
 10
249.0
 20
210.0
 40
3.500000000000003
 50
89.9999999999999
 51
180.0
  0
LINE
  8
1
  6
CONTINUOUS
 62
     7
 10
245.5
 20
209.25
 11
245.5
 21
210.0
  0
ARC
  8
1
  6
CONTINUOUS
 62
     7
 10
241.0
 20
209.25
 40
4.500000000000004
 50
179.9999999999999
 51
0.0000000000001137
  0
LINE
  8
1
  6
CONTINUOUS
 62
     7
 10
236.5
 20
210.0
 11
236.5
 21
209.25
  0
ARC
  8
1
  6
CONTINUOUS
 62
     7
 10
233.0
 20
210.0
 40
3.500000000000003
 50
0.0000000000002274
 51
90.0
  0
LINE
  8
1
  6
CONTINUOUS
 62
     7
 10
203.0
 20
213.5
 11
233.0
 21
213.5
  0
ARC
  8
1
  6
CONTINUOUS
 62
     7
 10
203.0
 20
210.0
 40
3.500000000000003
 50
90.00000000000011
 51
180.0
  0
LINE
  8
1
  6
CONTINUOUS
 62
     7
 10
199.5
 20
209.25
 11
199.5
 21
210.0
  0
ARC
  8
1
  6
CONTINUOUS
 62
     7
 10
195.0
 20
209.25
 40
4.499999999999997
 50
179.9999999999999
 51
0.0000000000001137
  0
LINE
  8
1
  6
CONTINUOUS
 62
     7
 10
190.5
 20
210.0
 11
190.5
 21
209.2500000000001
  0
ARC
  8
1
  6
CONTINUOUS
 62
     7
 10
187.0
 20
210.0
 40
3.500000000000003
 50
0.0
 51
89.9999999999999
  0
LINE
  8
1
  6
CONTINUOUS
 62
     7
 10
157.0
 20
213.5
 11
187.0
 21
213.5
  0
ARC
  8
1
  6
CONTINUOUS
 62
     7
 10
157.0
 20
210.0
 40
3.500000000000003
 50
90.0
 51
179.9999999999998
  0
LINE
  8
1
  6
CONTINUOUS
 62
     7
 10
153.5
 20
209.25
 11
153.5
 21
210.0
  0
ARC
  8
1
  6
CONTINUOUS
 62
     7
 10
149.0
 20
209.25
 40
4.500000000000004
 50
179.9999999999999
 51
0.0
  0
LINE
  8
1
  6
CONTINUOUS
 62
     7
 10
144.5
 20
210.0
 11
144.5
 21
209.2500000000001
  0
ARC
  8
1
  6
CONTINUOUS
 62
     7
 10
141.0
 20
210.0
 40
3.500000000000003
 50
0.0
 51
90.00000000000011
  0
LINE
  8
1
  6
CONTINUOUS
 62
     7
 10
125.0
 20
213.5
 11
141.0
 21
213.5
  0
ARC
  8
1
  6
CONTINUOUS
 62
     7
 10
125.0
 20
210.0
 40
3.500000000000003
 50
90.0
 51
179.9999999999999
  0
LINE
  8
1
  6
CONTINUOUS
 62
     7
 10
121.5
 20
125.0
 11
121.5
 21
210.0
  0
ARC
  8
1
  6
CONTINUOUS
 62
     7
 10
125.0
 20
125.0
 40
3.500000000000003
 50
180.0000000000001
 51
270.0
  0
LINE
  8
1
  6
CONTINUOUS
 62
     7
 10
141.0
 20
121.5
 11
125.0
 21
121.5
  0
ARC
  8
1
  6
CONTINUOUS
 62
     7
 10
141.0
 20
125.0
 40
3.500000000000003
 50
269.9999999999999
 51
0.0
  0
LINE
  8
1
  6
CONTINUOUS
 62
     7
 10
144.5
 20
125.75
 11
144.5
 21
125.0
  0
ARC
  8
1
  6
CONTINUOUS
 62
     7
 10
149.0
 20
125.75
 40
4.500000000000004
 50
359.9999999999998
 51
180.0
  0
LINE
  8
1
  6
CONTINUOUS
 62
     7
 10
153.5
 20
125.0
 11
153.5
 21
125.75
  0
ARC
  8
1
  6
CONTINUOUS
 62
     7
 10
157.0
 20
125.0
 40
3.500000000000003
 50
180.0000000000002
 51
270.0
  0
LINE
  8
1
  6
CONTINUOUS
 62
     7
 10
187.0
 20
121.5
 11
157.0
 21
121.5
  0
ARC
  8
1
  6
CONTINUOUS
 62
     7
 10
187.0
 20
125.0
 40
3.500000000000003
 50
270.0000000000001
 51
0.0
  0
LINE
  8
1
  6
CONTINUOUS
 62
     7
 10
190.5
 20
125.75
 11
190.5
 21
125.0
  0
ARC
  8
1
  6
CONTINUOUS
 62
     7
 10
195.0
 20
125.75
 40
4.499999999999997
 50
0.0
 51
180.0000000000001
  0
LINE
  8
1
  6
CONTINUOUS
 62
     7
 10
199.5
 20
125.0
 11
199.5
 21
125.75
  0
ARC
  8
1
  6
CONTINUOUS
 62
     7
 10
203.0
 20
125.0
 40
3.500000000000003
 50
180.0
 51
269.9999999999999
  0
LINE
  8
1
  6
CONTINUOUS
 62
     7
 10
233.0
 20
121.5
 11
203.0
 21
121.5
  0
ARC
  8
1
  6
CONTINUOUS
 62
     7
 10
233.0
 20
125.0
 40
3.500000000000003
 50
270.0
 51
0.0
  0
LINE
  8
1
  6
CONTINUOUS
 62
     7
 10
236.5
 20
125.75
 11
236.5
 21
125.0
  0
ARC
  8
1
  6
CONTINUOUS
 62
     7
 10
241.0
 20
125.75
 40
4.500000000000004
 50
359.9999999999998
 51
180.0
  0
ENDBLK
  8
0
  0
BLOCK
  8
0
  2
D_FRAME_DRAWING_17
 70
     0
 10
0.0
 20
0.0
  0
LINE
  8
0
  6
CONTINUOUS
 62
     7
 10
0.0
 20
0.0
 11
420.0
 21
0.0
  0
LINE
  8
0
  6
CONTINUOUS
 62
     7
 10
420.0
 20
0.0
 11
420.0
 21
297.0
  0
LINE
  8
0
  6
CONTINUOUS
 62
     7
 10
420.0
 20
297.0
 11
0.0
 21
297.0
  0
LINE
  8
0
  6
CONTINUOUS
 62
     7
 10
0.0
 20
297.0
 11
0.0
 21
0.0
  0
ENDBLK
  8
0
  0
ENDSEC
  0
SECTION
  2
ENTITIES
  0
TEXT
  8
1
  6
CONTINUOUS
 62
     7
 10
304.4842190821558
 20
70.54245342003252
 40
8.0
  1
OF-12CSW3F
  0
INSERT
  8
1
  6
CONTINUOUS
 62
     7
  2
D_FRAME_VIEW_1659
 10
0.0
 20
0.0
 30
0.0
  0
INSERT
  8
1
  6
CONTINUOUS
 62
     7
  2
D_FRAME_VIEW_1674
 10
0.0
 20
0.0
 30
0.0
  0
LINE
  8
1
  6
CENTER
 62
     1
 10
195.0
 20
69.69999999999993
 11
195.0
 21
75.29999999999994
  0
LINE
  8
1
  6
CENTER
 62
     1
 10
335.3000000000001
 20
167.5
 11
329.7000000000001
 21
167.5
  0
INSERT
  8
1
  6
CONTINUOUS
 62
     7
  2
D_FRAME_VIEW_1444
 10
0.0
 20
0.0
 30
0.0
  0
INSERT
  8
0
 62
     7
  2
D_FRAME_DRAWING_17
 10
0.0
 20
0.0
 30
0.0
  0
LINE
  8
1
  6
CENTER
 62
     1
 10
144.5
 20
209.25
 11
245.5
 21
209.25
  0
LINE
  8
1
  6
CENTER
 62
     1
 10
241.0
 20
107.5
 11
241.0
 21
227.5
  0
LINE
  8
1
  6
CENTER
 62
     1
 10
149.0
 20
107.5
 11
149.0
 21
227.5
  0
LINE
  8
1
  6
CENTER
 62
     1
 10
144.5
 20
125.75
 11
245.5
 21
125.75
  0
LINE
  8
1
  6
CENTER
 62
     1
 10
102.75
 20
167.5
 11
287.25
 21
167.5
  0
LINE
  8
1
  6
CENTER
 62
     1
 10
195.0
 20
107.5
 11
195.0
 21
227.5
  0
ENDSEC
  0
EOF
