  0
SECTION
  2
HEADER
  9
$ACADVER
  1
AC1004
  9
$INSBASE
 10
0.0
 20
0.0
  9
$EXTMIN
 10
0.0
 20
0.0
  9
$EXTMAX
 10
404.2371507359818
 20
225.0
  9
$LIMMIN
 10
0.0
 20
0.0
  9
$LIMMAX
 10
12.0
 20
9.0
  9
$ORTHOMODE
 70
     0
  9
$REGENMODE
 70
     1
  9
$FILLMODE
 70
     1
  9
$QTEXTMODE
 70
     0
  9
$DRAGMODE
 70
     2
  9
$LTSCALE
 40
1.0
  9
$OSMODE
 70
    37
  9
$ATTMODE
 70
     1
  9
$TEXTSIZE
 40
0.2
  9
$TRACEWID
 40
0.05
  9
$TEXTSTYLE
  7
STANDARD
  9
$CLAYER
  8
0
  9
$CELTYPE
  6
BYLAYER
  9
$CECOLOR
 62
   256
  9
$DIMSCALE
 40
1.0
  9
$DIMASZ
 40
3.0
  9
$DIMEXO
 40
0.0625
  9
$DIMDLI
 40
0.38
  9
$DIMRND
 40
0.0
  9
$DIMDLE
 40
0.0
  9
$DIMEXE
 40
1.5
  9
$DIMTP
 40
0.0
  9
$DIMTM
 40
0.0
  9
$DIMTXT
 40
3.0
  9
$DIMCEN
 40
0.09
  9
$DIMTSZ
 40
0.0
  9
$DIMTOL
 70
     0
  9
$DIMLIM
 70
     0
  9
$DIMTIH
 70
     1
  9
$DIMTOH
 70
     1
  9
$DIMSE1
 70
     0
  9
$DIMSE2
 70
     0
  9
$DIMTAD
 70
     1
  9
$DIMZIN
 70
     0
  9
$DIMBLK
  1

  9
$DIMASO
 70
     1
  9
$DIMSHO
 70
     1
  9
$DIMPOST
  1

  9
$DIMAPOST
  1

  9
$DIMALT
 70
     0
  9
$DIMALTD
 70
     2
  9
$DIMALTF
 40
25.4
  9
$DIMLFAC
 40
1.0
  9
$DIMTOFL
 70
     0
  9
$DIMTVP
 40
0.0
  9
$DIMTIX
 70
     0
  9
$DIMSOXD
 70
     0
  9
$DIMSAH
 70
     0
  9
$DIMBLK1
  1

  9
$DIMBLK2
  1

  9
$LUNITS
 70
     2
  9
$LUPREC
 70
     4
  9
$SKETCHINC
 40
0.1
  9
$FILLETRAD
 40
0.5
  9
$AUNITS
 70
     0
  9
$AUPREC
 70
     0
  9
$MENU
  1
.
  9
$ELEVATION
 40
0.0
  9
$THICKNESS
 40
0.0
  9
$LIMCHECK
 70
     0
  9
$CHAMFERA
 40
0.0
  9
$CHAMFERB
 40
0.0
  9
$SKPOLY
 70
     0
  9
$TDCREATE
 40
2460474.645679132
  9
$TDUPDATE
 40
2460474.645683646
  9
$TDINDWG
 40
0.0000000116
  9
$TDUSRTIMER
 40
0.0000000116
  9
$USRTIMER
 70
     1
  9
$ANGBASE
 50
0.0
  9
$ANGDIR
 70
     0
  9
$PDMODE
 70
     0
  9
$PDSIZE
 40
0.0
  9
$PLINEWID
 40
0.0
  9
$COORDS
 70
     1
  9
$SPLFRAME
 70
     0
  9
$SPLINETYPE
 70
     6
  9
$SPLINESEGS
 70
     8
  9
$ATTDIA
 70
     0
  9
$ATTREQ
 70
     1
  9
$SURFTAB1
 70
     6
  9
$SURFTAB2
 70
     6
  9
$SURFTYPE
 70
     6
  9
$SURFU
 70
     6
  9
$SURFV
 70
     6
  9
$UCSNAME
  2

  9
$UCSORG
 10
0.0
 20
0.0
 30
0.0
  9
$UCSXDIR
 10
1.0
 20
0.0
 30
0.0
  9
$UCSYDIR
 10
0.0
 20
1.0
 30
0.0
  9
$USERI1
 70
     0
  9
$USERI2
 70
     0
  9
$USERI3
 70
     0
  9
$USERI4
 70
     0
  9
$USERI5
 70
     0
  9
$USERR1
 40
0.0
  9
$USERR2
 40
0.0
  9
$USERR3
 40
0.0
  9
$USERR4
 40
0.0
  9
$USERR5
 40
0.0
  9
$WORLDVIEW
 70
     1
  0
ENDSEC
  0
SECTION
  2
TABLES
  0
TABLE
  2
LTYPE
 70
     2
  0
LTYPE
  2
CONTINUOUS
 70
     0
  3
Solid line
 72
    65
 73
     0
 40
0.0
  0
LTYPE
  2
CENTER
 70
     0
  3

 72
    65
 73
     0
 40
0.0
  0
ENDTAB
  0
TABLE
  2
LAYER
 70
     2
  0
LAYER
  2
0
 70
     0
 62
     7
  6
CONTINUOUS
  0
LAYER
  2
1
 70
     0
 62
     7
  6
CONTINUOUS
  0
ENDTAB
  0
TABLE
  2
STYLE
 70
     2
  0
STYLE
  2
STANDARD
 70
     0
 40
0.0
 41
1.0
 50
0.0
 71
     0
 42
0.2
  3
txt
  4

  0
STYLE
  2
ＭＳ_ゴシック
 70
     0
 40
0.0
 41
1.0
 50
0.0
 71
     0
 42
0.2
  3
ＭＳ ゴシック.shx
  4

  0
ENDTAB
  0
TABLE
  2
VIEW
 70
     0
  0
ENDTAB
  0
ENDSEC
  0
SECTION
  2
BLOCKS
  0
BLOCK
  8
0
  2
D_FRAME_VIEW_1915
 70
     0
 10
0.0
 20
0.0
  0
LINE
  8
1
  6
CONTINUOUS
 62
     7
 10
82.24999999999997
 20
56.7
 11
82.24999999999997
 21
58.3
  0
LINE
  8
1
  6
CONTINUOUS
 62
     7
 10
82.24999999999997
 20
56.7
 11
87.24999999999997
 21
56.7
  0
LINE
  8
1
  6
CONTINUOUS
 62
     7
 10
82.24999999999997
 20
58.3
 11
87.24999999999997
 21
58.3
  0
LINE
  8
1
  6
CONTINUOUS
 62
     7
 10
96.0
 20
56.70000000000001
 11
96.0
 21
58.3
  0
LINE
  8
1
  6
CONTINUOUS
 62
     7
 10
87.24999999999997
 20
56.7
 11
96.0
 21
56.70000000000001
  0
LINE
  8
1
  6
CONTINUOUS
 62
     7
 10
87.24999999999997
 20
58.3
 11
96.0
 21
58.3
  0
LINE
  8
1
  6
CONTINUOUS
 62
     7
 10
101.0
 20
56.70000000000001
 11
101.0
 21
58.3
  0
LINE
  8
1
  6
CONTINUOUS
 62
     7
 10
294.0000000000001
 20
56.70000000000001
 11
294.0000000000002
 21
58.3
  0
LINE
  8
1
  6
CONTINUOUS
 62
     7
 10
101.0
 20
56.70000000000001
 11
294.0000000000001
 21
56.70000000000001
  0
LINE
  8
1
  6
CONTINUOUS
 62
     7
 10
101.0
 20
58.3
 11
294.0000000000002
 21
58.3
  0
LINE
  8
1
  6
CONTINUOUS
 62
     7
 10
312.75
 20
56.7
 11
312.75
 21
58.3
  0
LINE
  8
1
  6
CONTINUOUS
 62
     7
 10
307.75
 20
56.7
 11
312.75
 21
56.7
  0
LINE
  8
1
  6
CONTINUOUS
 62
     7
 10
307.75
 20
58.3
 11
312.75
 21
58.3
  0
LINE
  8
1
  6
CONTINUOUS
 62
     7
 10
299.0000000000001
 20
56.70000000000001
 11
299.0000000000001
 21
58.3
  0
LINE
  8
1
  6
CONTINUOUS
 62
     7
 10
299.0000000000001
 20
56.70000000000001
 11
307.75
 21
56.7
  0
LINE
  8
1
  6
CONTINUOUS
 62
     7
 10
299.0000000000001
 20
58.3
 11
307.75
 21
58.3
  0
LINE
  8
1
  6
CONTINUOUS
 62
     7
 10
101.0
 20
56.70000000000001
 11
96.0
 21
56.70000000000001
  0
LINE
  8
1
  6
CONTINUOUS
 62
     7
 10
101.0
 20
58.3
 11
96.0
 21
58.3
  0
LINE
  8
1
  6
CONTINUOUS
 62
     7
 10
299.0000000000001
 20
56.70000000000001
 11
294.0000000000001
 21
56.70000000000001
  0
LINE
  8
1
  6
CONTINUOUS
 62
     7
 10
299.0000000000001
 20
58.3
 11
294.0000000000001
 21
58.3
  0
ENDBLK
  8
0
  0
BLOCK
  8
0
  2
D_FRAME_VIEW_1926
 70
     0
 10
0.0
 20
0.0
  0
LINE
  8
1
  6
CONTINUOUS
 62
     7
 10
363.3
 20
110.0
 11
363.3
 21
219.9999999999999
  0
LINE
  8
1
  6
CONTINUOUS
 62
     7
 10
361.6999999999999
 20
110.0
 11
361.6999999999999
 21
219.9999999999999
  0
LINE
  8
1
  6
CONTINUOUS
 62
     7
 10
363.3
 20
224.9999999999999
 11
361.6999999999999
 21
224.9999999999999
  0
LINE
  8
1
  6
CONTINUOUS
 62
     7
 10
363.3
 20
219.9999999999999
 11
363.3
 21
224.9999999999999
  0
LINE
  8
1
  6
CONTINUOUS
 62
     7
 10
361.6999999999999
 20
219.9999999999999
 11
361.6999999999999
 21
224.9999999999999
  0
LINE
  8
1
  6
CONTINUOUS
 62
     7
 10
363.3
 20
105.0
 11
361.6999999999999
 21
105.0
  0
LINE
  8
1
  6
CONTINUOUS
 62
     7
 10
363.3
 20
105.0
 11
363.3
 21
110.0
  0
LINE
  8
1
  6
CONTINUOUS
 62
     7
 10
361.6999999999999
 20
105.0
 11
361.6999999999999
 21
110.0
  0
ENDBLK
  8
0
  0
BLOCK
  8
0
  2
D_FRAME_DRAWING_17
 70
     0
 10
0.0
 20
0.0
  0
LINE
  8
0
  6
CONTINUOUS
 62
     7
 10
0.0
 20
0.0
 11
420.0
 21
0.0
  0
LINE
  8
0
  6
CONTINUOUS
 62
     7
 10
420.0
 20
0.0
 11
420.0
 21
297.0
  0
LINE
  8
0
  6
CONTINUOUS
 62
     7
 10
420.0
 20
297.0
 11
0.0
 21
297.0
  0
LINE
  8
0
  6
CONTINUOUS
 62
     7
 10
0.0
 20
297.0
 11
0.0
 21
0.0
  0
ENDBLK
  8
0
  0
BLOCK
  8
0
  2
D_FRAME_VIEW_1676
 70
     0
 10
0.0
 20
0.0
  0
LINE
  8
1
  6
CONTINUOUS
 62
     7
 10
269.0
 20
119.25
 11
269.0
 21
116.25
  0
LINE
  8
1
  6
CONTINUOUS
 62
     7
 10
264.0
 20
119.25
 11
269.0
 21
119.25
  0
LINE
  8
1
  6
CONTINUOUS
 62
     7
 10
264.0
 20
116.25
 11
264.0
 21
119.25
  0
LINE
  8
1
  6
CONTINUOUS
 62
     7
 10
269.0
 20
116.25
 11
264.0
 21
116.25
  0
LINE
  8
1
  6
CONTINUOUS
 62
     7
 10
223.0
 20
119.25
 11
223.0
 21
116.25
  0
LINE
  8
1
  6
CONTINUOUS
 62
     7
 10
218.0
 20
119.25
 11
223.0
 21
119.25
  0
LINE
  8
1
  6
CONTINUOUS
 62
     7
 10
218.0
 20
116.25
 11
218.0
 21
119.25
  0
LINE
  8
1
  6
CONTINUOUS
 62
     7
 10
223.0
 20
116.25
 11
218.0
 21
116.25
  0
LINE
  8
1
  6
CONTINUOUS
 62
     7
 10
177.0
 20
119.25
 11
177.0
 21
116.25
  0
LINE
  8
1
  6
CONTINUOUS
 62
     7
 10
172.0
 20
119.25
 11
177.0
 21
119.25
  0
LINE
  8
1
  6
CONTINUOUS
 62
     7
 10
172.0
 20
116.25
 11
172.0
 21
119.25
  0
LINE
  8
1
  6
CONTINUOUS
 62
     7
 10
177.0
 20
116.25
 11
172.0
 21
116.25
  0
LINE
  8
1
  6
CONTINUOUS
 62
     7
 10
131.0
 20
119.25
 11
131.0
 21
116.25
  0
LINE
  8
1
  6
CONTINUOUS
 62
     7
 10
126.0
 20
119.25
 11
131.0
 21
119.25
  0
LINE
  8
1
  6
CONTINUOUS
 62
     7
 10
126.0
 20
116.25
 11
126.0
 21
119.25
  0
LINE
  8
1
  6
CONTINUOUS
 62
     7
 10
131.0
 20
116.25
 11
126.0
 21
116.25
  0
LINE
  8
1
  6
CONTINUOUS
 62
     7
 10
269.0
 20
213.75
 11
269.0
 21
210.75
  0
LINE
  8
1
  6
CONTINUOUS
 62
     7
 10
264.0
 20
213.75
 11
269.0
 21
213.75
  0
LINE
  8
1
  6
CONTINUOUS
 62
     7
 10
264.0
 20
210.75
 11
264.0
 21
213.75
  0
LINE
  8
1
  6
CONTINUOUS
 62
     7
 10
269.0
 20
210.75
 11
264.0
 21
210.75
  0
LINE
  8
1
  6
CONTINUOUS
 62
     7
 10
223.0
 20
213.75
 11
223.0
 21
210.75
  0
LINE
  8
1
  6
CONTINUOUS
 62
     7
 10
218.0
 20
213.75
 11
223.0
 21
213.75
  0
LINE
  8
1
  6
CONTINUOUS
 62
     7
 10
218.0
 20
210.75
 11
218.0
 21
213.75
  0
LINE
  8
1
  6
CONTINUOUS
 62
     7
 10
223.0
 20
210.75
 11
218.0
 21
210.75
  0
LINE
  8
1
  6
CONTINUOUS
 62
     7
 10
177.0
 20
213.75
 11
177.0
 21
210.75
  0
LINE
  8
1
  6
CONTINUOUS
 62
     7
 10
172.0
 20
213.75
 11
177.0
 21
213.75
  0
LINE
  8
1
  6
CONTINUOUS
 62
     7
 10
172.0
 20
210.75
 11
172.0
 21
213.75
  0
LINE
  8
1
  6
CONTINUOUS
 62
     7
 10
177.0
 20
210.75
 11
172.0
 21
210.75
  0
LINE
  8
1
  6
CONTINUOUS
 62
     7
 10
131.0
 20
213.75
 11
131.0
 21
210.75
  0
LINE
  8
1
  6
CONTINUOUS
 62
     7
 10
126.0
 20
213.75
 11
131.0
 21
213.75
  0
LINE
  8
1
  6
CONTINUOUS
 62
     7
 10
126.0
 20
210.75
 11
126.0
 21
213.75
  0
LINE
  8
1
  6
CONTINUOUS
 62
     7
 10
131.0
 20
210.75
 11
126.0
 21
210.75
  0
CIRCLE
  8
1
  6
CONTINUOUS
 62
     7
 10
308.75
 20
165.0
 40
1.500000000000001
  0
CIRCLE
  8
1
  6
CONTINUOUS
 62
     7
 10
86.24999999999999
 20
165.0
 40
1.500000000000001
  0
ARC
  8
1
  6
CONTINUOUS
 62
     7
 10
95.14124278936389
 20
214.1412427893639
 40
2.499999999999991
 50
225.0000000000008
 51
315.0000000000008
  0
LINE
  8
1
  6
CONTINUOUS
 62
     7
 10
103.6265241636025
 20
219.0909902576697
 11
96.9090097423303
 21
212.3734758363975
  0
ARC
  8
1
  6
CONTINUOUS
 62
     7
 10
101.8587572106361
 20
220.8587572106361
 40
2.499999999999972
 50
315.0
 51
45.0000000000009
  0
ARC
  8
1
  6
CONTINUOUS
 62
     7
 10
101.8587572106361
 20
220.8587572106361
 40
2.499999999999991
 50
45.00000000000023
 51
135.0000000000003
  0
LINE
  8
1
  6
CONTINUOUS
 62
     7
 10
93.37347583639756
 20
215.9090097423303
 11
100.0909902576697
 21
222.6265241636025
  0
ARC
  8
1
  6
CONTINUOUS
 62
     7
 10
95.14124278936389
 20
214.1412427893639
 40
2.499999999999972
 50
134.9999999999995
 51
225.0000000000008
  0
ARC
  8
1
  6
CONTINUOUS
 62
     7
 10
307.75
 20
219.9999999999999
 40
5.000000000000004
 50
359.9999999999997
 51
89.99999999999966
  0
LINE
  8
1
  6
CONTINUOUS
 62
     7
 10
312.75
 20
110.0
 11
312.75
 21
219.9999999999999
  0
ARC
  8
1
  6
CONTINUOUS
 62
     7
 10
307.75
 20
110.0
 40
4.999999999999997
 50
269.9999999999997
 51
0.0
  0
LINE
  8
1
  6
CONTINUOUS
 62
     7
 10
299.0000000000001
 20
105.0
 11
307.75
 21
105.0
  0
LINE
  8
1
  6
CONTINUOUS
 62
     7
 10
299.0000000000001
 20
112.5
 11
299.0000000000001
 21
105.0
  0
ARC
  8
1
  6
CONTINUOUS
 62
     7
 10
296.5
 20
112.5
 40
2.500000000000002
 50
0.0
 51
180.0
  0
LINE
  8
1
  6
CONTINUOUS
 62
     7
 10
294.0000000000002
 20
105.0
 11
294.0000000000001
 21
112.5
  0
LINE
  8
1
  6
CONTINUOUS
 62
     7
 10
101.0
 20
105.0
 11
294.0000000000002
 21
105.0
  0
LINE
  8
1
  6
CONTINUOUS
 62
     7
 10
101.0
 20
112.5
 11
101.0
 21
105.0
  0
ARC
  8
1
  6
CONTINUOUS
 62
     7
 10
98.5
 20
112.5
 40
2.500000000000002
 50
0.0
 51
180.0
  0
LINE
  8
1
  6
CONTINUOUS
 62
     7
 10
96.0
 20
105.0
 11
96.0
 21
112.5
  0
LINE
  8
1
  6
CONTINUOUS
 62
     7
 10
87.24999999999997
 20
105.0
 11
96.0
 21
105.0
  0
ARC
  8
1
  6
CONTINUOUS
 62
     7
 10
87.24999999999997
 20
110.0
 40
5.000000000000004
 50
179.9999999999998
 51
270.0
  0
LINE
  8
1
  6
CONTINUOUS
 62
     7
 10
82.24999999999999
 20
219.9999999999999
 11
82.24999999999997
 21
110.0
  0
ARC
  8
1
  6
CONTINUOUS
 62
     7
 10
87.24999999999997
 20
219.9999999999999
 40
4.99999999999999
 50
89.99999999999969
 51
180.0
  0
LINE
  8
1
  6
CONTINUOUS
 62
     7
 10
294.0000000000001
 20
225.0
 11
87.25000000000004
 21
224.9999999999999
  0
LINE
  8
1
  6
CONTINUOUS
 62
     7
 10
294.0000000000001
 20
217.5
 11
294.0000000000001
 21
225.0
  0
ARC
  8
1
  6
CONTINUOUS
 62
     7
 10
296.5
 20
217.5
 40
2.500000000000002
 50
180.0
 51
0.0
  0
LINE
  8
1
  6
CONTINUOUS
 62
     7
 10
299.0000000000001
 20
225.0
 11
299.0000000000001
 21
217.5
  0
LINE
  8
1
  6
CONTINUOUS
 62
     7
 10
307.7500000000001
 20
224.9999999999999
 11
299.0000000000001
 21
225.0
  0
CIRCLE
  8
1
  6
CONTINUOUS
 62
     7
 10
266.5
 20
123.25
 40
1.649999999999999
  0
CIRCLE
  8
1
  6
CONTINUOUS
 62
     7
 10
220.5
 20
123.25
 40
1.649999999999999
  0
CIRCLE
  8
1
  6
CONTINUOUS
 62
     7
 10
174.5
 20
123.25
 40
1.649999999999999
  0
CIRCLE
  8
1
  6
CONTINUOUS
 62
     7
 10
128.5
 20
123.25
 40
1.649999999999999
  0
CIRCLE
  8
1
  6
CONTINUOUS
 62
     7
 10
266.5
 20
206.75
 40
1.649999999999999
  0
CIRCLE
  8
1
  6
CONTINUOUS
 62
     7
 10
220.5
 20
206.75
 40
1.649999999999999
  0
CIRCLE
  8
1
  6
CONTINUOUS
 62
     7
 10
174.5
 20
206.75
 40
1.649999999999999
  0
CIRCLE
  8
1
  6
CONTINUOUS
 62
     7
 10
128.5
 20
206.75
 40
1.649999999999999
  0
ARC
  8
1
  6
CONTINUOUS
 62
     7
 10
228.5
 20
122.5
 40
3.500000000000003
 50
180.0000000000002
 51
270.0
  0
LINE
  8
1
  6
CONTINUOUS
 62
     7
 10
258.5
 20
119.0
 11
228.5
 21
119.0
  0
ARC
  8
1
  6
CONTINUOUS
 62
     7
 10
258.5
 20
122.5
 40
3.500000000000003
 50
270.0
 51
0.0
  0
LINE
  8
1
  6
CONTINUOUS
 62
     7
 10
262.0
 20
123.25
 11
262.0
 21
122.5
  0
ARC
  8
1
  6
CONTINUOUS
 62
     7
 10
266.5
 20
123.25
 40
4.500000000000004
 50
0.0
 51
180.0
  0
LINE
  8
1
  6
CONTINUOUS
 62
     7
 10
271.0
 20
122.5
 11
271.0
 21
123.25
  0
ARC
  8
1
  6
CONTINUOUS
 62
     7
 10
274.5
 20
122.5
 40
3.500000000000003
 50
180.0
 51
270.0
  0
LINE
  8
1
  6
CONTINUOUS
 62
     7
 10
290.5
 20
119.0
 11
274.5
 21
119.0
  0
ARC
  8
1
  6
CONTINUOUS
 62
     7
 10
290.5
 20
122.5
 40
3.500000000000003
 50
270.0
 51
359.9999999999998
  0
LINE
  8
1
  6
CONTINUOUS
 62
     7
 10
294.0
 20
207.5
 11
294.0
 21
122.5
  0
ARC
  8
1
  6
CONTINUOUS
 62
     7
 10
290.5
 20
207.5
 40
3.500000000000003
 50
0.0
 51
90.0
  0
LINE
  8
1
  6
CONTINUOUS
 62
     7
 10
274.5
 20
211.0
 11
290.5
 21
211.0
  0
ARC
  8
1
  6
CONTINUOUS
 62
     7
 10
274.5
 20
207.5
 40
3.500000000000003
 50
90.0
 51
180.0
  0
LINE
  8
1
  6
CONTINUOUS
 62
     7
 10
271.0
 20
206.75
 11
271.0
 21
207.5
  0
ARC
  8
1
  6
CONTINUOUS
 62
     7
 10
266.5
 20
206.75
 40
4.500000000000004
 50
180.0
 51
0.0
  0
LINE
  8
1
  6
CONTINUOUS
 62
     7
 10
262.0
 20
207.5
 11
262.0
 21
206.75
  0
ARC
  8
1
  6
CONTINUOUS
 62
     7
 10
258.5
 20
207.5
 40
3.499999999999996
 50
0.0
 51
90.0
  0
LINE
  8
1
  6
CONTINUOUS
 62
     7
 10
228.5
 20
211.0
 11
258.5
 21
211.0
  0
ARC
  8
1
  6
CONTINUOUS
 62
     7
 10
228.5
 20
207.5
 40
3.500000000000003
 50
90.00000000000011
 51
179.9999999999998
  0
LINE
  8
1
  6
CONTINUOUS
 62
     7
 10
225.0
 20
206.75
 11
225.0
 21
207.5
  0
ARC
  8
1
  6
CONTINUOUS
 62
     7
 10
220.5
 20
206.75
 40
4.5
 50
180.0
 51
0.0
  0
LINE
  8
1
  6
CONTINUOUS
 62
     7
 10
216.0
 20
207.5
 11
216.0
 21
206.75
  0
ARC
  8
1
  6
CONTINUOUS
 62
     7
 10
212.5
 20
207.5
 40
3.499999999999996
 50
0.0
 51
90.00000000000006
  0
LINE
  8
1
  6
CONTINUOUS
 62
     7
 10
182.5
 20
211.0
 11
212.5
 21
211.0
  0
ARC
  8
1
  6
CONTINUOUS
 62
     7
 10
182.5
 20
207.5
 40
3.500000000000003
 50
90.0
 51
179.9999999999998
  0
LINE
  8
1
  6
CONTINUOUS
 62
     7
 10
179.0
 20
206.75
 11
179.0
 21
207.5
  0
ARC
  8
1
  6
CONTINUOUS
 62
     7
 10
174.5
 20
206.75
 40
4.5
 50
180.0
 51
0.0
  0
LINE
  8
1
  6
CONTINUOUS
 62
     7
 10
170.0
 20
207.5
 11
170.0
 21
206.75
  0
ARC
  8
1
  6
CONTINUOUS
 62
     7
 10
166.5
 20
207.5
 40
3.499999999999996
 50
0.0
 51
90.00000000000006
  0
LINE
  8
1
  6
CONTINUOUS
 62
     7
 10
136.5
 20
211.0
 11
166.5
 21
211.0
  0
ARC
  8
1
  6
CONTINUOUS
 62
     7
 10
136.5
 20
207.5
 40
3.500000000000003
 50
90.00000000000011
 51
179.9999999999998
  0
LINE
  8
1
  6
CONTINUOUS
 62
     7
 10
133.0
 20
206.75
 11
133.0
 21
207.5
  0
ARC
  8
1
  6
CONTINUOUS
 62
     7
 10
128.5
 20
206.75
 40
4.500000000000004
 50
180.0
 51
0.0000000000001137
  0
LINE
  8
1
  6
CONTINUOUS
 62
     7
 10
124.0
 20
207.5
 11
124.0
 21
206.75
  0
ARC
  8
1
  6
CONTINUOUS
 62
     7
 10
120.5
 20
207.5
 40
3.500000000000003
 50
0.0
 51
90.0
  0
LINE
  8
1
  6
CONTINUOUS
 62
     7
 10
104.5
 20
211.0
 11
120.5
 21
211.0
  0
ARC
  8
1
  6
CONTINUOUS
 62
     7
 10
104.5
 20
207.5
 40
3.500000000000003
 50
90.0
 51
179.9999999999999
  0
LINE
  8
1
  6
CONTINUOUS
 62
     7
 10
101.0
 20
122.5
 11
101.0
 21
207.5
  0
ARC
  8
1
  6
CONTINUOUS
 62
     7
 10
104.5
 20
122.5
 40
3.500000000000003
 50
180.0000000000001
 51
270.0
  0
LINE
  8
1
  6
CONTINUOUS
 62
     7
 10
120.5
 20
119.0
 11
104.5
 21
119.0
  0
ARC
  8
1
  6
CONTINUOUS
 62
     7
 10
120.5
 20
122.5
 40
3.500000000000003
 50
270.0
 51
0.0
  0
LINE
  8
1
  6
CONTINUOUS
 62
     7
 10
124.0
 20
123.25
 11
124.0
 21
122.5
  0
ARC
  8
1
  6
CONTINUOUS
 62
     7
 10
128.5
 20
123.25
 40
4.500000000000004
 50
0.0
 51
180.0
  0
LINE
  8
1
  6
CONTINUOUS
 62
     7
 10
133.0
 20
122.5
 11
133.0
 21
123.25
  0
ARC
  8
1
  6
CONTINUOUS
 62
     7
 10
136.5
 20
122.5
 40
3.500000000000003
 50
180.0000000000002
 51
269.9999999999999
  0
LINE
  8
1
  6
CONTINUOUS
 62
     7
 10
166.5
 20
119.0
 11
136.5
 21
119.0
  0
ARC
  8
1
  6
CONTINUOUS
 62
     7
 10
166.5
 20
122.5
 40
3.5
 50
269.9999999999999
 51
0.0
  0
LINE
  8
1
  6
CONTINUOUS
 62
     7
 10
170.0
 20
123.25
 11
170.0
 21
122.5
  0
ARC
  8
1
  6
CONTINUOUS
 62
     7
 10
174.5
 20
123.25
 40
4.5
 50
0.0
 51
180.0
  0
LINE
  8
1
  6
CONTINUOUS
 62
     7
 10
179.0
 20
122.5
 11
179.0
 21
123.25
  0
ARC
  8
1
  6
CONTINUOUS
 62
     7
 10
182.5
 20
122.5
 40
3.500000000000003
 50
180.0000000000002
 51
270.0
  0
LINE
  8
1
  6
CONTINUOUS
 62
     7
 10
212.5
 20
119.0
 11
182.5000000000001
 21
119.0
  0
ARC
  8
1
  6
CONTINUOUS
 62
     7
 10
212.5
 20
122.5
 40
3.5
 50
269.9999999999999
 51
0.0
  0
LINE
  8
1
  6
CONTINUOUS
 62
     7
 10
216.0
 20
123.25
 11
216.0
 21
122.5
  0
ARC
  8
1
  6
CONTINUOUS
 62
     7
 10
220.5
 20
123.25
 40
4.5
 50
0.0
 51
180.0
  0
LINE
  8
1
  6
CONTINUOUS
 62
     7
 10
225.0
 20
122.5
 11
225.0
 21
123.25
  0
ENDBLK
  8
0
  0
ENDSEC
  0
SECTION
  2
ENTITIES
  0
POINT
  8
1
 62
     7
 10
82.5
 20
185.0
 30
0.0
  0
INSERT
  8
1
  6
CONTINUOUS
 62
     7
  2
D_FRAME_VIEW_1915
 10
0.0
 20
0.0
 30
0.0
  0
INSERT
  8
1
  6
CONTINUOUS
 62
     7
  2
D_FRAME_VIEW_1926
 10
0.0
 20
0.0
 30
0.0
  0
LINE
  8
1
  6
CENTER
 62
     1
 10
197.5
 20
54.7
 11
197.5
 21
60.3
  0
LINE
  8
1
  6
CENTER
 62
     1
 10
365.3
 20
164.9999999999999
 11
359.6999999999999
 21
164.9999999999999
  0
TEXT
  8
1
  6
CONTINUOUS
 62
     7
 10
336.9842190821558
 20
60.54245342003252
 40
8.0
  1
OF-12CSW4F
  0
INSERT
  8
0
 62
     7
  2
D_FRAME_DRAWING_17
 10
0.0
 20
0.0
 30
0.0
  0
INSERT
  8
1
  6
CONTINUOUS
 62
     7
  2
D_FRAME_VIEW_1676
 10
0.0
 20
0.0
 30
0.0
  0
LINE
  8
1
  6
CENTER
 62
     1
 10
312.75
 20
165.0
 11
82.50000000000004
 21
164.9999999999999
  0
LINE
  8
1
  6
CENTER
 62
     1
 10
220.5
 20
105.0
 11
220.5
 21
225.0
  0
LINE
  8
1
  6
CENTER
 62
     1
 10
266.5
 20
105.0
 11
266.5
 21
225.0
  0
LINE
  8
1
  6
CENTER
 62
     1
 10
174.5
 20
105.0
 11
174.5
 21
224.9999999999999
  0
LINE
  8
1
  6
CENTER
 62
     1
 10
124.0
 20
206.75
 11
271.0
 21
206.75
  0
LINE
  8
1
  6
CENTER
 62
     1
 10
124.0
 20
123.25
 11
271.0
 21
123.25
  0
LINE
  8
1
  6
CENTER
 62
     1
 10
128.5
 20
105.0
 11
128.5
 21
224.9999999999999
  0
LINE
  8
1
  6
CENTER
 62
     1
 10
197.5
 20
105.0
 11
197.5
 21
225.0
  0
ENDSEC
  0
EOF
