  0
SECTION
  2
HEADER
  9
$ACADVER
  1
AC1004
  9
$INSBASE
 10
0.0
 20
0.0
  9
$EXTMIN
 10
0.0
 20
0.0
  9
$EXTMAX
 10
404.2371507359818
 20
230.0
  9
$LIMMIN
 10
0.0
 20
0.0
  9
$LIMMAX
 10
12.0
 20
9.0
  9
$ORTHOMODE
 70
     0
  9
$REGENMODE
 70
     1
  9
$FILLMODE
 70
     1
  9
$QTEXTMODE
 70
     0
  9
$DRAGMODE
 70
     2
  9
$LTSCALE
 40
1.0
  9
$OSMODE
 70
    37
  9
$ATTMODE
 70
     1
  9
$TEXTSIZE
 40
0.2
  9
$TRACEWID
 40
0.05
  9
$TEXTSTYLE
  7
STANDARD
  9
$CLAYER
  8
0
  9
$CELTYPE
  6
BYLAYER
  9
$CECOLOR
 62
   256
  9
$DIMSCALE
 40
1.0
  9
$DIMASZ
 40
3.0
  9
$DIMEXO
 40
0.0625
  9
$DIMDLI
 40
0.38
  9
$DIMRND
 40
0.0
  9
$DIMDLE
 40
0.0
  9
$DIMEXE
 40
1.5
  9
$DIMTP
 40
0.0
  9
$DIMTM
 40
0.0
  9
$DIMTXT
 40
3.0
  9
$DIMCEN
 40
0.09
  9
$DIMTSZ
 40
0.0
  9
$DIMTOL
 70
     0
  9
$DIMLIM
 70
     0
  9
$DIMTIH
 70
     1
  9
$DIMTOH
 70
     1
  9
$DIMSE1
 70
     0
  9
$DIMSE2
 70
     0
  9
$DIMTAD
 70
     1
  9
$DIMZIN
 70
     0
  9
$DIMBLK
  1

  9
$DIMASO
 70
     1
  9
$DIMSHO
 70
     1
  9
$DIMPOST
  1

  9
$DIMAPOST
  1

  9
$DIMALT
 70
     0
  9
$DIMALTD
 70
     2
  9
$DIMALTF
 40
25.4
  9
$DIMLFAC
 40
1.0
  9
$DIMTOFL
 70
     0
  9
$DIMTVP
 40
0.0
  9
$DIMTIX
 70
     0
  9
$DIMSOXD
 70
     0
  9
$DIMSAH
 70
     0
  9
$DIMBLK1
  1

  9
$DIMBLK2
  1

  9
$LUNITS
 70
     2
  9
$LUPREC
 70
     4
  9
$SKETCHINC
 40
0.1
  9
$FILLETRAD
 40
0.5
  9
$AUNITS
 70
     0
  9
$AUPREC
 70
     0
  9
$MENU
  1
.
  9
$ELEVATION
 40
0.0
  9
$THICKNESS
 40
0.0
  9
$LIMCHECK
 70
     0
  9
$CHAMFERA
 40
0.0
  9
$CHAMFERB
 40
0.0
  9
$SKPOLY
 70
     0
  9
$TDCREATE
 40
2460474.64556412
  9
$TDUPDATE
 40
2460474.64556875
  9
$TDINDWG
 40
0.0000000116
  9
$TDUSRTIMER
 40
0.0000000116
  9
$USRTIMER
 70
     1
  9
$ANGBASE
 50
0.0
  9
$ANGDIR
 70
     0
  9
$PDMODE
 70
     0
  9
$PDSIZE
 40
0.0
  9
$PLINEWID
 40
0.0
  9
$COORDS
 70
     1
  9
$SPLFRAME
 70
     0
  9
$SPLINETYPE
 70
     6
  9
$SPLINESEGS
 70
     8
  9
$ATTDIA
 70
     0
  9
$ATTREQ
 70
     1
  9
$SURFTAB1
 70
     6
  9
$SURFTAB2
 70
     6
  9
$SURFTYPE
 70
     6
  9
$SURFU
 70
     6
  9
$SURFV
 70
     6
  9
$UCSNAME
  2

  9
$UCSORG
 10
0.0
 20
0.0
 30
0.0
  9
$UCSXDIR
 10
1.0
 20
0.0
 30
0.0
  9
$UCSYDIR
 10
0.0
 20
1.0
 30
0.0
  9
$USERI1
 70
     0
  9
$USERI2
 70
     0
  9
$USERI3
 70
     0
  9
$USERI4
 70
     0
  9
$USERI5
 70
     0
  9
$USERR1
 40
0.0
  9
$USERR2
 40
0.0
  9
$USERR3
 40
0.0
  9
$USERR4
 40
0.0
  9
$USERR5
 40
0.0
  9
$WORLDVIEW
 70
     1
  0
ENDSEC
  0
SECTION
  2
TABLES
  0
TABLE
  2
LTYPE
 70
     2
  0
LTYPE
  2
CONTINUOUS
 70
     0
  3
Solid line
 72
    65
 73
     0
 40
0.0
  0
LTYPE
  2
CENTER
 70
     0
  3

 72
    65
 73
     0
 40
0.0
  0
ENDTAB
  0
TABLE
  2
LAYER
 70
     2
  0
LAYER
  2
0
 70
     0
 62
     7
  6
CONTINUOUS
  0
LAYER
  2
1
 70
     0
 62
     7
  6
CONTINUOUS
  0
ENDTAB
  0
TABLE
  2
STYLE
 70
     2
  0
STYLE
  2
STANDARD
 70
     0
 40
0.0
 41
1.0
 50
0.0
 71
     0
 42
0.2
  3
txt
  4

  0
STYLE
  2
ＭＳ_ゴシック
 70
     0
 40
0.0
 41
1.0
 50
0.0
 71
     0
 42
0.2
  3
ＭＳ ゴシック.shx
  4

  0
ENDTAB
  0
TABLE
  2
VIEW
 70
     0
  0
ENDTAB
  0
ENDSEC
  0
SECTION
  2
BLOCKS
  0
BLOCK
  8
0
  2
D_FRAME_DRAWING_17
 70
     0
 10
0.0
 20
0.0
  0
LINE
  8
0
  6
CONTINUOUS
 62
     7
 10
0.0
 20
0.0
 11
420.0
 21
0.0
  0
LINE
  8
0
  6
CONTINUOUS
 62
     7
 10
420.0
 20
0.0
 11
420.0
 21
297.0
  0
LINE
  8
0
  6
CONTINUOUS
 62
     7
 10
420.0
 20
297.0
 11
0.0
 21
297.0
  0
LINE
  8
0
  6
CONTINUOUS
 62
     7
 10
0.0
 20
297.0
 11
0.0
 21
0.0
  0
ENDBLK
  8
0
  0
BLOCK
  8
0
  2
D_FRAME_VIEW_1928
 70
     0
 10
0.0
 20
0.0
  0
LINE
  8
1
  6
CONTINUOUS
 62
     7
 10
274.4999999999999
 20
124.25
 11
279.4999999999999
 21
124.25
  0
LINE
  8
1
  6
CONTINUOUS
 62
     7
 10
274.4999999999999
 20
121.25
 11
274.4999999999999
 21
124.25
  0
LINE
  8
1
  6
CONTINUOUS
 62
     7
 10
279.4999999999999
 20
121.25
 11
274.4999999999999
 21
121.25
  0
LINE
  8
1
  6
CONTINUOUS
 62
     7
 10
279.4999999999999
 20
124.25
 11
279.4999999999999
 21
121.25
  0
LINE
  8
1
  6
CONTINUOUS
 62
     7
 10
228.5
 20
124.25
 11
233.5
 21
124.25
  0
LINE
  8
1
  6
CONTINUOUS
 62
     7
 10
228.5
 20
121.25
 11
228.5
 21
124.25
  0
LINE
  8
1
  6
CONTINUOUS
 62
     7
 10
233.5
 20
121.25
 11
228.5
 21
121.25
  0
LINE
  8
1
  6
CONTINUOUS
 62
     7
 10
233.5
 20
124.25
 11
233.5
 21
121.25
  0
LINE
  8
1
  6
CONTINUOUS
 62
     7
 10
182.5
 20
124.25
 11
187.5
 21
124.25
  0
LINE
  8
1
  6
CONTINUOUS
 62
     7
 10
182.5
 20
121.25
 11
182.5
 21
124.25
  0
LINE
  8
1
  6
CONTINUOUS
 62
     7
 10
187.5
 20
121.25
 11
182.5
 21
121.25
  0
LINE
  8
1
  6
CONTINUOUS
 62
     7
 10
187.5
 20
124.25
 11
187.5
 21
121.25
  0
LINE
  8
1
  6
CONTINUOUS
 62
     7
 10
136.5
 20
124.25
 11
141.5
 21
124.25
  0
LINE
  8
1
  6
CONTINUOUS
 62
     7
 10
136.5
 20
121.25
 11
136.5
 21
124.25
  0
LINE
  8
1
  6
CONTINUOUS
 62
     7
 10
141.5
 20
121.25
 11
136.5
 21
121.25
  0
LINE
  8
1
  6
CONTINUOUS
 62
     7
 10
141.5
 20
124.25
 11
141.5
 21
121.25
  0
LINE
  8
1
  6
CONTINUOUS
 62
     7
 10
90.5
 20
124.25
 11
95.5
 21
124.25
  0
LINE
  8
1
  6
CONTINUOUS
 62
     7
 10
90.5
 20
121.25
 11
90.5
 21
124.25
  0
LINE
  8
1
  6
CONTINUOUS
 62
     7
 10
95.5
 20
121.25
 11
90.5
 21
121.25
  0
LINE
  8
1
  6
CONTINUOUS
 62
     7
 10
95.5
 20
124.25
 11
95.5
 21
121.25
  0
LINE
  8
1
  6
CONTINUOUS
 62
     7
 10
279.4999999999999
 20
215.75
 11
274.4999999999999
 21
215.75
  0
LINE
  8
1
  6
CONTINUOUS
 62
     7
 10
279.4999999999999
 20
218.75
 11
279.4999999999999
 21
215.75
  0
LINE
  8
1
  6
CONTINUOUS
 62
     7
 10
274.4999999999999
 20
218.75
 11
279.4999999999999
 21
218.75
  0
LINE
  8
1
  6
CONTINUOUS
 62
     7
 10
274.4999999999999
 20
215.75
 11
274.4999999999999
 21
218.7500000000001
  0
LINE
  8
1
  6
CONTINUOUS
 62
     7
 10
233.5
 20
215.75
 11
228.5
 21
215.75
  0
LINE
  8
1
  6
CONTINUOUS
 62
     7
 10
233.5
 20
218.75
 11
233.5
 21
215.75
  0
LINE
  8
1
  6
CONTINUOUS
 62
     7
 10
228.5
 20
218.75
 11
233.5
 21
218.75
  0
LINE
  8
1
  6
CONTINUOUS
 62
     7
 10
228.5
 20
215.75
 11
228.5
 21
218.7500000000001
  0
LINE
  8
1
  6
CONTINUOUS
 62
     7
 10
187.5
 20
215.75
 11
182.5
 21
215.75
  0
LINE
  8
1
  6
CONTINUOUS
 62
     7
 10
187.5
 20
218.75
 11
187.5
 21
215.75
  0
LINE
  8
1
  6
CONTINUOUS
 62
     7
 10
182.5
 20
218.75
 11
187.5
 21
218.75
  0
LINE
  8
1
  6
CONTINUOUS
 62
     7
 10
182.5
 20
215.75
 11
182.5
 21
218.75
  0
LINE
  8
1
  6
CONTINUOUS
 62
     7
 10
141.5
 20
215.75
 11
136.5
 21
215.75
  0
LINE
  8
1
  6
CONTINUOUS
 62
     7
 10
141.5
 20
218.75
 11
141.5
 21
215.75
  0
LINE
  8
1
  6
CONTINUOUS
 62
     7
 10
136.5
 20
218.75
 11
141.5
 21
218.75
  0
LINE
  8
1
  6
CONTINUOUS
 62
     7
 10
136.5
 20
215.75
 11
136.5
 21
218.75
  0
LINE
  8
1
  6
CONTINUOUS
 62
     7
 10
95.5
 20
215.75
 11
90.5
 21
215.75
  0
LINE
  8
1
  6
CONTINUOUS
 62
     7
 10
95.5
 20
218.75
 11
95.5
 21
215.75
  0
LINE
  8
1
  6
CONTINUOUS
 62
     7
 10
90.5
 20
218.75
 11
95.5
 21
218.75
  0
LINE
  8
1
  6
CONTINUOUS
 62
     7
 10
90.5
 20
215.75
 11
90.5
 21
218.75
  0
CIRCLE
  8
1
  6
CONTINUOUS
 62
     7
 10
319.25
 20
170.0
 40
1.500000000000001
  0
CIRCLE
  8
1
  6
CONTINUOUS
 62
     7
 10
50.74999999999996
 20
170.0
 40
1.500000000000001
  0
ARC
  8
1
  6
CONTINUOUS
 62
     7
 10
318.25
 20
225.0
 40
5.000000000000004
 50
359.9999999999998
 51
90.0
  0
LINE
  8
1
  6
CONTINUOUS
 62
     7
 10
323.2500000000001
 20
115.0
 11
323.2500000000001
 21
225.0
  0
ARC
  8
1
  6
CONTINUOUS
 62
     7
 10
318.25
 20
115.0
 40
4.999999999999997
 50
270.0
 51
0.0
  0
LINE
  8
1
  6
CONTINUOUS
 62
     7
 10
309.5
 20
110.0
 11
318.25
 21
110.0
  0
LINE
  8
1
  6
CONTINUOUS
 62
     7
 10
309.5
 20
117.5
 11
309.4999999999999
 21
110.0
  0
ARC
  8
1
  6
CONTINUOUS
 62
     7
 10
307.0000000000001
 20
117.5
 40
2.500000000000002
 50
0.0
 51
180.0
  0
LINE
  8
1
  6
CONTINUOUS
 62
     7
 10
304.5
 20
110.0
 11
304.5
 21
117.5
  0
LINE
  8
1
  6
CONTINUOUS
 62
     7
 10
65.5
 20
110.0
 11
304.5
 21
110.0
  0
LINE
  8
1
  6
CONTINUOUS
 62
     7
 10
65.5
 20
117.5
 11
65.5
 21
110.0
  0
ARC
  8
1
  6
CONTINUOUS
 62
     7
 10
63.0
 20
117.5
 40
2.500000000000002
 50
0.0
 51
180.0
  0
LINE
  8
1
  6
CONTINUOUS
 62
     7
 10
60.5
 20
110.0
 11
60.5
 21
117.5
  0
LINE
  8
1
  6
CONTINUOUS
 62
     7
 10
51.74999999999999
 20
110.0
 11
60.5
 21
110.0
  0
ARC
  8
1
  6
CONTINUOUS
 62
     7
 10
51.74999999999999
 20
115.0
 40
5.000000000000004
 50
179.9999999999998
 51
270.0
  0
LINE
  8
1
  6
CONTINUOUS
 62
     7
 10
46.74999999999999
 20
225.0
 11
46.74999999999999
 21
115.0
  0
ARC
  8
1
  6
CONTINUOUS
 62
     7
 10
51.74999999999999
 20
225.0
 40
5.000000000000004
 50
90.0
 51
180.0
  0
LINE
  8
1
  6
CONTINUOUS
 62
     7
 10
304.5
 20
230.0
 11
51.75000000000001
 21
230.0
  0
LINE
  8
1
  6
CONTINUOUS
 62
     7
 10
304.5
 20
222.5
 11
304.5
 21
230.0
  0
ARC
  8
1
  6
CONTINUOUS
 62
     7
 10
307.0000000000001
 20
222.5
 40
2.500000000000002
 50
180.0
 51
0.0
  0
LINE
  8
1
  6
CONTINUOUS
 62
     7
 10
309.5
 20
230.0
 11
309.5000000000001
 21
222.5
  0
LINE
  8
1
  6
CONTINUOUS
 62
     7
 10
318.25
 20
230.0
 11
309.5
 21
230.0
  0
ARC
  8
1
  6
CONTINUOUS
 62
     7
 10
59.64124278936391
 20
219.1412427893639
 40
2.499999999999991
 50
224.9999999999997
 51
315.0
  0
LINE
  8
1
  6
CONTINUOUS
 62
     7
 10
68.12652416360247
 20
224.0909902576697
 11
61.40900974233028
 21
217.3734758363975
  0
ARC
  8
1
  6
CONTINUOUS
 62
     7
 10
66.35875721063611
 20
225.8587572106361
 40
2.499999999999991
 50
315.0000000000002
 51
45.00000000000102
  0
ARC
  8
1
  6
CONTINUOUS
 62
     7
 10
66.35875721063609
 20
225.8587572106361
 40
2.499999999999991
 50
45.00000000000034
 51
135.0
  0
LINE
  8
1
  6
CONTINUOUS
 62
     7
 10
57.87347583639754
 20
220.9090097423303
 11
64.59099025766972
 21
227.6265241636025
  0
ARC
  8
1
  6
CONTINUOUS
 62
     7
 10
59.64124278936389
 20
219.1412427893639
 40
2.499999999999981
 50
134.9999999999998
 51
225.0000000000004
  0
CIRCLE
  8
1
  6
CONTINUOUS
 62
     7
 10
277.0
 20
128.25
 40
1.649999999999999
  0
CIRCLE
  8
1
  6
CONTINUOUS
 62
     7
 10
231.0
 20
128.25
 40
1.649999999999999
  0
CIRCLE
  8
1
  6
CONTINUOUS
 62
     7
 10
185.0
 20
128.25
 40
1.649999999999999
  0
CIRCLE
  8
1
  6
CONTINUOUS
 62
     7
 10
139.0
 20
128.25
 40
1.649999999999999
  0
CIRCLE
  8
1
  6
CONTINUOUS
 62
     7
 10
93.0
 20
128.25
 40
1.649999999999999
  0
CIRCLE
  8
1
  6
CONTINUOUS
 62
     7
 10
277.0
 20
211.75
 40
1.649999999999999
  0
CIRCLE
  8
1
  6
CONTINUOUS
 62
     7
 10
231.0
 20
211.75
 40
1.649999999999999
  0
CIRCLE
  8
1
  6
CONTINUOUS
 62
     7
 10
185.0
 20
211.75
 40
1.649999999999999
  0
CIRCLE
  8
1
  6
CONTINUOUS
 62
     7
 10
139.0
 20
211.75
 40
1.649999999999999
  0
CIRCLE
  8
1
  6
CONTINUOUS
 62
     7
 10
93.0
 20
211.75
 40
1.649999999999999
  0
ARC
  8
1
  6
CONTINUOUS
 62
     7
 10
239.0
 20
127.5
 40
3.500000000000003
 50
180.0000000000002
 51
270.0000000000002
  0
LINE
  8
1
  6
CONTINUOUS
 62
     7
 10
269.0
 20
124.0
 11
239.0
 21
124.0
  0
ARC
  8
1
  6
CONTINUOUS
 62
     7
 10
269.0
 20
127.5
 40
3.500000000000003
 50
270.0
 51
0.0
  0
LINE
  8
1
  6
CONTINUOUS
 62
     7
 10
272.5
 20
128.25
 11
272.5
 21
127.5
  0
ARC
  8
1
  6
CONTINUOUS
 62
     7
 10
277.0
 20
128.25
 40
4.500000000000004
 50
0.0
 51
180.0
  0
LINE
  8
1
  6
CONTINUOUS
 62
     7
 10
281.4999999999999
 20
127.5
 11
281.4999999999999
 21
128.25
  0
ARC
  8
1
  6
CONTINUOUS
 62
     7
 10
285.0
 20
127.5
 40
3.500000000000003
 50
180.0
 51
270.0
  0
LINE
  8
1
  6
CONTINUOUS
 62
     7
 10
301.0
 20
124.0
 11
285.0
 21
124.0
  0
ARC
  8
1
  6
CONTINUOUS
 62
     7
 10
301.0
 20
127.5
 40
3.500000000000003
 50
270.0
 51
359.9999999999998
  0
LINE
  8
1
  6
CONTINUOUS
 62
     7
 10
304.5
 20
212.5
 11
304.5
 21
127.5
  0
ARC
  8
1
  6
CONTINUOUS
 62
     7
 10
301.0
 20
212.5
 40
3.500000000000003
 50
0.0
 51
90.0
  0
LINE
  8
1
  6
CONTINUOUS
 62
     7
 10
285.0
 20
216.0
 11
301.0000000000001
 21
216.0
  0
ARC
  8
1
  6
CONTINUOUS
 62
     7
 10
285.0
 20
212.5
 40
3.500000000000003
 50
90.0
 51
180.0
  0
LINE
  8
1
  6
CONTINUOUS
 62
     7
 10
281.4999999999999
 20
211.75
 11
281.4999999999999
 21
212.5
  0
ARC
  8
1
  6
CONTINUOUS
 62
     7
 10
277.0
 20
211.75
 40
4.500000000000004
 50
180.0
 51
0.0
  0
LINE
  8
1
  6
CONTINUOUS
 62
     7
 10
272.5
 20
212.5
 11
272.5
 21
211.7500000000001
  0
ARC
  8
1
  6
CONTINUOUS
 62
     7
 10
269.0
 20
212.5
 40
3.500000000000003
 50
0.0
 51
90.0
  0
LINE
  8
1
  6
CONTINUOUS
 62
     7
 10
239.0
 20
216.0
 11
269.0
 21
216.0
  0
ARC
  8
1
  6
CONTINUOUS
 62
     7
 10
239.0
 20
212.5
 40
3.500000000000003
 50
90.0
 51
179.9999999999998
  0
LINE
  8
1
  6
CONTINUOUS
 62
     7
 10
235.5
 20
211.75
 11
235.5
 21
212.5
  0
ARC
  8
1
  6
CONTINUOUS
 62
     7
 10
231.0
 20
211.75
 40
4.500000000000004
 50
180.0
 51
0.0
  0
LINE
  8
1
  6
CONTINUOUS
 62
     7
 10
226.5
 20
212.5
 11
226.5
 21
211.7500000000001
  0
ARC
  8
1
  6
CONTINUOUS
 62
     7
 10
223.0
 20
212.5
 40
3.500000000000003
 50
0.0
 51
90.0
  0
LINE
  8
1
  6
CONTINUOUS
 62
     7
 10
193.0
 20
216.0
 11
223.0
 21
216.0
  0
ARC
  8
1
  6
CONTINUOUS
 62
     7
 10
193.0
 20
212.5
 40
3.500000000000003
 50
90.0
 51
179.9999999999998
  0
LINE
  8
1
  6
CONTINUOUS
 62
     7
 10
189.5
 20
211.75
 11
189.5
 21
212.5
  0
ARC
  8
1
  6
CONTINUOUS
 62
     7
 10
185.0
 20
211.75
 40
4.500000000000004
 50
180.0
 51
0.0
  0
LINE
  8
1
  6
CONTINUOUS
 62
     7
 10
180.5
 20
212.5
 11
180.5
 21
211.7500000000001
  0
ARC
  8
1
  6
CONTINUOUS
 62
     7
 10
177.0
 20
212.5
 40
3.500000000000003
 50
0.0
 51
90.0
  0
LINE
  8
1
  6
CONTINUOUS
 62
     7
 10
147.0
 20
216.0
 11
177.0
 21
216.0
  0
ARC
  8
1
  6
CONTINUOUS
 62
     7
 10
147.0
 20
212.5
 40
3.500000000000003
 50
90.00000000000011
 51
179.9999999999998
  0
LINE
  8
1
  6
CONTINUOUS
 62
     7
 10
143.5
 20
211.75
 11
143.5
 21
212.5
  0
ARC
  8
1
  6
CONTINUOUS
 62
     7
 10
139.0
 20
211.75
 40
4.500000000000004
 50
180.0
 51
0.0
  0
LINE
  8
1
  6
CONTINUOUS
 62
     7
 10
134.5
 20
212.5
 11
134.5
 21
211.7500000000001
  0
ARC
  8
1
  6
CONTINUOUS
 62
     7
 10
131.0
 20
212.5
 40
3.500000000000003
 50
0.0
 51
90.0
  0
LINE
  8
1
  6
CONTINUOUS
 62
     7
 10
101.0
 20
216.0
 11
131.0
 21
216.0
  0
ARC
  8
1
  6
CONTINUOUS
 62
     7
 10
101.0
 20
212.5
 40
3.500000000000003
 50
90.0
 51
179.9999999999998
  0
LINE
  8
1
  6
CONTINUOUS
 62
     7
 10
97.5
 20
211.75
 11
97.50000000000001
 21
212.5
  0
ARC
  8
1
  6
CONTINUOUS
 62
     7
 10
93.0
 20
211.75
 40
4.500000000000004
 50
180.0
 51
359.9999999999998
  0
LINE
  8
1
  6
CONTINUOUS
 62
     7
 10
88.5
 20
212.5
 11
88.5
 21
211.7500000000001
  0
ARC
  8
1
  6
CONTINUOUS
 62
     7
 10
84.99999999999999
 20
212.5
 40
3.500000000000003
 50
0.0
 51
90.0
  0
LINE
  8
1
  6
CONTINUOUS
 62
     7
 10
69.0
 20
216.0
 11
84.99999999999999
 21
216.0
  0
ARC
  8
1
  6
CONTINUOUS
 62
     7
 10
69.0
 20
212.5
 40
3.500000000000003
 50
90.0
 51
179.9999999999999
  0
LINE
  8
1
  6
CONTINUOUS
 62
     7
 10
65.5
 20
127.5
 11
65.5
 21
212.5
  0
ARC
  8
1
  6
CONTINUOUS
 62
     7
 10
69.0
 20
127.5
 40
3.500000000000003
 50
180.0000000000001
 51
270.0
  0
LINE
  8
1
  6
CONTINUOUS
 62
     7
 10
84.99999999999999
 20
124.0
 11
69.0
 21
124.0
  0
ARC
  8
1
  6
CONTINUOUS
 62
     7
 10
84.99999999999999
 20
127.5
 40
3.500000000000003
 50
270.0
 51
0.0
  0
LINE
  8
1
  6
CONTINUOUS
 62
     7
 10
88.5
 20
128.25
 11
88.5
 21
127.5
  0
ARC
  8
1
  6
CONTINUOUS
 62
     7
 10
93.0
 20
128.25
 40
4.500000000000004
 50
0.0
 51
180.0
  0
LINE
  8
1
  6
CONTINUOUS
 62
     7
 10
97.5
 20
127.5
 11
97.5
 21
128.25
  0
ARC
  8
1
  6
CONTINUOUS
 62
     7
 10
101.0
 20
127.5
 40
3.500000000000003
 50
180.0000000000002
 51
270.0
  0
LINE
  8
1
  6
CONTINUOUS
 62
     7
 10
131.0
 20
124.0
 11
101.0
 21
124.0
  0
ARC
  8
1
  6
CONTINUOUS
 62
     7
 10
131.0
 20
127.5
 40
3.500000000000003
 50
270.0
 51
0.0
  0
LINE
  8
1
  6
CONTINUOUS
 62
     7
 10
134.5
 20
128.25
 11
134.5
 21
127.5
  0
ARC
  8
1
  6
CONTINUOUS
 62
     7
 10
139.0
 20
128.25
 40
4.500000000000004
 50
0.0
 51
180.0
  0
LINE
  8
1
  6
CONTINUOUS
 62
     7
 10
143.5
 20
127.5
 11
143.5
 21
128.25
  0
ARC
  8
1
  6
CONTINUOUS
 62
     7
 10
147.0
 20
127.5
 40
3.500000000000003
 50
180.0000000000002
 51
269.9999999999999
  0
LINE
  8
1
  6
CONTINUOUS
 62
     7
 10
177.0
 20
124.0
 11
147.0
 21
124.0
  0
ARC
  8
1
  6
CONTINUOUS
 62
     7
 10
177.0
 20
127.5
 40
3.500000000000003
 50
270.0
 51
0.0
  0
LINE
  8
1
  6
CONTINUOUS
 62
     7
 10
180.5
 20
128.25
 11
180.5
 21
127.5
  0
ARC
  8
1
  6
CONTINUOUS
 62
     7
 10
185.0
 20
128.25
 40
4.500000000000004
 50
0.0
 51
180.0
  0
LINE
  8
1
  6
CONTINUOUS
 62
     7
 10
189.5
 20
127.5
 11
189.5
 21
128.25
  0
ARC
  8
1
  6
CONTINUOUS
 62
     7
 10
193.0
 20
127.5
 40
3.500000000000003
 50
180.0000000000002
 51
270.0
  0
LINE
  8
1
  6
CONTINUOUS
 62
     7
 10
223.0
 20
124.0
 11
193.0000000000001
 21
124.0
  0
ARC
  8
1
  6
CONTINUOUS
 62
     7
 10
223.0
 20
127.5
 40
3.500000000000003
 50
270.0
 51
0.0
  0
LINE
  8
1
  6
CONTINUOUS
 62
     7
 10
226.5
 20
128.25
 11
226.5
 21
127.5
  0
ARC
  8
1
  6
CONTINUOUS
 62
     7
 10
231.0
 20
128.25
 40
4.500000000000004
 50
0.0
 51
180.0
  0
LINE
  8
1
  6
CONTINUOUS
 62
     7
 10
235.5
 20
127.5
 11
235.5
 21
128.25
  0
ENDBLK
  8
0
  0
BLOCK
  8
0
  2
D_FRAME_VIEW_2198
 70
     0
 10
0.0
 20
0.0
  0
LINE
  8
1
  6
CONTINUOUS
 62
     7
 10
373.3
 20
230.0
 11
371.7
 21
230.0
  0
LINE
  8
1
  6
CONTINUOUS
 62
     7
 10
373.3
 20
225.0
 11
373.3
 21
230.0
  0
LINE
  8
1
  6
CONTINUOUS
 62
     7
 10
371.7
 20
225.0
 11
371.7
 21
230.0
  0
LINE
  8
1
  6
CONTINUOUS
 62
     7
 10
373.3
 20
115.0
 11
373.3
 21
225.0
  0
LINE
  8
1
  6
CONTINUOUS
 62
     7
 10
371.7
 20
115.0
 11
371.7
 21
225.0
  0
LINE
  8
1
  6
CONTINUOUS
 62
     7
 10
373.3
 20
110.0
 11
371.7
 21
110.0
  0
LINE
  8
1
  6
CONTINUOUS
 62
     7
 10
373.3
 20
110.0
 11
373.3
 21
115.0
  0
LINE
  8
1
  6
CONTINUOUS
 62
     7
 10
371.7
 20
110.0
 11
371.7
 21
115.0
  0
LINE
  8
1
  6
CONTINUOUS
 62
     7
 10
371.6625
 20
112.1002485795455
 11
371.7
 21
112.1002485795455
  0
ENDBLK
  8
0
  0
BLOCK
  8
0
  2
D_FRAME_VIEW_2186
 70
     0
 10
0.0
 20
0.0
  0
LINE
  8
1
  6
CONTINUOUS
 62
     7
 10
46.74999999999999
 20
71.69999999999999
 11
46.74999999999999
 21
73.29999999999998
  0
LINE
  8
1
  6
CONTINUOUS
 62
     7
 10
46.74999999999999
 20
71.69999999999999
 11
51.74999999999999
 21
71.69999999999999
  0
LINE
  8
1
  6
CONTINUOUS
 62
     7
 10
46.74999999999999
 20
73.29999999999998
 11
51.74999999999999
 21
73.29999999999998
  0
LINE
  8
1
  6
CONTINUOUS
 62
     7
 10
65.5
 20
71.69999999999999
 11
304.5
 21
71.7
  0
LINE
  8
1
  6
CONTINUOUS
 62
     7
 10
65.5
 20
73.29999999999998
 11
304.5
 21
73.29999999999998
  0
LINE
  8
1
  6
CONTINUOUS
 62
     7
 10
309.5
 20
71.7
 11
318.25
 21
71.69999999999999
  0
LINE
  8
1
  6
CONTINUOUS
 62
     7
 10
309.5
 20
73.29999999999998
 11
318.25
 21
73.29999999999998
  0
LINE
  8
1
  6
CONTINUOUS
 62
     7
 10
51.74999999999999
 20
71.69999999999999
 11
60.5
 21
71.7
  0
LINE
  8
1
  6
CONTINUOUS
 62
     7
 10
51.74999999999999
 20
73.29999999999998
 11
60.5
 21
73.29999999999998
  0
LINE
  8
1
  6
CONTINUOUS
 62
     7
 10
323.2500000000001
 20
71.69999999999999
 11
323.2500000000001
 21
73.29999999999998
  0
LINE
  8
1
  6
CONTINUOUS
 62
     7
 10
318.25
 20
71.69999999999999
 11
323.2500000000001
 21
71.69999999999999
  0
LINE
  8
1
  6
CONTINUOUS
 62
     7
 10
318.25
 20
73.29999999999998
 11
323.2500000000001
 21
73.29999999999998
  0
LINE
  8
1
  6
CONTINUOUS
 62
     7
 10
309.5
 20
71.7
 11
304.5
 21
71.7
  0
LINE
  8
1
  6
CONTINUOUS
 62
     7
 10
309.5
 20
73.29999999999998
 11
304.5
 21
73.29999999999998
  0
LINE
  8
1
  6
CONTINUOUS
 62
     7
 10
65.5
 20
71.7
 11
60.5
 21
71.7
  0
LINE
  8
1
  6
CONTINUOUS
 62
     7
 10
65.5
 20
73.29999999999998
 11
60.5
 21
73.29999999999998
  0
ENDBLK
  8
0
  0
ENDSEC
  0
SECTION
  2
ENTITIES
  0
INSERT
  8
0
 62
     7
  2
D_FRAME_DRAWING_17
 10
0.0
 20
0.0
 30
0.0
  0
INSERT
  8
1
  6
CONTINUOUS
 62
     7
  2
D_FRAME_VIEW_1928
 10
0.0
 20
0.0
 30
0.0
  0
LINE
  8
1
  6
CENTER
 62
     1
 10
88.5
 20
211.75
 11
281.4999999999999
 21
211.75
  0
LINE
  8
1
  6
CENTER
 62
     1
 10
93.0
 20
110.0
 11
93.0
 21
230.0
  0
LINE
  8
1
  6
CENTER
 62
     1
 10
277.0
 20
110.0
 11
277.0
 21
230.0
  0
LINE
  8
1
  6
CENTER
 62
     1
 10
88.5
 20
128.25
 11
281.4999999999999
 21
128.25
  0
LINE
  8
1
  6
CENTER
 62
     1
 10
231.0
 20
110.0
 11
231.0
 21
230.0
  0
LINE
  8
1
  6
CENTER
 62
     1
 10
185.0
 20
110.0
 11
185.0
 21
230.0
  0
LINE
  8
1
  6
CENTER
 62
     1
 10
139.0
 20
110.0
 11
139.0
 21
230.0
  0
TEXT
  8
1
  6
CONTINUOUS
 62
     7
 10
346.9842190821558
 20
73.04245342003252
 40
8.0
  1
OF-12CSW5F
  0
INSERT
  8
1
  6
CONTINUOUS
 62
     7
  2
D_FRAME_VIEW_2198
 10
0.0
 20
0.0
 30
0.0
  0
INSERT
  8
1
  6
CONTINUOUS
 62
     7
  2
D_FRAME_VIEW_2186
 10
0.0
 20
0.0
 30
0.0
  0
LINE
  8
1
  6
CENTER
 62
     1
 10
375.3
 20
170.0
 11
369.7
 21
170.0
  0
LINE
  8
1
  6
CENTER
 62
     1
 10
185.0
 20
69.69999999999999
 11
185.0
 21
75.3
  0
LINE
  8
1
  6
CENTER
 62
     1
 10
181.35
 20
211.75
 11
188.65
 21
211.75
  0
LINE
  8
1
  6
CENTER
 62
     1
 10
135.35
 20
128.25
 11
142.65
 21
128.25
  0
LINE
  8
1
  6
CENTER
 62
     1
 10
306.5
 20
170.0
 11
49.75000000000001
 21
170.0
  0
ENDSEC
  0
EOF
