  0
SECTION
  2
HEADER
  9
$ACADVER
  1
AC1004
  9
$INSBASE
 10
0.0
 20
0.0
  9
$EXTMIN
 10
-361.5995750551921
 20
-32.66970118311892
  9
$EXTMAX
 10
-140.9941068181802
 20
156.3646734064906
  9
$LIMMIN
 10
0.0
 20
0.0
  9
$LIMMAX
 10
12.0
 20
9.0
  9
$ORTHOMODE
 70
     0
  9
$REGENMODE
 70
     1
  9
$FILLMODE
 70
     1
  9
$QTEXTMODE
 70
     0
  9
$DRAGMODE
 70
     2
  9
$LTSCALE
 40
1.0
  9
$OSMODE
 70
    37
  9
$ATTMODE
 70
     1
  9
$TEXTSIZE
 40
0.2
  9
$TRACEWID
 40
0.05
  9
$TEXTSTYLE
  7
STANDARD
  9
$CLAYER
  8
0
  9
$CELTYPE
  6
BYLAYER
  9
$CECOLOR
 62
   256
  9
$DIMSCALE
 40
1.0
  9
$DIMASZ
 40
3.0
  9
$DIMEXO
 40
0.0625
  9
$DIMDLI
 40
0.38
  9
$DIMRND
 40
0.0
  9
$DIMDLE
 40
0.0
  9
$DIMEXE
 40
1.5
  9
$DIMTP
 40
0.0
  9
$DIMTM
 40
0.0
  9
$DIMTXT
 40
3.0
  9
$DIMCEN
 40
0.09
  9
$DIMTSZ
 40
0.0
  9
$DIMTOL
 70
     0
  9
$DIMLIM
 70
     0
  9
$DIMTIH
 70
     1
  9
$DIMTOH
 70
     1
  9
$DIMSE1
 70
     0
  9
$DIMSE2
 70
     0
  9
$DIMTAD
 70
     1
  9
$DIMZIN
 70
     0
  9
$DIMBLK
  1

  9
$DIMASO
 70
     1
  9
$DIMSHO
 70
     1
  9
$DIMPOST
  1

  9
$DIMAPOST
  1

  9
$DIMALT
 70
     0
  9
$DIMALTD
 70
     2
  9
$DIMALTF
 40
25.4
  9
$DIMLFAC
 40
1.0
  9
$DIMTOFL
 70
     0
  9
$DIMTVP
 40
0.0
  9
$DIMTIX
 70
     0
  9
$DIMSOXD
 70
     0
  9
$DIMSAH
 70
     0
  9
$DIMBLK1
  1

  9
$DIMBLK2
  1

  9
$LUNITS
 70
     2
  9
$LUPREC
 70
     4
  9
$SKETCHINC
 40
0.1
  9
$FILLETRAD
 40
0.5
  9
$AUNITS
 70
     0
  9
$AUPREC
 70
     0
  9
$MENU
  1
.
  9
$ELEVATION
 40
0.0
  9
$THICKNESS
 40
0.0
  9
$LIMCHECK
 70
     0
  9
$CHAMFERA
 40
0.0
  9
$CHAMFERB
 40
0.0
  9
$SKPOLY
 70
     0
  9
$TDCREATE
 40
2459530.60289809
  9
$TDUPDATE
 40
2459530.602898275
  9
$TDINDWG
 40
0.0000000116
  9
$TDUSRTIMER
 40
0.0000000116
  9
$USRTIMER
 70
     1
  9
$ANGBASE
 50
0.0
  9
$ANGDIR
 70
     0
  9
$PDMODE
 70
     0
  9
$PDSIZE
 40
0.0
  9
$PLINEWID
 40
0.0
  9
$COORDS
 70
     1
  9
$SPLFRAME
 70
     0
  9
$SPLINETYPE
 70
     6
  9
$SPLINESEGS
 70
     8
  9
$ATTDIA
 70
     0
  9
$ATTREQ
 70
     1
  9
$SURFTAB1
 70
     6
  9
$SURFTAB2
 70
     6
  9
$SURFTYPE
 70
     6
  9
$SURFU
 70
     6
  9
$SURFV
 70
     6
  9
$UCSNAME
  2

  9
$UCSORG
 10
0.0
 20
0.0
 30
0.0
  9
$UCSXDIR
 10
1.0
 20
0.0
 30
0.0
  9
$UCSYDIR
 10
0.0
 20
1.0
 30
0.0
  9
$USERI1
 70
     0
  9
$USERI2
 70
     0
  9
$USERI3
 70
     0
  9
$USERI4
 70
     0
  9
$USERI5
 70
     0
  9
$USERR1
 40
0.0
  9
$USERR2
 40
0.0
  9
$USERR3
 40
0.0
  9
$USERR4
 40
0.0
  9
$USERR5
 40
0.0
  9
$WORLDVIEW
 70
     1
  0
ENDSEC
  0
SECTION
  2
TABLES
  0
TABLE
  2
LTYPE
 70
     2
  0
LTYPE
  2
CONTINUOUS
 70
     0
  3
Solid line
 72
    65
 73
     0
 40
0.0
  0
LTYPE
  2
CENTER
 70
     0
  3

 72
    65
 73
     0
 40
0.0
  0
ENDTAB
  0
TABLE
  2
LAYER
 70
     2
  0
LAYER
  2
0
 70
     0
 62
     7
  6
CONTINUOUS
  0
LAYER
  2
2
 70
     0
 62
     7
  6
CONTINUOUS
  0
ENDTAB
  0
TABLE
  2
STYLE
 70
     2
  0
STYLE
  2
STANDARD
 70
     0
 40
0.0
 41
1.0
 50
0.0
 71
     0
 42
0.2
  3
txt
  4

  0
STYLE
  2
ＭＳ_ゴシック
 70
     0
 40
0.0
 41
1.0
 50
0.0
 71
     0
 42
0.2
  3
ＭＳ ゴシック.shx
  4

  0
ENDTAB
  0
TABLE
  2
VIEW
 70
     0
  0
ENDTAB
  0
ENDSEC
  0
SECTION
  2
BLOCKS
  0
BLOCK
  8
0
  2
D_FRAME_VIEW_3229
 70
     0
 10
0.0
 20
0.0
  0
LINE
  8
2
  6
CONTINUOUS
 62
     7
 10
-155.9941068181802
 20
55.36467340649058
 11
-155.9941068181802
 21
151.3646734064906
  0
LINE
  8
2
  6
CONTINUOUS
 62
     7
 10
-157.5941068181802
 20
55.36467340649058
 11
-157.5941068181802
 21
151.3646734064906
  0
LINE
  8
2
  6
CONTINUOUS
 62
     7
 10
-155.9941068181802
 20
156.3646734064906
 11
-157.5941068181802
 21
156.3646734064906
  0
LINE
  8
2
  6
CONTINUOUS
 62
     7
 10
-155.9941068181802
 20
151.3646734064906
 11
-155.9941068181802
 21
156.3646734064906
  0
LINE
  8
2
  6
CONTINUOUS
 62
     7
 10
-157.5941068181802
 20
151.3646734064906
 11
-157.5941068181802
 21
156.3646734064906
  0
LINE
  8
2
  6
CONTINUOUS
 62
     7
 10
-155.9941068181802
 20
50.36467340649058
 11
-157.5941068181802
 21
50.36467340649058
  0
LINE
  8
2
  6
CONTINUOUS
 62
     7
 10
-155.9941068181802
 20
50.36467340649058
 11
-155.9941068181802
 21
55.36467340649058
  0
LINE
  8
2
  6
CONTINUOUS
 62
     7
 10
-157.5941068181802
 20
50.36467340649058
 11
-157.5941068181802
 21
55.36467340649058
  0
ARC
  8
2
  6
CONTINUOUS
 62
     7
 10
-159.9941068181802
 20
57.61467340649043
 40
4.000000000000153
 50
62.73395554926768
 51
87.45268181742894
  0
ARC
  8
2
  6
CONTINUOUS
 62
     7
 10
-152.4941068181802
 20
65.40586971000451
 40
0.500000000000015
 50
2.499999999969361
 51
90.99999999996912
  0
ARC
  8
2
  6
CONTINUOUS
 62
     7
 10
-152.4941068181802
 20
65.40586971000451
 40
0.4999999999999926
 50
0.0000000000007958
 51
2.499999999969361
  0
LINE
  8
2
  6
CONTINUOUS
 62
     7
 10
-151.9941068181802
 20
65.40586971000452
 11
-151.9941068181802
 21
62.73651467230125
  0
LINE
  8
2
  6
CONTINUOUS
 62
     7
 10
-159.8028330213988
 20
65.77837158360671
 11
-157.5941099376223
 21
65.8169249884425
  0
LINE
  8
2
  6
CONTINUOUS
 62
     7
 10
-155.9941104806779
 20
65.84485308284857
 11
-152.5028330213986
 21
65.90579355758273
  0
LINE
  8
2
  6
CONTINUOUS
 62
     7
 10
-160.2941068181802
 20
62.56094386565044
 11
-160.2941068181802
 21
65.27844773602853
  0
ARC
  8
2
  6
CONTINUOUS
 62
     7
 10
-159.7941068181802
 20
65.27844773602853
 40
0.4999999999999916
 50
91.00000000000006
 51
180.0
  0
LINE
  8
2
  6
CONTINUOUS
 62
     7
 10
-151.9941068181802
 20
55.876070778227
 11
-151.9941068181802
 21
55.37584229776129
  0
ARC
  8
2
  6
CONTINUOUS
 62
     7
 10
-152.4941068181802
 20
55.37584229776129
 40
0.5000000000000004
 50
271.0000000000001
 51
0.0
  0
LINE
  8
2
  6
CONTINUOUS
 62
     7
 10
-151.9941068181802
 20
62.73651467230125
 11
-151.9941068181802
 21
61.61467340649059
  0
LINE
  8
2
  6
CONTINUOUS
 62
     7
 10
-151.9941068181802
 20
61.61467340649057
 11
-151.9941068181802
 21
55.876070778227
  0
LINE
  8
2
  6
CONTINUOUS
 62
     7
 10
-152.4853806149615
 20
54.8759184501831
 11
-155.1278438870795
 21
54.82979408219784
  0
LINE
  8
2
  6
CONTINUOUS
 62
     7
 10
-155.610640906589
 20
55.17079385626507
 11
-155.7773583376708
 21
55.66811227314658
  0
ARC
  8
2
  6
CONTINUOUS
 62
     7
 10
-155.1365700902982
 20
55.32971792977604
 40
0.5000000000000024
 50
198.5328397444424
 51
270.9999999999999
  0
LINE
  8
2
  6
CONTINUOUS
 62
     7
 10
-155.7773583376708
 20
55.66811227314659
 11
-155.9941068181802
 21
56.31467340649058
  0
ARC
  8
2
  6
CONTINUOUS
 62
     7
 10
-159.9941068181801
 20
57.61467340649058
 40
4.000000000000002
 50
53.13010235415616
 51
62.73395554926738
  0
ARC
  8
2
  6
CONTINUOUS
 62
     7
 10
-159.7941068181802
 20
62.11022676508838
 40
0.4999999999999974
 50
180.0
 51
267.4526818174296
  0
LINE
  8
2
  6
CONTINUOUS
 62
     7
 10
-160.2941068181802
 20
62.11022676508838
 11
-160.2941068181802
 21
62.56094386565047
  0
LINE
  8
2
  6
CONTINUOUS
 62
     7
 10
-157.8777445775832
 20
54.41537210954101
 11
-157.7941068181802
 21
54.61467340649057
  0
ARC
  8
2
  6
CONTINUOUS
 62
     7
 10
-156.2941068181802
 20
57.31623459504669
 40
1.5
 50
150.0735651333856
 51
180.0
  0
LINE
  8
2
  6
CONTINUOUS
 62
     7
 10
-157.7941068181802
 20
54.61467340649057
 11
-157.7941068181802
 21
57.31623459504669
  0
LINE
  8
2
  6
CONTINUOUS
 62
     7
 10
-158.2940306657584
 20
53.42339960970921
 11
-159.8028330213988
 21
53.44973585279077
  0
LINE
  8
2
  6
CONTINUOUS
 62
     7
 10
-157.8777445775832
 20
54.41537210954101
 11
-158.2940306657584
 21
53.42339960970921
  0
LINE
  8
2
  6
CONTINUOUS
 62
     7
 10
-160.2941068181802
 20
54.44927910063377
 11
-160.2941068181802
 21
62.11022676508838
  0
ARC
  8
2
  6
CONTINUOUS
 62
     7
 10
-159.7941068181802
 20
53.94965970036896
 40
0.5000000000000004
 50
180.0
 51
268.9999999999999
  0
LINE
  8
2
  6
CONTINUOUS
 62
     7
 10
-160.2941068181802
 20
53.94965970036896
 11
-160.2941068181802
 21
54.44927910063377
  0
LINE
  8
2
  6
CONTINUOUS
 62
     7
 10
-141.9941068181802
 20
58.46467340649057
 11
-141.9853802826818
 21
58.4647114834264
  0
LINE
  8
2
  6
CONTINUOUS
 62
     7
 10
-151.994094730514
 20
58.46467340649057
 11
-141.9941068181802
 21
58.46467340649057
  0
LINE
  8
2
  6
CONTINUOUS
 62
     7
 10
-140.9941068181802
 20
64.14245917903422
 11
-140.9941068181802
 21
59.46467340649057
  0
ARC
  8
2
  6
CONTINUOUS
 62
     7
 10
-141.9941068181802
 20
59.46467340649055
 40
1.000000000000001
 50
270.5000000000005
 51
0.0000000000007958
  0
LINE
  8
2
  6
CONTINUOUS
 62
     7
 10
-151.9941068181802
 20
143.9928321406799
 11
-151.9941068181802
 21
141.3234771029767
  0
ARC
  8
2
  6
CONTINUOUS
 62
     7
 10
-152.4941068181802
 20
141.3234771029767
 40
0.5000000000000194
 50
268.9999999999999
 51
0.0
  0
LINE
  8
2
  6
CONTINUOUS
 62
     7
 10
-152.5028330213988
 20
140.8235532553985
 11
-155.9941104806779
 21
140.8844937301326
  0
LINE
  8
2
  6
CONTINUOUS
 62
     7
 10
-157.5941099376223
 20
140.9124218245387
 11
-159.8028330213988
 21
140.9509752293744
  0
LINE
  8
2
  6
CONTINUOUS
 62
     7
 10
-160.2941068181802
 20
141.4508990769526
 11
-160.2941068181802
 21
144.1684029473307
  0
ARC
  8
2
  6
CONTINUOUS
 62
     7
 10
-159.7941068181802
 20
141.4508990769526
 40
0.5000000000000004
 50
180.0
 51
268.9999999999999
  0
ARC
  8
2
  6
CONTINUOUS
 62
     7
 10
-152.4941068181802
 20
151.3535045152199
 40
0.5000000000000199
 50
0.0
 51
88.99999999999994
  0
LINE
  8
2
  6
CONTINUOUS
 62
     7
 10
-151.9941068181802
 20
151.3535045152199
 11
-151.9941068181802
 21
150.8532760347541
  0
LINE
  8
2
  6
CONTINUOUS
 62
     7
 10
-151.9941068181802
 20
145.1146734064906
 11
-151.9941068181802
 21
143.9928321406799
  0
LINE
  8
2
  6
CONTINUOUS
 62
     7
 10
-151.9941068181802
 20
150.8532760347541
 11
-151.9941068181802
 21
145.1146734064906
  0
LINE
  8
2
  6
CONTINUOUS
 62
     7
 10
-155.1278438870795
 20
151.8995527307833
 11
-152.4853806149615
 21
151.853428362798
  0
LINE
  8
2
  6
CONTINUOUS
 62
     7
 10
-155.7773583376708
 20
151.0612345398346
 11
-155.610640906589
 21
151.5585529567161
  0
ARC
  8
2
  6
CONTINUOUS
 62
     7
 10
-155.1365700902982
 20
151.3996288832051
 40
0.4999999999999916
 50
88.99999999999994
 51
161.4671602555575
  0
LINE
  8
2
  6
CONTINUOUS
 62
     7
 10
-155.9941068181802
 20
150.4146734064906
 11
-155.7773583376708
 21
151.0612345398346
  0
LINE
  8
2
  6
CONTINUOUS
 62
     7
 10
-160.1510649645908
 20
144.9692355741282
 11
-159.8163290404024
 21
145.1186259766259
  0
ARC
  8
2
  6
CONTINUOUS
 62
     7
 10
-159.9941068181802
 20
149.1146734064906
 40
4.000000000000002
 50
272.5473181825704
 51
306.8698976458442
  0
LINE
  8
2
  6
CONTINUOUS
 62
     7
 10
-160.2941068181802
 20
144.1684029473307
 11
-160.2941068181802
 21
144.6191200478928
  0
LINE
  8
2
  6
CONTINUOUS
 62
     7
 10
-160.2941068181802
 20
144.6191200478928
 11
-160.1510649645908
 21
144.9692355741282
  0
LINE
  8
2
  6
CONTINUOUS
 62
     7
 10
-157.7941068181802
 20
152.1146734064906
 11
-157.8777445775832
 21
152.3139747034402
  0
LINE
  8
2
  6
CONTINUOUS
 62
     7
 10
-157.7941068181802
 20
149.4131122179345
 11
-157.7941068181802
 21
152.1146734064906
  0
ARC
  8
2
  6
CONTINUOUS
 62
     7
 10
-156.2941068181802
 20
149.4131122179345
 40
1.5
 50
180.0
 51
209.9264348666142
  0
LINE
  8
2
  6
CONTINUOUS
 62
     7
 10
-159.8028330213988
 20
153.2796109601904
 11
-158.2940306657584
 21
153.305947203272
  0
LINE
  8
2
  6
CONTINUOUS
 62
     7
 10
-158.2940306657584
 20
153.305947203272
 11
-157.8777445775832
 21
152.3139747034402
  0
LINE
  8
2
  6
CONTINUOUS
 62
     7
 10
-160.2941068181802
 20
144.6191200478928
 11
-160.2941068181802
 21
152.2800677123474
  0
ARC
  8
2
  6
CONTINUOUS
 62
     7
 10
-159.7941068181802
 20
152.7796871126122
 40
0.5000000000000004
 50
91.00000000000006
 51
180.0
  0
LINE
  8
2
  6
CONTINUOUS
 62
     7
 10
-160.2941068181802
 20
152.2800677123474
 11
-160.2941068181802
 21
152.7796871126122
  0
LINE
  8
2
  6
CONTINUOUS
 62
     7
 10
-141.9941068181802
 20
148.2646734064906
 11
-151.994094730514
 21
148.2646734064906
  0
LINE
  8
2
  6
CONTINUOUS
 62
     7
 10
-141.9853802826818
 20
148.2646353295547
 11
-141.9941068181802
 21
148.2646734064906
  0
ARC
  8
2
  6
CONTINUOUS
 62
     7
 10
-141.9941068181801
 20
147.2646734064906
 40
0.999999999999975
 50
359.9999999999985
 51
89.50000000000107
  0
LINE
  8
2
  6
CONTINUOUS
 62
     7
 10
-140.9941068181802
 20
147.2646734064906
 11
-140.9941068181802
 21
142.5868876339469
  0
LINE
  8
2
  6
CONTINUOUS
 62
     7
 10
-157.6316068181802
 20
52.46694613376332
 11
-157.5941068181802
 21
52.46694613376332
  0
LINE
  8
2
  6
CONTINUOUS
 62
     7
 10
-141.9853802826818
 20
65.1424211020984
 11
-151.9941068181802
 21
65.22976593532753
  0
ARC
  8
2
  6
CONTINUOUS
 62
     7
 10
-141.9941068181802
 20
64.14245917903422
 40
1.000000000000001
 50
0.0
 51
89.49999999999991
  0
LINE
  8
2
  6
CONTINUOUS
 62
     7
 10
-151.9941068181802
 20
141.4995808776536
 11
-141.9853802826818
 21
141.5869257108828
  0
ARC
  8
2
  6
CONTINUOUS
 62
     7
 10
-141.9941068181802
 20
142.5868876339469
 40
1.000000000000003
 50
270.5000000000001
 51
0.0
  0
ENDBLK
  8
0
  0
BLOCK
  8
0
  2
D_FRAME_VIEW_2607
 70
     0
 10
0.0
 20
0.0
  0
LINE
  8
2
  6
CONTINUOUS
 62
     7
 10
-311.0696501490355
 20
57.61467340649058
 11
-306.0995750551921
 21
57.61467340649058
  0
LINE
  8
2
  6
CONTINUOUS
 62
     7
 10
-306.1294999613487
 20
149.1146734064906
 11
-311.0995750551921
 21
149.1146734064906
  0
CIRCLE
  8
2
  6
CONTINUOUS
 62
     7
 10
-259.5995750551921
 20
103.3646734064906
 40
1.500000000000001
  0
CIRCLE
  8
2
  6
CONTINUOUS
 62
     7
 10
-357.5995750551921
 20
103.3646734064906
 40
1.500000000000001
  0
ARC
  8
2
  6
CONTINUOUS
 62
     7
 10
-264.0995750551921
 20
73.36467340649058
 40
2.499999999999999
 50
326.0138328903514
 51
143.753940166834
  0
ARC
  8
2
  6
CONTINUOUS
 62
     7
 10
-308.5995750551921
 20
103.3646734064906
 40
51.16999999999999
 50
317.6783312834422
 51
326.1242153511707
  0
ARC
  8
2
  6
CONTINUOUS
 62
     7
 10
-270.6491541089101
 20
65.41425246020857
 40
3.500000000000002
 50
91.90788726874564
 51
178.0921127312533
  0
ARC
  8
2
  6
CONTINUOUS
 62
     7
 10
-308.5995750551921
 20
103.3646734064906
 40
51.16999999999999
 50
304.0965495704681
 51
312.3216687165578
  0
ARC
  8
2
  6
CONTINUOUS
 62
     7
 10
-278.5995750551921
 20
58.86467340649058
 40
2.499999999999997
 50
121.7262743861286
 51
303.9861671096487
  0
LINE
  8
2
  6
CONTINUOUS
 62
     7
 10
-277.2009532389834
 20
56.79005104578104
 11
-277.2020932225319
 21
56.791742021378
  0
ARC
  8
2
  6
CONTINUOUS
 62
     7
 10
-308.5995750551921
 20
103.3646734064906
 40
56.17
 50
303.9861671096485
 51
312.4436738069001
  0
ARC
  8
2
  6
CONTINUOUS
 62
     7
 10
-270.6491541089101
 20
65.41425246020857
 40
3.500000000000004
 50
269.2919800806312
 51
0.7080199193682688
  0
ARC
  8
2
  6
CONTINUOUS
 62
     7
 10
-308.5995750551921
 20
103.3646734064906
 40
56.17
 50
317.5563261930999
 51
326.0138328903514
  0
LINE
  8
2
  6
CONTINUOUS
 62
     7
 10
-262.0266436700795
 20
71.9671915738304
 11
-262.0249526944826
 21
71.9660515902819
  0
ARC
  8
2
  6
CONTINUOUS
 62
     7
 10
-308.5995750551921
 20
103.3646734064906
 40
56.16999999999999
 50
227.5563261930998
 51
236.0138328903514
  0
LINE
  8
2
  6
CONTINUOUS
 62
     7
 10
-339.9970568878522
 20
56.791742021378
 11
-339.9981968714008
 21
56.79005104578104
  0
ARC
  8
2
  6
CONTINUOUS
 62
     7
 10
-338.5995750551921
 20
58.86467340649058
 40
2.499999999999994
 50
236.0138328903514
 51
58.27372561387143
  0
ARC
  8
2
  6
CONTINUOUS
 62
     7
 10
-308.5995750551921
 20
103.3646734064906
 40
51.16999999999998
 50
227.6783312834421
 51
235.9034504295319
  0
ARC
  8
2
  6
CONTINUOUS
 62
     7
 10
-346.5499960014741
 20
65.41425246020857
 40
3.5
 50
1.907887268746549
 51
88.09211273125435
  0
ARC
  8
2
  6
CONTINUOUS
 62
     7
 10
-308.5995750551921
 20
103.3646734064906
 40
51.16999999999999
 50
213.8757846488292
 51
222.3216687165578
  0
ARC
  8
2
  6
CONTINUOUS
 62
     7
 10
-353.0995750551921
 20
73.36467340649058
 40
2.499999999999995
 50
36.24605983316599
 51
213.9861671096486
  0
LINE
  8
2
  6
CONTINUOUS
 62
     7
 10
-355.1741974159016
 20
71.9660515902819
 11
-355.1725064403047
 21
71.9671915738304
  0
ARC
  8
2
  6
CONTINUOUS
 62
     7
 10
-308.5995750551921
 20
103.3646734064906
 40
56.16999999999999
 50
213.9861671096487
 51
222.4436738069001
  0
ARC
  8
2
  6
CONTINUOUS
 62
     7
 10
-346.5499960014741
 20
65.41425246020857
 40
3.500000000000004
 50
179.2919800806317
 51
270.7080199193688
  0
ARC
  8
2
  6
CONTINUOUS
 62
     7
 10
-308.5995750551921
 20
103.3646734064906
 40
56.16999999999999
 50
47.55632619309984
 51
56.0138328903514
  0
LINE
  8
2
  6
CONTINUOUS
 62
     7
 10
-277.2020932225319
 20
149.9376047916032
 11
-277.2009532389834
 21
149.9392957672001
  0
ARC
  8
2
  6
CONTINUOUS
 62
     7
 10
-278.5995750551921
 20
147.8646734064906
 40
2.499999999999994
 50
56.01383289035135
 51
238.2737256138714
  0
ARC
  8
2
  6
CONTINUOUS
 62
     7
 10
-308.5995750551921
 20
103.3646734064906
 40
51.16999999999998
 50
47.67833128344213
 51
55.9034504295319
  0
ARC
  8
2
  6
CONTINUOUS
 62
     7
 10
-270.6491541089101
 20
141.3150943527726
 40
3.5
 50
181.9078872687466
 51
268.0921127312542
  0
ARC
  8
2
  6
CONTINUOUS
 62
     7
 10
-308.5995750551921
 20
103.3646734064906
 40
51.16999999999999
 50
33.87578464882922
 51
42.32166871655784
  0
ARC
  8
2
  6
CONTINUOUS
 62
     7
 10
-264.0995750551921
 20
133.3646734064906
 40
2.499999999999995
 50
216.246059833166
 51
33.98616710964859
  0
LINE
  8
2
  6
CONTINUOUS
 62
     7
 10
-262.0249526944826
 20
134.7632952226992
 11
-262.0266436700795
 21
134.7621552391508
  0
ARC
  8
2
  6
CONTINUOUS
 62
     7
 10
-308.5995750551921
 20
103.3646734064906
 40
56.16999999999999
 50
33.98616710964864
 51
42.44367380690006
  0
ARC
  8
2
  6
CONTINUOUS
 62
     7
 10
-270.6491541089101
 20
141.3150943527726
 40
3.500000000000004
 50
359.2919800806317
 51
90.70801991936872
  0
ARC
  8
2
  6
CONTINUOUS
 62
     7
 10
-353.0995750551921
 20
133.3646734064906
 40
2.499999999999999
 50
146.0138328903514
 51
323.753940166834
  0
ARC
  8
2
  6
CONTINUOUS
 62
     7
 10
-308.5995750551921
 20
103.3646734064906
 40
51.16999999999999
 50
137.6783312834422
 51
146.1242153511708
  0
ARC
  8
2
  6
CONTINUOUS
 62
     7
 10
-346.5499960014741
 20
141.3150943527726
 40
3.500000000000002
 50
271.9078872687456
 51
358.0921127312533
  0
ARC
  8
2
  6
CONTINUOUS
 62
     7
 10
-308.5995750551921
 20
103.3646734064906
 40
51.16999999999999
 50
124.0965495704681
 51
132.3216687165578
  0
ARC
  8
2
  6
CONTINUOUS
 62
     7
 10
-338.5995750551921
 20
147.8646734064906
 40
2.499999999999997
 50
301.7262743861286
 51
123.9861671096486
  0
LINE
  8
2
  6
CONTINUOUS
 62
     7
 10
-339.9981968714008
 20
149.9392957672001
 11
-339.9970568878522
 21
149.9376047916031
  0
ARC
  8
2
  6
CONTINUOUS
 62
     7
 10
-308.5995750551921
 20
103.3646734064906
 40
56.17
 50
123.9861671096485
 51
132.4436738069001
  0
ARC
  8
2
  6
CONTINUOUS
 62
     7
 10
-346.5499960014741
 20
141.3150943527726
 40
3.500000000000004
 50
89.29198008063122
 51
180.7080199193683
  0
ARC
  8
2
  6
CONTINUOUS
 62
     7
 10
-308.5995750551921
 20
103.3646734064906
 40
56.17
 50
137.5563261931
 51
146.0138328903514
  0
LINE
  8
2
  6
CONTINUOUS
 62
     7
 10
-355.1725064403047
 20
134.7621552391508
 11
-355.1741974159016
 21
134.7632952226992
  0
CIRCLE
  8
2
  6
CONTINUOUS
 62
     7
 10
-308.5995750551921
 20
61.61467340649057
 40
1.65
  0
CIRCLE
  8
2
  6
CONTINUOUS
 62
     7
 10
-308.5995750551921
 20
145.1146734064906
 40
1.65
  0
ARC
  8
2
  6
CONTINUOUS
 62
     7
 10
-291.0995750551921
 20
139.3646734064906
 40
10.0
 50
0.0
 51
90.0
  0
LINE
  8
2
  6
CONTINUOUS
 62
     7
 10
-300.4938680587637
 20
149.3646734064906
 11
-291.0995750551921
 21
149.3646734064906
  0
ARC
  8
2
  6
CONTINUOUS
 62
     7
 10
-300.5995750551921
 20
145.8646734064906
 40
3.500000000000003
 50
160.537049053684
 51
180.0
  0
LINE
  8
2
  6
CONTINUOUS
 62
     7
 10
-304.0995750551921
 20
145.1146734064906
 11
-304.0995750551921
 21
145.8646734064906
  0
ARC
  8
2
  6
CONTINUOUS
 62
     7
 10
-308.5995750551921
 20
145.1146734064906
 40
4.5
 50
180.0
 51
0.0
  0
LINE
  8
2
  6
CONTINUOUS
 62
     7
 10
-313.0995750551921
 20
145.8646734064906
 11
-313.0995750551921
 21
145.1146734064906
  0
ARC
  8
2
  6
CONTINUOUS
 62
     7
 10
-316.5995750551921
 20
145.8646734064906
 40
3.500000000000002
 50
359.9999999999999
 51
19.46295094631574
  0
LINE
  8
2
  6
CONTINUOUS
 62
     7
 10
-326.0995750551921
 20
149.3646734064906
 11
-316.7052820516205
 21
149.3646734064906
  0
ARC
  8
2
  6
CONTINUOUS
 62
     7
 10
-326.0995750551921
 20
139.3646734064906
 40
9.999999999999998
 50
90.0
 51
180.0
  0
LINE
  8
2
  6
CONTINUOUS
 62
     7
 10
-336.0995750551921
 20
67.36467340649058
 11
-336.0995750551921
 21
139.3646734064906
  0
ARC
  8
2
  6
CONTINUOUS
 62
     7
 10
-326.0995750551921
 20
67.36467340649058
 40
10.0
 50
180.0
 51
270.0
  0
LINE
  8
2
  6
CONTINUOUS
 62
     7
 10
-316.7052820516205
 20
57.36467340649058
 11
-326.0995750551921
 21
57.36467340649058
  0
ARC
  8
2
  6
CONTINUOUS
 62
     7
 10
-316.5995750551921
 20
60.86467340649058
 40
3.500000000000003
 50
340.5370490536837
 51
0.0
  0
LINE
  8
2
  6
CONTINUOUS
 62
     7
 10
-313.0995750551921
 20
61.61467340649057
 11
-313.0995750551921
 21
60.86467340649058
  0
ARC
  8
2
  6
CONTINUOUS
 62
     7
 10
-308.5995750551921
 20
61.61467340649057
 40
4.5
 50
0.0
 51
180.0
  0
LINE
  8
2
  6
CONTINUOUS
 62
     7
 10
-304.0995750551921
 20
60.86467340649058
 11
-304.0995750551921
 21
61.61467340649057
  0
ARC
  8
2
  6
CONTINUOUS
 62
     7
 10
-300.5995750551921
 20
60.86467340649058
 40
3.500000000000003
 50
180.0
 51
199.4629509463155
  0
LINE
  8
2
  6
CONTINUOUS
 62
     7
 10
-291.0995750551921
 20
57.36467340649058
 11
-300.4938680587637
 21
57.36467340649058
  0
ARC
  8
2
  6
CONTINUOUS
 62
     7
 10
-291.0995750551921
 20
67.36467340649058
 40
9.999999999999998
 50
270.0
 51
0.0
  0
LINE
  8
2
  6
CONTINUOUS
 62
     7
 10
-281.0995750551921
 20
139.3646734064906
 11
-281.0995750551921
 21
67.36467340649058
  0
LINE
  8
2
  6
CONTINUOUS
 62
     7
 10
-361.5995750551921
 20
151.3646734064906
 11
-361.5995750551921
 21
55.3646734064906
  0
ARC
  8
2
  6
CONTINUOUS
 62
     7
 10
-356.5995750551921
 20
151.3646734064906
 40
4.99999999999999
 50
90.00000000000016
 51
180.0
  0
LINE
  8
2
  6
CONTINUOUS
 62
     7
 10
-260.5995750551921
 20
156.3646734064906
 11
-356.5995750551921
 21
156.3646734064906
  0
ARC
  8
2
  6
CONTINUOUS
 62
     7
 10
-260.5995750551921
 20
151.3646734064906
 40
5.000000000000004
 50
0.0
 51
90.0
  0
LINE
  8
2
  6
CONTINUOUS
 62
     7
 10
-255.5995750551921
 20
55.36467340649058
 11
-255.5995750551921
 21
151.3646734064906
  0
ARC
  8
2
  6
CONTINUOUS
 62
     7
 10
-260.5995750551921
 20
55.36467340649058
 40
4.999999999999997
 50
270.0000000000002
 51
0.0
  0
LINE
  8
2
  6
CONTINUOUS
 62
     7
 10
-356.5995750551921
 20
50.36467340649058
 11
-260.599575055192
 21
50.36467340649058
  0
ARC
  8
2
  6
CONTINUOUS
 62
     7
 10
-356.5995750551921
 20
55.36467340649058
 40
4.999999999999997
 50
180.0000000000001
 51
270.0
  0
LINE
  8
2
  6
CONTINUOUS
 62
     7
 10
-303.3995750551921
 20
58.36467340649057
 11
-305.2043578309191
 21
58.36467340649057
  0
LINE
  8
2
  6
CONTINUOUS
 62
     7
 10
-311.9947922794651
 20
58.36467340649058
 11
-313.7995750551921
 21
58.36467340649057
  0
ARC
  8
2
  6
CONTINUOUS
 62
     7
 10
-308.5995750551921
 20
61.61467340649057
 40
4.699999999999999
 50
223.7481206849316
 51
237.6678530097831
  0
LINE
  8
2
  6
CONTINUOUS
 62
     7
 10
-310.8995750551921
 20
57.35707169222746
 11
-311.1132596851435
 21
57.64335252029336
  0
LINE
  8
2
  6
CONTINUOUS
 62
     7
 10
-306.2995750551921
 20
57.35707169222746
 11
-310.8995750551921
 21
57.35707169222746
  0
LINE
  8
2
  6
CONTINUOUS
 62
     7
 10
-306.0858904252407
 20
57.64335252029335
 11
-306.2995750551921
 21
57.35707169222746
  0
ARC
  8
2
  6
CONTINUOUS
 62
     7
 10
-308.5995750551921
 20
61.61467340649057
 40
4.699999999999999
 50
302.3321469902168
 51
316.2518793150684
  0
LINE
  8
2
  6
CONTINUOUS
 62
     7
 10
-316.5990540882948
 20
61.6109119977111
 11
-316.5992608765991
 21
61.6107208363553
  0
ARC
  8
2
  6
CONTINUOUS
 62
     7
 10
-308.5995750551921
 20
61.61467340649056
 40
4.699999999999999
 50
0.0000000000001692
 51
44.794975850408
  0
LINE
  8
2
  6
CONTINUOUS
 62
     7
 10
-313.2995750551921
 20
61.61467340649057
 11
-313.2995750551921
 21
58.36467340649059
  0
LINE
  8
2
  6
CONTINUOUS
 62
     7
 10
-310.8995750551921
 20
57.35707169222746
 11
-310.8995750551921
 21
57.40070935454799
  0
LINE
  8
2
  6
CONTINUOUS
 62
     7
 10
-311.0956724530274
 20
57.63227491054375
 11
-310.899575055192
 21
57.40070935454799
  0
ARC
  8
2
  6
CONTINUOUS
 62
     7
 10
-308.5995750551921
 20
61.61467340649057
 40
4.699999999999999
 50
135.2050241495922
 51
179.9999999999999
  0
LINE
  8
2
  6
CONTINUOUS
 62
     7
 10
-306.2995750551921
 20
57.41467340649058
 11
-310.8995750551921
 21
57.41467340649058
  0
LINE
  8
2
  6
CONTINUOUS
 62
     7
 10
-306.2995750551921
 20
57.35707169222746
 11
-306.2995750551921
 21
57.400709354548
  0
LINE
  8
2
  6
CONTINUOUS
 62
     7
 10
-306.2995750551921
 20
57.400709354548
 11
-306.1034776573568
 21
57.63227491054374
  0
LINE
  8
2
  6
CONTINUOUS
 62
     7
 10
-303.8995750551921
 20
58.36467340649059
 11
-303.8995750551921
 21
61.61467340649057
  0
LINE
  8
2
  6
CONTINUOUS
 62
     7
 10
-301.0994107894666
 20
62.11022676508838
 11
-300.6000960220893
 21
61.6109119977111
  0
LINE
  8
2
  6
CONTINUOUS
 62
     7
 10
-300.5998892337851
 20
61.6107208363553
 11
-300.6000960220893
 21
61.6109119977111
  0
ARC
  8
2
  6
CONTINUOUS
 62
     7
 10
-315.7468870842941
 20
62.40561628436841
 40
3.500177330998608
 50
90.01041112227479
 51
173.6696934479469
  0
ARC
  8
2
  6
CONTINUOUS
 62
     7
 10
-301.4522630257747
 20
62.40561628472059
 40
3.50017733064636
 50
6.330306546892345
 51
89.98958888288581
  0
ARC
  8
2
  6
CONTINUOUS
 62
     7
 10
-315.6783612487397
 20
54.44636574761876
 40
1.022966162041947
 50
181.736202542507
 51
269.9875546454477
  0
ARC
  8
2
  6
CONTINUOUS
 62
     7
 10
-301.5207888616444
 20
54.44636574761876
 40
1.022966162041931
 50
270.0124453545523
 51
358.263797457493
  0
LINE
  8
2
  6
CONTINUOUS
 62
     7
 10
-316.5992608765991
 20
61.6107208363553
 11
-316.6402909320109
 21
61.49759730782695
  0
ARC
  8
2
  6
CONTINUOUS
 62
     7
 10
-295.2384873819454
 20
58.98084257795903
 40
21.54927491972545
 50
173.2930797813658
 51
180.1072425128637
  0
LINE
  8
2
  6
CONTINUOUS
 62
     7
 10
-316.7052410524826
 20
54.61467340649057
 11
-316.7008577832481
 21
54.41537210954101
  0
LINE
  8
2
  6
CONTINUOUS
 62
     7
 10
-316.7052410524826
 20
57.31623459504669
 11
-316.7052410524826
 21
54.61467340649057
  0
LINE
  8
2
  6
CONTINUOUS
 62
     7
 10
-316.7568421577321
 20
58.7249115704081
 11
-316.7052410524826
 21
57.31623459504667
  0
LINE
  8
2
  6
CONTINUOUS
 62
     7
 10
-316.7568421577321
 20
58.7249115704081
 11
-316.7877245539063
 21
58.94050807054796
  0
LINE
  8
2
  6
CONTINUOUS
 62
     7
 10
-300.4982923271361
 20
54.41537210954101
 11
-300.4939090579016
 21
54.61467340649057
  0
ARC
  8
2
  6
CONTINUOUS
 62
     7
 10
-318.889430260493
 20
59.03585988513545
 40
18.47825072376035
 50
359.7043399360393
 51
7.967082535504857
  0
LINE
  8
2
  6
CONTINUOUS
 62
     7
 10
-300.5895341483334
 20
61.59702213972104
 11
-300.5998892337851
 21
61.6107208363553
  0
LINE
  8
2
  6
CONTINUOUS
 62
     7
 10
-300.442307952652
 20
58.7249115704081
 11
-300.4114255564779
 21
58.94050807054796
  0
LINE
  8
2
  6
CONTINUOUS
 62
     7
 10
-300.4939090579016
 20
57.31623459504669
 11
-300.442307952652
 21
58.7249115704081
  0
LINE
  8
2
  6
CONTINUOUS
 62
     7
 10
-300.4939090579016
 20
54.61467340649057
 11
-300.4939090579016
 21
57.31623459504669
  0
LINE
  8
2
  6
CONTINUOUS
 62
     7
 10
-316.7877245539063
 20
58.94050807054796
 11
-316.7995750551921
 21
57.61467340649057
  0
LINE
  8
2
  6
CONTINUOUS
 62
     7
 10
-300.3995750551921
 20
57.61467340649058
 11
-300.4114255564779
 21
58.94050807054796
  0
ARC
  8
2
  6
CONTINUOUS
 62
     7
 10
-308.5995750551921
 20
61.61467340649057
 40
4.700000000000017
 50
134.1657184855455
 51
135.2050241495923
  0
ARC
  8
2
  6
CONTINUOUS
 62
     7
 10
-312.222476761018
 20
65.3448723017551
 40
0.4999808459937328
 50
314.147778118937
 51
89.99642892290183
  0
ARC
  8
2
  6
CONTINUOUS
 62
     7
 10
-308.5995750551921
 20
61.61467340649056
 40
4.700000000000014
 50
44.79497585040816
 51
45.83428151445504
  0
ARC
  8
2
  6
CONTINUOUS
 62
     7
 10
-304.9766729342071
 20
65.3448721334119
 40
0.4999810143629834
 50
90.00361865143407
 51
225.8521743067336
  0
ARC
  8
2
  6
CONTINUOUS
 62
     7
 10
-308.5995750551921
 20
61.61467340649057
 40
10.69112015109213
 50
173.6801045702214
 51
180.0
  0
LINE
  8
2
  6
CONTINUOUS
 62
     7
 10
-315.678583449687
 20
53.42339960970921
 11
-301.5205666606972
 21
53.42339960970921
  0
LINE
  8
2
  6
CONTINUOUS
 62
     7
 10
-301.4516270146021
 20
65.90579355758273
 11
-307.2444780664525
 21
65.90579355758273
  0
LINE
  8
2
  6
CONTINUOUS
 62
     7
 10
-309.9546720439316
 20
65.90579355758273
 11
-315.747523095782
 21
65.90579355758273
  0
LINE
  8
2
  6
CONTINUOUS
 62
     7
 10
-312.2224455986852
 20
65.84485314677771
 11
-310.1343647361791
 21
65.84485314677771
  0
LINE
  8
2
  6
CONTINUOUS
 62
     7
 10
-307.064785374205
 20
65.84485314677771
 11
-304.976704511699
 21
65.84485314677771
  0
ARC
  8
2
  6
CONTINUOUS
 62
     7
 10
-308.5995750551921
 20
61.61467340649057
 40
10.69112015109213
 50
0.0000000000000372
 51
6.319895429778436
  0
LINE
  8
2
  6
CONTINUOUS
 62
     7
 10
-297.9084549040999
 20
57.36467340649058
 11
-297.9084549040999
 21
61.61467340649057
  0
LINE
  8
2
  6
CONTINUOUS
 62
     7
 10
-319.2906952062842
 20
61.61467340649057
 11
-319.2906952062842
 21
57.36467340649058
  0
LINE
  8
2
  6
CONTINUOUS
 62
     7
 10
-316.7995750551921
 20
57.36467340649058
 11
-316.7995750551921
 21
57.61467340649058
  0
LINE
  8
2
  6
CONTINUOUS
 62
     7
 10
-300.3995750551921
 20
57.61467340649058
 11
-300.3995750551921
 21
57.36467340649058
  0
CIRCLE
  8
2
  6
CONTINUOUS
 62
     9
 10
-308.5995750551921
 20
61.61467340649057
 40
1.540895113422646
  0
LINE
  8
2
  6
CONTINUOUS
 62
     7
 10
-313.7995750551921
 20
148.3646734064906
 11
-311.9947922794651
 21
148.3646734064906
  0
LINE
  8
2
  6
CONTINUOUS
 62
     7
 10
-305.2043578309191
 20
148.3646734064906
 11
-303.3995750551921
 21
148.3646734064906
  0
ARC
  8
2
  6
CONTINUOUS
 62
     7
 10
-308.5995750551921
 20
145.1146734064906
 40
4.699999999999998
 50
43.74812068493156
 51
57.66785300978313
  0
LINE
  8
2
  6
CONTINUOUS
 62
     7
 10
-306.2995750551921
 20
149.3722751207537
 11
-306.0858904252407
 21
149.0859942926878
  0
LINE
  8
2
  6
CONTINUOUS
 62
     7
 10
-310.8995750551921
 20
149.3722751207537
 11
-306.2995750551921
 21
149.3722751207537
  0
LINE
  8
2
  6
CONTINUOUS
 62
     7
 10
-311.1132596851435
 20
149.0859942926878
 11
-310.8995750551921
 21
149.3722751207537
  0
ARC
  8
2
  6
CONTINUOUS
 62
     7
 10
-308.5995750551921
 20
145.1146734064906
 40
4.699999999999999
 50
122.3321469902168
 51
136.2518793150684
  0
ARC
  8
2
  6
CONTINUOUS
 62
     7
 10
-308.5995750551921
 20
145.1146734064906
 40
4.699999999999999
 50
180.0000000000002
 51
224.794975850408
  0
LINE
  8
2
  6
CONTINUOUS
 62
     7
 10
-303.8995750551921
 20
145.1146734064906
 11
-303.8995750551921
 21
148.3646734064906
  0
LINE
  8
2
  6
CONTINUOUS
 62
     7
 10
-316.0997393209175
 20
144.6191200478928
 11
-316.5990540882948
 21
145.1184348152701
  0
ARC
  8
2
  6
CONTINUOUS
 62
     7
 10
-308.5995750551921
 20
145.1146734064906
 40
4.699999999999999
 50
315.2050241495921
 51
359.9999999999999
  0
LINE
  8
2
  6
CONTINUOUS
 62
     7
 10
-301.0994107894666
 20
144.6191200478928
 11
-300.6000960220893
 21
145.1184348152701
  0
LINE
  8
2
  6
CONTINUOUS
 62
     7
 10
-300.6000960220893
 20
145.1184348152701
 11
-300.5998892337851
 21
145.1186259766259
  0
LINE
  8
2
  6
CONTINUOUS
 62
     7
 10
-316.5992608765991
 20
145.1186259766259
 11
-316.5990540882948
 21
145.1184348152701
  0
LINE
  8
2
  6
CONTINUOUS
 62
     7
 10
-313.2995750551921
 20
148.3646734064906
 11
-313.2995750551921
 21
145.1146734064906
  0
ARC
  8
2
  6
CONTINUOUS
 62
     7
 10
-301.45226302609
 20
144.3237305286127
 40
3.500177330998608
 50
270.0104111222747
 51
353.6696934479468
  0
ARC
  8
2
  6
CONTINUOUS
 62
     7
 10
-315.7468870846095
 20
144.3237305282605
 40
3.50017733064636
 50
186.3303065468923
 51
269.9895888828858
  0
ARC
  8
2
  6
CONTINUOUS
 62
     7
 10
-315.6783612487397
 20
152.2829810653624
 40
1.022966162041931
 50
90.0124453545522
 51
178.2637974574934
  0
ARC
  8
2
  6
CONTINUOUS
 62
     7
 10
-301.5207888616444
 20
152.2829810653624
 40
1.022966162041933
 50
1.736202542506589
 51
89.9875546454478
  0
LINE
  8
2
  6
CONTINUOUS
 62
     7
 10
-300.5998892337851
 20
145.1186259766259
 11
-300.5588591783733
 21
145.2317495051542
  0
ARC
  8
2
  6
CONTINUOUS
 62
     7
 10
-321.9606627284388
 20
147.7485042350221
 40
21.54927491972545
 50
353.2930797813659
 51
0.1072425128637633
  0
LINE
  8
2
  6
CONTINUOUS
 62
     7
 10
-300.4939090579016
 20
152.1146734064906
 11
-300.4982923271361
 21
152.3139747034402
  0
LINE
  8
2
  6
CONTINUOUS
 62
     7
 10
-300.4939090579016
 20
149.4131122179345
 11
-300.4939090579016
 21
152.1146734064906
  0
LINE
  8
2
  6
CONTINUOUS
 62
     7
 10
-300.442307952652
 20
148.0044352425731
 11
-300.4939090579016
 21
149.4131122179345
  0
LINE
  8
2
  6
CONTINUOUS
 62
     7
 10
-300.442307952652
 20
148.0044352425731
 11
-300.4114255564779
 21
147.7888387424332
  0
LINE
  8
2
  6
CONTINUOUS
 62
     7
 10
-316.7008577832481
 20
152.3139747034402
 11
-316.7052410524826
 21
152.1146734064906
  0
ARC
  8
2
  6
CONTINUOUS
 62
     7
 10
-298.3097198498802
 20
147.6934869278468
 40
18.47825072377134
 50
179.7043399360428
 51
187.9670825355036
  0
LINE
  8
2
  6
CONTINUOUS
 62
     7
 10
-316.6096159620508
 20
145.1323246732601
 11
-316.5992608765991
 21
145.1186259766259
  0
LINE
  8
2
  6
CONTINUOUS
 62
     7
 10
-316.7568421577321
 20
148.0044352425731
 11
-316.7877245539063
 21
147.7888387424332
  0
LINE
  8
2
  6
CONTINUOUS
 62
     7
 10
-316.7052410524826
 20
149.4131122179345
 11
-316.7568421577321
 21
148.0044352425731
  0
LINE
  8
2
  6
CONTINUOUS
 62
     7
 10
-316.7052410524826
 20
152.1146734064906
 11
-316.7052410524826
 21
149.4131122179345
  0
LINE
  8
2
  6
CONTINUOUS
 62
     7
 10
-300.4114255564779
 20
147.7888387424332
 11
-300.3995750551921
 21
149.1146734064906
  0
LINE
  8
2
  6
CONTINUOUS
 62
     7
 10
-316.7995750551921
 20
149.1146734064906
 11
-316.7877245539063
 21
147.7888387424332
  0
ARC
  8
2
  6
CONTINUOUS
 62
     7
 10
-308.5995750551921
 20
145.1146734064906
 40
4.700000000000003
 50
314.1657184855454
 51
315.2050241495921
  0
ARC
  8
2
  6
CONTINUOUS
 62
     7
 10
-304.9766733493662
 20
141.384474511226
 40
0.4999808459937189
 50
134.147778118937
 51
269.9964289229018
  0
ARC
  8
2
  6
CONTINUOUS
 62
     7
 10
-308.5995750551921
 20
145.1146734064906
 40
4.699999999999996
 50
224.7949758504079
 51
225.8342815144548
  0
ARC
  8
2
  6
CONTINUOUS
 62
     7
 10
-312.2224771761771
 20
141.3844746795693
 40
0.4999810143629834
 50
270.0036186514278
 51
45.85217430673357
  0
ARC
  8
2
  6
CONTINUOUS
 62
     7
 10
-308.5995750551921
 20
145.1146734064906
 40
10.69112015109213
 50
353.6801045702214
 51
0.0
  0
LINE
  8
2
  6
CONTINUOUS
 62
     7
 10
-301.5205666606972
 20
153.305947203272
 11
-315.678583449687
 21
153.305947203272
  0
LINE
  8
2
  6
CONTINUOUS
 62
     7
 10
-315.747523095782
 20
140.8235532553985
 11
-309.9546720439316
 21
140.8235532553985
  0
LINE
  8
2
  6
CONTINUOUS
 62
     7
 10
-307.2444780664525
 20
140.8235532553985
 11
-301.4516270146022
 21
140.8235532553985
  0
LINE
  8
2
  6
CONTINUOUS
 62
     7
 10
-304.9767045116989
 20
140.8844936662034
 11
-307.064785374205
 21
140.8844936662034
  0
LINE
  8
2
  6
CONTINUOUS
 62
     7
 10
-310.1343647361791
 20
140.8844936662034
 11
-312.2224455986852
 21
140.8844936662034
  0
ARC
  8
2
  6
CONTINUOUS
 62
     7
 10
-308.5995750551921
 20
145.1146734064906
 40
10.69112015109213
 50
180.0
 51
186.3198954297784
  0
LINE
  8
2
  6
CONTINUOUS
 62
     7
 10
-319.2906952062842
 20
149.3646734064906
 11
-319.2906952062842
 21
145.1146734064906
  0
LINE
  8
2
  6
CONTINUOUS
 62
     7
 10
-297.9084549040999
 20
145.1146734064906
 11
-297.9084549040999
 21
149.3646734064906
  0
LINE
  8
2
  6
CONTINUOUS
 62
     9
 10
-297.9608200988846
 20
149.3646734064906
 11
-297.9608200988846
 21
149.1146734064906
  0
LINE
  8
2
  6
CONTINUOUS
 62
     7
 10
-300.3995750551921
 20
149.3646734064906
 11
-300.3995750551921
 21
149.1146734064906
  0
LINE
  8
2
  6
CONTINUOUS
 62
     7
 10
-316.7995750551921
 20
149.1146734064906
 11
-316.7995750551921
 21
149.3646734064906
  0
CIRCLE
  8
2
  6
CONTINUOUS
 62
     9
 10
-308.5995750551921
 20
145.1146734064906
 40
1.540895113422646
  0
ENDBLK
  8
0
  0
BLOCK
  8
0
  2
D_FRAME_VIEW_3405
 70
     0
 10
0.0
 20
0.0
  0
LINE
  8
2
  6
CONTINUOUS
 62
     7
 10
-361.5995750551921
 20
-17.66970118311892
 11
-361.5995750551921
 21
-16.06970118311892
  0
LINE
  8
2
  6
CONTINUOUS
 62
     7
 10
-361.5995750551921
 20
-17.66970118311892
 11
-356.5995750551921
 21
-17.66970118311892
  0
LINE
  8
2
  6
CONTINUOUS
 62
     7
 10
-361.5995750551921
 20
-16.06970118311892
 11
-356.5995750551921
 21
-16.06970118311892
  0
LINE
  8
2
  6
CONTINUOUS
 62
     7
 10
-356.5995750551921
 20
-17.66970118311892
 11
-260.5995750551921
 21
-17.66970118311892
  0
LINE
  8
2
  6
CONTINUOUS
 62
     7
 10
-356.5995750551921
 20
-16.06970118311892
 11
-260.5995750551921
 21
-16.06970118311892
  0
LINE
  8
2
  6
CONTINUOUS
 62
     7
 10
-255.5995750551921
 20
-17.66970118311892
 11
-255.5995750551921
 21
-16.06970118311892
  0
LINE
  8
2
  6
CONTINUOUS
 62
     7
 10
-260.599575055192
 20
-17.66970118311892
 11
-255.5995750551921
 21
-17.66970118311892
  0
LINE
  8
2
  6
CONTINUOUS
 62
     7
 10
-260.599575055192
 20
-16.06970118311892
 11
-255.5995750551921
 21
-16.06970118311892
  0
ARC
  8
2
  6
CONTINUOUS
 62
     7
 10
-315.7618638906638
 20
-16.87636003269593
 40
1.508882717515428
 50
86.83604053591245
 51
125.3583887503089
  0
POLYLINE
  8
2
  6
CONTINUOUS
 62
     7
 66
     1
  0
VERTEX
  8
2
  6
CONTINUOUS
 62
     7
 10
-316.6350377673949
 20
-15.6457933192622
  0
VERTEX
  8
2
  6
CONTINUOUS
 62
     7
 10
-316.6939024820339
 20
-15.74524846775412
  0
VERTEX
  8
2
  6
CONTINUOUS
 62
     7
 10
-316.7008577832481
 20
-15.78606342371588
  0
SEQEND
  8
2
  6
CONTINUOUS
 62
     7
  0
LINE
  8
2
  6
CONTINUOUS
 62
     7
 10
-316.7008577832481
 20
-15.78606342371588
 11
-316.5990540882948
 21
-13.84353320499745
  0
LINE
  8
2
  6
CONTINUOUS
 62
     7
 10
-300.4939090579016
 20
-15.86970118311893
 11
-316.7052410524826
 21
-15.86970118311892
  0
LINE
  8
2
  6
CONTINUOUS
 62
     7
 10
-316.7052410524826
 20
-15.86970118311892
 11
-316.7008577832481
 21
-15.78606342371588
  0
LINE
  8
2
  6
CONTINUOUS
 62
     7
 10
-315.678583449687
 20
-15.36977733554073
 11
-301.5205666606972
 21
-15.36977733554073
  0
LINE
  8
2
  6
CONTINUOUS
 62
     7
 10
-300.4982923271361
 20
-15.78606342371588
 11
-300.5335697188298
 21
-15.68489080088909
  0
ARC
  8
2
  6
CONTINUOUS
 62
     7
 10
-301.4176957701796
 20
-16.75085597278828
 40
1.384904553526151
 50
50.32722485558777
 51
94.25986142653335
  0
LINE
  8
2
  6
CONTINUOUS
 62
     7
 10
-300.4982923271361
 20
-15.78606342371588
 11
-300.4939090579016
 21
-15.86970118311893
  0
LINE
  8
2
  6
CONTINUOUS
 62
     7
 10
-300.6000960220893
 20
-13.84353320499745
 11
-300.4982923271361
 21
-15.78606342371588
  0
LINE
  8
2
  6
CONTINUOUS
 62
     7
 10
-301.5996396415333
 20
-13.36970118311893
 11
-301.0994107894666
 21
-13.36970118311893
  0
ARC
  8
2
  6
CONTINUOUS
 62
     7
 10
-301.0994107894666
 20
-13.86970118311893
 40
0.5000000000000004
 50
3.000000000000057
 51
90.0
  0
LINE
  8
2
  6
CONTINUOUS
 62
     7
 10
-316.0997393209175
 20
-13.36970118311892
 11
-315.5995104688509
 21
-13.36970118311892
  0
ARC
  8
2
  6
CONTINUOUS
 62
     7
 10
-316.0997393209175
 20
-13.86970118311892
 40
0.5000000000000004
 50
90.0
 51
176.9999999999998
  0
LINE
  8
2
  6
CONTINUOUS
 62
     7
 10
-315.5995104688509
 20
-13.36970118311892
 11
-301.5996396415333
 21
-13.36970118311893
  0
LINE
  8
2
  6
CONTINUOUS
 62
     7
 10
-316.8196716520493
 20
-18.05316709471007
 11
-316.8449739716863
 21
-18.53596411421957
  0
LINE
  8
2
  6
CONTINUOUS
 62
     7
 10
-300.3541761386979
 20
-18.53596411421957
 11
-300.3794784583349
 21
-18.05316709471007
  0
LINE
  8
2
  6
CONTINUOUS
 62
     7
 10
-297.9574893356694
 20
-18.35179427670054
 11
-297.9084549040999
 21
-21.16097497990028
  0
LINE
  8
2
  6
CONTINUOUS
 62
     7
 10
-319.2906952062842
 20
-21.16097497990028
 11
-319.2416607747148
 21
-18.35179427670054
  0
LINE
  8
2
  6
CONTINUOUS
 62
     7
 10
-300.2156905067692
 20
-21.17842738633756
 11
-300.3541761386979
 21
-18.53596411421957
  0
LINE
  8
2
  6
CONTINUOUS
 62
     7
 10
-316.983459603615
 20
-21.17842738633756
 11
-316.8449739716863
 21
-18.53596411421957
  0
LINE
  8
2
  6
CONTINUOUS
 62
     7
 10
-318.2905428782403
 20
-21.66970118311892
 11
-318.790771358706
 21
-21.66970118311892
  0
ARC
  8
2
  6
CONTINUOUS
 62
     7
 10
-318.790771358706
 20
-21.16970118311892
 40
0.5000000000000004
 50
178.9999999999998
 51
269.9999999999998
  0
LINE
  8
2
  6
CONTINUOUS
 62
     7
 10
-298.4083787516781
 20
-21.66970118311892
 11
-298.9086072321438
 21
-21.66970118311892
  0
ARC
  8
2
  6
CONTINUOUS
 62
     7
 10
-298.4083787516781
 20
-21.16970118311892
 40
0.4999999999999919
 50
269.9999999999998
 51
0.9999999999999432
  0
LINE
  8
2
  6
CONTINUOUS
 62
     7
 10
-298.9086072321438
 20
-21.66970118311892
 11
-299.7154616547025
 21
-21.66970118311892
  0
ARC
  8
2
  6
CONTINUOUS
 62
     7
 10
-299.7154616547026
 20
-21.16970118311896
 40
0.4999999999999568
 50
182.9999999999956
 51
270.0000000000063
  0
LINE
  8
2
  6
CONTINUOUS
 62
     7
 10
-300.2147764220798
 20
-21.1958691612404
 11
-300.2156905067692
 21
-21.17842738633756
  0
ARC
  8
2
  6
CONTINUOUS
 62
     7
 10
-317.4836884556818
 20
-21.16970118311887
 40
0.500000000000056
 50
270.0000000000064
 51
356.9999999999939
  0
LINE
  8
2
  6
CONTINUOUS
 62
     7
 10
-317.4836884556817
 20
-21.66970118311892
 11
-318.2905428782403
 21
-21.66970118311892
  0
LINE
  8
2
  6
CONTINUOUS
 62
     7
 10
-316.983459603615
 20
-21.17842738633756
 11
-316.9843736883044
 21
-21.1958691612404
  0
LINE
  8
2
  6
CONTINUOUS
 62
     7
 10
-300.3794784583349
 20
-18.05316709471007
 11
-300.3995750551921
 21
-17.66970118311892
  0
LINE
  8
2
  6
CONTINUOUS
 62
     7
 10
-316.7995750551921
 20
-17.66970118311892
 11
-316.8196716520493
 21
-18.05316709471007
  0
LINE
  8
2
  6
CONTINUOUS
 62
     7
 10
-319.2416607747148
 20
-18.35179427670054
 11
-319.2383300114996
 21
-18.16097497990028
  0
ARC
  8
2
  6
CONTINUOUS
 62
     7
 10
-318.7384061639214
 20
-18.16970118311898
 40
0.5000000000000594
 50
89.99999979514683
 51
178.9999999999935
  0
ARC
  8
2
  6
CONTINUOUS
 62
     7
 10
-298.4607439464627
 20
-18.16970118311889
 40
0.4999999999999358
 50
0.9999999999959966
 51
90.00000020485953
  0
LINE
  8
2
  6
CONTINUOUS
 62
     7
 10
-297.9608200988847
 20
-18.16097497990028
 11
-297.9574893356694
 21
-18.35179427670054
  0
LINE
  8
2
  6
CONTINUOUS
 62
     7
 10
-316.7052410524826
 20
-15.86970118311892
 11
-316.7157226083393
 21
-16.06970118311892
  0
LINE
  8
2
  6
CONTINUOUS
 62
     7
 10
-300.483427502045
 20
-16.06970118311893
 11
-300.4939090579016
 21
-15.86970118311893
  0
LINE
  8
2
  6
CONTINUOUS
 62
     7
 10
-297.9973234187901
 20
-16.06970118311892
 11
-298.0033833528611
 21
-15.72252779270912
  0
LINE
  8
2
  6
CONTINUOUS
 62
     7
 10
-297.9608200988847
 20
-18.16097497990028
 11
-297.9693953149049
 21
-17.66970118311892
  0
LINE
  8
2
  6
CONTINUOUS
 62
     7
 10
-319.155421512387
 20
-13.86097497990028
 11
-319.012449286887
 21
-13.51274303670827
  0
LINE
  8
2
  6
CONTINUOUS
 62
     7
 10
-310.1878897869478
 20
-31.6784277186173
 11
-310.1879834167875
 21
-31.66970118311892
  0
LINE
  8
2
  6
CONTINUOUS
 62
     7
 10
-307.0111666935967
 20
-31.66970118311892
 11
-307.0112603234364
 21
-31.6784277186173
  0
LINE
  8
2
  6
CONTINUOUS
 62
     7
 10
-307.2702139635868
 20
-32.66970118311892
 11
-307.1824984803737
 21
-32.61751032643858
  0
ARC
  8
2
  6
CONTINUOUS
 62
     7
 10
-309.0486792851501
 20
-31.79206570589348
 40
2.040585606560612
 50
336.1393498771417
 51
3.192391004782792
  0
LINE
  8
2
  6
CONTINUOUS
 62
     7
 10
-307.2702139635868
 20
-32.66970118311892
 11
-309.9289361467974
 21
-32.66970118311892
  0
ARC
  8
2
  6
CONTINUOUS
 62
     7
 10
-307.7151342259472
 20
-31.74587606414995
 40
2.473675270477989
 50
178.4375537925195
 51
199.4431169255781
  0
POLYLINE
  8
2
  6
CONTINUOUS
 62
     7
 66
     1
  0
VERTEX
  8
2
  6
CONTINUOUS
 62
     7
 10
-310.0477418040844
 20
-32.56929043747076
  0
VERTEX
  8
2
  6
CONTINUOUS
 62
     7
 10
-309.98005543467
 20
-32.65275107269535
  0
VERTEX
  8
2
  6
CONTINUOUS
 62
     7
 10
-309.9289361467974
 20
-32.66970118311892
  0
SEQEND
  8
2
  6
CONTINUOUS
 62
     7
  0
LINE
  8
2
  6
CONTINUOUS
 62
     7
 10
-306.0717892826484
 20
-32.66970118311892
 11
-307.2702139635868
 21
-32.66970118311892
  0
LINE
  8
2
  6
CONTINUOUS
 62
     7
 10
-309.9289361467974
 20
-32.66970118311892
 11
-311.1273608277357
 21
-32.66970118311892
  0
LINE
  8
2
  6
CONTINUOUS
 62
     7
 10
-306.7686563683452
 20
-18.41970118311892
 11
-310.430493742039
 21
-18.41970118311892
  0
LINE
  8
2
  6
CONTINUOUS
 62
     7
 10
-306.7686563683452
 20
-18.41970118311892
 11
-307.0111666935967
 21
-31.66970118311892
  0
LINE
  8
2
  6
CONTINUOUS
 62
     7
 10
-310.1879834167875
 20
-31.66970118311892
 11
-310.430493742039
 21
-18.41970118311892
  0
ARC
  8
2
  6
CONTINUOUS
 62
     7
 10
-308.5411923121432
 20
-16.37165963993924
 40
2.717889260749183
 50
310.8754842657129
 51
317.8483549370873
  0
ARC
  8
2
  6
CONTINUOUS
 62
     7
 10
-311.7721368917833
 20
-13.44698286776645
 40
7.075955012707606
 50
317.8483549370918
 51
323.3838205129767
  0
ARC
  8
2
  6
CONTINUOUS
 62
     7
 10
-305.4270132186006
 20
-13.44698286776617
 40
7.075955012708038
 50
216.6161794870235
 51
222.151645062908
  0
ARC
  8
2
  6
CONTINUOUS
 62
     7
 10
-308.657957798241
 20
-16.37165963993923
 40
2.717889260749192
 50
222.1516450629129
 51
229.1245157342873
  0
LINE
  8
2
  6
CONTINUOUS
 62
     7
 10
-300.347167275909
 20
-18.66970118311893
 11
-301.8751398253779
 21
-18.66970118311893
  0
LINE
  8
2
  6
CONTINUOUS
 62
     7
 10
-301.8838666931687
 20
-17.66970118311892
 11
-301.8751398253779
 21
-18.66970118311893
  0
LINE
  8
2
  6
CONTINUOUS
 62
     7
 10
-316.8519828344751
 20
-18.66970118311887
 11
-315.3240102850062
 21
-18.66970118311892
  0
LINE
  8
2
  6
CONTINUOUS
 62
     7
 10
-315.3152834172155
 20
-17.66970118311892
 11
-315.3240102850062
 21
-18.66970118311892
  0
LINE
  8
2
  6
CONTINUOUS
 62
     7
 10
-313.2995750551921
 20
-17.66970118311892
 11
-313.2995750551921
 21
-21.16970118311892
  0
LINE
  8
2
  6
CONTINUOUS
 62
     7
 10
-303.8995750551921
 20
-21.16970118311893
 11
-303.8995750551921
 21
-17.66970118311892
  0
ARC
  8
2
  6
CONTINUOUS
 62
     7
 10
-313.7995750551921
 20
-21.16970118311892
 40
0.5000000000000004
 50
270.0
 51
359.9999999999997
  0
LINE
  8
2
  6
CONTINUOUS
 62
     7
 10
-299.7154616547025
 20
-21.66970118311892
 11
-303.3995750551921
 21
-21.66970118311892
  0
LINE
  8
2
  6
CONTINUOUS
 62
     7
 10
-313.7995750551921
 20
-21.66970118311892
 11
-317.4836884556817
 21
-21.66970118311892
  0
ARC
  8
2
  6
CONTINUOUS
 62
     7
 10
-303.3995750551921
 20
-21.16970118311892
 40
0.5000000000000004
 50
180.0000000000003
 51
270.0
  0
LINE
  8
2
  6
CONTINUOUS
 62
     7
 10
-298.0486915813931
 20
-13.86097497990028
 11
-298.0033833528611
 21
-15.72252779270912
  0
ARC
  8
2
  6
CONTINUOUS
 62
     7
 10
-298.0604031318036
 20
-13.8601101746361
 40
0.0122998383282509
 50
355.7768250653076
 51
1.126839352517663
  0
LINE
  8
2
  6
CONTINUOUS
 62
     7
 10
-318.6511411334035
 20
-13.36970118311892
 11
-319.012449286887
 21
-13.51274303670827
  0
LINE
  8
2
  6
CONTINUOUS
 62
     7
 10
-318.6511411334035
 20
-13.36970118311892
 11
-316.0997393209175
 21
-13.36970118311892
  0
LINE
  8
2
  6
CONTINUOUS
 62
     7
 10
-301.0994107894666
 20
-13.36970118311892
 11
-298.5480089769807
 21
-13.36970118311893
  0
LINE
  8
2
  6
CONTINUOUS
 62
     7
 10
-312.214667584029
 20
-21.66970118311892
 11
-313.7995750551921
 21
-21.66970118311892
  0
LINE
  8
2
  6
CONTINUOUS
 62
     7
 10
-303.3995750551921
 20
-21.66970118311892
 11
-304.9844825263551
 21
-21.66970118311892
  0
LINE
  8
2
  6
CONTINUOUS
 62
     7
 10
-319.2383300114996
 20
-18.16097497990028
 11
-319.2297547954792
 21
-17.66970118311892
  0
LINE
  8
2
  6
CONTINUOUS
 62
     7
 10
-319.2018266915941
 20
-16.06970118311892
 11
-319.1957667575231
 21
-15.72252779270911
  0
LINE
  8
2
  6
CONTINUOUS
 62
     7
 10
-298.0437285979972
 20
-13.86097497990028
 11
-298.1867008234972
 21
-13.51274303670827
  0
LINE
  8
2
  6
CONTINUOUS
 62
     7
 10
-319.153276327346
 20
-13.83825138580199
 11
-319.1923437511452
 21
-16.07026148864792
  0
LINE
  8
2
  6
CONTINUOUS
 62
     7
 10
-319.2203588009689
 20
-17.67084623954535
 11
-319.2251625575478
 21
-17.96326174970142
  0
LINE
  8
2
  6
CONTINUOUS
 62
     7
 10
-319.2251625575478
 20
-17.96326174970142
 11
-319.2209344724684
 21
-17.9804111548098
  0
ARC
  8
2
  6
CONTINUOUS
 62
     7
 10
-311.1273608277357
 20
-31.66970118311892
 40
1.000000000000003
 50
180.5000000000001
 51
270.0
  0
ARC
  8
2
  6
CONTINUOUS
 62
     7
 10
-306.0717892826484
 20
-31.66970118311892
 40
1.000000000000001
 50
269.9999999999999
 51
359.4999999999999
  0
LINE
  8
2
  6
CONTINUOUS
 62
     7
 10
-312.2495750551921
 20
-17.66970118311892
 11
-312.1273227507999
 21
-31.6784277186173
  0
LINE
  8
2
  6
CONTINUOUS
 62
     7
 10
-305.0718273595843
 20
-31.6784277186173
 11
-304.9495750551921
 21
-17.66970118311892
  0
ARC
  8
2
  6
CONTINUOUS
 62
     7
 10
-298.5480089769807
 20
-13.86970118311893
 40
0.4999999999999924
 50
1.126839352334427
 51
90.00000000000001
  0
ENDBLK
  8
0
  0
ENDSEC
  0
SECTION
  2
ENTITIES
  0
INSERT
  8
2
  6
CONTINUOUS
 62
     7
  2
D_FRAME_VIEW_3229
 10
0.0
 20
0.0
 30
0.0
  0
LINE
  8
2
  6
CENTER
 62
     1
 10
-308.5995750551921
 20
153.3646734064906
 11
-308.5995750551921
 21
53.36467340649059
  0
LINE
  8
2
  6
CENTER
 62
     1
 10
-308.5995750551921
 20
141.4646734064906
 11
-308.5995750551921
 21
148.7646734064906
  0
LINE
  8
2
  6
CENTER
 62
     1
 10
-312.2495750551921
 20
61.61467340649057
 11
-304.9495750551921
 21
61.61467340649057
  0
LINE
  8
2
  6
CENTER
 62
     1
 10
-308.5995750551921
 20
57.96467340649056
 11
-308.5995750551921
 21
65.26467340649057
  0
LINE
  8
2
  6
CENTER
 62
     1
 10
-308.5995750551921
 20
-19.66970118311893
 11
-308.5995750551921
 21
-14.06970118311892
  0
LINE
  8
2
  6
CENTER
 62
     1
 10
-153.9941068181802
 20
103.3646734064906
 11
-159.5941068181802
 21
103.3646734064906
  0
LINE
  8
2
  6
CENTER
 62
     1
 10
-312.2495750551921
 20
145.1146734064906
 11
-304.9495750551921
 21
145.1146734064906
  0
INSERT
  8
2
  6
CONTINUOUS
 62
     7
  2
D_FRAME_VIEW_2607
 10
0.0
 20
0.0
 30
0.0
  0
INSERT
  8
2
  6
CONTINUOUS
 62
     7
  2
D_FRAME_VIEW_3405
 10
0.0
 20
0.0
 30
0.0
  0
TEXT
  8
2
  6
CONTINUOUS
 62
     7
 10
-181.3509474448382
 20
5.408718849393268
 40
3.0
  1
OF-12F-BS
  0
LINE
  8
2
  6
CONTINUOUS
 62
     2
 10
-181.3245750551921
 20
4.850753362335621
 11
-165.8745750551921
 21
4.850753362335621
  0
LINE
  8
2
  6
CENTER
 62
     1
 10
-361.0995750551921
 20
103.3646734064906
 11
-354.0995750551921
 21
103.3646734064906
  0
LINE
  8
2
  6
CENTER
 62
     1
 10
-357.5995750551921
 20
99.86467340649058
 11
-357.5995750551921
 21
106.8646734064906
  0
LINE
  8
2
  6
CENTER
 62
     1
 10
-263.0995750551921
 20
103.3646734064906
 11
-256.0995750551921
 21
103.3646734064906
  0
LINE
  8
2
  6
CENTER
 62
     1
 10
-276.1491541089101
 20
141.3150943527726
 11
-265.1491541089101
 21
141.3150943527726
  0
LINE
  8
2
  6
CENTER
 62
     1
 10
-270.6491541089101
 20
135.8150943527726
 11
-270.6491541089101
 21
146.8150943527726
  0
LINE
  8
2
  6
CENTER
 62
     1
 10
-259.5995750551921
 20
99.86467340649058
 11
-259.5995750551921
 21
106.8646734064906
  0
LINE
  8
2
  6
CENTER
 62
     1
 10
-352.0499960014741
 20
141.3150943527726
 11
-341.0499960014741
 21
141.3150943527726
  0
LINE
  8
2
  6
CENTER
 62
     1
 10
-346.5499960014741
 20
135.8150943527726
 11
-346.5499960014741
 21
146.8150943527726
  0
LINE
  8
2
  6
CENTER
 62
     1
 10
-352.0499960014741
 20
65.41425246020857
 11
-341.0499960014741
 21
65.41425246020857
  0
LINE
  8
2
  6
CENTER
 62
     1
 10
-346.5499960014741
 20
59.91425246020857
 11
-346.5499960014741
 21
70.91425246020857
  0
LINE
  8
2
  6
CENTER
 62
     1
 10
-276.1491541089101
 20
65.41425246020857
 11
-265.1491541089101
 21
65.41425246020857
  0
LINE
  8
2
  6
CENTER
 62
     1
 10
-270.6491541089101
 20
59.91425246020857
 11
-270.6491541089101
 21
70.91425246020857
  0
ENDSEC
  0
EOF
