  0
SECTION
  2
HEADER
  9
$ACADVER
  1
AC1006
  9
$DWGCODEPAGE
  3
ansi_932
  9
$INSBASE
 10
0.0
 20
0.0
 30
0.0
  9
$EXTMIN
 10
35.65
 20
337.3409090909091
  9
$EXTMAX
 10
256.85
 20
539.35
  9
$LIMMIN
 10
0.0
 20
0.0
  9
$LIMMAX
 10
12.0
 20
9.0
  9
$ORTHOMODE
 70
     0
  9
$REGENMODE
 70
     1
  9
$FILLMODE
 70
     1
  9
$QTEXTMODE
 70
     0
  9
$MIRRTEXT
 70
     1
  9
$DRAGMODE
 70
     2
  9
$LTSCALE
 40
1.0
  9
$OSMODE
 70
    37
  9
$ATTMODE
 70
     1
  9
$TEXTSIZE
 40
0.2
  9
$TRACEWID
 40
0.05
  9
$TEXTSTYLE
  7
STANDARD
  9
$CLAYER
  8
0
  9
$CELTYPE
  6
BYLAYER
  9
$CECOLOR
 62
   256
  9
$DIMSCALE
 40
1.0
  9
$DIMASZ
 40
3.0
  9
$DIMEXO
 40
0.0625
  9
$DIMDLI
 40
0.38
  9
$DIMRND
 40
0.0
  9
$DIMDLE
 40
0.0
  9
$DIMEXE
 40
1.5
  9
$DIMTP
 40
0.0
  9
$DIMTM
 40
0.0
  9
$DIMTXT
 40
3.0
  9
$DIMCEN
 40
0.09
  9
$DIMTSZ
 40
0.0
  9
$DIMTOL
 70
     0
  9
$DIMLIM
 70
     0
  9
$DIMTIH
 70
     1
  9
$DIMTOH
 70
     1
  9
$DIMSE1
 70
     0
  9
$DIMSE2
 70
     0
  9
$DIMTAD
 70
     1
  9
$DIMZIN
 70
     0
  9
$DIMBLK
  1

  9
$DIMASO
 70
     1
  9
$DIMSHO
 70
     1
  9
$DIMPOST
  1

  9
$DIMAPOST
  1

  9
$DIMALT
 70
     0
  9
$DIMALTD
 70
     2
  9
$DIMALTF
 40
25.4
  9
$DIMLFAC
 40
1.0
  9
$DIMTOFL
 70
     0
  9
$DIMTVP
 40
0.0
  9
$DIMTIX
 70
     0
  9
$DIMSOXD
 70
     0
  9
$DIMSAH
 70
     0
  9
$DIMBLK1
  1

  9
$DIMBLK2
  1

  9
$LUNITS
 70
     2
  9
$LUPREC
 70
     4
  9
$SKETCHINC
 40
0.1
  9
$FILLETRAD
 40
0.5
  9
$AUNITS
 70
     0
  9
$AUPREC
 70
     0
  9
$MENU
  1
.
  9
$ELEVATION
 40
0.0
  9
$THICKNESS
 40
0.0
  9
$LIMCHECK
 70
     0
  9
$CHAMFERA
 40
0.0
  9
$CHAMFERB
 40
0.0
  9
$SKPOLY
 70
     0
  9
$TDCREATE
 40
2459201.404596447
  9
$TDUPDATE
 40
2459201.404597708
  9
$TDINDWG
 40
0.0000000116
  9
$TDUSRTIMER
 40
0.0000000116
  9
$USRTIMER
 70
     1
  9
$ANGBASE
 50
0.0
  9
$ANGDIR
 70
     0
  9
$PDMODE
 70
     0
  9
$PDSIZE
 40
0.0
  9
$PLINEWID
 40
0.0
  9
$COORDS
 70
     1
  9
$SPLFRAME
 70
     0
  9
$SPLINETYPE
 70
     6
  9
$SPLINESEGS
 70
     8
  9
$ATTDIA
 70
     0
  9
$ATTREQ
 70
     1
  9
$HANDLING
 70
     1
  9
$HANDSEED
  5
157
  9
$SURFTAB1
 70
     6
  9
$SURFTAB2
 70
     6
  9
$SURFTYPE
 70
     6
  9
$SURFU
 70
     6
  9
$SURFV
 70
     6
  9
$UCSNAME
  2

  9
$UCSORG
 10
0.0
 20
0.0
 30
0.0
  9
$UCSXDIR
 10
1.0
 20
0.0
 30
0.0
  9
$UCSYDIR
 10
0.0
 20
1.0
 30
0.0
  9
$USERI1
 70
     0
  9
$USERI2
 70
     0
  9
$USERI3
 70
     0
  9
$USERI4
 70
     0
  9
$USERI5
 70
     0
  9
$USERR1
 40
0.0
  9
$USERR2
 40
0.0
  9
$USERR3
 40
0.0
  9
$USERR4
 40
0.0
  9
$USERR5
 40
0.0
  9
$WORLDVIEW
 70
     1
  0
ENDSEC
  0
SECTION
  2
TABLES
  0
TABLE
  2
VPORT
 70
     1
  0
VPORT
  2
*ACTIVE
 70
     0
 10
0.0
 20
0.0
 11
1.0
 21
1.0
 12
146.25
 22
438.3454545454546
 13
0.0
 23
0.0
 14
0.5
 24
0.5
 15
0.5
 25
0.5
 16
0.0
 26
0.0
 36
1.0
 17
0.0
 27
0.0
 37
0.0
 40
202.0090909090909
 41
1.6
 42
50.0
 43
0.0
 44
0.0
 50
0.0
 51
0.0
 71
     0
 72
   100
 73
     1
 74
     3
 75
     0
 76
     0
 77
     0
 78
     0
  0
ENDTAB
  0
TABLE
  2
LTYPE
 70
     1
  0
LTYPE
  2
CONTINUOUS
 70
     0
  3
Solid line
 72
    65
 73
     0
 40
0.0
  0
ENDTAB
  0
TABLE
  2
LAYER
 70
     2
  0
LAYER
  2
0
 70
     0
 62
     7
  6
CONTINUOUS
  0
LAYER
  2
1
 70
     0
 62
     7
  6
CONTINUOUS
  0
ENDTAB
  0
TABLE
  2
STYLE
 70
     2
  0
STYLE
  2
STANDARD
 70
     0
 40
0.0
 41
1.0
 50
0.0
 71
     0
 42
0.2
  3
txt
  4

  0
STYLE
  2
ＭＳ_ゴシック
 70
     0
 40
0.0
 41
1.0
 50
0.0
 71
     0
 42
0.2
  3
ＭＳ ゴシック.shx
  4

  0
ENDTAB
  0
TABLE
  2
VIEW
 70
     0
  0
ENDTAB
  0
TABLE
  2
UCS
 70
     0
  0
ENDTAB
  0
ENDSEC
  0
SECTION
  2
BLOCKS
  0
BLOCK
  8
0
  2
D_FRAME_VIEW_2007
 70
     0
 10
0.0
 20
0.0
 30
0.0
  0
LINE
  5
8A
  8
1
  6
CONTINUOUS
 62
     7
 10
35.65
 20
379.35
 30
0.0
 11
35.65
 21
375.65
 31
0.0
  0
LINE
  5
8B
  8
1
  6
CONTINUOUS
 62
     7
 10
209.35
 20
379.35
 30
0.0
 11
209.35
 21
375.65
 31
0.0
  0
ARC
  5
8C
  8
1
  6
CONTINUOUS
 62
     7
 10
193.5
 20
374.15
 30
0.0
 40
0.5000000000000004
 50
269.9999999999984
 51
359.9999999999998
  0
ARC
  5
8D
  8
1
  6
CONTINUOUS
 62
     7
 10
51.49999999999999
 20
374.15
 30
0.0
 40
0.5000000000000004
 50
180.0000000000001
 51
270.0000000000015
  0
ARC
  5
8E
  8
1
  6
CONTINUOUS
 62
     7
 10
63.0
 20
374.7499999999999
 30
0.0
 40
0.5000000000000004
 50
90.0
 51
180.0
  0
ARC
  5
8F
  8
1
  6
CONTINUOUS
 62
     7
 10
182.0
 20
374.7499999999999
 30
0.0
 40
0.5000000000000004
 50
0.0
 51
90.0
  0
ARC
  5
90
  8
1
  6
CONTINUOUS
 62
     7
 10
62.0
 20
374.15
 30
0.0
 40
0.5000000000000004
 50
270.0
 51
0.0
  0
LINE
  5
91
  8
1
  6
CONTINUOUS
 62
     7
 10
62.5
 20
374.15
 30
0.0
 11
62.5
 21
374.7499999999999
 31
0.0
  0
LINE
  5
92
  8
1
  6
CONTINUOUS
 62
     7
 10
182.5
 20
374.15
 30
0.0
 11
182.5
 21
374.7499999999999
 31
0.0
  0
ARC
  5
93
  8
1
  6
CONTINUOUS
 62
     7
 10
183.0
 20
374.15
 30
0.0
 40
0.5000000000000004
 50
180.0
 51
270.0
  0
LINE
  5
94
  8
1
  6
CONTINUOUS
 62
     7
 10
173.6
 20
375.2499999999999
 30
0.0
 11
173.6
 21
371.65
 31
0.0
  0
LINE
  5
95
  8
1
  6
CONTINUOUS
 62
     7
 10
71.4
 20
375.2499999999999
 30
0.0
 11
71.4
 21
371.65
 31
0.0
  0
ARC
  5
96
  8
1
  6
CONTINUOUS
 62
     7
 10
172.6
 20
371.65
 30
0.0
 40
1.000000000000001
 50
270.0
 51
0.0
  0
LINE
  5
97
  8
1
  6
CONTINUOUS
 62
     7
 10
118.4
 20
370.65
 30
0.0
 11
126.6
 21
370.65
 31
0.0
  0
ARC
  5
98
  8
1
  6
CONTINUOUS
 62
     7
 10
164.4
 20
371.65
 30
0.0
 40
1.000000000000001
 50
180.0
 51
270.0
  0
ARC
  5
99
  8
1
  6
CONTINUOUS
 62
     7
 10
72.4
 20
371.65
 30
0.0
 40
1.000000000000001
 50
180.0
 51
270.0
  0
ARC
  5
9A
  8
1
  6
CONTINUOUS
 62
     7
 10
80.60000000000001
 20
371.65
 30
0.0
 40
1.000000000000001
 50
270.0
 51
0.0
  0
LINE
  5
9B
  8
1
  6
CONTINUOUS
 62
     7
 10
117.4
 20
373.65
 30
0.0
 11
117.4
 21
371.65
 31
0.0
  0
LINE
  5
9C
  8
1
  6
CONTINUOUS
 62
     7
 10
81.60000000000001
 20
371.65
 30
0.0
 11
81.60000000000001
 21
373.65
 31
0.0
  0
ARC
  5
9D
  8
1
  6
CONTINUOUS
 62
     7
 10
118.4
 20
371.65
 30
0.0
 40
1.000000000000001
 50
180.0
 51
270.0
  0
LINE
  5
9E
  8
1
  6
CONTINUOUS
 62
     7
 10
163.4
 20
371.65
 30
0.0
 11
163.4
 21
373.65
 31
0.0
  0
LINE
  5
9F
  8
1
  6
CONTINUOUS
 62
     7
 10
172.6
 20
370.65
 30
0.0
 11
164.4
 21
370.65
 31
0.0
  0
ARC
  5
A0
  8
1
  6
CONTINUOUS
 62
     7
 10
126.6
 20
371.65
 30
0.0
 40
1.000000000000001
 50
270.0
 51
0.0
  0
LINE
  5
A1
  8
1
  6
CONTINUOUS
 62
     7
 10
72.4
 20
370.65
 30
0.0
 11
80.60000000000001
 21
370.65
 31
0.0
  0
LINE
  5
A2
  8
1
  6
CONTINUOUS
 62
     7
 10
127.6
 20
373.65
 30
0.0
 11
127.6
 21
371.65
 31
0.0
  0
ARC
  5
A3
  8
1
  6
CONTINUOUS
 62
     7
 10
50.49999999999999
 20
375.15
 30
0.0
 40
0.5000000000000004
 50
0.0
 51
90.0
  0
ARC
  5
A4
  8
1
  6
CONTINUOUS
 62
     7
 10
194.5
 20
375.15
 30
0.0
 40
0.5000000000000004
 50
90.0
 51
180.0
  0
ENDBLK
  8
0
  0
BLOCK
  8
0
  2
D_FRAME_VIEW_1431
 70
     0
 10
0.0
 20
0.0
 30
0.0
  0
CIRCLE
  5
A9
  8
1
  6
CONTINUOUS
 62
     7
 10
168.5
 20
440.7499999999999
 30
0.0
 40
1.649999999999999
  0
CIRCLE
  5
AA
  8
1
  6
CONTINUOUS
 62
     7
 10
122.5
 20
440.7499999999999
 30
0.0
 40
1.65
  0
CIRCLE
  5
AB
  8
1
  6
CONTINUOUS
 62
     7
 10
76.5
 20
440.7499999999999
 30
0.0
 40
1.649999999999999
  0
CIRCLE
  5
AC
  8
1
  6
CONTINUOUS
 62
     7
 10
168.5
 20
524.25
 30
0.0
 40
1.649999999999999
  0
CIRCLE
  5
AD
  8
1
  6
CONTINUOUS
 62
     7
 10
122.5
 20
524.25
 30
0.0
 40
1.65
  0
CIRCLE
  5
AE
  8
1
  6
CONTINUOUS
 62
     7
 10
76.5
 20
524.25
 30
0.0
 40
1.649999999999999
  0
LINE
  5
AF
  8
1
  6
CONTINUOUS
 62
     7
 10
197.5
 20
433.8729833462074
 30
0.0
 11
197.5
 21
433.9999999999999
 31
0.0
  0
LINE
  5
B0
  8
1
  6
CONTINUOUS
 62
     7
 10
199.5
 20
434.0
 30
0.0
 11
199.5
 21
433.8729833462074
 31
0.0
  0
LINE
  5
B1
  8
1
  6
CONTINUOUS
 62
     7
 10
196.3
 20
435.2
 30
0.0
 11
196.3
 21
434.5
 31
0.0
  0
CIRCLE
  5
B2
  8
1
  6
CONTINUOUS
 62
     7
 10
168.5
 20
440.7499999999999
 30
0.0
 40
4.000000000000004
  0
LINE
  5
B3
  8
1
  6
CONTINUOUS
 62
     7
 10
45.50000000000001
 20
434.0
 30
0.0
 11
45.50000000000001
 21
433.8729833462074
 31
0.0
  0
LINE
  5
B4
  8
1
  6
CONTINUOUS
 62
     7
 10
47.50000000000001
 20
433.8729833462074
 30
0.0
 11
47.50000000000001
 21
433.9999999999999
 31
0.0
  0
CIRCLE
  5
B5
  8
1
  6
CONTINUOUS
 62
     7
 10
76.49999999999999
 20
440.7499999999999
 30
0.0
 40
4.000000000000004
  0
CIRCLE
  5
B6
  8
1
  6
CONTINUOUS
 62
     7
 10
122.5
 20
440.7499999999999
 30
0.0
 40
4.000000000000003
  0
ARC
  5
B7
  8
1
  6
CONTINUOUS
 62
     7
 10
196.8
 20
530.5
 30
0.0
 40
0.5000000000000004
 50
90.0
 51
179.9999999999992
  0
LINE
  5
B8
  8
1
  6
CONTINUOUS
 62
     7
 10
196.3
 20
529.8
 30
0.0
 11
196.3
 21
530.5
 31
0.0
  0
ARC
  5
B9
  8
1
  6
CONTINUOUS
 62
     7
 10
196.8
 20
529.8
 30
0.0
 40
0.5000000000000004
 50
180.0
 51
270.0000000000015
  0
LINE
  5
BA
  8
1
  6
CONTINUOUS
 62
     7
 10
200.2
 20
529.3
 30
0.0
 11
196.8
 21
529.3
 31
0.0
  0
ARC
  5
BB
  8
1
  6
CONTINUOUS
 62
     7
 10
200.2
 20
529.8000000000001
 30
0.0
 40
0.5000000000000004
 50
270.0
 51
0.0
  0
LINE
  5
BC
  8
1
  6
CONTINUOUS
 62
     7
 10
199.5
 20
531.0
 30
0.0
 11
199.5
 21
531.1270166537926
 31
0.0
  0
LINE
  5
BD
  8
1
  6
CONTINUOUS
 62
     7
 10
197.5
 20
531.1270166537926
 30
0.0
 11
197.5
 21
531.0
 31
0.0
  0
CIRCLE
  5
BE
  8
1
  6
CONTINUOUS
 62
     7
 10
168.5
 20
524.25
 30
0.0
 40
4.000000000000004
  0
LINE
  5
BF
  8
1
  6
CONTINUOUS
 62
     7
 10
209.35
 20
526.8
 30
0.0
 11
209.35
 21
536.35
 31
0.0
  0
ARC
  5
C0
  8
1
  6
CONTINUOUS
 62
     7
 10
208.35
 20
526.8
 30
0.0
 40
1.000000000000001
 50
270.0
 51
0.0000000000003979
  0
LINE
  5
C1
  8
1
  6
CONTINUOUS
 62
     7
 10
207.65
 20
525.8
 30
0.0
 11
208.35
 21
525.8
 31
0.0
  0
ARC
  5
C2
  8
1
  6
CONTINUOUS
 62
     7
 10
207.65
 20
524.8
 30
0.0
 40
1.000000000000001
 50
90.0
 51
179.9999999999995
  0
LINE
  5
C3
  8
1
  6
CONTINUOUS
 62
     7
 10
206.65
 20
512.1999999999999
 30
0.0
 11
206.65
 21
524.8000000000001
 31
0.0
  0
ARC
  5
C4
  8
1
  6
CONTINUOUS
 62
     7
 10
207.65
 20
512.1999999999999
 30
0.0
 40
1.000000000000001
 50
180.0
 51
270.0
  0
LINE
  5
C5
  8
1
  6
CONTINUOUS
 62
     7
 10
208.35
 20
511.2
 30
0.0
 11
207.65
 21
511.2
 31
0.0
  0
ARC
  5
C6
  8
1
  6
CONTINUOUS
 62
     7
 10
208.35
 20
510.2
 30
0.0
 40
1.000000000000001
 50
0.0000000000003976
 51
90.0
  0
LINE
  5
C7
  8
1
  6
CONTINUOUS
 62
     7
 10
209.35
 20
454.8
 30
0.0
 11
209.35
 21
510.2
 31
0.0
  0
ARC
  5
C8
  8
1
  6
CONTINUOUS
 62
     7
 10
208.35
 20
454.8
 30
0.0
 40
1.000000000000001
 50
270.0
 51
359.9999999999996
  0
LINE
  5
C9
  8
1
  6
CONTINUOUS
 62
     7
 10
208.35
 20
453.8
 30
0.0
 11
207.65
 21
453.8
 31
0.0
  0
ARC
  5
CA
  8
1
  6
CONTINUOUS
 62
     7
 10
207.65
 20
452.8
 30
0.0
 40
1.000000000000001
 50
90.0
 51
180.0
  0
LINE
  5
CB
  8
1
  6
CONTINUOUS
 62
     7
 10
206.65
 20
452.8
 30
0.0
 11
206.65
 21
440.2
 31
0.0
  0
ARC
  5
CC
  8
1
  6
CONTINUOUS
 62
     7
 10
207.65
 20
440.2
 30
0.0
 40
1.000000000000001
 50
180.0000000000004
 51
270.0
  0
LINE
  5
CD
  8
1
  6
CONTINUOUS
 62
     7
 10
207.65
 20
439.2
 30
0.0
 11
208.35
 21
439.2
 31
0.0
  0
ARC
  5
CE
  8
1
  6
CONTINUOUS
 62
     7
 10
208.35
 20
438.2
 30
0.0
 40
1.000000000000001
 50
359.9999999999996
 51
90.0
  0
LINE
  5
CF
  8
1
  6
CONTINUOUS
 62
     7
 10
209.35
 20
438.2
 30
0.0
 11
209.35
 21
428.65
 31
0.0
  0
ARC
  5
D0
  8
1
  6
CONTINUOUS
 62
     7
 10
206.35
 20
428.65
 30
0.0
 40
3.000000000000003
 50
270.0
 51
359.9999999999998
  0
LINE
  5
D1
  8
1
  6
CONTINUOUS
 62
     7
 10
38.65000000000002
 20
425.65
 30
0.0
 11
206.35
 21
425.65
 31
0.0
  0
ARC
  5
D2
  8
1
  6
CONTINUOUS
 62
     7
 10
38.65000000000002
 20
428.65
 30
0.0
 40
3.000000000000003
 50
180.0000000000002
 51
270.0
  0
LINE
  5
D3
  8
1
  6
CONTINUOUS
 62
     7
 10
35.65000000000001
 20
438.2
 30
0.0
 11
35.65
 21
428.65
 31
0.0
  0
ARC
  5
D4
  8
1
  6
CONTINUOUS
 62
     7
 10
36.65000000000001
 20
438.2
 30
0.0
 40
1.000000000000001
 50
90.0
 51
180.0000000000004
  0
LINE
  5
D5
  8
1
  6
CONTINUOUS
 62
     7
 10
37.35000000000001
 20
439.2
 30
0.0
 11
36.65000000000001
 21
439.2
 31
0.0
  0
ARC
  5
D6
  8
1
  6
CONTINUOUS
 62
     7
 10
37.35000000000001
 20
440.2
 30
0.0
 40
1.000000000000001
 50
270.0
 51
359.9999999999996
  0
LINE
  5
D7
  8
1
  6
CONTINUOUS
 62
     7
 10
38.35000000000001
 20
452.8
 30
0.0
 11
38.35000000000001
 21
440.2
 31
0.0
  0
ARC
  5
D8
  8
1
  6
CONTINUOUS
 62
     7
 10
37.35000000000001
 20
452.8
 30
0.0
 40
1.000000000000001
 50
0.0
 51
90.0
  0
LINE
  5
D9
  8
1
  6
CONTINUOUS
 62
     7
 10
36.65000000000001
 20
453.8
 30
0.0
 11
37.35000000000001
 21
453.8
 31
0.0
  0
ARC
  5
DA
  8
1
  6
CONTINUOUS
 62
     7
 10
36.65000000000001
 20
454.8
 30
0.0
 40
1.000000000000001
 50
180.0000000000004
 51
270.0
  0
LINE
  5
DB
  8
1
  6
CONTINUOUS
 62
     7
 10
35.65
 20
454.8
 30
0.0
 11
35.65
 21
510.2
 31
0.0
  0
ARC
  5
DC
  8
1
  6
CONTINUOUS
 62
     7
 10
36.65000000000001
 20
510.2
 30
0.0
 40
1.000000000000001
 50
90.0
 51
179.9999999999995
  0
LINE
  5
DD
  8
1
  6
CONTINUOUS
 62
     7
 10
36.65000000000001
 20
511.2
 30
0.0
 11
37.35000000000001
 21
511.2
 31
0.0
  0
ARC
  5
DE
  8
1
  6
CONTINUOUS
 62
     7
 10
37.35000000000001
 20
512.1999999999999
 30
0.0
 40
1.000000000000001
 50
270.0
 51
0.0
  0
LINE
  5
DF
  8
1
  6
CONTINUOUS
 62
     7
 10
38.35000000000001
 20
512.1999999999999
 30
0.0
 11
38.35000000000001
 21
524.8000000000001
 31
0.0
  0
ARC
  5
E0
  8
1
  6
CONTINUOUS
 62
     7
 10
37.35000000000001
 20
524.8
 30
0.0
 40
1.000000000000001
 50
0.0000000000003976
 51
90.0
  0
LINE
  5
E1
  8
1
  6
CONTINUOUS
 62
     7
 10
37.35000000000001
 20
525.8
 30
0.0
 11
36.65000000000001
 21
525.8
 31
0.0
  0
ARC
  5
E2
  8
1
  6
CONTINUOUS
 62
     7
 10
36.65000000000001
 20
526.8
 30
0.0
 40
1.000000000000001
 50
179.9999999999995
 51
270.0
  0
LINE
  5
E3
  8
1
  6
CONTINUOUS
 62
     7
 10
35.65000000000001
 20
526.8
 30
0.0
 11
35.65
 21
536.35
 31
0.0
  0
ARC
  5
E4
  8
1
  6
CONTINUOUS
 62
     7
 10
38.65000000000002
 20
536.35
 30
0.0
 40
3.000000000000003
 50
90.0
 51
179.9999999999998
  0
LINE
  5
E5
  8
1
  6
CONTINUOUS
 62
     7
 10
38.65000000000002
 20
539.35
 30
0.0
 11
206.35
 21
539.35
 31
0.0
  0
ARC
  5
E6
  8
1
  6
CONTINUOUS
 62
     7
 10
206.35
 20
536.35
 30
0.0
 40
3.000000000000003
 50
0.000000000000265
 51
90.0
  0
LINE
  5
E7
  8
1
  6
CONTINUOUS
 62
     7
 10
47.50000000000001
 20
531.1270166537926
 30
0.0
 11
47.50000000000001
 21
531.0
 31
0.0
  0
LINE
  5
E8
  8
1
  6
CONTINUOUS
 62
     7
 10
45.50000000000001
 20
531.0
 30
0.0
 11
45.50000000000001
 21
531.1270166537926
 31
0.0
  0
CIRCLE
  5
E9
  8
1
  6
CONTINUOUS
 62
     7
 10
76.49999999999999
 20
524.25
 30
0.0
 40
4.000000000000004
  0
LINE
  5
EA
  8
1
  6
CONTINUOUS
 62
     7
 10
117.4
 20
524.25
 30
0.0
 11
117.4
 21
527.0
 31
0.0
  0
ARC
  5
EB
  8
1
  6
CONTINUOUS
 62
     7
 10
115.9
 20
527.0
 30
0.0
 40
1.5
 50
0.0
 51
89.99999999999991
  0
LINE
  5
EC
  8
1
  6
CONTINUOUS
 62
     7
 10
115.9
 20
528.5
 30
0.0
 11
83.10000000000001
 21
528.5
 31
0.0
  0
ARC
  5
ED
  8
1
  6
CONTINUOUS
 62
     7
 10
83.10000000000001
 20
527.0
 30
0.0
 40
1.500000000000001
 50
90.0
 51
180.0
  0
LINE
  5
EE
  8
1
  6
CONTINUOUS
 62
     7
 10
81.60000000000001
 20
527.0
 30
0.0
 11
81.60000000000001
 21
524.25
 31
0.0
  0
ARC
  5
EF
  8
1
  6
CONTINUOUS
 62
     7
 10
76.50000000000001
 20
524.25
 30
0.0
 40
5.100000000000001
 50
180.0
 51
0.0
  0
LINE
  5
F0
  8
1
  6
CONTINUOUS
 62
     7
 10
71.4
 20
524.25
 30
0.0
 11
71.4
 21
527.0
 31
0.0
  0
ARC
  5
F1
  8
1
  6
CONTINUOUS
 62
     7
 10
69.90000000000002
 20
527.0
 30
0.0
 40
1.500000000000001
 50
0.0
 51
90.0
  0
LINE
  5
F2
  8
1
  6
CONTINUOUS
 62
     7
 10
69.90000000000002
 20
528.5
 30
0.0
 11
54.50000000000001
 21
528.5
 31
0.0
  0
ARC
  5
F3
  8
1
  6
CONTINUOUS
 62
     7
 10
54.50000000000001
 20
527.0
 30
0.0
 40
1.500000000000001
 50
90.0
 51
179.9999999999995
  0
LINE
  5
F4
  8
1
  6
CONTINUOUS
 62
     7
 10
53.00000000000001
 20
527.0
 30
0.0
 11
53.00000000000001
 21
438.0
 31
0.0
  0
ARC
  5
F5
  8
1
  6
CONTINUOUS
 62
     7
 10
54.50000000000001
 20
438.0
 30
0.0
 40
1.500000000000001
 50
180.0000000000004
 51
270.0
  0
LINE
  5
F6
  8
1
  6
CONTINUOUS
 62
     7
 10
69.90000000000002
 20
436.5
 30
0.0
 11
54.50000000000001
 21
436.5
 31
0.0
  0
ARC
  5
F7
  8
1
  6
CONTINUOUS
 62
     7
 10
69.90000000000002
 20
438.0
 30
0.0
 40
1.500000000000001
 50
270.0
 51
0.0
  0
LINE
  5
F8
  8
1
  6
CONTINUOUS
 62
     7
 10
71.4
 20
440.7499999999999
 30
0.0
 11
71.4
 21
438.0
 31
0.0
  0
ARC
  5
F9
  8
1
  6
CONTINUOUS
 62
     7
 10
76.50000000000001
 20
440.7499999999999
 30
0.0
 40
5.100000000000001
 50
0.0
 51
180.0
  0
LINE
  5
FA
  8
1
  6
CONTINUOUS
 62
     7
 10
81.60000000000001
 20
438.0
 30
0.0
 11
81.60000000000001
 21
440.7499999999999
 31
0.0
  0
ARC
  5
FB
  8
1
  6
CONTINUOUS
 62
     7
 10
83.10000000000001
 20
438.0
 30
0.0
 40
1.500000000000001
 50
180.0
 51
270.0
  0
LINE
  5
FC
  8
1
  6
CONTINUOUS
 62
     7
 10
115.9
 20
436.5
 30
0.0
 11
83.10000000000001
 21
436.5
 31
0.0
  0
ARC
  5
FD
  8
1
  6
CONTINUOUS
 62
     7
 10
115.9
 20
437.9999999999999
 30
0.0
 40
1.5
 50
270.0000000000001
 51
0.0
  0
LINE
  5
FE
  8
1
  6
CONTINUOUS
 62
     7
 10
117.4
 20
440.7499999999999
 30
0.0
 11
117.4
 21
437.9999999999999
 31
0.0
  0
ARC
  5
FF
  8
1
  6
CONTINUOUS
 62
     7
 10
122.5
 20
440.7499999999999
 30
0.0
 40
5.1
 50
359.9999999999999
 51
180.0000000000001
  0
LINE
  5
100
  8
1
  6
CONTINUOUS
 62
     7
 10
127.6
 20
440.7499999999999
 30
0.0
 11
127.6
 21
437.9999999999999
 31
0.0
  0
ARC
  5
101
  8
1
  6
CONTINUOUS
 62
     7
 10
129.1
 20
437.9999999999999
 30
0.0
 40
1.5
 50
180.0
 51
269.9999999999999
  0
LINE
  5
102
  8
1
  6
CONTINUOUS
 62
     7
 10
129.1
 20
436.5
 30
0.0
 11
161.9
 21
436.5
 31
0.0
  0
ARC
  5
103
  8
1
  6
CONTINUOUS
 62
     7
 10
161.9
 20
438.0
 30
0.0
 40
1.500000000000001
 50
270.0
 51
0.0
  0
LINE
  5
104
  8
1
  6
CONTINUOUS
 62
     7
 10
163.4
 20
438.0
 30
0.0
 11
163.4
 21
440.7499999999999
 31
0.0
  0
ARC
  5
105
  8
1
  6
CONTINUOUS
 62
     7
 10
168.5
 20
440.7499999999999
 30
0.0
 40
5.100000000000001
 50
0.0
 51
180.0
  0
LINE
  5
106
  8
1
  6
CONTINUOUS
 62
     7
 10
173.6
 20
440.7499999999999
 30
0.0
 11
173.6
 21
438.0
 31
0.0
  0
ARC
  5
107
  8
1
  6
CONTINUOUS
 62
     7
 10
175.1
 20
438.0
 30
0.0
 40
1.500000000000001
 50
180.0
 51
270.0
  0
LINE
  5
108
  8
1
  6
CONTINUOUS
 62
     7
 10
175.1
 20
436.5
 30
0.0
 11
190.5
 21
436.5
 31
0.0
  0
ARC
  5
109
  8
1
  6
CONTINUOUS
 62
     7
 10
190.5
 20
438.0
 30
0.0
 40
1.500000000000001
 50
270.0
 51
359.9999999999995
  0
LINE
  5
10A
  8
1
  6
CONTINUOUS
 62
     7
 10
192.0
 20
527.0
 30
0.0
 11
192.0
 21
438.0
 31
0.0
  0
ARC
  5
10B
  8
1
  6
CONTINUOUS
 62
     7
 10
190.5
 20
527.0
 30
0.0
 40
1.500000000000001
 50
0.0000000000005116
 51
90.0
  0
LINE
  5
10C
  8
1
  6
CONTINUOUS
 62
     7
 10
175.1
 20
528.5
 30
0.0
 11
190.5
 21
528.5
 31
0.0
  0
ARC
  5
10D
  8
1
  6
CONTINUOUS
 62
     7
 10
175.1
 20
527.0
 30
0.0
 40
1.500000000000001
 50
90.0
 51
180.0
  0
LINE
  5
10E
  8
1
  6
CONTINUOUS
 62
     7
 10
173.6
 20
524.25
 30
0.0
 11
173.6
 21
527.0
 31
0.0
  0
ARC
  5
10F
  8
1
  6
CONTINUOUS
 62
     7
 10
168.5
 20
524.25
 30
0.0
 40
5.100000000000001
 50
180.0
 51
0.0
  0
LINE
  5
110
  8
1
  6
CONTINUOUS
 62
     7
 10
163.4
 20
527.0
 30
0.0
 11
163.4
 21
524.25
 31
0.0
  0
ARC
  5
111
  8
1
  6
CONTINUOUS
 62
     7
 10
161.9
 20
527.0
 30
0.0
 40
1.500000000000001
 50
0.0
 51
90.0
  0
LINE
  5
112
  8
1
  6
CONTINUOUS
 62
     7
 10
129.1
 20
528.5
 30
0.0
 11
161.9
 21
528.5
 31
0.0
  0
ARC
  5
113
  8
1
  6
CONTINUOUS
 62
     7
 10
129.1
 20
527.0
 30
0.0
 40
1.5
 50
90.00000000000006
 51
180.0
  0
LINE
  5
114
  8
1
  6
CONTINUOUS
 62
     7
 10
127.6
 20
524.25
 30
0.0
 11
127.6
 21
527.0
 31
0.0
  0
ARC
  5
115
  8
1
  6
CONTINUOUS
 62
     7
 10
122.5
 20
524.25
 30
0.0
 40
5.1
 50
179.9999999999999
 51
0.0000000000000568
  0
CIRCLE
  5
116
  8
1
  6
CONTINUOUS
 62
     7
 10
122.5
 20
524.25
 30
0.0
 40
4.000000000000003
  0
ARC
  5
117
  8
1
  6
CONTINUOUS
 62
     7
 10
196.8
 20
435.2
 30
0.0
 40
0.5000000000000004
 50
89.99999999999841
 51
180.0
  0
ARC
  5
118
  8
1
  6
CONTINUOUS
 62
     7
 10
200.2
 20
435.2
 30
0.0
 40
0.5000000000000004
 50
0.0
 51
90.0
  0
LINE
  5
119
  8
1
  6
CONTINUOUS
 62
     7
 10
200.7
 20
434.5
 30
0.0
 11
200.7
 21
435.2
 31
0.0
  0
LINE
  5
11A
  8
1
  6
CONTINUOUS
 62
     7
 10
200.7
 20
530.5
 30
0.0
 11
200.7
 21
529.8
 31
0.0
  0
LINE
  5
11B
  8
1
  6
CONTINUOUS
 62
     7
 10
200.2
 20
435.7
 30
0.0
 11
196.8
 21
435.7
 31
0.0
  0
ARC
  5
11C
  8
1
  6
CONTINUOUS
 62
     7
 10
196.8
 20
434.5
 30
0.0
 40
0.5000000000000004
 50
180.0000000000008
 51
270.0
  0
LINE
  5
11D
  8
1
  6
CONTINUOUS
 62
     7
 10
48.7
 20
435.2
 30
0.0
 11
48.69999999999998
 21
434.5
 31
0.0
  0
ARC
  5
11E
  8
1
  6
CONTINUOUS
 62
     7
 10
48.2
 20
435.2
 30
0.0
 40
0.5000000000000004
 50
0.0
 51
90.00000000000159
  0
LINE
  5
11F
  8
1
  6
CONTINUOUS
 62
     7
 10
44.80000000000002
 20
435.7
 30
0.0
 11
48.19999999999999
 21
435.7
 31
0.0
  0
ARC
  5
120
  8
1
  6
CONTINUOUS
 62
     7
 10
44.80000000000002
 20
435.2
 30
0.0
 40
0.5000000000000004
 50
90.0
 51
180.0
  0
LINE
  5
121
  8
1
  6
CONTINUOUS
 62
     7
 10
44.3
 20
434.5
 30
0.0
 11
44.30000000000002
 21
435.2
 31
0.0
  0
ARC
  5
122
  8
1
  6
CONTINUOUS
 62
     7
 10
44.8
 20
434.5
 30
0.0
 40
0.5000000000000004
 50
180.0
 51
270.0000000000015
  0
ARC
  5
123
  8
1
  6
CONTINUOUS
 62
     7
 10
200.2
 20
434.5
 30
0.0
 40
0.5000000000000004
 50
269.9999999999984
 51
0.0
  0
ARC
  5
124
  8
1
  6
CONTINUOUS
 62
     7
 10
200.2
 20
530.5
 30
0.0
 40
0.5000000000000004
 50
0.0
 51
90.00000000000159
  0
ARC
  5
125
  8
1
  6
CONTINUOUS
 62
     7
 10
48.19999999999997
 20
434.5
 30
0.0
 40
0.5000000000000004
 50
270.0
 51
359.9999999999993
  0
ARC
  5
126
  8
1
  6
CONTINUOUS
 62
     7
 10
48.19999999999997
 20
530.5
 30
0.0
 40
0.5000000000000004
 50
0.0000000000007951
 51
90.0
  0
LINE
  5
127
  8
1
  6
CONTINUOUS
 62
     7
 10
48.7
 20
529.8
 30
0.0
 11
48.69999999999998
 21
530.5
 31
0.0
  0
ARC
  5
128
  8
1
  6
CONTINUOUS
 62
     7
 10
48.2
 20
529.8
 30
0.0
 40
0.5000000000000004
 50
269.9999999999984
 51
0.0
  0
LINE
  5
129
  8
1
  6
CONTINUOUS
 62
     7
 10
44.80000000000002
 20
529.3
 30
0.0
 11
48.19999999999999
 21
529.3
 31
0.0
  0
ARC
  5
12A
  8
1
  6
CONTINUOUS
 62
     7
 10
44.80000000000002
 20
529.8000000000001
 30
0.0
 40
0.5000000000000004
 50
180.0
 51
270.0
  0
LINE
  5
12B
  8
1
  6
CONTINUOUS
 62
     7
 10
44.3
 20
530.5
 30
0.0
 11
44.30000000000002
 21
529.8
 31
0.0
  0
ARC
  5
12C
  8
1
  6
CONTINUOUS
 62
     7
 10
44.8
 20
530.5
 30
0.0
 40
0.5000000000000004
 50
89.99999999999841
 51
180.0
  0
CIRCLE
  5
12D
  8
1
  6
CONTINUOUS
 62
     7
 10
46.5
 20
535.0
 30
0.0
 40
2.100000000000005
  0
CIRCLE
  5
12E
  8
1
  6
CONTINUOUS
 62
     7
 10
122.5
 20
524.25
 30
0.0
 40
2.500000000000002
  0
CIRCLE
  5
12F
  8
1
  6
CONTINUOUS
 62
     7
 10
198.5
 20
430.0
 30
0.0
 40
2.100000000000005
  0
CIRCLE
  5
130
  8
1
  6
CONTINUOUS
 62
     7
 10
168.5
 20
440.7499999999999
 30
0.0
 40
2.500000000000002
  0
CIRCLE
  5
131
  8
1
  6
CONTINUOUS
 62
     7
 10
76.49999999999999
 20
440.7499999999999
 30
0.0
 40
2.500000000000002
  0
CIRCLE
  5
132
  8
1
  6
CONTINUOUS
 62
     7
 10
198.5
 20
535.0
 30
0.0
 40
2.100000000000005
  0
CIRCLE
  5
133
  8
1
  6
CONTINUOUS
 62
     7
 10
122.5
 20
440.7499999999999
 30
0.0
 40
2.500000000000002
  0
CIRCLE
  5
134
  8
1
  6
CONTINUOUS
 62
     7
 10
76.49999999999999
 20
524.25
 30
0.0
 40
2.500000000000002
  0
CIRCLE
  5
135
  8
1
  6
CONTINUOUS
 62
     7
 10
46.5
 20
430.0
 30
0.0
 40
2.100000000000005
  0
CIRCLE
  5
136
  8
1
  6
CONTINUOUS
 62
     7
 10
168.5
 20
524.25
 30
0.0
 40
2.500000000000002
  0
ENDBLK
  8
0
  0
BLOCK
  8
0
  2
D_FRAME_VIEW_1714
 70
     0
 10
0.0
 20
0.0
 30
0.0
  0
LINE
  5
13B
  8
1
  6
CONTINUOUS
 62
     7
 10
248.15
 20
511.2
 30
0.0
 11
251.85
 21
511.2
 31
0.0
  0
LINE
  5
13C
  8
1
  6
CONTINUOUS
 62
     7
 10
248.15
 20
453.8
 30
0.0
 11
251.85
 21
453.8
 31
0.0
  0
LINE
  5
13D
  8
1
  6
CONTINUOUS
 62
     7
 10
248.15
 20
539.35
 30
0.0
 11
251.85
 21
539.35
 31
0.0
  0
LINE
  5
13E
  8
1
  6
CONTINUOUS
 62
     7
 10
248.15
 20
425.65
 30
0.0
 11
251.85
 21
425.65
 31
0.0
  0
LINE
  5
13F
  8
1
  6
CONTINUOUS
 62
     7
 10
248.15
 20
525.8
 30
0.0
 11
251.85
 21
525.8
 31
0.0
  0
LINE
  5
140
  8
1
  6
CONTINUOUS
 62
     7
 10
248.15
 20
439.2
 30
0.0
 11
251.85
 21
439.2
 31
0.0
  0
ARC
  5
141
  8
1
  6
CONTINUOUS
 62
     7
 10
253.35
 20
434.9999999999999
 30
0.0
 40
0.5000000000000004
 50
270.0000000000001
 51
0.0000000000015916
  0
ARC
  5
142
  8
1
  6
CONTINUOUS
 62
     7
 10
253.35
 20
530.0
 30
0.0
 40
0.5000000000000004
 50
359.9999999999985
 51
89.9999999999999
  0
LINE
  5
143
  8
1
  6
CONTINUOUS
 62
     7
 10
251.85
 20
434.5
 30
0.0
 11
253.35
 21
434.5
 31
0.0
  0
LINE
  5
144
  8
1
  6
CONTINUOUS
 62
     7
 10
251.85
 20
530.5
 30
0.0
 11
253.35
 21
530.5
 31
0.0
  0
ARC
  5
145
  8
1
  6
CONTINUOUS
 62
     7
 10
255.85
 20
437.1
 30
0.0
 40
1.000000000000001
 50
270.0
 51
0.0
  0
ARC
  5
146
  8
1
  6
CONTINUOUS
 62
     7
 10
255.85
 20
527.9
 30
0.0
 40
1.000000000000001
 50
0.0
 51
90.0
  0
LINE
  5
147
  8
1
  6
CONTINUOUS
 62
     7
 10
255.85
 20
528.8999999999999
 30
0.0
 11
253.85
 21
528.8999999999999
 31
0.0
  0
LINE
  5
148
  8
1
  6
CONTINUOUS
 62
     7
 10
255.85
 20
436.1
 30
0.0
 11
253.85
 21
436.1
 31
0.0
  0
ARC
  5
149
  8
1
  6
CONTINUOUS
 62
     7
 10
255.85
 20
520.15
 30
0.0
 40
1.000000000000001
 50
270.0
 51
0.0
  0
LINE
  5
14A
  8
1
  6
CONTINUOUS
 62
     7
 10
253.85
 20
519.15
 30
0.0
 11
255.85
 21
519.15
 31
0.0
  0
LINE
  5
14B
  8
1
  6
CONTINUOUS
 62
     7
 10
255.85
 20
445.85
 30
0.0
 11
253.85
 21
445.85
 31
0.0
  0
ARC
  5
14C
  8
1
  6
CONTINUOUS
 62
     7
 10
255.85
 20
444.85
 30
0.0
 40
1.000000000000001
 50
0.0
 51
90.0
  0
ENDBLK
  8
0
  0
ENDSEC
  0
SECTION
  2
ENTITIES
  0
LINE
  5
70
  8
1
  6
CONTINUOUS
 62
     7
 10
51.0
 20
375.15
 30
0.0
 11
51.0
 21
374.15
 31
0.0
  0
LINE
  5
71
  8
1
  6
CONTINUOUS
 62
     7
 10
194.0
 20
375.15
 30
0.0
 11
194.0
 21
374.15
 31
0.0
  0
LINE
  5
72
  8
1
  6
CONTINUOUS
 62
     7
 10
63.0
 20
375.2499999999999
 30
0.0
 11
71.4
 21
375.2499999999999
 31
0.0
  0
LINE
  5
73
  8
1
  6
CONTINUOUS
 62
     7
 10
127.6
 20
373.65
 30
0.0
 11
163.4
 21
373.65
 31
0.0
  0
LINE
  5
74
  8
1
  6
CONTINUOUS
 62
     7
 10
173.6
 20
375.2499999999999
 30
0.0
 11
182.0
 21
375.2499999999999
 31
0.0
  0
LINE
  5
75
  8
1
  6
CONTINUOUS
 62
     7
 10
81.60000000000001
 20
373.65
 30
0.0
 11
117.4
 21
373.65
 31
0.0
  0
LINE
  5
76
  8
1
  6
CONTINUOUS
 62
     7
 10
256.85
 20
444.85
 30
0.0
 11
256.85
 21
437.1
 31
0.0
  0
LINE
  5
77
  8
1
  6
CONTINUOUS
 62
     7
 10
253.85
 20
434.9999999999999
 30
0.0
 11
253.85
 21
530.0
 31
0.0
  0
LINE
  5
78
  8
1
  6
CONTINUOUS
 62
     7
 10
193.5
 20
373.65
 30
0.0
 11
183.0
 21
373.65
 31
0.0
  0
LINE
  5
79
  8
1
  6
CONTINUOUS
 62
     7
 10
209.35
 20
379.35
 30
0.0
 11
35.65000000000004
 21
379.35
 31
0.0
  0
LINE
  5
7A
  8
1
  6
CONTINUOUS
 62
     7
 10
194.5
 20
375.65
 30
0.0
 11
209.35
 21
375.65
 31
0.0
  0
LINE
  5
7B
  8
1
  6
CONTINUOUS
 62
     7
 10
51.5
 20
373.65
 30
0.0
 11
62.0
 21
373.65
 31
0.0
  0
LINE
  5
7C
  8
1
  6
CONTINUOUS
 62
     7
 10
248.15
 20
425.65
 30
0.0
 11
248.15
 21
539.35
 31
0.0
  0
LINE
  5
7D
  8
1
  6
CONTINUOUS
 62
     7
 10
256.85
 20
520.15
 30
0.0
 11
256.85
 21
527.9
 31
0.0
  0
LINE
  5
7E
  8
1
  6
CONTINUOUS
 62
     7
 10
251.85
 20
425.65
 30
0.0
 11
251.85
 21
539.35
 31
0.0
  0
LINE
  5
7F
  8
1
  6
CONTINUOUS
 62
     7
 10
50.49999999999999
 20
375.65
 30
0.0
 11
35.65000000000001
 21
375.65
 31
0.0
  0
LINE
  5
80
  8
1
  6
CONTINUOUS
 62
     7
 10
44.80000000000002
 20
434.0
 30
0.0
 11
48.19999999999997
 21
434.0
 31
0.0
  0
CIRCLE
  5
81
  8
1
  6
CONTINUOUS
 62
     7
 10
198.5
 20
430.0
 30
0.0
 40
4.000000000000004
  0
CIRCLE
  5
82
  8
1
  6
CONTINUOUS
 62
     7
 10
46.5
 20
430.0
 30
0.0
 40
4.000000000000004
  0
LINE
  5
83
  8
1
  6
CONTINUOUS
 62
     7
 10
200.2
 20
531.0
 30
0.0
 11
196.8
 21
531.0
 31
0.0
  0
LINE
  5
84
  8
1
  6
CONTINUOUS
 62
     7
 10
200.2
 20
434.0
 30
0.0
 11
196.8
 21
434.0
 31
0.0
  0
LINE
  5
85
  8
1
  6
CONTINUOUS
 62
     7
 10
44.80000000000002
 20
531.0
 30
0.0
 11
48.19999999999997
 21
531.0
 31
0.0
  0
CIRCLE
  5
86
  8
1
  6
CONTINUOUS
 62
     7
 10
198.5
 20
535.0
 30
0.0
 40
4.0
  0
CIRCLE
  5
87
  8
1
  6
CONTINUOUS
 62
     7
 10
46.5
 20
535.0
 30
0.0
 40
4.000000000000004
  0
TEXT
  5
88
  8
1
  6
CONTINUOUS
 62
     7
 10
103.5336188570714
 20
336.6568400650244
 30
0.0
 40
6.0
  1
OF-12PS3-FT
  0
INSERT
  5
A5
  8
0
  6
CONTINUOUS
 62
     7
  2
D_FRAME_VIEW_2007
 10
0.0
 20
0.0
 30
0.0
  0
INSERT
  5
137
  8
0
  6
CONTINUOUS
 62
     7
  2
D_FRAME_VIEW_1431
 10
0.0
 20
0.0
 30
0.0
  0
INSERT
  5
14D
  8
0
  6
CONTINUOUS
 62
     7
  2
D_FRAME_VIEW_1714
 10
0.0
 20
0.0
 30
0.0
  0
ENDSEC
  0
EOF
