  0
SECTION
  2
HEADER
  9
$ACADVER
  1
AC1004
  9
$INSBASE
 10
0.0
 20
0.0
  9
$EXTMIN
 10
-430.5000000000001
 20
45.34999999999999
  9
$EXTMAX
 10
-174.4999999999999
 20
198.0000000000001
  9
$LIMMIN
 10
0.0
 20
0.0
  9
$LIMMAX
 10
12.0
 20
9.0
  9
$ORTHOMODE
 70
     0
  9
$REGENMODE
 70
     1
  9
$FILLMODE
 70
     1
  9
$QTEXTMODE
 70
     0
  9
$DRAGMODE
 70
     2
  9
$LTSCALE
 40
1.0
  9
$OSMODE
 70
    37
  9
$ATTMODE
 70
     1
  9
$TEXTSIZE
 40
0.2
  9
$TRACEWID
 40
0.05
  9
$TEXTSTYLE
  7
STANDARD
  9
$CLAYER
  8
0
  9
$CELTYPE
  6
BYLAYER
  9
$CECOLOR
 62
   256
  9
$DIMSCALE
 40
1.0
  9
$DIMASZ
 40
3.0
  9
$DIMEXO
 40
0.0625
  9
$DIMDLI
 40
0.38
  9
$DIMRND
 40
0.0
  9
$DIMDLE
 40
0.0
  9
$DIMEXE
 40
1.5
  9
$DIMTP
 40
0.0
  9
$DIMTM
 40
0.0
  9
$DIMTXT
 40
3.0
  9
$DIMCEN
 40
0.09
  9
$DIMTSZ
 40
0.0
  9
$DIMTOL
 70
     0
  9
$DIMLIM
 70
     0
  9
$DIMTIH
 70
     1
  9
$DIMTOH
 70
     1
  9
$DIMSE1
 70
     0
  9
$DIMSE2
 70
     0
  9
$DIMTAD
 70
     1
  9
$DIMZIN
 70
     0
  9
$DIMBLK
  1

  9
$DIMASO
 70
     1
  9
$DIMSHO
 70
     1
  9
$DIMPOST
  1

  9
$DIMAPOST
  1

  9
$DIMALT
 70
     0
  9
$DIMALTD
 70
     2
  9
$DIMALTF
 40
25.4
  9
$DIMLFAC
 40
1.0
  9
$DIMTOFL
 70
     0
  9
$DIMTVP
 40
0.0
  9
$DIMTIX
 70
     0
  9
$DIMSOXD
 70
     0
  9
$DIMSAH
 70
     0
  9
$DIMBLK1
  1

  9
$DIMBLK2
  1

  9
$LUNITS
 70
     2
  9
$LUPREC
 70
     4
  9
$SKETCHINC
 40
0.1
  9
$FILLETRAD
 40
0.5
  9
$AUNITS
 70
     0
  9
$AUPREC
 70
     0
  9
$MENU
  1
.
  9
$ELEVATION
 40
0.0
  9
$THICKNESS
 40
0.0
  9
$LIMCHECK
 70
     0
  9
$CHAMFERA
 40
0.0
  9
$CHAMFERB
 40
0.0
  9
$SKPOLY
 70
     0
  9
$TDCREATE
 40
2459171.63558169
  9
$TDUPDATE
 40
2459171.635582048
  9
$TDINDWG
 40
0.0000000116
  9
$TDUSRTIMER
 40
0.0000000116
  9
$USRTIMER
 70
     1
  9
$ANGBASE
 50
0.0
  9
$ANGDIR
 70
     0
  9
$PDMODE
 70
     0
  9
$PDSIZE
 40
0.0
  9
$PLINEWID
 40
0.0
  9
$COORDS
 70
     1
  9
$SPLFRAME
 70
     0
  9
$SPLINETYPE
 70
     6
  9
$SPLINESEGS
 70
     8
  9
$ATTDIA
 70
     0
  9
$ATTREQ
 70
     1
  9
$SURFTAB1
 70
     6
  9
$SURFTAB2
 70
     6
  9
$SURFTYPE
 70
     6
  9
$SURFU
 70
     6
  9
$SURFV
 70
     6
  9
$UCSNAME
  2

  9
$UCSORG
 10
0.0
 20
0.0
 30
0.0
  9
$UCSXDIR
 10
1.0
 20
0.0
 30
0.0
  9
$UCSYDIR
 10
0.0
 20
1.0
 30
0.0
  9
$USERI1
 70
     0
  9
$USERI2
 70
     0
  9
$USERI3
 70
     0
  9
$USERI4
 70
     0
  9
$USERI5
 70
     0
  9
$USERR1
 40
0.0
  9
$USERR2
 40
0.0
  9
$USERR3
 40
0.0
  9
$USERR4
 40
0.0
  9
$USERR5
 40
0.0
  9
$WORLDVIEW
 70
     1
  0
ENDSEC
  0
SECTION
  2
TABLES
  0
TABLE
  2
LTYPE
 70
     2
  0
LTYPE
  2
CONTINUOUS
 70
     0
  3
Solid line
 72
    65
 73
     0
 40
0.0
  0
LTYPE
  2
CENTER
 70
     0
  3

 72
    65
 73
     0
 40
0.0
  0
ENDTAB
  0
TABLE
  2
LAYER
 70
     1
  0
LAYER
  2
0
 70
     0
 62
     7
  6
CONTINUOUS
  0
ENDTAB
  0
TABLE
  2
STYLE
 70
     2
  0
STYLE
  2
STANDARD
 70
     0
 40
0.0
 41
1.0
 50
0.0
 71
     0
 42
0.2
  3
txt
  4

  0
STYLE
  2
ＭＳ_ゴシック
 70
     0
 40
0.0
 41
1.0
 50
0.0
 71
     0
 42
0.2
  3
ＭＳ ゴシック.shx
  4

  0
ENDTAB
  0
TABLE
  2
VIEW
 70
     0
  0
ENDTAB
  0
ENDSEC
  0
SECTION
  2
BLOCKS
  0
BLOCK
  8
0
  2
D_FRAME_VIEW_3160
 70
     0
 10
0.0
 20
0.0
  0
CIRCLE
  8
0
  6
CONTINUOUS
 62
     9
 10
-372.5000000000001
 20
96.6
 40
1.649999999999999
  0
CIRCLE
  8
0
  6
CONTINUOUS
 62
     9
 10
-372.5000000000001
 20
183.4
 40
1.649999999999999
  0
CIRCLE
  8
0
  6
CONTINUOUS
 62
     9
 10
-372.4997666437243
 20
110.0022812680675
 40
2.000000000000002
  0
ARC
  8
0
  6
CONTINUOUS
 62
     9
 10
-372.5009648617657
 20
96.60228132163942
 40
2.0
 50
22.88996052252219
 51
202.9609141411881
  0
CIRCLE
  8
0
  6
CONTINUOUS
 62
     9
 10
-372.4997666437243
 20
169.9977187319325
 40
2.000000000000002
  0
ARC
  8
0
  6
CONTINUOUS
 62
     9
 10
-372.5009648617657
 20
183.3977186783605
 40
2.000000000000004
 50
157.0390796775378
 51
337.1100456533981
  0
CIRCLE
  8
0
  6
CONTINUOUS
 62
     7
 10
-372.5000000000001
 20
96.6
 40
1.649999999999999
  0
CIRCLE
  8
0
  6
CONTINUOUS
 62
     7
 10
-372.5000000000001
 20
96.6
 40
2.000000000000002
  0
CIRCLE
  8
0
  6
CONTINUOUS
 62
     7
 10
-372.5000000000001
 20
183.4
 40
1.649999999999999
  0
CIRCLE
  8
0
  6
CONTINUOUS
 62
     7
 10
-372.5000000000001
 20
183.4
 40
2.000000000000002
  0
CIRCLE
  8
0
  6
CONTINUOUS
 62
     7
 10
-372.4997666437243
 20
110.0022812680675
 40
1.649999999999999
  0
ARC
  8
0
  6
CONTINUOUS
 62
     7
 10
-380.9996771904853
 20
111.0030413277526
 40
1.999999999999997
 50
89.9948766539705
 51
93.16016162446795
  0
LINE
  8
0
  6
CONTINUOUS
 62
     7
 10
-380.9994983519717
 20
113.0030413197568
 11
-363.9994984199361
 21
113.0015211923908
  0
ARC
  8
0
  6
CONTINUOUS
 62
     7
 10
-363.9996772584497
 20
111.0015212003867
 40
1.999999999999993
 50
87.76517574166019
 51
89.99487665397021
  0
CIRCLE
  8
0
  6
CONTINUOUS
 62
     7
 10
-372.4997666437243
 20
169.9977187319325
 40
1.649999999999985
  0
ARC
  8
0
  6
CONTINUOUS
 62
     7
 10
-363.9996772584497
 20
168.9984787996133
 40
2.000000000000007
 50
270.0051233460298
 51
272.2348242583667
  0
LINE
  8
0
  6
CONTINUOUS
 62
     7
 10
-380.9994983519717
 20
166.9969586802432
 11
-363.9994984199361
 21
166.9984788076092
  0
ARC
  8
0
  6
CONTINUOUS
 62
     7
 10
-380.9996771904853
 20
168.9969586722474
 40
2.000000000000006
 50
266.839838375513
 51
270.0051233460296
  0
ARC
  8
0
  6
CONTINUOUS
 62
     7
 10
-356.4998808331205
 20
112.0218323914709
 40
1.890952230276297
 50
304.8502017196646
 51
359.3567535238818
  0
LINE
  8
0
  6
CONTINUOUS
 62
     7
 10
-354.6090477697238
 20
112.0006035537164
 11
-354.1090668081917
 21
111.9979613652112
  0
ARC
  8
0
  6
CONTINUOUS
 62
     7
 10
-372.5000000000001
 20
135.0
 40
29.89095223027629
 50
298.2114758412123
 51
304.8502017196645
  0
ARC
  8
0
  6
CONTINUOUS
 62
     7
 10
-359.5000000000001
 20
110.7667583678948
 40
2.3909522302763
 50
180.0
 51
298.2114758412125
  0
LINE
  8
0
  6
CONTINUOUS
 62
     7
 10
-354.6090477697238
 20
112.0006035537164
 11
-354.6090477697235
 21
167.9993964462833
  0
LINE
  8
0
  6
CONTINUOUS
 62
     7
 10
-354.1090668081916
 20
168.0020386347884
 11
-354.6090477697235
 21
167.9993964462833
  0
POLYLINE
  8
0
  6
CONTINUOUS
 62
     7
 66
     1
  0
VERTEX
  8
0
  6
CONTINUOUS
 62
     7
 10
-381.609028729806
 20
113.0
  0
VERTEX
  8
0
  6
CONTINUOUS
 62
     7
 10
-381.9016679273338
 20
112.9711779206049
  0
VERTEX
  8
0
  6
CONTINUOUS
 62
     7
 10
-382.1830611646147
 20
112.8858192987669
  0
VERTEX
  8
0
  6
CONTINUOUS
 62
     7
 10
-382.4423946573469
 20
112.7472044184538
  0
VERTEX
  8
0
  6
CONTINUOUS
 62
     7
 10
-382.6697023648408
 20
112.5606601717798
  0
VERTEX
  8
0
  6
CONTINUOUS
 62
     7
 10
-382.8562489793729
 20
112.3333553495294
  0
VERTEX
  8
0
  6
CONTINUOUS
 62
     7
 10
-382.9948656191633
 20
112.0740251485476
  0
VERTEX
  8
0
  6
CONTINUOUS
 62
     7
 10
-383.0802253244819
 20
111.7926354830242
  0
VERTEX
  8
0
  6
CONTINUOUS
 62
     7
 10
-383.1090477697238
 20
111.5
  0
SEQEND
  8
0
  6
CONTINUOUS
 62
     7
  0
LINE
  8
0
  6
CONTINUOUS
 62
     7
 10
-381.609028729806
 20
113.0
 11
-376.1
 21
113.0
  0
LINE
  8
0
  6
CONTINUOUS
 62
     7
 10
-376.1
 20
113.0
 11
-376.1
 21
112.5
  0
CIRCLE
  8
0
  6
CONTINUOUS
 62
     7
 10
-379.5000000000001
 20
107.3929072133071
 40
2.249999999999988
  0
ARC
  8
0
  6
CONTINUOUS
 62
     7
 10
-381.6241437954473
 20
167.0
 40
10.00000000000001
 50
90.00000000000001
 51
108.6717180640079
  0
LINE
  8
0
  6
CONTINUOUS
 62
     7
 10
-377.1
 20
177.0
 11
-381.6241437954474
 21
177.0
  0
POLYLINE
  8
0
  6
CONTINUOUS
 62
     7
 66
     1
  0
VERTEX
  8
0
  6
CONTINUOUS
 62
     7
 10
-376.1
 20
175.9999619216143
  0
VERTEX
  8
0
  6
CONTINUOUS
 62
     7
 10
-376.1192147195968
 20
176.1950596723549
  0
VERTEX
  8
0
  6
CONTINUOUS
 62
     7
 10
-376.1761204674887
 20
176.3826599259467
  0
VERTEX
  8
0
  6
CONTINUOUS
 62
     7
 10
-376.2685303876975
 20
176.5555533098515
  0
VERTEX
  8
0
  6
CONTINUOUS
 62
     7
 10
-376.3928932188135
 20
176.7070956282856
  0
VERTEX
  8
0
  6
CONTINUOUS
 62
     7
 10
-376.5444297669804
 20
176.8314631949374
  0
VERTEX
  8
0
  6
CONTINUOUS
 62
     7
 10
-376.717316567635
 20
176.9238766339668
  0
VERTEX
  8
0
  6
CONTINUOUS
 62
     7
 10
-376.9049096779839
 20
176.9807845487377
  0
VERTEX
  8
0
  6
CONTINUOUS
 62
     7
 10
-377.1
 20
177.0
  0
SEQEND
  8
0
  6
CONTINUOUS
 62
     7
  0
LINE
  8
0
  6
CONTINUOUS
 62
     7
 10
-376.1
 20
175.9999619216143
 11
-376.1
 21
167.5
  0
LINE
  8
0
  6
CONTINUOUS
 62
     7
 10
-376.1
 20
104.0000380783857
 11
-376.1
 21
112.5
  0
POLYLINE
  8
0
  6
CONTINUOUS
 62
     7
 66
     1
  0
VERTEX
  8
0
  6
CONTINUOUS
 62
     7
 10
-377.1
 20
103.0
  0
VERTEX
  8
0
  6
CONTINUOUS
 62
     7
 10
-376.9049096779839
 20
103.0192154512623
  0
VERTEX
  8
0
  6
CONTINUOUS
 62
     7
 10
-376.717316567635
 20
103.0761233660332
  0
VERTEX
  8
0
  6
CONTINUOUS
 62
     7
 10
-376.5444297669804
 20
103.1685368050626
  0
VERTEX
  8
0
  6
CONTINUOUS
 62
     7
 10
-376.3928932188135
 20
103.2929043717144
  0
VERTEX
  8
0
  6
CONTINUOUS
 62
     7
 10
-376.2685303876975
 20
103.4444466901485
  0
VERTEX
  8
0
  6
CONTINUOUS
 62
     7
 10
-376.1761204674887
 20
103.6173400740533
  0
VERTEX
  8
0
  6
CONTINUOUS
 62
     7
 10
-376.1192147195968
 20
103.8049403276451
  0
VERTEX
  8
0
  6
CONTINUOUS
 62
     7
 10
-376.1
 20
104.0000380783857
  0
SEQEND
  8
0
  6
CONTINUOUS
 62
     7
  0
LINE
  8
0
  6
CONTINUOUS
 62
     7
 10
-377.1
 20
103.0
 11
-381.6241437954474
 21
103.0
  0
ARC
  8
0
  6
CONTINUOUS
 62
     7
 10
-381.6241437954473
 20
113.0
 40
10.00000000000001
 50
251.328281935992
 51
270.0
  0
ARC
  8
0
  6
CONTINUOUS
 62
     7
 10
-372.5000000000001
 20
140.0
 40
38.49999999999999
 50
239.5048460004797
 51
251.3282819359921
  0
ARC
  8
0
  6
CONTINUOUS
 62
     7
 10
-389.5002192632024
 20
111.1338046205263
 40
4.999780736824882
 50
179.9998108347756
 51
239.5050351657042
  0
LINE
  8
0
  6
CONTINUOUS
 62
     7
 10
-394.5
 20
168.8661788724177
 11
-394.5
 21
111.1338211275824
  0
ARC
  8
0
  6
CONTINUOUS
 62
     7
 10
-389.500219263199
 20
168.8661953794718
 40
4.999780736828221
 50
120.4949648343178
 51
180.0001891652026
  0
ARC
  8
0
  6
CONTINUOUS
 62
     7
 10
-372.5000000000001
 20
140.0
 40
38.50000000000001
 50
108.6717180640079
 51
120.4951539995203
  0
CIRCLE
  8
0
  6
CONTINUOUS
 62
     7
 10
-379.5000000000001
 20
172.6070927866929
 40
2.249999999999988
  0
ARC
  8
0
  6
CONTINUOUS
 62
     7
 10
-355.499780736801
 20
111.1338046205282
 40
4.999780736828258
 50
300.4949648343179
 51
0.0001891652019594
  0
ARC
  8
0
  6
CONTINUOUS
 62
     7
 10
-372.5000000000001
 20
140.0
 40
38.49999999999999
 50
288.6717180640079
 51
300.4951539995204
  0
ARC
  8
0
  6
CONTINUOUS
 62
     7
 10
-363.3758562045527
 20
113.0
 40
10.00000000000001
 50
270.0
 51
288.6717180640079
  0
LINE
  8
0
  6
CONTINUOUS
 62
     7
 10
-363.3758562045527
 20
103.0
 11
-367.9
 21
103.0
  0
POLYLINE
  8
0
  6
CONTINUOUS
 62
     7
 66
     1
  0
VERTEX
  8
0
  6
CONTINUOUS
 62
     7
 10
-368.9
 20
104.0000380783858
  0
VERTEX
  8
0
  6
CONTINUOUS
 62
     7
 10
-368.8807852804032
 20
103.8049403276451
  0
VERTEX
  8
0
  6
CONTINUOUS
 62
     7
 10
-368.8238795325113
 20
103.6173400740533
  0
VERTEX
  8
0
  6
CONTINUOUS
 62
     7
 10
-368.7314696123025
 20
103.4444466901485
  0
VERTEX
  8
0
  6
CONTINUOUS
 62
     7
 10
-368.6071067811865
 20
103.2929043717144
  0
VERTEX
  8
0
  6
CONTINUOUS
 62
     7
 10
-368.4555702330196
 20
103.1685368050626
  0
VERTEX
  8
0
  6
CONTINUOUS
 62
     7
 10
-368.282683432365
 20
103.0761233660333
  0
VERTEX
  8
0
  6
CONTINUOUS
 62
     7
 10
-368.0950903220161
 20
103.0192154512623
  0
VERTEX
  8
0
  6
CONTINUOUS
 62
     7
 10
-367.9
 20
103.0
  0
SEQEND
  8
0
  6
CONTINUOUS
 62
     7
  0
LINE
  8
0
  6
CONTINUOUS
 62
     7
 10
-368.9
 20
167.5
 11
-368.9
 21
175.9999619216143
  0
POLYLINE
  8
0
  6
CONTINUOUS
 62
     7
 66
     1
  0
VERTEX
  8
0
  6
CONTINUOUS
 62
     7
 10
-367.9
 20
177.0
  0
VERTEX
  8
0
  6
CONTINUOUS
 62
     7
 10
-368.0950903220161
 20
176.9807845487377
  0
VERTEX
  8
0
  6
CONTINUOUS
 62
     7
 10
-368.282683432365
 20
176.9238766339668
  0
VERTEX
  8
0
  6
CONTINUOUS
 62
     7
 10
-368.4555702330196
 20
176.8314631949374
  0
VERTEX
  8
0
  6
CONTINUOUS
 62
     7
 10
-368.6071067811865
 20
176.7070956282856
  0
VERTEX
  8
0
  6
CONTINUOUS
 62
     7
 10
-368.7314696123025
 20
176.5555533098515
  0
VERTEX
  8
0
  6
CONTINUOUS
 62
     7
 10
-368.8238795325113
 20
176.3826599259467
  0
VERTEX
  8
0
  6
CONTINUOUS
 62
     7
 10
-368.8807852804032
 20
176.1950596723549
  0
VERTEX
  8
0
  6
CONTINUOUS
 62
     7
 10
-368.9
 20
175.9999619216143
  0
SEQEND
  8
0
  6
CONTINUOUS
 62
     7
  0
LINE
  8
0
  6
CONTINUOUS
 62
     7
 10
-363.3758562045527
 20
177.0
 11
-367.9
 21
177.0
  0
ARC
  8
0
  6
CONTINUOUS
 62
     7
 10
-363.3758562045527
 20
167.0
 40
10.00000000000001
 50
71.3282819359921
 51
89.99999999999996
  0
ARC
  8
0
  6
CONTINUOUS
 62
     7
 10
-372.5000000000001
 20
140.0
 40
38.49999999999999
 50
59.50484600047965
 51
71.32828193599212
  0
ARC
  8
0
  6
CONTINUOUS
 62
     7
 10
-355.4997807367976
 20
168.8661953794737
 40
4.999780736824799
 50
359.9998108347755
 51
59.50503516570479
  0
LINE
  8
0
  6
CONTINUOUS
 62
     7
 10
-350.5
 20
111.1338211275824
 11
-350.5
 21
168.8661788724177
  0
CIRCLE
  8
0
  6
CONTINUOUS
 62
     7
 10
-365.5000000000001
 20
172.6070927866929
 40
2.250000000000002
  0
CIRCLE
  8
0
  6
CONTINUOUS
 62
     7
 10
-365.5000000000001
 20
107.3929072133071
 40
2.250000000000002
  0
LINE
  8
0
  6
CONTINUOUS
 62
     7
 10
-368.9
 20
112.5
 11
-368.9
 21
104.0000380783858
  0
LINE
  8
0
  6
CONTINUOUS
 62
     7
 10
-361.8909522302764
 20
169.2332416321053
 11
-361.8909522302764
 21
168.5
  0
LINE
  8
0
  6
CONTINUOUS
 62
     7
 10
-361.8909522302764
 20
111.5
 11
-361.8909522302764
 21
110.7667583678948
  0
ARC
  8
0
  6
CONTINUOUS
 62
     7
 10
-359.5000000000001
 20
169.2332416321053
 40
2.390952230276279
 50
61.78852415878751
 51
180.0
  0
ARC
  8
0
  6
CONTINUOUS
 62
     7
 10
-372.5000000000001
 20
145.0
 40
29.8909522302763
 50
55.1497982803354
 51
61.78852415878758
  0
LINE
  8
0
  6
CONTINUOUS
 62
     7
 10
-368.9
 20
113.0
 11
-363.3909712701941
 21
113.0
  0
LINE
  8
0
  6
CONTINUOUS
 62
     7
 10
-368.9
 20
112.5
 11
-368.9
 21
113.0
  0
ARC
  8
0
  6
CONTINUOUS
 62
     7
 10
-356.4998808331205
 20
167.9781676085291
 40
1.890952230276298
 50
0.6432464761091526
 51
55.14979828033518
  0
LINE
  8
0
  6
CONTINUOUS
 62
     7
 10
-390.8909331918085
 20
167.9542965822666
 11
-390.3909522302766
 21
167.956938770772
  0
LINE
  8
0
  6
CONTINUOUS
 62
     7
 10
-390.3909522302766
 20
167.956938770772
 11
-390.3909522302766
 21
112.0430612292276
  0
LINE
  8
0
  6
CONTINUOUS
 62
     7
 10
-390.8909331918084
 20
112.0457034177331
 11
-390.3909522302766
 21
112.0430612292276
  0
LINE
  8
0
  6
CONTINUOUS
 62
     7
 10
-376.1
 20
167.0
 11
-381.609028729806
 21
167.0
  0
LINE
  8
0
  6
CONTINUOUS
 62
     7
 10
-376.1
 20
167.5
 11
-376.1
 21
167.0
  0
ARC
  8
0
  6
CONTINUOUS
 62
     7
 10
-388.5001191668795
 20
167.9781676085291
 40
1.890952230276304
 50
124.8502017196647
 51
180.6432464761942
  0
CIRCLE
  8
0
  6
CONTINUOUS
 62
     7
 10
-365.5000000000001
 20
107.3929072133071
 40
1.741273796781351
  0
LINE
  8
0
  6
CONTINUOUS
 62
     7
 10
-383.1090477697238
 20
110.7667583678948
 11
-383.1090477697238
 21
111.5
  0
LINE
  8
0
  6
CONTINUOUS
 62
     7
 10
-350.4781828305231
 20
98.58586239083999
 11
-350.4781828305231
 21
111.121353056503
  0
LINE
  8
0
  6
CONTINUOUS
 62
     7
 10
-350.4781828305231
 20
181.41413760916
 11
-350.4781828305231
 21
168.878646943497
  0
LINE
  8
0
  6
CONTINUOUS
 62
     7
 10
-394.5218171694769
 20
111.121353056503
 11
-394.5218171694769
 21
98.58586239083999
  0
LINE
  8
0
  6
CONTINUOUS
 62
     7
 10
-394.5218171694769
 20
168.878646943497
 11
-394.5218171694769
 21
181.41413760916
  0
ARC
  8
0
  6
CONTINUOUS
 62
     7
 10
-388.5001191668795
 20
112.021832391471
 40
1.890952230276299
 50
179.3567535238151
 51
235.1497982803354
  0
ARC
  8
0
  6
CONTINUOUS
 62
     7
 10
-372.5000000000001
 20
140.0
 40
38.5218171694769
 50
288.6717180640079
 51
300.5164713515456
  0
ARC
  8
0
  6
CONTINUOUS
 62
     7
 10
-363.3758562045527
 20
113.0
 40
10.0218171694769
 50
270.0
 51
288.6717180640079
  0
LINE
  8
0
  6
CONTINUOUS
 62
     7
 10
-363.3758562045527
 20
102.9781828305231
 11
-367.9
 21
102.9781828305231
  0
ARC
  8
0
  6
CONTINUOUS
 62
     7
 10
-381.6241437954473
 20
113.0
 40
10.02181716947691
 50
251.328281935992
 51
270.0
  0
CIRCLE
  8
0
  6
CONTINUOUS
 62
     7
 10
-379.5000000000001
 20
107.3929072133071
 40
1.741273796781351
  0
LINE
  8
0
  6
CONTINUOUS
 62
     7
 10
-383.1090477697238
 20
168.5
 11
-383.1090477697238
 21
169.2332416321053
  0
ARC
  8
0
  6
CONTINUOUS
 62
     7
 10
-385.5000000000001
 20
169.2332416321053
 40
2.3909522302763
 50
0.0
 51
118.2114758412123
  0
ARC
  8
0
  6
CONTINUOUS
 62
     7
 10
-372.5000000000001
 20
140.0
 40
38.5218171694769
 50
108.6717180640079
 51
120.5164713515456
  0
LINE
  8
0
  6
CONTINUOUS
 62
     7
 10
-368.9
 20
175.9999619216143
 11
-368.9
 21
176.0217790910912
  0
POLYLINE
  8
0
  6
CONTINUOUS
 62
     7
 66
     1
  0
VERTEX
  8
0
  6
CONTINUOUS
 62
     7
 10
-367.9
 20
177.0218171694769
  0
VERTEX
  8
0
  6
CONTINUOUS
 62
     7
 10
-368.0950903220161
 20
177.0026017182146
  0
VERTEX
  8
0
  6
CONTINUOUS
 62
     7
 10
-368.282683432365
 20
176.9456938034437
  0
VERTEX
  8
0
  6
CONTINUOUS
 62
     7
 10
-368.4555702330196
 20
176.8532803644143
  0
VERTEX
  8
0
  6
CONTINUOUS
 62
     7
 10
-368.6071067811865
 20
176.7289127977625
  0
VERTEX
  8
0
  6
CONTINUOUS
 62
     7
 10
-368.7314696123025
 20
176.5773704793284
  0
VERTEX
  8
0
  6
CONTINUOUS
 62
     7
 10
-368.8238795325113
 20
176.4044770954236
  0
VERTEX
  8
0
  6
CONTINUOUS
 62
     7
 10
-368.8807852804032
 20
176.2168768418318
  0
VERTEX
  8
0
  6
CONTINUOUS
 62
     7
 10
-368.9
 20
176.0217790910912
  0
SEQEND
  8
0
  6
CONTINUOUS
 62
     7
  0
POLYLINE
  8
0
  6
CONTINUOUS
 62
     7
 66
     1
  0
VERTEX
  8
0
  6
CONTINUOUS
 62
     7
 10
-368.9
 20
103.9782209089088
  0
VERTEX
  8
0
  6
CONTINUOUS
 62
     7
 10
-368.8807852804032
 20
103.7831231581682
  0
VERTEX
  8
0
  6
CONTINUOUS
 62
     7
 10
-368.8238795325113
 20
103.5955229045764
  0
VERTEX
  8
0
  6
CONTINUOUS
 62
     7
 10
-368.7314696123025
 20
103.4226295206716
  0
VERTEX
  8
0
  6
CONTINUOUS
 62
     7
 10
-368.6071067811865
 20
103.2710872022375
  0
VERTEX
  8
0
  6
CONTINUOUS
 62
     7
 10
-368.4555702330196
 20
103.1467196355857
  0
VERTEX
  8
0
  6
CONTINUOUS
 62
     7
 10
-368.282683432365
 20
103.0543061965563
  0
VERTEX
  8
0
  6
CONTINUOUS
 62
     7
 10
-368.0950903220161
 20
102.9973982817854
  0
VERTEX
  8
0
  6
CONTINUOUS
 62
     7
 10
-367.9
 20
102.9781828305231
  0
SEQEND
  8
0
  6
CONTINUOUS
 62
     7
  0
LINE
  8
0
  6
CONTINUOUS
 62
     7
 10
-368.9
 20
103.9782209089089
 11
-368.9
 21
104.0000380783858
  0
POLYLINE
  8
0
  6
CONTINUOUS
 62
     7
 66
     1
  0
VERTEX
  8
0
  6
CONTINUOUS
 62
     7
 10
-377.1
 20
102.9781828305231
  0
VERTEX
  8
0
  6
CONTINUOUS
 62
     7
 10
-376.9049096779839
 20
102.9973982817854
  0
VERTEX
  8
0
  6
CONTINUOUS
 62
     7
 10
-376.717316567635
 20
103.0543061965564
  0
VERTEX
  8
0
  6
CONTINUOUS
 62
     7
 10
-376.5444297669804
 20
103.1467196355857
  0
VERTEX
  8
0
  6
CONTINUOUS
 62
     7
 10
-376.3928932188135
 20
103.2710872022375
  0
VERTEX
  8
0
  6
CONTINUOUS
 62
     7
 10
-376.2685303876975
 20
103.4226295206716
  0
VERTEX
  8
0
  6
CONTINUOUS
 62
     7
 10
-376.1761204674887
 20
103.5955229045764
  0
VERTEX
  8
0
  6
CONTINUOUS
 62
     7
 10
-376.1192147195968
 20
103.7831231581682
  0
VERTEX
  8
0
  6
CONTINUOUS
 62
     7
 10
-376.1
 20
103.9782209089088
  0
SEQEND
  8
0
  6
CONTINUOUS
 62
     7
  0
LINE
  8
0
  6
CONTINUOUS
 62
     7
 10
-376.1
 20
104.0000380783857
 11
-376.1
 21
103.9782209089088
  0
ARC
  8
0
  6
CONTINUOUS
 62
     7
 10
-389.5220364100064
 20
168.878663430472
 40
4.999780759497762
 50
120.5162824164447
 51
180.0001889351014
  0
ARC
  8
0
  6
CONTINUOUS
 62
     7
 10
-372.5000000000001
 20
140.0
 40
38.5218171694769
 50
239.4835286484544
 51
251.3282819359921
  0
ARC
  8
0
  6
CONTINUOUS
 62
     7
 10
-389.522036410003
 20
111.1213365695299
 40
4.99978075950112
 50
179.9998110649207
 51
239.4837175835333
  0
LINE
  8
0
  6
CONTINUOUS
 62
     7
 10
-363.3909712701941
 20
167.0
 11
-368.9
 21
167.0
  0
LINE
  8
0
  6
CONTINUOUS
 62
     7
 10
-368.9
 20
167.0
 11
-368.9
 21
167.5
  0
LINE
  8
0
  6
CONTINUOUS
 62
     7
 10
-377.1
 20
102.9781828305231
 11
-381.6241437954474
 21
102.9781828305231
  0
POLYLINE
  8
0
  6
CONTINUOUS
 62
     7
 66
     1
  0
VERTEX
  8
0
  6
CONTINUOUS
 62
     7
 10
-363.3909712701941
 20
167.0
  0
VERTEX
  8
0
  6
CONTINUOUS
 62
     7
 10
-363.0983320726663
 20
167.0288220793952
  0
VERTEX
  8
0
  6
CONTINUOUS
 62
     7
 10
-362.8169388353854
 20
167.1141807012331
  0
VERTEX
  8
0
  6
CONTINUOUS
 62
     7
 10
-362.5576053426532
 20
167.2527955815462
  0
VERTEX
  8
0
  6
CONTINUOUS
 62
     7
 10
-362.3302976351593
 20
167.4393398282202
  0
VERTEX
  8
0
  6
CONTINUOUS
 62
     7
 10
-362.1437510206272
 20
167.6666446504706
  0
VERTEX
  8
0
  6
CONTINUOUS
 62
     7
 10
-362.0051343808369
 20
167.9259748514524
  0
VERTEX
  8
0
  6
CONTINUOUS
 62
     7
 10
-361.9197746755182
 20
168.2073645169758
  0
VERTEX
  8
0
  6
CONTINUOUS
 62
     7
 10
-361.8909522302763
 20
168.5
  0
SEQEND
  8
0
  6
CONTINUOUS
 62
     7
  0
POLYLINE
  8
0
  6
CONTINUOUS
 62
     7
 66
     1
  0
VERTEX
  8
0
  6
CONTINUOUS
 62
     7
 10
-361.8909522302763
 20
111.5
  0
VERTEX
  8
0
  6
CONTINUOUS
 62
     7
 10
-361.9197746755182
 20
111.7926354830242
  0
VERTEX
  8
0
  6
CONTINUOUS
 62
     7
 10
-362.0051343808368
 20
112.0740251485476
  0
VERTEX
  8
0
  6
CONTINUOUS
 62
     7
 10
-362.1437510206272
 20
112.3333553495294
  0
VERTEX
  8
0
  6
CONTINUOUS
 62
     7
 10
-362.3302976351593
 20
112.5606601717798
  0
VERTEX
  8
0
  6
CONTINUOUS
 62
     7
 10
-362.5576053426532
 20
112.7472044184538
  0
VERTEX
  8
0
  6
CONTINUOUS
 62
     7
 10
-362.8169388353854
 20
112.8858192987669
  0
VERTEX
  8
0
  6
CONTINUOUS
 62
     7
 10
-363.0983320726663
 20
112.9711779206049
  0
VERTEX
  8
0
  6
CONTINUOUS
 62
     7
 10
-363.3909712701941
 20
113.0
  0
SEQEND
  8
0
  6
CONTINUOUS
 62
     7
  0
LINE
  8
0
  6
CONTINUOUS
 62
     7
 10
-377.1
 20
177.0218171694769
 11
-381.6241437954474
 21
177.0218171694769
  0
ARC
  8
0
  6
CONTINUOUS
 62
     7
 10
-372.5000000000001
 20
140.0
 40
38.52181716947689
 50
59.48352864845437
 51
71.32828193599212
  0
ARC
  8
0
  6
CONTINUOUS
 62
     7
 10
-355.4779635899969
 20
168.8786634304701
 40
4.99978075950099
 50
359.9998110649202
 51
59.48371758353431
  0
ARC
  8
0
  6
CONTINUOUS
 62
     7
 10
-372.5000000000001
 20
145.0
 40
29.8909522302763
 50
118.2114758412124
 51
124.8502017196645
  0
CIRCLE
  8
0
  6
CONTINUOUS
 62
     7
 10
-365.5000000000001
 20
172.6070927866929
 40
1.741273796781351
  0
CIRCLE
  8
0
  6
CONTINUOUS
 62
     7
 10
-379.5000000000001
 20
172.6070927866929
 40
1.741273796781351
  0
POLYLINE
  8
0
  6
CONTINUOUS
 62
     7
 66
     1
  0
VERTEX
  8
0
  6
CONTINUOUS
 62
     7
 10
-383.1090477697238
 20
168.5
  0
VERTEX
  8
0
  6
CONTINUOUS
 62
     7
 10
-383.0802253244819
 20
168.2073645169758
  0
VERTEX
  8
0
  6
CONTINUOUS
 62
     7
 10
-382.9948656191633
 20
167.9259748514524
  0
VERTEX
  8
0
  6
CONTINUOUS
 62
     7
 10
-382.8562489793729
 20
167.6666446504706
  0
VERTEX
  8
0
  6
CONTINUOUS
 62
     7
 10
-382.6697023648408
 20
167.4393398282202
  0
VERTEX
  8
0
  6
CONTINUOUS
 62
     7
 10
-382.4423946573469
 20
167.2527955815462
  0
VERTEX
  8
0
  6
CONTINUOUS
 62
     7
 10
-382.1830611646147
 20
167.1141807012331
  0
VERTEX
  8
0
  6
CONTINUOUS
 62
     7
 10
-381.9016679273338
 20
167.0288220793952
  0
VERTEX
  8
0
  6
CONTINUOUS
 62
     7
 10
-381.609028729806
 20
167.0
  0
SEQEND
  8
0
  6
CONTINUOUS
 62
     7
  0
POLYLINE
  8
0
  6
CONTINUOUS
 62
     7
 66
     1
  0
VERTEX
  8
0
  6
CONTINUOUS
 62
     7
 10
-376.1
 20
176.0217790910912
  0
VERTEX
  8
0
  6
CONTINUOUS
 62
     7
 10
-376.1192147195968
 20
176.2168768418318
  0
VERTEX
  8
0
  6
CONTINUOUS
 62
     7
 10
-376.1761204674887
 20
176.4044770954236
  0
VERTEX
  8
0
  6
CONTINUOUS
 62
     7
 10
-376.2685303876975
 20
176.5773704793284
  0
VERTEX
  8
0
  6
CONTINUOUS
 62
     7
 10
-376.3928932188135
 20
176.7289127977625
  0
VERTEX
  8
0
  6
CONTINUOUS
 62
     7
 10
-376.5444297669804
 20
176.8532803644143
  0
VERTEX
  8
0
  6
CONTINUOUS
 62
     7
 10
-376.717316567635
 20
176.9456938034436
  0
VERTEX
  8
0
  6
CONTINUOUS
 62
     7
 10
-376.9049096779839
 20
177.0026017182146
  0
VERTEX
  8
0
  6
CONTINUOUS
 62
     7
 10
-377.1
 20
177.0218171694769
  0
SEQEND
  8
0
  6
CONTINUOUS
 62
     7
  0
LINE
  8
0
  6
CONTINUOUS
 62
     7
 10
-376.1
 20
176.0217790910912
 11
-376.1
 21
175.9999619216143
  0
ARC
  8
0
  6
CONTINUOUS
 62
     7
 10
-355.4779635899937
 20
111.121336569528
 40
4.999780759497707
 50
300.5162824164443
 51
0.000188935101562
  0
ARC
  8
0
  6
CONTINUOUS
 62
     7
 10
-363.3758562045527
 20
167.0
 40
10.0218171694769
 50
71.3282819359921
 51
90.0
  0
ARC
  8
0
  6
CONTINUOUS
 62
     7
 10
-385.5000000000001
 20
110.7667583678948
 40
2.390952230276309
 50
241.7885241587877
 51
0.0
  0
ARC
  8
0
  6
CONTINUOUS
 62
     7
 10
-372.5000000000001
 20
135.0
 40
29.89095223027629
 50
235.1497982803354
 51
241.7885241587876
  0
ARC
  8
0
  6
CONTINUOUS
 62
     7
 10
-381.6241437954473
 20
167.0
 40
10.02181716947689
 50
90.00000000000001
 51
108.6717180640079
  0
LINE
  8
0
  6
CONTINUOUS
 62
     7
 10
-363.3758562045527
 20
177.0218171694769
 11
-367.9
 21
177.0218171694769
  0
CIRCLE
  8
0
  6
CONTINUOUS
 62
     7
 10
-379.5000000000001
 20
107.3929072133071
 40
1.658360909126855
  0
CIRCLE
  8
0
  6
CONTINUOUS
 62
     7
 10
-379.5000000000001
 20
172.6070927866929
 40
1.658360909126855
  0
CIRCLE
  8
0
  6
CONTINUOUS
 62
     7
 10
-365.5000000000001
 20
107.3929072133071
 40
1.658360909126855
  0
CIRCLE
  8
0
  6
CONTINUOUS
 62
     7
 10
-365.5000000000001
 20
172.6070927866929
 40
1.658360909126855
  0
ARC
  8
0
  6
CONTINUOUS
 62
     7
 10
-372.5000000000001
 20
140.0
 40
47.99999999999999
 50
244.1982988701577
 51
295.8017011298423
  0
ARC
  8
0
  6
CONTINUOUS
 62
     7
 10
-372.5000000000001
 20
140.0
 40
48.0525135173877
 50
244.1573091476315
 51
293.0895677591823
  0
ARC
  8
0
  6
CONTINUOUS
 62
     7
 10
-372.5000000000001
 20
140.0
 40
48.05251351738772
 50
293.0895677591823
 51
295.8426908523685
  0
ARC
  8
0
  6
CONTINUOUS
 62
     7
 10
-372.5000000000001
 20
140.0
 40
48.02399888642458
 50
292.9818403660856
 51
295.0009827968423
  0
ARC
  8
0
  6
CONTINUOUS
 62
     7
 10
-372.5000000000001
 20
140.0
 40
48.02399888642458
 50
244.9990172031575
 51
292.9818403660856
  0
LINE
  8
0
  6
CONTINUOUS
 62
     7
 10
-392.7967747247606
 20
96.45184991013004
 11
-392.7965655061699
 21
96.47582398600679
  0
ARC
  8
0
  6
CONTINUOUS
 62
     7
 10
-372.5000000000001
 20
140.0
 40
48.04581605590148
 50
292.9756716320787
 51
294.9891259617847
  0
ARC
  8
0
  6
CONTINUOUS
 62
     7
 10
-372.5000000000001
 20
140.0
 40
48.04581605590148
 50
245.0108740382152
 51
292.9756716320787
  0
LINE
  8
0
  6
CONTINUOUS
 62
     7
 10
-352.2034344938302
 20
96.47582398600676
 11
-352.2032252752396
 21
96.45184991013
  0
ARC
  8
0
  6
CONTINUOUS
 62
     7
 10
-392.5218326930996
 20
181.4140995771307
 40
1.999984476739006
 50
115.8027906756814
 51
179.9989104541606
  0
ARC
  8
0
  6
CONTINUOUS
 62
     7
 10
-372.5000000000001
 20
140.0
 40
47.99999999999998
 50
64.19829887015779
 51
115.8017011298422
  0
ARC
  8
0
  6
CONTINUOUS
 62
     7
 10
-372.5000000000001
 20
140.0
 40
48.0525135173877
 50
64.15730914763148
 51
66.59736654584263
  0
ARC
  8
0
  6
CONTINUOUS
 62
     7
 10
-372.5000000000001
 20
140.0
 40
48.0525135173877
 50
66.59736654584263
 51
115.8426908523685
  0
ARC
  8
0
  6
CONTINUOUS
 62
     7
 10
-372.5000000000001
 20
140.0
 40
48.04581605590146
 50
65.01087403821533
 51
67.02432836792133
  0
ARC
  8
0
  6
CONTINUOUS
 62
     7
 10
-372.5000000000001
 20
140.0
 40
48.04581605590148
 50
67.02432836792133
 51
114.9891259617848
  0
LINE
  8
0
  6
CONTINUOUS
 62
     7
 10
-392.7967747247606
 20
183.54815008987
 11
-392.79656550617
 21
183.5241760139932
  0
ARC
  8
0
  6
CONTINUOUS
 62
     7
 10
-372.5000000000001
 20
140.0
 40
48.02399888642458
 50
64.99901720315768
 51
67.01815963391444
  0
ARC
  8
0
  6
CONTINUOUS
 62
     7
 10
-372.5000000000001
 20
140.0
 40
48.02399888642458
 50
67.01815963391444
 51
115.0009827968424
  0
LINE
  8
0
  6
CONTINUOUS
 62
     7
 10
-352.2034344938302
 20
183.5241760139933
 11
-352.2032252752396
 21
183.54815008987
  0
ARC
  8
0
  6
CONTINUOUS
 62
     7
 10
-392.5218326930986
 20
98.58590042286988
 40
1.99998447673992
 50
180.0010895458561
 51
244.1972093243026
  0
ARC
  8
0
  6
CONTINUOUS
 62
     7
 10
-372.5000000000001
 20
96.6
 40
3.600000000000006
 50
180.0000000000001
 51
0.0
  0
ARC
  8
0
  6
CONTINUOUS
 62
     7
 10
-352.4781673069004
 20
98.58590042286923
 40
1.999984476738914
 50
295.8027906756804
 51
359.9989104541626
  0
LINE
  8
0
  6
CONTINUOUS
 62
     7
 10
-376.1
 20
96.6
 11
-376.1
 21
103.9782209089088
  0
LINE
  8
0
  6
CONTINUOUS
 62
     7
 10
-368.9
 20
103.9782209089089
 11
-368.9
 21
96.6
  0
ARC
  8
0
  6
CONTINUOUS
 62
     7
 10
-352.4781673069015
 20
181.4140995771301
 40
1.999984476739947
 50
0.0010895458561235
 51
64.19720932430158
  0
ARC
  8
0
  6
CONTINUOUS
 62
     7
 10
-372.5000000000001
 20
183.4
 40
3.600000000000006
 50
0.0
 51
179.9999999999999
  0
LINE
  8
0
  6
CONTINUOUS
 62
     7
 10
-368.9
 20
176.0217790910912
 11
-368.9
 21
183.4
  0
LINE
  8
0
  6
CONTINUOUS
 62
     7
 10
-376.1
 20
183.4
 11
-376.1
 21
176.0217790910912
  0
ARC
  8
0
  6
CONTINUOUS
 62
     7
 10
-372.5000000000001
 20
96.6
 40
2.100000000000005
 50
180.0
 51
0.0
  0
LINE
  8
0
  6
CONTINUOUS
 62
     7
 10
-370.4
 20
112.0
 11
-370.4
 21
96.6
  0
ARC
  8
0
  6
CONTINUOUS
 62
     7
 10
-369.4
 20
112.0
 40
1.000000000000001
 50
90.0
 51
180.0
  0
ARC
  8
0
  6
CONTINUOUS
 62
     7
 10
-375.6
 20
112.0
 40
1.000000000000001
 50
0.0
 51
90.0
  0
LINE
  8
0
  6
CONTINUOUS
 62
     7
 10
-374.6
 20
96.6
 11
-374.6
 21
112.0
  0
LINE
  8
0
  6
CONTINUOUS
 62
     7
 10
-375.6
 20
113.0
 11
-376.1
 21
113.0
  0
LINE
  8
0
  6
CONTINUOUS
 62
     7
 10
-368.9
 20
113.0
 11
-369.4
 21
113.0
  0
ARC
  8
0
  6
CONTINUOUS
 62
     7
 10
-369.4
 20
168.0
 40
1.000000000000001
 50
180.0
 51
270.0
  0
LINE
  8
0
  6
CONTINUOUS
 62
     7
 10
-370.4
 20
168.0
 11
-370.4
 21
183.4
  0
ARC
  8
0
  6
CONTINUOUS
 62
     7
 10
-372.5000000000001
 20
183.4
 40
2.100000000000005
 50
0.0
 51
180.0
  0
LINE
  8
0
  6
CONTINUOUS
 62
     7
 10
-374.6
 20
183.4
 11
-374.6
 21
168.0
  0
ARC
  8
0
  6
CONTINUOUS
 62
     7
 10
-375.6
 20
168.0
 40
1.000000000000001
 50
270.0
 51
0.0
  0
LINE
  8
0
  6
CONTINUOUS
 62
     7
 10
-375.6
 20
167.0
 11
-376.1
 21
167.0
  0
LINE
  8
0
  6
CONTINUOUS
 62
     7
 10
-368.9
 20
167.0
 11
-369.4
 21
167.0
  0
POLYLINE
  8
0
  6
CONTINUOUS
 62
     7
 66
     1
  0
VERTEX
  8
0
  6
CONTINUOUS
 62
     7
 10
-348.8905632197859
 20
158.0019989465571
  0
VERTEX
  8
0
  6
CONTINUOUS
 62
     7
 10
-349.2584966073393
 20
157.8835694326754
  0
VERTEX
  8
0
  6
CONTINUOUS
 62
     7
 10
-349.5972562888468
 20
157.6974985442342
  0
VERTEX
  8
0
  6
CONTINUOUS
 62
     7
 10
-349.894232643879
 20
157.4507123807793
  0
VERTEX
  8
0
  6
CONTINUOUS
 62
     7
 10
-350.1383713489201
 20
157.1523970409472
  0
VERTEX
  8
0
  6
CONTINUOUS
 62
     7
 10
-350.3205848514342
 20
156.8136566891616
  0
VERTEX
  8
0
  6
CONTINUOUS
 62
     7
 10
-350.4340906349968
 20
156.4471002263435
  0
VERTEX
  8
0
  6
CONTINUOUS
 62
     7
 10
-350.4746636842787
 20
156.0663719499533
  0
SEQEND
  8
0
  6
CONTINUOUS
 62
     7
  0
POLYLINE
  8
0
  6
CONTINUOUS
 62
     7
 66
     1
  0
VERTEX
  8
0
  6
CONTINUOUS
 62
     7
 10
-350.4746636842787
 20
161.9336280500467
  0
VERTEX
  8
0
  6
CONTINUOUS
 62
     7
 10
-350.4340906349968
 20
161.5528997736565
  0
VERTEX
  8
0
  6
CONTINUOUS
 62
     7
 10
-350.3205848514342
 20
161.1863433108385
  0
VERTEX
  8
0
  6
CONTINUOUS
 62
     7
 10
-350.1383713489201
 20
160.8476029590528
  0
VERTEX
  8
0
  6
CONTINUOUS
 62
     7
 10
-349.894232643879
 20
160.5492876192207
  0
VERTEX
  8
0
  6
CONTINUOUS
 62
     7
 10
-349.5972562888468
 20
160.3025014557658
  0
VERTEX
  8
0
  6
CONTINUOUS
 62
     7
 10
-349.2584966073393
 20
160.1164305673246
  0
VERTEX
  8
0
  6
CONTINUOUS
 62
     7
 10
-348.8905632197859
 20
159.998001053443
  0
SEQEND
  8
0
  6
CONTINUOUS
 62
     7
  0
LINE
  8
0
  6
CONTINUOUS
 62
     7
 10
-348.4570156087638
 20
158.048571566695
 11
-348.8905632197859
 21
158.001998946557
  0
LINE
  8
0
  6
CONTINUOUS
 62
     7
 10
-348.8905632197859
 20
159.998001053443
 11
-348.4570156087638
 21
159.951428433305
  0
POLYLINE
  8
0
  6
CONTINUOUS
 62
     7
 66
     1
  0
VERTEX
  8
0
  6
CONTINUOUS
 62
     7
 10
-350.4746636842787
 20
123.9336280500467
  0
VERTEX
  8
0
  6
CONTINUOUS
 62
     7
 10
-350.4340906349968
 20
123.5528997736566
  0
VERTEX
  8
0
  6
CONTINUOUS
 62
     7
 10
-350.3205848514342
 20
123.1863433108384
  0
VERTEX
  8
0
  6
CONTINUOUS
 62
     7
 10
-350.1383713489201
 20
122.8476029590528
  0
VERTEX
  8
0
  6
CONTINUOUS
 62
     7
 10
-349.894232643879
 20
122.5492876192207
  0
VERTEX
  8
0
  6
CONTINUOUS
 62
     7
 10
-349.5972562888468
 20
122.3025014557658
  0
VERTEX
  8
0
  6
CONTINUOUS
 62
     7
 10
-349.2584966073393
 20
122.1164305673246
  0
VERTEX
  8
0
  6
CONTINUOUS
 62
     7
 10
-348.8905632197859
 20
121.998001053443
  0
SEQEND
  8
0
  6
CONTINUOUS
 62
     7
  0
POLYLINE
  8
0
  6
CONTINUOUS
 62
     7
 66
     1
  0
VERTEX
  8
0
  6
CONTINUOUS
 62
     7
 10
-348.8905632197859
 20
120.001998946557
  0
VERTEX
  8
0
  6
CONTINUOUS
 62
     7
 10
-349.2584966073393
 20
119.8835694326754
  0
VERTEX
  8
0
  6
CONTINUOUS
 62
     7
 10
-349.5972562888468
 20
119.6974985442342
  0
VERTEX
  8
0
  6
CONTINUOUS
 62
     7
 10
-349.894232643879
 20
119.4507123807793
  0
VERTEX
  8
0
  6
CONTINUOUS
 62
     7
 10
-350.1383713489201
 20
119.1523970409472
  0
VERTEX
  8
0
  6
CONTINUOUS
 62
     7
 10
-350.3205848514342
 20
118.8136566891616
  0
VERTEX
  8
0
  6
CONTINUOUS
 62
     7
 10
-350.4340906349968
 20
118.4471002263435
  0
VERTEX
  8
0
  6
CONTINUOUS
 62
     7
 10
-350.4746636842787
 20
118.0663719499533
  0
SEQEND
  8
0
  6
CONTINUOUS
 62
     7
  0
LINE
  8
0
  6
CONTINUOUS
 62
     7
 10
-348.8905632197859
 20
121.998001053443
 11
-348.4570156087638
 21
121.9514284333049
  0
LINE
  8
0
  6
CONTINUOUS
 62
     7
 10
-348.4570156087638
 20
120.0485715666951
 11
-348.8905632197859
 21
120.001998946557
  0
POLYLINE
  8
0
  6
CONTINUOUS
 62
     7
 66
     1
  0
VERTEX
  8
0
  6
CONTINUOUS
 62
     7
 10
-396.1094367802142
 20
121.998001053443
  0
VERTEX
  8
0
  6
CONTINUOUS
 62
     7
 10
-395.7415033926607
 20
122.1164305673247
  0
VERTEX
  8
0
  6
CONTINUOUS
 62
     7
 10
-395.4027437111532
 20
122.3025014557658
  0
VERTEX
  8
0
  6
CONTINUOUS
 62
     7
 10
-395.105767356121
 20
122.5492876192207
  0
VERTEX
  8
0
  6
CONTINUOUS
 62
     7
 10
-394.8616286510799
 20
122.8476029590528
  0
VERTEX
  8
0
  6
CONTINUOUS
 62
     7
 10
-394.6794151485658
 20
123.1863433108384
  0
VERTEX
  8
0
  6
CONTINUOUS
 62
     7
 10
-394.5659093650032
 20
123.5528997736565
  0
VERTEX
  8
0
  6
CONTINUOUS
 62
     7
 10
-394.5253363157213
 20
123.9336280500467
  0
SEQEND
  8
0
  6
CONTINUOUS
 62
     7
  0
LINE
  8
0
  6
CONTINUOUS
 62
     7
 10
-396.5429843912362
 20
121.9514284333049
 11
-396.1094367802142
 21
121.998001053443
  0
POLYLINE
  8
0
  6
CONTINUOUS
 62
     7
 66
     1
  0
VERTEX
  8
0
  6
CONTINUOUS
 62
     7
 10
-394.5253363157213
 20
118.0663719499533
  0
VERTEX
  8
0
  6
CONTINUOUS
 62
     7
 10
-394.5659093650032
 20
118.4471002263435
  0
VERTEX
  8
0
  6
CONTINUOUS
 62
     7
 10
-394.6794151485658
 20
118.8136566891615
  0
VERTEX
  8
0
  6
CONTINUOUS
 62
     7
 10
-394.8616286510799
 20
119.1523970409472
  0
VERTEX
  8
0
  6
CONTINUOUS
 62
     7
 10
-395.105767356121
 20
119.4507123807793
  0
VERTEX
  8
0
  6
CONTINUOUS
 62
     7
 10
-395.4027437111532
 20
119.6974985442342
  0
VERTEX
  8
0
  6
CONTINUOUS
 62
     7
 10
-395.7415033926607
 20
119.8835694326753
  0
VERTEX
  8
0
  6
CONTINUOUS
 62
     7
 10
-396.1094367802142
 20
120.001998946557
  0
SEQEND
  8
0
  6
CONTINUOUS
 62
     7
  0
LINE
  8
0
  6
CONTINUOUS
 62
     7
 10
-396.1094367802141
 20
120.001998946557
 11
-396.5429843912362
 21
120.0485715666951
  0
POLYLINE
  8
0
  6
CONTINUOUS
 62
     7
 66
     1
  0
VERTEX
  8
0
  6
CONTINUOUS
 62
     7
 10
-396.1094367802142
 20
159.998001053443
  0
VERTEX
  8
0
  6
CONTINUOUS
 62
     7
 10
-395.7415033926607
 20
160.1164305673246
  0
VERTEX
  8
0
  6
CONTINUOUS
 62
     7
 10
-395.4027437111532
 20
160.3025014557658
  0
VERTEX
  8
0
  6
CONTINUOUS
 62
     7
 10
-395.105767356121
 20
160.5492876192207
  0
VERTEX
  8
0
  6
CONTINUOUS
 62
     7
 10
-394.8616286510799
 20
160.8476029590528
  0
VERTEX
  8
0
  6
CONTINUOUS
 62
     7
 10
-394.6794151485658
 20
161.1863433108385
  0
VERTEX
  8
0
  6
CONTINUOUS
 62
     7
 10
-394.5659093650032
 20
161.5528997736566
  0
VERTEX
  8
0
  6
CONTINUOUS
 62
     7
 10
-394.5253363157213
 20
161.9336280500467
  0
SEQEND
  8
0
  6
CONTINUOUS
 62
     7
  0
LINE
  8
0
  6
CONTINUOUS
 62
     7
 10
-396.5429843912362
 20
159.951428433305
 11
-396.1094367802142
 21
159.998001053443
  0
LINE
  8
0
  6
CONTINUOUS
 62
     7
 10
-396.1094367802142
 20
158.001998946557
 11
-396.5429843912362
 21
158.0485715666951
  0
POLYLINE
  8
0
  6
CONTINUOUS
 62
     7
 66
     1
  0
VERTEX
  8
0
  6
CONTINUOUS
 62
     7
 10
-394.5253363157213
 20
156.0663719499533
  0
VERTEX
  8
0
  6
CONTINUOUS
 62
     7
 10
-394.5659093650032
 20
156.4471002263435
  0
VERTEX
  8
0
  6
CONTINUOUS
 62
     7
 10
-394.6794151485658
 20
156.8136566891616
  0
VERTEX
  8
0
  6
CONTINUOUS
 62
     7
 10
-394.8616286510799
 20
157.1523970409472
  0
VERTEX
  8
0
  6
CONTINUOUS
 62
     7
 10
-395.105767356121
 20
157.4507123807793
  0
VERTEX
  8
0
  6
CONTINUOUS
 62
     7
 10
-395.4027437111532
 20
157.6974985442342
  0
VERTEX
  8
0
  6
CONTINUOUS
 62
     7
 10
-395.7415033926607
 20
157.8835694326754
  0
VERTEX
  8
0
  6
CONTINUOUS
 62
     7
 10
-396.1094367802142
 20
158.001998946557
  0
SEQEND
  8
0
  6
CONTINUOUS
 62
     7
  0
POLYLINE
  8
0
  6
CONTINUOUS
 62
     7
 66
     1
  0
VERTEX
  8
0
  6
CONTINUOUS
 62
     7
 10
-322.2722193431293
 20
119.008688789405
  0
VERTEX
  8
0
  6
CONTINUOUS
 62
     7
 10
-322.3616190421316
 20
119.2027091247883
  0
VERTEX
  8
0
  6
CONTINUOUS
 62
     7
 10
-322.6264205048952
 20
119.3893557201836
  0
VERTEX
  8
0
  6
CONTINUOUS
 62
     7
 10
-323.0565599557285
 20
119.5615350744824
  0
VERTEX
  8
0
  6
CONTINUOUS
 62
     7
 10
-323.6356899511391
 20
119.712703513861
  0
VERTEX
  8
0
  6
CONTINUOUS
 62
     7
 10
-324.341800664183
 20
119.8371158840078
  0
VERTEX
  8
0
  6
CONTINUOUS
 62
     7
 10
-325.148056367613
 20
119.9300438946282
  0
VERTEX
  8
0
  6
CONTINUOUS
 62
     7
 10
-326.0238153252974
 20
119.9879558180475
  0
VERTEX
  8
0
  6
CONTINUOUS
 62
     7
 10
-326.9357943309506
 20
120.0086507124692
  0
SEQEND
  8
0
  6
CONTINUOUS
 62
     7
  0
LINE
  8
0
  6
CONTINUOUS
 62
     7
 10
-326.9357943309507
 20
120.0086507124692
 11
-348.4570156087638
 21
120.0485715666951
  0
LINE
  8
0
  6
CONTINUOUS
 62
     7
 10
-326.9357943309507
 20
121.9913492875308
 11
-348.4570156087639
 21
121.9514284333049
  0
POLYLINE
  8
0
  6
CONTINUOUS
 62
     7
 66
     1
  0
VERTEX
  8
0
  6
CONTINUOUS
 62
     7
 10
-326.9357943309506
 20
121.9913492875308
  0
VERTEX
  8
0
  6
CONTINUOUS
 62
     7
 10
-326.0238153252973
 20
122.0120441819525
  0
VERTEX
  8
0
  6
CONTINUOUS
 62
     7
 10
-325.148056367613
 20
122.0699561053718
  0
VERTEX
  8
0
  6
CONTINUOUS
 62
     7
 10
-324.341800664183
 20
122.1628841159922
  0
VERTEX
  8
0
  6
CONTINUOUS
 62
     7
 10
-323.6356899511392
 20
122.287296486139
  0
VERTEX
  8
0
  6
CONTINUOUS
 62
     7
 10
-323.0565599557285
 20
122.4384649255176
  0
VERTEX
  8
0
  6
CONTINUOUS
 62
     7
 10
-322.6264205048952
 20
122.6106442798164
  0
VERTEX
  8
0
  6
CONTINUOUS
 62
     7
 10
-322.3616190421316
 20
122.7972908752117
  0
VERTEX
  8
0
  6
CONTINUOUS
 62
     7
 10
-322.2722193431293
 20
122.991311210595
  0
SEQEND
  8
0
  6
CONTINUOUS
 62
     7
  0
LINE
  8
0
  6
CONTINUOUS
 62
     7
 10
-322.2722193431292
 20
119.008688789405
 11
-322.2722193431292
 21
122.991311210595
  0
POLYLINE
  8
0
  6
CONTINUOUS
 62
     7
 66
     1
  0
VERTEX
  8
0
  6
CONTINUOUS
 62
     7
 10
-322.2722193431293
 20
157.0086887894051
  0
VERTEX
  8
0
  6
CONTINUOUS
 62
     7
 10
-322.3616190421316
 20
157.2027091247884
  0
VERTEX
  8
0
  6
CONTINUOUS
 62
     7
 10
-322.6264205048952
 20
157.3893557201836
  0
VERTEX
  8
0
  6
CONTINUOUS
 62
     7
 10
-323.0565599557285
 20
157.5615350744824
  0
VERTEX
  8
0
  6
CONTINUOUS
 62
     7
 10
-323.6356899511391
 20
157.712703513861
  0
VERTEX
  8
0
  6
CONTINUOUS
 62
     7
 10
-324.341800664183
 20
157.8371158840079
  0
VERTEX
  8
0
  6
CONTINUOUS
 62
     7
 10
-325.1480563676129
 20
157.9300438946283
  0
VERTEX
  8
0
  6
CONTINUOUS
 62
     7
 10
-326.0238153252973
 20
157.9879558180475
  0
VERTEX
  8
0
  6
CONTINUOUS
 62
     7
 10
-326.9357943309506
 20
158.0086507124692
  0
SEQEND
  8
0
  6
CONTINUOUS
 62
     7
  0
LINE
  8
0
  6
CONTINUOUS
 62
     7
 10
-326.9357943309506
 20
158.0086507124692
 11
-348.4570156087638
 21
158.0485715666951
  0
LINE
  8
0
  6
CONTINUOUS
 62
     7
 10
-326.9357943309506
 20
159.9913492875308
 11
-348.4570156087638
 21
159.951428433305
  0
POLYLINE
  8
0
  6
CONTINUOUS
 62
     7
 66
     1
  0
VERTEX
  8
0
  6
CONTINUOUS
 62
     7
 10
-326.9357943309506
 20
159.9913492875308
  0
VERTEX
  8
0
  6
CONTINUOUS
 62
     7
 10
-326.0238153252973
 20
160.0120441819525
  0
VERTEX
  8
0
  6
CONTINUOUS
 62
     7
 10
-325.1480563676129
 20
160.0699561053718
  0
VERTEX
  8
0
  6
CONTINUOUS
 62
     7
 10
-324.341800664183
 20
160.1628841159922
  0
VERTEX
  8
0
  6
CONTINUOUS
 62
     7
 10
-323.6356899511391
 20
160.287296486139
  0
VERTEX
  8
0
  6
CONTINUOUS
 62
     7
 10
-323.0565599557285
 20
160.4384649255176
  0
VERTEX
  8
0
  6
CONTINUOUS
 62
     7
 10
-322.6264205048952
 20
160.6106442798164
  0
VERTEX
  8
0
  6
CONTINUOUS
 62
     7
 10
-322.3616190421316
 20
160.7972908752117
  0
VERTEX
  8
0
  6
CONTINUOUS
 62
     7
 10
-322.2722193431293
 20
160.991311210595
  0
SEQEND
  8
0
  6
CONTINUOUS
 62
     7
  0
LINE
  8
0
  6
CONTINUOUS
 62
     7
 10
-322.2722193431292
 20
160.991311210595
 11
-322.2722193431292
 21
157.0086887894051
  0
POLYLINE
  8
0
  6
CONTINUOUS
 62
     7
 66
     1
  0
VERTEX
  8
0
  6
CONTINUOUS
 62
     7
 10
-422.7277806568708
 20
122.991311210595
  0
VERTEX
  8
0
  6
CONTINUOUS
 62
     7
 10
-422.6383809578684
 20
122.7972908752117
  0
VERTEX
  8
0
  6
CONTINUOUS
 62
     7
 10
-422.3735794951049
 20
122.6106442798164
  0
VERTEX
  8
0
  6
CONTINUOUS
 62
     7
 10
-421.9434400442716
 20
122.4384649255176
  0
VERTEX
  8
0
  6
CONTINUOUS
 62
     7
 10
-421.3643100488609
 20
122.287296486139
  0
VERTEX
  8
0
  6
CONTINUOUS
 62
     7
 10
-420.658199335817
 20
122.1628841159922
  0
VERTEX
  8
0
  6
CONTINUOUS
 62
     7
 10
-419.8519436323871
 20
122.0699561053718
  0
VERTEX
  8
0
  6
CONTINUOUS
 62
     7
 10
-418.9761846747027
 20
122.0120441819525
  0
VERTEX
  8
0
  6
CONTINUOUS
 62
     7
 10
-418.0642056690494
 20
121.9913492875308
  0
SEQEND
  8
0
  6
CONTINUOUS
 62
     7
  0
LINE
  8
0
  6
CONTINUOUS
 62
     7
 10
-418.0642056690494
 20
121.9913492875308
 11
-396.5429843912363
 21
121.9514284333049
  0
LINE
  8
0
  6
CONTINUOUS
 62
     7
 10
-418.0642056690494
 20
120.0086507124692
 11
-396.5429843912362
 21
120.0485715666951
  0
POLYLINE
  8
0
  6
CONTINUOUS
 62
     7
 66
     1
  0
VERTEX
  8
0
  6
CONTINUOUS
 62
     7
 10
-418.0642056690494
 20
120.0086507124692
  0
VERTEX
  8
0
  6
CONTINUOUS
 62
     7
 10
-418.9761846747027
 20
119.9879558180475
  0
VERTEX
  8
0
  6
CONTINUOUS
 62
     7
 10
-419.8519436323871
 20
119.9300438946282
  0
VERTEX
  8
0
  6
CONTINUOUS
 62
     7
 10
-420.658199335817
 20
119.8371158840078
  0
VERTEX
  8
0
  6
CONTINUOUS
 62
     7
 10
-421.3643100488609
 20
119.712703513861
  0
VERTEX
  8
0
  6
CONTINUOUS
 62
     7
 10
-421.9434400442716
 20
119.5615350744823
  0
VERTEX
  8
0
  6
CONTINUOUS
 62
     7
 10
-422.3735794951049
 20
119.3893557201836
  0
VERTEX
  8
0
  6
CONTINUOUS
 62
     7
 10
-422.6383809578684
 20
119.2027091247883
  0
VERTEX
  8
0
  6
CONTINUOUS
 62
     7
 10
-422.7277806568708
 20
119.008688789405
  0
SEQEND
  8
0
  6
CONTINUOUS
 62
     7
  0
LINE
  8
0
  6
CONTINUOUS
 62
     7
 10
-422.7277806568708
 20
119.008688789405
 11
-422.7277806568708
 21
122.991311210595
  0
POLYLINE
  8
0
  6
CONTINUOUS
 62
     7
 66
     1
  0
VERTEX
  8
0
  6
CONTINUOUS
 62
     7
 10
-422.7277806568708
 20
160.991311210595
  0
VERTEX
  8
0
  6
CONTINUOUS
 62
     7
 10
-422.6383809578684
 20
160.7972908752117
  0
VERTEX
  8
0
  6
CONTINUOUS
 62
     7
 10
-422.3735794951049
 20
160.6106442798164
  0
VERTEX
  8
0
  6
CONTINUOUS
 62
     7
 10
-421.9434400442716
 20
160.4384649255176
  0
VERTEX
  8
0
  6
CONTINUOUS
 62
     7
 10
-421.3643100488609
 20
160.287296486139
  0
VERTEX
  8
0
  6
CONTINUOUS
 62
     7
 10
-420.658199335817
 20
160.1628841159922
  0
VERTEX
  8
0
  6
CONTINUOUS
 62
     7
 10
-419.8519436323871
 20
160.0699561053718
  0
VERTEX
  8
0
  6
CONTINUOUS
 62
     7
 10
-418.9761846747027
 20
160.0120441819525
  0
VERTEX
  8
0
  6
CONTINUOUS
 62
     7
 10
-418.0642056690494
 20
159.9913492875308
  0
SEQEND
  8
0
  6
CONTINUOUS
 62
     7
  0
LINE
  8
0
  6
CONTINUOUS
 62
     7
 10
-418.0642056690494
 20
159.9913492875308
 11
-396.5429843912362
 21
159.951428433305
  0
LINE
  8
0
  6
CONTINUOUS
 62
     7
 10
-418.0642056690494
 20
158.0086507124692
 11
-396.5429843912362
 21
158.0485715666951
  0
POLYLINE
  8
0
  6
CONTINUOUS
 62
     7
 66
     1
  0
VERTEX
  8
0
  6
CONTINUOUS
 62
     7
 10
-418.0642056690494
 20
158.0086507124692
  0
VERTEX
  8
0
  6
CONTINUOUS
 62
     7
 10
-418.9761846747027
 20
157.9879558180475
  0
VERTEX
  8
0
  6
CONTINUOUS
 62
     7
 10
-419.8519436323871
 20
157.9300438946283
  0
VERTEX
  8
0
  6
CONTINUOUS
 62
     7
 10
-420.658199335817
 20
157.8371158840079
  0
VERTEX
  8
0
  6
CONTINUOUS
 62
     7
 10
-421.3643100488609
 20
157.712703513861
  0
VERTEX
  8
0
  6
CONTINUOUS
 62
     7
 10
-421.9434400442716
 20
157.5615350744824
  0
VERTEX
  8
0
  6
CONTINUOUS
 62
     7
 10
-422.3735794951049
 20
157.3893557201836
  0
VERTEX
  8
0
  6
CONTINUOUS
 62
     7
 10
-422.6383809578684
 20
157.2027091247884
  0
VERTEX
  8
0
  6
CONTINUOUS
 62
     7
 10
-422.7277806568708
 20
157.0086887894051
  0
SEQEND
  8
0
  6
CONTINUOUS
 62
     7
  0
LINE
  8
0
  6
CONTINUOUS
 62
     7
 10
-422.7277806568708
 20
160.991311210595
 11
-422.7277806568708
 21
157.0086887894051
  0
LINE
  8
0
  6
CONTINUOUS
 62
     7
 10
-427.5000000000001
 20
140.5
 11
-427.0000000000001
 21
140.5
  0
LINE
  8
0
  6
CONTINUOUS
 62
     7
 10
-427.5000000000001
 20
140.5
 11
-427.5000000000001
 21
192.0
  0
ARC
  8
0
  6
CONTINUOUS
 62
     7
 10
-372.5000000000001
 20
194.5000000000001
 40
0.5000000000000004
 50
180.0000000000002
 51
359.9999999999936
  0
ARC
  8
0
  6
CONTINUOUS
 62
     7
 10
-317.9999999999999
 20
140.0
 40
0.5000000000000004
 50
90.0
 51
269.9999999999905
  0
ARC
  8
0
  6
CONTINUOUS
 62
     7
 10
-372.5000000000001
 20
85.49999999999994
 40
0.5000000000000004
 50
0.0000000000127329
 51
180.0
  0
ARC
  8
0
  6
CONTINUOUS
 62
     7
 10
-334.549579053718
 20
102.0495790537181
 40
3.599999999999991
 50
84.20702391456301
 51
185.7929760854372
  0
ARC
  8
0
  6
CONTINUOUS
 62
     7
 10
-372.5000000000001
 20
140.0
 40
51.47000000000001
 50
299.4
 51
311.8932166340188
  0
ARC
  8
0
  6
CONTINUOUS
 62
     7
 10
-346.1531955434755
 20
93.2419547571795
 40
2.200000000000002
 50
119.4000000000009
 51
299.3999999999998
  0
ARC
  8
0
  6
CONTINUOUS
 62
     7
 10
-372.5000000000001
 20
140.0
 40
55.87000000000001
 50
299.4
 51
312.0180900205847
  0
ARC
  8
0
  6
CONTINUOUS
 62
     7
 10
-334.549579053718
 20
102.0495790537181
 40
3.600000000000001
 50
261.1639574588285
 51
8.83604254117131
  0
ARC
  8
0
  6
CONTINUOUS
 62
     7
 10
-372.5000000000001
 20
140.0
 40
55.87000000000001
 50
317.9819099794151
 51
330.6
  0
ARC
  8
0
  6
CONTINUOUS
 62
     7
 10
-325.7419547571795
 20
113.6531955434754
 40
2.200000000000024
 50
330.6
 51
150.5999999999985
  0
ARC
  8
0
  6
CONTINUOUS
 62
     7
 10
-372.5000000000001
 20
140.0
 40
51.46999999999999
 50
318.1067833659811
 51
330.6
  0
ARC
  8
0
  6
CONTINUOUS
 62
     7
 10
-410.4504209462821
 20
102.049579053718
 40
3.6
 50
171.1639574588271
 51
278.8360425411731
  0
ARC
  8
0
  6
CONTINUOUS
 62
     7
 10
-372.5000000000001
 20
140.0
 40
55.87
 50
227.9819099794152
 51
240.6
  0
ARC
  8
0
  6
CONTINUOUS
 62
     7
 10
-398.8468044565246
 20
93.24195475717947
 40
2.2
 50
240.6
 51
60.59999999999854
  0
ARC
  8
0
  6
CONTINUOUS
 62
     7
 10
-372.5000000000001
 20
140.0
 40
51.47000000000003
 50
228.1067833659811
 51
240.6000000000001
  0
ARC
  8
0
  6
CONTINUOUS
 62
     7
 10
-410.4504209462821
 20
102.049579053718
 40
3.600000000000003
 50
354.2070239145653
 51
95.79297608543447
  0
ARC
  8
0
  6
CONTINUOUS
 62
     7
 10
-372.5000000000001
 20
140.0
 40
51.47000000000003
 50
209.4000000000001
 51
221.8932166340189
  0
ARC
  8
0
  6
CONTINUOUS
 62
     7
 10
-419.2580452428206
 20
113.6531955434754
 40
2.199999999999999
 50
29.39999999999947
 51
209.4000000000004
  0
ARC
  8
0
  6
CONTINUOUS
 62
     7
 10
-372.5000000000001
 20
140.0
 40
55.87
 50
209.4
 51
222.0180900205848
  0
ARC
  8
0
  6
CONTINUOUS
 62
     7
 10
-325.7419547571795
 20
166.3468044565246
 40
2.200000000000031
 50
209.4000000000015
 51
29.39999999999998
  0
ARC
  8
0
  6
CONTINUOUS
 62
     7
 10
-372.5000000000001
 20
140.0
 40
55.87000000000003
 50
29.40000000000009
 51
42.01809002058485
  0
ARC
  8
0
  6
CONTINUOUS
 62
     7
 10
-334.549579053718
 20
177.950420946282
 40
3.599999999999987
 50
351.1639574588287
 51
98.8360425411716
  0
ARC
  8
0
  6
CONTINUOUS
 62
     7
 10
-372.5000000000001
 20
140.0
 40
55.87000000000001
 50
47.98190997941526
 51
60.60000000000002
  0
ARC
  8
0
  6
CONTINUOUS
 62
     7
 10
-346.1531955434755
 20
186.7580452428205
 40
2.200000000000014
 50
60.60000000000019
 51
240.5999999999991
  0
ARC
  8
0
  6
CONTINUOUS
 62
     7
 10
-372.5000000000001
 20
140.0
 40
51.47000000000001
 50
48.10678336598118
 51
60.59999999999998
  0
ARC
  8
0
  6
CONTINUOUS
 62
     7
 10
-334.549579053718
 20
177.950420946282
 40
3.599999999999991
 50
174.2070239145628
 51
275.792976085437
  0
ARC
  8
0
  6
CONTINUOUS
 62
     7
 10
-372.5000000000001
 20
140.0
 40
51.47
 50
29.4
 51
41.89321663401888
  0
ARC
  8
0
  6
CONTINUOUS
 62
     7
 10
-419.2580452428206
 20
166.3468044565246
 40
2.199999999999992
 50
150.5999999999996
 51
330.6000000000006
  0
ARC
  8
0
  6
CONTINUOUS
 62
     7
 10
-372.5000000000001
 20
140.0
 40
51.47000000000003
 50
138.106783365981
 51
150.6
  0
ARC
  8
0
  6
CONTINUOUS
 62
     7
 10
-410.4504209462821
 20
177.950420946282
 40
3.600000000000001
 50
264.2070239145655
 51
5.792976085434702
  0
ARC
  8
0
  6
CONTINUOUS
 62
     7
 10
-372.5000000000001
 20
140.0
 40
51.47000000000003
 50
119.4
 51
131.893216634019
  0
ARC
  8
0
  6
CONTINUOUS
 62
     7
 10
-398.8468044565246
 20
186.7580452428205
 40
2.2
 50
299.4000000000015
 51
119.4
  0
ARC
  8
0
  6
CONTINUOUS
 62
     7
 10
-372.5000000000001
 20
140.0
 40
55.87
 50
119.4000000000001
 51
132.0180900205848
  0
ARC
  8
0
  6
CONTINUOUS
 62
     7
 10
-410.4504209462821
 20
177.950420946282
 40
3.600000000000004
 50
81.16395745882687
 51
188.8360425411729
  0
ARC
  8
0
  6
CONTINUOUS
 62
     7
 10
-372.5000000000001
 20
140.0
 40
55.87
 50
137.9819099794153
 51
150.6
  0
ARC
  8
0
  6
CONTINUOUS
 62
     7
 10
-427.0000000000001
 20
140.0
 40
0.5000000000000004
 50
269.999999999987
 51
90.0
  0
LINE
  8
0
  6
CONTINUOUS
 62
     7
 10
-320.5
 20
85.00000000000001
 11
-372.0
 21
85.00000000000001
  0
LINE
  8
0
  6
CONTINUOUS
 62
     7
 10
-372.0000000000001
 20
85.49999999999994
 11
-372.0000000000001
 21
85.00000000000001
  0
LINE
  8
0
  6
CONTINUOUS
 62
     7
 10
-373.0000000000001
 20
85.00000000000001
 11
-373.0000000000001
 21
85.49999999999994
  0
LINE
  8
0
  6
CONTINUOUS
 62
     7
 10
-373.0000000000001
 20
84.99999999999994
 11
-424.5000000000001
 21
85.00000000000001
  0
LINE
  8
0
  6
CONTINUOUS
 62
     7
 10
-427.5000000000001
 20
88.00000000000001
 11
-427.5000000000001
 21
139.5
  0
LINE
  8
0
  6
CONTINUOUS
 62
     7
 10
-427.0000000000001
 20
139.5
 11
-427.5000000000001
 21
139.5
  0
LINE
  8
0
  6
CONTINUOUS
 62
     7
 10
-424.5000000000001
 20
195.0
 11
-373.0000000000001
 21
195.0000000000001
  0
LINE
  8
0
  6
CONTINUOUS
 62
     7
 10
-373.0000000000001
 20
194.5000000000001
 11
-373.0000000000001
 21
195.0
  0
LINE
  8
0
  6
CONTINUOUS
 62
     7
 10
-372.0000000000001
 20
195.0
 11
-372.0000000000001
 21
194.5
  0
LINE
  8
0
  6
CONTINUOUS
 62
     7
 10
-372.0000000000001
 20
195.0000000000001
 11
-320.5000000000001
 21
195.0
  0
LINE
  8
0
  6
CONTINUOUS
 62
     7
 10
-317.5
 20
192.0
 11
-317.4999999999999
 21
140.5
  0
LINE
  8
0
  6
CONTINUOUS
 62
     7
 10
-317.9999999999999
 20
140.5
 11
-317.5
 21
140.5
  0
ARC
  8
0
  6
CONTINUOUS
 62
     7
 10
-424.5000000000001
 20
88.00000000000001
 40
3.000000000000003
 50
180.0
 51
270.0
  0
ARC
  8
0
  6
CONTINUOUS
 62
     7
 10
-424.5000000000001
 20
192.0
 40
3.000000000000003
 50
90.0
 51
180.0
  0
ARC
  8
0
  6
CONTINUOUS
 62
     7
 10
-320.5
 20
88.00000000000001
 40
3.000000000000003
 50
270.0
 51
0.0
  0
LINE
  8
0
  6
CONTINUOUS
 62
     7
 10
-317.5
 20
139.5
 11
-317.5000000000001
 21
88.00000000000001
  0
LINE
  8
0
  6
CONTINUOUS
 62
     7
 10
-317.5
 20
139.5
 11
-318.0
 21
139.5
  0
ARC
  8
0
  6
CONTINUOUS
 62
     7
 10
-320.5
 20
192.0
 40
3.000000000000003
 50
0.0
 51
90.0
  0
ENDBLK
  8
0
  0
BLOCK
  8
0
  2
D_FRAME_VIEW_3593
 70
     0
 10
0.0
 20
0.0
  0
ARC
  8
0
  6
CONTINUOUS
 62
     9
 10
-232.5002333562757
 20
110.0022812680675
 40
2.0
 50
180.0
 51
270.00002117336
  0
ARC
  8
0
  6
CONTINUOUS
 62
     9
 10
-232.5002333562757
 20
110.0022812680675
 40
2.000000000000003
 50
270.00002117336
 51
90.00000705778666
  0
ARC
  8
0
  6
CONTINUOUS
 62
     9
 10
-232.5002333562757
 20
110.0022812680675
 40
2.000000000000002
 50
90.00000705778666
 51
180.0
  0
CIRCLE
  8
0
  6
CONTINUOUS
 62
     9
 10
-232.5002333562757
 20
169.9977187319325
 40
2.000000000000002
  0
POLYLINE
  8
0
  6
CONTINUOUS
 62
     7
 66
     1
  0
VERTEX
  8
0
  6
CONTINUOUS
 62
     7
 10
-233.0
 20
97.6
  0
VERTEX
  8
0
  6
CONTINUOUS
 62
     7
 10
-233.0004193745362
 20
97.57956486304056
  0
VERTEX
  8
0
  6
CONTINUOUS
 62
     7
 10
-233.0016762880288
 20
97.55912667957278
  0
VERTEX
  8
0
  6
CONTINUOUS
 62
     7
 10
-233.0037689253039
 20
97.53873728943995
  0
VERTEX
  8
0
  6
CONTINUOUS
 62
     7
 10
-233.0066954711876
 20
97.5184485324854
  0
VERTEX
  8
0
  6
CONTINUOUS
 62
     7
 10
-233.0105784652653
 20
97.49770295965533
  0
VERTEX
  8
0
  6
CONTINUOUS
 62
     7
 10
-233.0153426876057
 20
97.47710185451596
  0
VERTEX
  8
0
  6
CONTINUOUS
 62
     7
 10
-233.0209762183797
 20
97.45670190896799
  0
VERTEX
  8
0
  6
CONTINUOUS
 62
     7
 10
-233.0274671377582
 20
97.43655981491209
  0
VERTEX
  8
0
  6
CONTINUOUS
 62
     7
 10
-233.034599697983
 20
97.41724109255658
  0
VERTEX
  8
0
  6
CONTINUOUS
 62
     7
 10
-233.0425347346026
 20
97.39820198950477
  0
VERTEX
  8
0
  6
CONTINUOUS
 62
     7
 10
-233.0512518474198
 20
97.37949295472752
  0
VERTEX
  8
0
  6
CONTINUOUS
 62
     7
 10
-233.0607306362375
 20
97.36116443719571
  0
VERTEX
  8
0
  6
CONTINUOUS
 62
     7
 10
-233.0712830048363
 20
97.34270691748159
  0
VERTEX
  8
0
  6
CONTINUOUS
 62
     7
 10
-233.0826268739975
 20
97.32468907757419
  0
VERTEX
  8
0
  6
CONTINUOUS
 62
     7
 10
-233.0947299470327
 20
97.30716185726828
  0
VERTEX
  8
0
  6
CONTINUOUS
 62
     7
 10
-233.1075599272536
 20
97.29017619635862
  0
VERTEX
  8
0
  6
CONTINUOUS
 62
     7
 10
-233.1205340158085
 20
97.27441767176322
  0
VERTEX
  8
0
  6
CONTINUOUS
 62
     7
 10
-233.1341544750496
 20
97.25918626348626
  0
VERTEX
  8
0
  6
CONTINUOUS
 62
     7
 10
-233.1483849709239
 20
97.24452122826672
  0
VERTEX
  8
0
  6
CONTINUOUS
 62
     7
 10
-233.1631891693785
 20
97.23046182284352
  0
VERTEX
  8
0
  6
CONTINUOUS
 62
     7
 10
-233.179015880718
 20
97.21663688335275
  0
VERTEX
  8
0
  6
CONTINUOUS
 62
     7
 10
-233.1954217349611
 20
97.2034792918007
  0
VERTEX
  8
0
  6
CONTINUOUS
 62
     7
 10
-233.2123601645229
 20
97.19102395154005
  0
VERTEX
  8
0
  6
CONTINUOUS
 62
     7
 10
-233.2297846018178
 20
97.17930576592346
  0
VERTEX
  8
0
  6
CONTINUOUS
 62
     7
 10
-233.2470656243398
 20
97.16869666727354
  0
VERTEX
  8
0
  6
CONTINUOUS
 62
     7
 10
-233.2647692052034
 20
97.15879306359423
  0
VERTEX
  8
0
  6
CONTINUOUS
 62
     7
 10
-233.2828489411104
 20
97.14961818503036
  0
VERTEX
  8
0
  6
CONTINUOUS
 62
     7
 10
-233.3012584287625
 20
97.14119526172668
  0
VERTEX
  8
0
  6
CONTINUOUS
 62
     7
 10
-233.3205210984859
 20
97.13332500631
  0
VERTEX
  8
0
  6
CONTINUOUS
 62
     7
 10
-233.3400973341029
 20
97.12626169704768
  0
VERTEX
  8
0
  6
CONTINUOUS
 62
     7
 10
-233.3599339951924
 20
97.12002110719838
  0
VERTEX
  8
0
  6
CONTINUOUS
 62
     7
 10
-233.3799779413329
 20
97.11461901002066
  0
VERTEX
  8
0
  6
CONTINUOUS
 62
     7
 10
-233.4036671378433
 20
97.10937349316498
  0
VERTEX
  8
0
  6
CONTINUOUS
 62
     7
 10
-233.4275998547668
 20
97.10528233620316
  0
VERTEX
  8
0
  6
CONTINUOUS
 62
     7
 10
-233.4516901793019
 20
97.10235203666711
  0
VERTEX
  8
0
  6
CONTINUOUS
 62
     7
 10
-233.4758521986469
 20
97.10058909208875
  0
VERTEX
  8
0
  6
CONTINUOUS
 62
     7
 10
-233.5
 20
97.1
  0
SEQEND
  8
0
  6
CONTINUOUS
 62
     7
  0
LINE
  8
0
  6
CONTINUOUS
 62
     7
 10
-233.5
 20
97.1
 11
-235.0455574372236
 21
97.1
  0
LINE
  8
0
  6
CONTINUOUS
 62
     7
 10
-229.9544425627764
 20
97.1
 11
-231.5
 21
97.1
  0
POLYLINE
  8
0
  6
CONTINUOUS
 62
     7
 66
     1
  0
VERTEX
  8
0
  6
CONTINUOUS
 62
     7
 10
-231.5
 20
97.1
  0
VERTEX
  8
0
  6
CONTINUOUS
 62
     7
 10
-231.5204351369594
 20
97.1004193745362
  0
VERTEX
  8
0
  6
CONTINUOUS
 62
     7
 10
-231.5408733204272
 20
97.10167628802881
  0
VERTEX
  8
0
  6
CONTINUOUS
 62
     7
 10
-231.56126271056
 20
97.10376892530392
  0
VERTEX
  8
0
  6
CONTINUOUS
 62
     7
 10
-231.5815514675146
 20
97.10669547118752
  0
VERTEX
  8
0
  6
CONTINUOUS
 62
     7
 10
-231.6022970403447
 20
97.1105784652653
  0
VERTEX
  8
0
  6
CONTINUOUS
 62
     7
 10
-231.622898145484
 20
97.11534268760572
  0
VERTEX
  8
0
  6
CONTINUOUS
 62
     7
 10
-231.643298091032
 20
97.1209762183797
  0
VERTEX
  8
0
  6
CONTINUOUS
 62
     7
 10
-231.6634401850879
 20
97.12746713775819
  0
VERTEX
  8
0
  6
CONTINUOUS
 62
     7
 10
-231.6827589074434
 20
97.13459969798299
  0
VERTEX
  8
0
  6
CONTINUOUS
 62
     7
 10
-231.7017980104952
 20
97.14253473460255
  0
VERTEX
  8
0
  6
CONTINUOUS
 62
     7
 10
-231.7205070452725
 20
97.15125184741974
  0
VERTEX
  8
0
  6
CONTINUOUS
 62
     7
 10
-231.7388355628043
 20
97.16073063623745
  0
VERTEX
  8
0
  6
CONTINUOUS
 62
     7
 10
-231.7572930825184
 20
97.17128300483624
  0
VERTEX
  8
0
  6
CONTINUOUS
 62
     7
 10
-231.7753109224258
 20
97.18262687399745
  0
VERTEX
  8
0
  6
CONTINUOUS
 62
     7
 10
-231.7928381427317
 20
97.19472994703271
  0
VERTEX
  8
0
  6
CONTINUOUS
 62
     7
 10
-231.8098238036414
 20
97.2075599272536
  0
VERTEX
  8
0
  6
CONTINUOUS
 62
     7
 10
-231.8255823282368
 20
97.22053401580845
  0
VERTEX
  8
0
  6
CONTINUOUS
 62
     7
 10
-231.8408137365138
 20
97.23415447504955
  0
VERTEX
  8
0
  6
CONTINUOUS
 62
     7
 10
-231.8554787717333
 20
97.24838497092391
  0
VERTEX
  8
0
  6
CONTINUOUS
 62
     7
 10
-231.8695381771565
 20
97.26318916937846
  0
VERTEX
  8
0
  6
CONTINUOUS
 62
     7
 10
-231.8833631166472
 20
97.27901588071794
  0
VERTEX
  8
0
  6
CONTINUOUS
 62
     7
 10
-231.8965207081993
 20
97.29542173496115
  0
VERTEX
  8
0
  6
CONTINUOUS
 62
     7
 10
-231.90897604846
 20
97.31236016452286
  0
VERTEX
  8
0
  6
CONTINUOUS
 62
     7
 10
-231.9206942340765
 20
97.32978460181782
  0
VERTEX
  8
0
  6
CONTINUOUS
 62
     7
 10
-231.9313033327265
 20
97.34706562433979
  0
VERTEX
  8
0
  6
CONTINUOUS
 62
     7
 10
-231.9412069364058
 20
97.36476920520342
  0
VERTEX
  8
0
  6
CONTINUOUS
 62
     7
 10
-231.9503818149697
 20
97.38284894111038
  0
VERTEX
  8
0
  6
CONTINUOUS
 62
     7
 10
-231.9588047382733
 20
97.40125842876246
  0
VERTEX
  8
0
  6
CONTINUOUS
 62
     7
 10
-231.96667499369
 20
97.42052109848588
  0
VERTEX
  8
0
  6
CONTINUOUS
 62
     7
 10
-231.9737383029523
 20
97.44009733410294
  0
VERTEX
  8
0
  6
CONTINUOUS
 62
     7
 10
-231.9799788928016
 20
97.45993399519236
  0
VERTEX
  8
0
  6
CONTINUOUS
 62
     7
 10
-231.9853809899793
 20
97.47997794133286
  0
VERTEX
  8
0
  6
CONTINUOUS
 62
     7
 10
-231.990626506835
 20
97.50366713784324
  0
VERTEX
  8
0
  6
CONTINUOUS
 62
     7
 10
-231.9947176637968
 20
97.52759985476683
  0
VERTEX
  8
0
  6
CONTINUOUS
 62
     7
 10
-231.9976479633329
 20
97.55169017930193
  0
VERTEX
  8
0
  6
CONTINUOUS
 62
     7
 10
-231.9994109079112
 20
97.57585219864688
  0
VERTEX
  8
0
  6
CONTINUOUS
 62
     7
 10
-232.0
 20
97.6
  0
SEQEND
  8
0
  6
CONTINUOUS
 62
     7
  0
LINE
  8
0
  6
CONTINUOUS
 62
     7
 10
-232.0
 20
97.6
 11
-232.0
 21
98.74242852856273
  0
ARC
  8
0
  6
CONTINUOUS
 62
     7
 10
-232.5
 20
96.6
 40
2.2
 50
76.86344121304312
 51
103.1365587869449
  0
LINE
  8
0
  6
CONTINUOUS
 62
     7
 10
-233.0
 20
98.74242852856285
 11
-233.0
 21
97.6
  0
POLYLINE
  8
0
  6
CONTINUOUS
 62
     7
 66
     1
  0
VERTEX
  8
0
  6
CONTINUOUS
 62
     7
 10
-232.0
 20
95.6
  0
VERTEX
  8
0
  6
CONTINUOUS
 62
     7
 10
-231.9995806254638
 20
95.62043513695941
  0
VERTEX
  8
0
  6
CONTINUOUS
 62
     7
 10
-231.9983237119712
 20
95.6408733204272
  0
VERTEX
  8
0
  6
CONTINUOUS
 62
     7
 10
-231.9962310746961
 20
95.66126271056002
  0
VERTEX
  8
0
  6
CONTINUOUS
 62
     7
 10
-231.9933045288125
 20
95.68155146751458
  0
VERTEX
  8
0
  6
CONTINUOUS
 62
     7
 10
-231.9894215347347
 20
95.70229704034465
  0
VERTEX
  8
0
  6
CONTINUOUS
 62
     7
 10
-231.9846573123943
 20
95.72289814548401
  0
VERTEX
  8
0
  6
CONTINUOUS
 62
     7
 10
-231.9790237816203
 20
95.74329809103197
  0
VERTEX
  8
0
  6
CONTINUOUS
 62
     7
 10
-231.9725328622418
 20
95.76344018508789
  0
VERTEX
  8
0
  6
CONTINUOUS
 62
     7
 10
-231.965400302017
 20
95.7827589074434
  0
VERTEX
  8
0
  6
CONTINUOUS
 62
     7
 10
-231.9574652653974
 20
95.8017980104952
  0
VERTEX
  8
0
  6
CONTINUOUS
 62
     7
 10
-231.9487481525803
 20
95.82050704527246
  0
VERTEX
  8
0
  6
CONTINUOUS
 62
     7
 10
-231.9392693637625
 20
95.83883556280428
  0
VERTEX
  8
0
  6
CONTINUOUS
 62
     7
 10
-231.9287169951638
 20
95.8572930825184
  0
VERTEX
  8
0
  6
CONTINUOUS
 62
     7
 10
-231.9173731260026
 20
95.8753109224258
  0
VERTEX
  8
0
  6
CONTINUOUS
 62
     7
 10
-231.9052700529673
 20
95.89283814273169
  0
VERTEX
  8
0
  6
CONTINUOUS
 62
     7
 10
-231.8924400727464
 20
95.90982380364136
  0
VERTEX
  8
0
  6
CONTINUOUS
 62
     7
 10
-231.8794659841916
 20
95.92558232823677
  0
VERTEX
  8
0
  6
CONTINUOUS
 62
     7
 10
-231.8658455249505
 20
95.94081373651372
  0
VERTEX
  8
0
  6
CONTINUOUS
 62
     7
 10
-231.8516150290761
 20
95.95547877173325
  0
VERTEX
  8
0
  6
CONTINUOUS
 62
     7
 10
-231.8368108306215
 20
95.96953817715647
  0
VERTEX
  8
0
  6
CONTINUOUS
 62
     7
 10
-231.8209841192821
 20
95.98336311664723
  0
VERTEX
  8
0
  6
CONTINUOUS
 62
     7
 10
-231.8045782650389
 20
95.99652070819927
  0
VERTEX
  8
0
  6
CONTINUOUS
 62
     7
 10
-231.7876398354771
 20
96.00897604845994
  0
VERTEX
  8
0
  6
CONTINUOUS
 62
     7
 10
-231.7702153981822
 20
96.02069423407653
  0
VERTEX
  8
0
  6
CONTINUOUS
 62
     7
 10
-231.7529343756602
 20
96.03130333272645
  0
VERTEX
  8
0
  6
CONTINUOUS
 62
     7
 10
-231.7352307947966
 20
96.04120693640574
  0
VERTEX
  8
0
  6
CONTINUOUS
 62
     7
 10
-231.7171510588896
 20
96.05038181496963
  0
VERTEX
  8
0
  6
CONTINUOUS
 62
     7
 10
-231.6987415712375
 20
96.0588047382733
  0
VERTEX
  8
0
  6
CONTINUOUS
 62
     7
 10
-231.6794789015141
 20
96.06667499368999
  0
VERTEX
  8
0
  6
CONTINUOUS
 62
     7
 10
-231.6599026658971
 20
96.07373830295228
  0
VERTEX
  8
0
  6
CONTINUOUS
 62
     7
 10
-231.6400660048076
 20
96.07997889280159
  0
VERTEX
  8
0
  6
CONTINUOUS
 62
     7
 10
-231.6200220586671
 20
96.08538098997931
  0
VERTEX
  8
0
  6
CONTINUOUS
 62
     7
 10
-231.5963328621567
 20
96.09062650683498
  0
VERTEX
  8
0
  6
CONTINUOUS
 62
     7
 10
-231.5724001452332
 20
96.09471766379681
  0
VERTEX
  8
0
  6
CONTINUOUS
 62
     7
 10
-231.5483098206981
 20
96.09764796333285
  0
VERTEX
  8
0
  6
CONTINUOUS
 62
     7
 10
-231.5241478013531
 20
96.0994109079112
  0
VERTEX
  8
0
  6
CONTINUOUS
 62
     7
 10
-231.5
 20
96.1
  0
SEQEND
  8
0
  6
CONTINUOUS
 62
     7
  0
LINE
  8
0
  6
CONTINUOUS
 62
     7
 10
-231.5
 20
96.1
 11
-229.9544425627764
 21
96.1
  0
LINE
  8
0
  6
CONTINUOUS
 62
     7
 10
-235.0455574372236
 20
96.1
 11
-233.5
 21
96.1
  0
POLYLINE
  8
0
  6
CONTINUOUS
 62
     7
 66
     1
  0
VERTEX
  8
0
  6
CONTINUOUS
 62
     7
 10
-233.5
 20
96.1
  0
VERTEX
  8
0
  6
CONTINUOUS
 62
     7
 10
-233.4795648630406
 20
96.09958062546377
  0
VERTEX
  8
0
  6
CONTINUOUS
 62
     7
 10
-233.4591266795728
 20
96.09832371197116
  0
VERTEX
  8
0
  6
CONTINUOUS
 62
     7
 10
-233.43873728944
 20
96.09623107469606
  0
VERTEX
  8
0
  6
CONTINUOUS
 62
     7
 10
-233.4184485324854
 20
96.09330452881245
  0
VERTEX
  8
0
  6
CONTINUOUS
 62
     7
 10
-233.3977029596553
 20
96.08942153473468
  0
VERTEX
  8
0
  6
CONTINUOUS
 62
     7
 10
-233.377101854516
 20
96.08465731239428
  0
VERTEX
  8
0
  6
CONTINUOUS
 62
     7
 10
-233.356701908968
 20
96.07902378162028
  0
VERTEX
  8
0
  6
CONTINUOUS
 62
     7
 10
-233.3365598149121
 20
96.07253286224179
  0
VERTEX
  8
0
  6
CONTINUOUS
 62
     7
 10
-233.3172410925566
 20
96.06540030201698
  0
VERTEX
  8
0
  6
CONTINUOUS
 62
     7
 10
-233.2982019895048
 20
96.05746526539744
  0
VERTEX
  8
0
  6
CONTINUOUS
 62
     7
 10
-233.2794929547275
 20
96.04874815258025
  0
VERTEX
  8
0
  6
CONTINUOUS
 62
     7
 10
-233.2611644371957
 20
96.03926936376253
  0
VERTEX
  8
0
  6
CONTINUOUS
 62
     7
 10
-233.2427069174816
 20
96.02871699516375
  0
VERTEX
  8
0
  6
CONTINUOUS
 62
     7
 10
-233.2246890775742
 20
96.01737312600252
  0
VERTEX
  8
0
  6
CONTINUOUS
 62
     7
 10
-233.2071618572683
 20
96.00527005296728
  0
VERTEX
  8
0
  6
CONTINUOUS
 62
     7
 10
-233.1901761963586
 20
95.99244007274638
  0
VERTEX
  8
0
  6
CONTINUOUS
 62
     7
 10
-233.1744176717632
 20
95.97946598419155
  0
VERTEX
  8
0
  6
CONTINUOUS
 62
     7
 10
-233.1591862634863
 20
95.96584552495044
  0
VERTEX
  8
0
  6
CONTINUOUS
 62
     7
 10
-233.1445212282668
 20
95.95161502907608
  0
VERTEX
  8
0
  6
CONTINUOUS
 62
     7
 10
-233.1304618228436
 20
95.93681083062151
  0
VERTEX
  8
0
  6
CONTINUOUS
 62
     7
 10
-233.1166368833528
 20
95.92098411928202
  0
VERTEX
  8
0
  6
CONTINUOUS
 62
     7
 10
-233.1034792918007
 20
95.90457826503882
  0
VERTEX
  8
0
  6
CONTINUOUS
 62
     7
 10
-233.0910239515401
 20
95.88763983547713
  0
VERTEX
  8
0
  6
CONTINUOUS
 62
     7
 10
-233.0793057659235
 20
95.87021539818215
  0
VERTEX
  8
0
  6
CONTINUOUS
 62
     7
 10
-233.0686966672736
 20
95.85293437566017
  0
VERTEX
  8
0
  6
CONTINUOUS
 62
     7
 10
-233.0587930635942
 20
95.83523079479659
  0
VERTEX
  8
0
  6
CONTINUOUS
 62
     7
 10
-233.0496181850304
 20
95.8171510588896
  0
VERTEX
  8
0
  6
CONTINUOUS
 62
     7
 10
-233.0411952617267
 20
95.79874157123751
  0
VERTEX
  8
0
  6
CONTINUOUS
 62
     7
 10
-233.03332500631
 20
95.77947890151411
  0
VERTEX
  8
0
  6
CONTINUOUS
 62
     7
 10
-233.0262616970477
 20
95.75990266589704
  0
VERTEX
  8
0
  6
CONTINUOUS
 62
     7
 10
-233.0200211071984
 20
95.74006600480762
  0
VERTEX
  8
0
  6
CONTINUOUS
 62
     7
 10
-233.0146190100207
 20
95.72002205866711
  0
VERTEX
  8
0
  6
CONTINUOUS
 62
     7
 10
-233.009373493165
 20
95.69633286215672
  0
VERTEX
  8
0
  6
CONTINUOUS
 62
     7
 10
-233.0052823362032
 20
95.67240014523314
  0
VERTEX
  8
0
  6
CONTINUOUS
 62
     7
 10
-233.0023520366671
 20
95.64830982069805
  0
VERTEX
  8
0
  6
CONTINUOUS
 62
     7
 10
-233.0005890920888
 20
95.6241478013531
  0
VERTEX
  8
0
  6
CONTINUOUS
 62
     7
 10
-233.0
 20
95.6
  0
SEQEND
  8
0
  6
CONTINUOUS
 62
     7
  0
LINE
  8
0
  6
CONTINUOUS
 62
     7
 10
-233.0
 20
95.6
 11
-233.0
 21
94.45757147143725
  0
ARC
  8
0
  6
CONTINUOUS
 62
     7
 10
-232.5
 20
96.6
 40
2.2
 50
256.8634412130431
 51
283.1365587869448
  0
LINE
  8
0
  6
CONTINUOUS
 62
     7
 10
-232.0
 20
94.45757147143713
 11
-232.0
 21
95.6
  0
ARC
  8
0
  6
CONTINUOUS
 62
     7
 10
-232.5
 20
96.6
 40
1.21654992179303
 50
65.73243551603298
 51
114.2675644839671
  0
ARC
  8
0
  6
CONTINUOUS
 62
     7
 10
-232.5
 20
96.6
 40
1.21654992179303
 50
245.7324355160328
 51
294.2675644839671
  0
LINE
  8
0
  6
CONTINUOUS
 62
     7
 10
-229.1668823738855
 20
97.1
 11
-229.9544425627764
 21
97.1
  0
LINE
  8
0
  6
CONTINUOUS
 62
     7
 10
-235.0455574372236
 20
97.1
 11
-235.8331176261146
 21
97.1
  0
LINE
  8
0
  6
CONTINUOUS
 62
     7
 10
-229.9544425627764
 20
96.1
 11
-229.1668823738855
 21
96.1
  0
LINE
  8
0
  6
CONTINUOUS
 62
     7
 10
-235.8331176261146
 20
96.1
 11
-235.0455574372236
 21
96.1
  0
ARC
  8
0
  6
CONTINUOUS
 62
     7
 10
-232.5
 20
96.6
 40
3.3775158710637
 50
351.4867690477394
 51
8.513230952260756
  0
ARC
  8
0
  6
CONTINUOUS
 62
     7
 10
-232.5
 20
96.6
 40
3.3775158710637
 50
171.4867690477393
 51
188.5132309522607
  0
ARC
  8
0
  6
CONTINUOUS
 62
     7
 10
-232.5
 20
96.6
 40
3.500000000000003
 50
180.0
 51
188.8535278408583
  0
ARC
  8
0
  6
CONTINUOUS
 62
     7
 10
-232.5
 20
96.6
 40
3.499999999999989
 50
188.8535278408583
 51
351.5558154109536
  0
ARC
  8
0
  6
CONTINUOUS
 62
     7
 10
-232.5
 20
96.6
 40
3.500000000000004
 50
351.5558154109536
 51
8.853527840858021
  0
ARC
  8
0
  6
CONTINUOUS
 62
     7
 10
-232.5
 20
96.6
 40
3.499999999999989
 50
8.853527840857991
 51
53.13010235415592
  0
ARC
  8
0
  6
CONTINUOUS
 62
     7
 10
-232.5
 20
96.6
 40
3.499999999999992
 50
53.13010235415592
 51
126.8698976458441
  0
ARC
  8
0
  6
CONTINUOUS
 62
     7
 10
-232.5
 20
96.6
 40
3.500000000000009
 50
126.8698976458441
 51
171.5558154109542
  0
ARC
  8
0
  6
CONTINUOUS
 62
     7
 10
-232.5
 20
96.6
 40
3.499999999999998
 50
171.5558154109542
 51
180.0
  0
ARC
  8
0
  6
CONTINUOUS
 62
     7
 10
-232.5
 20
96.6
 40
1.557962733789126
 50
161.2807060777284
 51
198.7192939222716
  0
ARC
  8
0
  6
CONTINUOUS
 62
     7
 10
-232.5
 20
96.6
 40
1.21654992179303
 50
155.7324355160328
 51
204.2675644839671
  0
ARC
  8
0
  6
CONTINUOUS
 62
     7
 10
-232.5
 20
96.6
 40
1.557962733789126
 50
341.2807060777284
 51
18.71929392227156
  0
ARC
  8
0
  6
CONTINUOUS
 62
     7
 10
-232.5
 20
96.6
 40
1.21654992179303
 50
335.7324355160329
 51
24.26756448396719
  0
ARC
  8
0
  6
CONTINUOUS
 62
     7
 10
-232.5
 20
183.4
 40
2.2
 50
256.8634412130551
 51
283.1365587869568
  0
LINE
  8
0
  6
CONTINUOUS
 62
     7
 10
-232.0
 20
182.4
 11
-232.0
 21
181.2575714714373
  0
POLYLINE
  8
0
  6
CONTINUOUS
 62
     7
 66
     1
  0
VERTEX
  8
0
  6
CONTINUOUS
 62
     7
 10
-231.5
 20
182.9
  0
VERTEX
  8
0
  6
CONTINUOUS
 62
     7
 10
-231.5204351369594
 20
182.8995806254638
  0
VERTEX
  8
0
  6
CONTINUOUS
 62
     7
 10
-231.5408733204272
 20
182.8983237119712
  0
VERTEX
  8
0
  6
CONTINUOUS
 62
     7
 10
-231.56126271056
 20
182.8962310746961
  0
VERTEX
  8
0
  6
CONTINUOUS
 62
     7
 10
-231.5815514675146
 20
182.8933045288125
  0
VERTEX
  8
0
  6
CONTINUOUS
 62
     7
 10
-231.6022970403447
 20
182.8894215347347
  0
VERTEX
  8
0
  6
CONTINUOUS
 62
     7
 10
-231.622898145484
 20
182.8846573123943
  0
VERTEX
  8
0
  6
CONTINUOUS
 62
     7
 10
-231.643298091032
 20
182.8790237816203
  0
VERTEX
  8
0
  6
CONTINUOUS
 62
     7
 10
-231.6634401850879
 20
182.8725328622418
  0
VERTEX
  8
0
  6
CONTINUOUS
 62
     7
 10
-231.6827589074434
 20
182.865400302017
  0
VERTEX
  8
0
  6
CONTINUOUS
 62
     7
 10
-231.7017980104952
 20
182.8574652653975
  0
VERTEX
  8
0
  6
CONTINUOUS
 62
     7
 10
-231.7205070452725
 20
182.8487481525803
  0
VERTEX
  8
0
  6
CONTINUOUS
 62
     7
 10
-231.7388355628043
 20
182.8392693637626
  0
VERTEX
  8
0
  6
CONTINUOUS
 62
     7
 10
-231.7572930825184
 20
182.8287169951638
  0
VERTEX
  8
0
  6
CONTINUOUS
 62
     7
 10
-231.7753109224258
 20
182.8173731260026
  0
VERTEX
  8
0
  6
CONTINUOUS
 62
     7
 10
-231.7928381427317
 20
182.8052700529673
  0
VERTEX
  8
0
  6
CONTINUOUS
 62
     7
 10
-231.8098238036414
 20
182.7924400727464
  0
VERTEX
  8
0
  6
CONTINUOUS
 62
     7
 10
-231.8255823282368
 20
182.7794659841916
  0
VERTEX
  8
0
  6
CONTINUOUS
 62
     7
 10
-231.8408137365138
 20
182.7658455249505
  0
VERTEX
  8
0
  6
CONTINUOUS
 62
     7
 10
-231.8554787717333
 20
182.7516150290761
  0
VERTEX
  8
0
  6
CONTINUOUS
 62
     7
 10
-231.8695381771565
 20
182.7368108306216
  0
VERTEX
  8
0
  6
CONTINUOUS
 62
     7
 10
-231.8833631166472
 20
182.7209841192821
  0
VERTEX
  8
0
  6
CONTINUOUS
 62
     7
 10
-231.8965207081993
 20
182.7045782650389
  0
VERTEX
  8
0
  6
CONTINUOUS
 62
     7
 10
-231.90897604846
 20
182.6876398354772
  0
VERTEX
  8
0
  6
CONTINUOUS
 62
     7
 10
-231.9206942340765
 20
182.6702153981822
  0
VERTEX
  8
0
  6
CONTINUOUS
 62
     7
 10
-231.9313033327265
 20
182.6529343756602
  0
VERTEX
  8
0
  6
CONTINUOUS
 62
     7
 10
-231.9412069364058
 20
182.6352307947966
  0
VERTEX
  8
0
  6
CONTINUOUS
 62
     7
 10
-231.9503818149697
 20
182.6171510588896
  0
VERTEX
  8
0
  6
CONTINUOUS
 62
     7
 10
-231.9588047382733
 20
182.5987415712376
  0
VERTEX
  8
0
  6
CONTINUOUS
 62
     7
 10
-231.96667499369
 20
182.5794789015142
  0
VERTEX
  8
0
  6
CONTINUOUS
 62
     7
 10
-231.9737383029523
 20
182.5599026658971
  0
VERTEX
  8
0
  6
CONTINUOUS
 62
     7
 10
-231.9799788928016
 20
182.5400660048076
  0
VERTEX
  8
0
  6
CONTINUOUS
 62
     7
 10
-231.9853809899793
 20
182.5200220586672
  0
VERTEX
  8
0
  6
CONTINUOUS
 62
     7
 10
-231.990626506835
 20
182.4963328621568
  0
VERTEX
  8
0
  6
CONTINUOUS
 62
     7
 10
-231.9947176637968
 20
182.4724001452332
  0
VERTEX
  8
0
  6
CONTINUOUS
 62
     7
 10
-231.9976479633329
 20
182.4483098206981
  0
VERTEX
  8
0
  6
CONTINUOUS
 62
     7
 10
-231.9994109079112
 20
182.4241478013531
  0
VERTEX
  8
0
  6
CONTINUOUS
 62
     7
 10
-232.0
 20
182.4
  0
SEQEND
  8
0
  6
CONTINUOUS
 62
     7
  0
LINE
  8
0
  6
CONTINUOUS
 62
     7
 10
-229.9544425627764
 20
182.9
 11
-231.5
 21
182.9
  0
LINE
  8
0
  6
CONTINUOUS
 62
     7
 10
-233.5
 20
182.9
 11
-235.0455574372236
 21
182.9
  0
POLYLINE
  8
0
  6
CONTINUOUS
 62
     7
 66
     1
  0
VERTEX
  8
0
  6
CONTINUOUS
 62
     7
 10
-233.0
 20
182.4
  0
VERTEX
  8
0
  6
CONTINUOUS
 62
     7
 10
-233.0004193745362
 20
182.4204351369595
  0
VERTEX
  8
0
  6
CONTINUOUS
 62
     7
 10
-233.0016762880288
 20
182.4408733204272
  0
VERTEX
  8
0
  6
CONTINUOUS
 62
     7
 10
-233.0037689253039
 20
182.4612627105601
  0
VERTEX
  8
0
  6
CONTINUOUS
 62
     7
 10
-233.0066954711876
 20
182.4815514675146
  0
VERTEX
  8
0
  6
CONTINUOUS
 62
     7
 10
-233.0105784652653
 20
182.5022970403447
  0
VERTEX
  8
0
  6
CONTINUOUS
 62
     7
 10
-233.0153426876057
 20
182.522898145484
  0
VERTEX
  8
0
  6
CONTINUOUS
 62
     7
 10
-233.0209762183797
 20
182.543298091032
  0
VERTEX
  8
0
  6
CONTINUOUS
 62
     7
 10
-233.0274671377582
 20
182.5634401850879
  0
VERTEX
  8
0
  6
CONTINUOUS
 62
     7
 10
-233.034599697983
 20
182.5827589074434
  0
VERTEX
  8
0
  6
CONTINUOUS
 62
     7
 10
-233.0425347346026
 20
182.6017980104953
  0
VERTEX
  8
0
  6
CONTINUOUS
 62
     7
 10
-233.0512518474198
 20
182.6205070452725
  0
VERTEX
  8
0
  6
CONTINUOUS
 62
     7
 10
-233.0607306362375
 20
182.6388355628043
  0
VERTEX
  8
0
  6
CONTINUOUS
 62
     7
 10
-233.0712830048363
 20
182.6572930825184
  0
VERTEX
  8
0
  6
CONTINUOUS
 62
     7
 10
-233.0826268739975
 20
182.6753109224258
  0
VERTEX
  8
0
  6
CONTINUOUS
 62
     7
 10
-233.0947299470327
 20
182.6928381427317
  0
VERTEX
  8
0
  6
CONTINUOUS
 62
     7
 10
-233.1075599272536
 20
182.7098238036414
  0
VERTEX
  8
0
  6
CONTINUOUS
 62
     7
 10
-233.1205340158085
 20
182.7255823282368
  0
VERTEX
  8
0
  6
CONTINUOUS
 62
     7
 10
-233.1341544750496
 20
182.7408137365138
  0
VERTEX
  8
0
  6
CONTINUOUS
 62
     7
 10
-233.1483849709239
 20
182.7554787717333
  0
VERTEX
  8
0
  6
CONTINUOUS
 62
     7
 10
-233.1631891693785
 20
182.7695381771565
  0
VERTEX
  8
0
  6
CONTINUOUS
 62
     7
 10
-233.179015880718
 20
182.7833631166473
  0
VERTEX
  8
0
  6
CONTINUOUS
 62
     7
 10
-233.1954217349612
 20
182.7965207081993
  0
VERTEX
  8
0
  6
CONTINUOUS
 62
     7
 10
-233.2123601645229
 20
182.80897604846
  0
VERTEX
  8
0
  6
CONTINUOUS
 62
     7
 10
-233.2297846018178
 20
182.8206942340766
  0
VERTEX
  8
0
  6
CONTINUOUS
 62
     7
 10
-233.2470656243398
 20
182.8313033327265
  0
VERTEX
  8
0
  6
CONTINUOUS
 62
     7
 10
-233.2647692052034
 20
182.8412069364058
  0
VERTEX
  8
0
  6
CONTINUOUS
 62
     7
 10
-233.2828489411104
 20
182.8503818149697
  0
VERTEX
  8
0
  6
CONTINUOUS
 62
     7
 10
-233.3012584287625
 20
182.8588047382733
  0
VERTEX
  8
0
  6
CONTINUOUS
 62
     7
 10
-233.3205210984859
 20
182.86667499369
  0
VERTEX
  8
0
  6
CONTINUOUS
 62
     7
 10
-233.3400973341029
 20
182.8737383029523
  0
VERTEX
  8
0
  6
CONTINUOUS
 62
     7
 10
-233.3599339951924
 20
182.8799788928016
  0
VERTEX
  8
0
  6
CONTINUOUS
 62
     7
 10
-233.3799779413329
 20
182.8853809899794
  0
VERTEX
  8
0
  6
CONTINUOUS
 62
     7
 10
-233.4036671378433
 20
182.890626506835
  0
VERTEX
  8
0
  6
CONTINUOUS
 62
     7
 10
-233.4275998547668
 20
182.8947176637969
  0
VERTEX
  8
0
  6
CONTINUOUS
 62
     7
 10
-233.4516901793019
 20
182.8976479633329
  0
VERTEX
  8
0
  6
CONTINUOUS
 62
     7
 10
-233.4758521986469
 20
182.8994109079113
  0
VERTEX
  8
0
  6
CONTINUOUS
 62
     7
 10
-233.5
 20
182.9
  0
SEQEND
  8
0
  6
CONTINUOUS
 62
     7
  0
LINE
  8
0
  6
CONTINUOUS
 62
     7
 10
-233.0
 20
181.2575714714372
 11
-233.0
 21
182.4
  0
ARC
  8
0
  6
CONTINUOUS
 62
     7
 10
-232.5
 20
183.4
 40
2.2
 50
76.86344121305513
 51
103.1365587869569
  0
LINE
  8
0
  6
CONTINUOUS
 62
     7
 10
-233.0
 20
184.4
 11
-233.0
 21
185.5424285285628
  0
POLYLINE
  8
0
  6
CONTINUOUS
 62
     7
 66
     1
  0
VERTEX
  8
0
  6
CONTINUOUS
 62
     7
 10
-233.5
 20
183.9
  0
VERTEX
  8
0
  6
CONTINUOUS
 62
     7
 10
-233.4795648630406
 20
183.9004193745362
  0
VERTEX
  8
0
  6
CONTINUOUS
 62
     7
 10
-233.4591266795728
 20
183.9016762880289
  0
VERTEX
  8
0
  6
CONTINUOUS
 62
     7
 10
-233.43873728944
 20
183.903768925304
  0
VERTEX
  8
0
  6
CONTINUOUS
 62
     7
 10
-233.4184485324854
 20
183.9066954711876
  0
VERTEX
  8
0
  6
CONTINUOUS
 62
     7
 10
-233.3977029596553
 20
183.9105784652653
  0
VERTEX
  8
0
  6
CONTINUOUS
 62
     7
 10
-233.377101854516
 20
183.9153426876057
  0
VERTEX
  8
0
  6
CONTINUOUS
 62
     7
 10
-233.356701908968
 20
183.9209762183797
  0
VERTEX
  8
0
  6
CONTINUOUS
 62
     7
 10
-233.3365598149121
 20
183.9274671377582
  0
VERTEX
  8
0
  6
CONTINUOUS
 62
     7
 10
-233.3172410925566
 20
183.934599697983
  0
VERTEX
  8
0
  6
CONTINUOUS
 62
     7
 10
-233.2982019895048
 20
183.9425347346026
  0
VERTEX
  8
0
  6
CONTINUOUS
 62
     7
 10
-233.2794929547275
 20
183.9512518474198
  0
VERTEX
  8
0
  6
CONTINUOUS
 62
     7
 10
-233.2611644371957
 20
183.9607306362375
  0
VERTEX
  8
0
  6
CONTINUOUS
 62
     7
 10
-233.2427069174816
 20
183.9712830048363
  0
VERTEX
  8
0
  6
CONTINUOUS
 62
     7
 10
-233.2246890775742
 20
183.9826268739975
  0
VERTEX
  8
0
  6
CONTINUOUS
 62
     7
 10
-233.2071618572683
 20
183.9947299470327
  0
VERTEX
  8
0
  6
CONTINUOUS
 62
     7
 10
-233.1901761963586
 20
184.0075599272537
  0
VERTEX
  8
0
  6
CONTINUOUS
 62
     7
 10
-233.1744176717632
 20
184.0205340158085
  0
VERTEX
  8
0
  6
CONTINUOUS
 62
     7
 10
-233.1591862634863
 20
184.0341544750496
  0
VERTEX
  8
0
  6
CONTINUOUS
 62
     7
 10
-233.1445212282668
 20
184.048384970924
  0
VERTEX
  8
0
  6
CONTINUOUS
 62
     7
 10
-233.1304618228435
 20
184.0631891693785
  0
VERTEX
  8
0
  6
CONTINUOUS
 62
     7
 10
-233.1166368833528
 20
184.079015880718
  0
VERTEX
  8
0
  6
CONTINUOUS
 62
     7
 10
-233.1034792918007
 20
184.0954217349612
  0
VERTEX
  8
0
  6
CONTINUOUS
 62
     7
 10
-233.0910239515401
 20
184.1123601645229
  0
VERTEX
  8
0
  6
CONTINUOUS
 62
     7
 10
-233.0793057659235
 20
184.1297846018178
  0
VERTEX
  8
0
  6
CONTINUOUS
 62
     7
 10
-233.0686966672736
 20
184.1470656243399
  0
VERTEX
  8
0
  6
CONTINUOUS
 62
     7
 10
-233.0587930635942
 20
184.1647692052034
  0
VERTEX
  8
0
  6
CONTINUOUS
 62
     7
 10
-233.0496181850304
 20
184.1828489411104
  0
VERTEX
  8
0
  6
CONTINUOUS
 62
     7
 10
-233.0411952617267
 20
184.2012584287625
  0
VERTEX
  8
0
  6
CONTINUOUS
 62
     7
 10
-233.03332500631
 20
184.2205210984859
  0
VERTEX
  8
0
  6
CONTINUOUS
 62
     7
 10
-233.0262616970477
 20
184.240097334103
  0
VERTEX
  8
0
  6
CONTINUOUS
 62
     7
 10
-233.0200211071984
 20
184.2599339951924
  0
VERTEX
  8
0
  6
CONTINUOUS
 62
     7
 10
-233.0146190100207
 20
184.2799779413329
  0
VERTEX
  8
0
  6
CONTINUOUS
 62
     7
 10
-233.009373493165
 20
184.3036671378433
  0
VERTEX
  8
0
  6
CONTINUOUS
 62
     7
 10
-233.0052823362032
 20
184.3275998547669
  0
VERTEX
  8
0
  6
CONTINUOUS
 62
     7
 10
-233.0023520366671
 20
184.351690179302
  0
VERTEX
  8
0
  6
CONTINUOUS
 62
     7
 10
-233.0005890920888
 20
184.3758521986469
  0
VERTEX
  8
0
  6
CONTINUOUS
 62
     7
 10
-233.0
 20
184.4
  0
SEQEND
  8
0
  6
CONTINUOUS
 62
     7
  0
LINE
  8
0
  6
CONTINUOUS
 62
     7
 10
-235.0455574372236
 20
183.9
 11
-233.5
 21
183.9
  0
LINE
  8
0
  6
CONTINUOUS
 62
     7
 10
-231.5
 20
183.9
 11
-229.9544425627764
 21
183.9
  0
POLYLINE
  8
0
  6
CONTINUOUS
 62
     7
 66
     1
  0
VERTEX
  8
0
  6
CONTINUOUS
 62
     7
 10
-232.0
 20
184.4
  0
VERTEX
  8
0
  6
CONTINUOUS
 62
     7
 10
-231.9995806254638
 20
184.3795648630406
  0
VERTEX
  8
0
  6
CONTINUOUS
 62
     7
 10
-231.9983237119712
 20
184.3591266795728
  0
VERTEX
  8
0
  6
CONTINUOUS
 62
     7
 10
-231.9962310746961
 20
184.33873728944
  0
VERTEX
  8
0
  6
CONTINUOUS
 62
     7
 10
-231.9933045288125
 20
184.3184485324854
  0
VERTEX
  8
0
  6
CONTINUOUS
 62
     7
 10
-231.9894215347347
 20
184.2977029596554
  0
VERTEX
  8
0
  6
CONTINUOUS
 62
     7
 10
-231.9846573123943
 20
184.277101854516
  0
VERTEX
  8
0
  6
CONTINUOUS
 62
     7
 10
-231.9790237816203
 20
184.256701908968
  0
VERTEX
  8
0
  6
CONTINUOUS
 62
     7
 10
-231.9725328622418
 20
184.2365598149121
  0
VERTEX
  8
0
  6
CONTINUOUS
 62
     7
 10
-231.965400302017
 20
184.2172410925566
  0
VERTEX
  8
0
  6
CONTINUOUS
 62
     7
 10
-231.9574652653974
 20
184.1982019895048
  0
VERTEX
  8
0
  6
CONTINUOUS
 62
     7
 10
-231.9487481525803
 20
184.1794929547276
  0
VERTEX
  8
0
  6
CONTINUOUS
 62
     7
 10
-231.9392693637625
 20
184.1611644371957
  0
VERTEX
  8
0
  6
CONTINUOUS
 62
     7
 10
-231.9287169951638
 20
184.1427069174816
  0
VERTEX
  8
0
  6
CONTINUOUS
 62
     7
 10
-231.9173731260026
 20
184.1246890775742
  0
VERTEX
  8
0
  6
CONTINUOUS
 62
     7
 10
-231.9052700529673
 20
184.1071618572683
  0
VERTEX
  8
0
  6
CONTINUOUS
 62
     7
 10
-231.8924400727464
 20
184.0901761963586
  0
VERTEX
  8
0
  6
CONTINUOUS
 62
     7
 10
-231.8794659841916
 20
184.0744176717632
  0
VERTEX
  8
0
  6
CONTINUOUS
 62
     7
 10
-231.8658455249505
 20
184.0591862634863
  0
VERTEX
  8
0
  6
CONTINUOUS
 62
     7
 10
-231.8516150290761
 20
184.0445212282667
  0
VERTEX
  8
0
  6
CONTINUOUS
 62
     7
 10
-231.8368108306215
 20
184.0304618228435
  0
VERTEX
  8
0
  6
CONTINUOUS
 62
     7
 10
-231.8209841192821
 20
184.0166368833528
  0
VERTEX
  8
0
  6
CONTINUOUS
 62
     7
 10
-231.8045782650389
 20
184.0034792918007
  0
VERTEX
  8
0
  6
CONTINUOUS
 62
     7
 10
-231.7876398354771
 20
183.9910239515401
  0
VERTEX
  8
0
  6
CONTINUOUS
 62
     7
 10
-231.7702153981822
 20
183.9793057659235
  0
VERTEX
  8
0
  6
CONTINUOUS
 62
     7
 10
-231.7529343756602
 20
183.9686966672735
  0
VERTEX
  8
0
  6
CONTINUOUS
 62
     7
 10
-231.7352307947966
 20
183.9587930635943
  0
VERTEX
  8
0
  6
CONTINUOUS
 62
     7
 10
-231.7171510588896
 20
183.9496181850304
  0
VERTEX
  8
0
  6
CONTINUOUS
 62
     7
 10
-231.6987415712375
 20
183.9411952617267
  0
VERTEX
  8
0
  6
CONTINUOUS
 62
     7
 10
-231.6794789015141
 20
183.93332500631
  0
VERTEX
  8
0
  6
CONTINUOUS
 62
     7
 10
-231.6599026658971
 20
183.9262616970477
  0
VERTEX
  8
0
  6
CONTINUOUS
 62
     7
 10
-231.6400660048076
 20
183.9200211071984
  0
VERTEX
  8
0
  6
CONTINUOUS
 62
     7
 10
-231.6200220586671
 20
183.9146190100207
  0
VERTEX
  8
0
  6
CONTINUOUS
 62
     7
 10
-231.5963328621567
 20
183.909373493165
  0
VERTEX
  8
0
  6
CONTINUOUS
 62
     7
 10
-231.5724001452332
 20
183.9052823362032
  0
VERTEX
  8
0
  6
CONTINUOUS
 62
     7
 10
-231.5483098206981
 20
183.9023520366672
  0
VERTEX
  8
0
  6
CONTINUOUS
 62
     7
 10
-231.5241478013531
 20
183.9005890920888
  0
VERTEX
  8
0
  6
CONTINUOUS
 62
     7
 10
-231.5
 20
183.9
  0
SEQEND
  8
0
  6
CONTINUOUS
 62
     7
  0
LINE
  8
0
  6
CONTINUOUS
 62
     7
 10
-232.0
 20
185.5424285285629
 11
-232.0
 21
184.4
  0
ARC
  8
0
  6
CONTINUOUS
 62
     7
 10
-232.5
 20
183.4
 40
1.21654992179303
 50
65.73243551603291
 51
114.2675644839671
  0
ARC
  8
0
  6
CONTINUOUS
 62
     7
 10
-232.5
 20
183.4
 40
1.21654992179303
 50
245.7324355160329
 51
294.2675644839671
  0
LINE
  8
0
  6
CONTINUOUS
 62
     7
 10
-229.1668823738855
 20
182.9
 11
-229.9544425627764
 21
182.9
  0
LINE
  8
0
  6
CONTINUOUS
 62
     7
 10
-235.0455574372236
 20
182.9
 11
-235.8331176261146
 21
182.9
  0
LINE
  8
0
  6
CONTINUOUS
 62
     7
 10
-229.9544425627764
 20
183.9
 11
-229.1668823738855
 21
183.9
  0
LINE
  8
0
  6
CONTINUOUS
 62
     7
 10
-235.8331176261146
 20
183.9
 11
-235.0455574372236
 21
183.9
  0
ARC
  8
0
  6
CONTINUOUS
 62
     7
 10
-232.5
 20
183.4
 40
3.3775158710637
 50
351.4867690477392
 51
8.513230952260699
  0
ARC
  8
0
  6
CONTINUOUS
 62
     7
 10
-232.5
 20
183.4
 40
3.3775158710637
 50
171.4867690477392
 51
188.5132309522607
  0
ARC
  8
0
  6
CONTINUOUS
 62
     7
 10
-232.5
 20
183.4
 40
3.500000000000003
 50
171.1464721591417
 51
180.0
  0
ARC
  8
0
  6
CONTINUOUS
 62
     7
 10
-232.5
 20
183.4
 40
3.499999999999989
 50
8.444184589046358
 51
171.1464721591417
  0
ARC
  8
0
  6
CONTINUOUS
 62
     7
 10
-232.5
 20
183.4
 40
3.500000000000002
 50
351.146472159142
 51
8.444184589046415
  0
ARC
  8
0
  6
CONTINUOUS
 62
     7
 10
-232.5
 20
183.4
 40
3.499999999999989
 50
306.869897645844
 51
351.146472159142
  0
ARC
  8
0
  6
CONTINUOUS
 62
     7
 10
-232.5
 20
183.4
 40
3.499999999999992
 50
233.1301023541559
 51
306.869897645844
  0
ARC
  8
0
  6
CONTINUOUS
 62
     7
 10
-232.5
 20
183.4
 40
3.500000000000009
 50
188.4441845890458
 51
233.1301023541559
  0
ARC
  8
0
  6
CONTINUOUS
 62
     7
 10
-232.5
 20
183.4
 40
3.499999999999998
 50
180.0
 51
188.4441845890458
  0
ARC
  8
0
  6
CONTINUOUS
 62
     7
 10
-232.5
 20
183.4
 40
1.557962733789126
 50
161.2807060777284
 51
198.7192939222715
  0
ARC
  8
0
  6
CONTINUOUS
 62
     7
 10
-232.5
 20
183.4
 40
1.21654992179303
 50
155.7324355160328
 51
204.2675644839672
  0
ARC
  8
0
  6
CONTINUOUS
 62
     7
 10
-232.5
 20
183.4
 40
1.557962733789126
 50
341.2807060777284
 51
18.71929392227156
  0
ARC
  8
0
  6
CONTINUOUS
 62
     7
 10
-232.5
 20
183.4
 40
1.21654992179303
 50
335.7324355160328
 51
24.26756448396713
  0
CIRCLE
  8
0
  6
CONTINUOUS
 62
     7
 10
-232.5002333562757
 20
110.0022812680675
 40
1.650000000000013
  0
ARC
  8
0
  6
CONTINUOUS
 62
     7
 10
-241.0003227415504
 20
111.0015212003867
 40
1.999999999999997
 50
90.0051233460298
 51
92.23482425833981
  0
CIRCLE
  8
0
  6
CONTINUOUS
 62
     7
 10
-232.5002333562757
 20
169.9977187319325
 40
1.650000000000013
  0
ARC
  8
0
  6
CONTINUOUS
 62
     7
 10
-224.0003228095147
 20
168.9969586722474
 40
2.000000000000007
 50
269.9948766539702
 51
273.1601616244869
  0
LINE
  8
0
  6
CONTINUOUS
 62
     7
 10
-224.0005016480283
 20
166.9969586802432
 11
-241.000501580064
 21
166.9984788076092
  0
ARC
  8
0
  6
CONTINUOUS
 62
     7
 10
-241.0003227415503
 20
168.9984787996133
 40
1.999999999999993
 50
267.7651757416333
 51
269.9948766539702
  0
LINE
  8
0
  6
CONTINUOUS
 62
     7
 10
-241.6835182064135
 20
173.15
 11
-243.75
 21
173.15
  0
LINE
  8
0
  6
CONTINUOUS
 62
     7
 10
-243.75
 20
173.65
 11
-241.4937012174426
 21
173.65
  0
ARC
  8
0
  6
CONTINUOUS
 62
     7
 10
-243.75
 20
173.4
 40
0.2500000000000002
 50
90.0
 51
270.0
  0
ARC
  8
0
  6
CONTINUOUS
 62
     7
 10
-239.5
 20
172.6070927866929
 40
2.250000000000001
 50
152.3858864964183
 51
166.0371866119947
  0
ARC
  8
0
  6
CONTINUOUS
 62
     7
 10
-243.75
 20
106.6
 40
0.2500000000000002
 50
90.0
 51
270.0
  0
LINE
  8
0
  6
CONTINUOUS
 62
     7
 10
-243.75
 20
106.35
 11
-241.4937012174426
 21
106.35
  0
LINE
  8
0
  6
CONTINUOUS
 62
     7
 10
-241.6835182064135
 20
106.85
 11
-243.75
 21
106.85
  0
ARC
  8
0
  6
CONTINUOUS
 62
     7
 10
-239.5
 20
107.3929072133071
 40
2.250000000000001
 50
193.9628133880053
 51
207.6141135035817
  0
LINE
  8
0
  6
CONTINUOUS
 62
     7
 10
-238.75
 20
181.15
 11
-236.75
 21
181.15
  0
ARC
  8
0
  6
CONTINUOUS
 62
     7
 10
-236.75
 20
180.9
 40
0.250000000000028
 50
270.0
 51
90.00000000000021
  0
LINE
  8
0
  6
CONTINUOUS
 62
     7
 10
-236.75
 20
180.65
 11
-238.75
 21
180.65
  0
ARC
  8
0
  6
CONTINUOUS
 62
     7
 10
-238.75
 20
180.9
 40
0.2499999999999725
 50
90.0
 51
270.0000000000002
  0
ARC
  8
0
  6
CONTINUOUS
 62
     7
 10
-236.75
 20
175.9
 40
0.2500000000000002
 50
270.0
 51
90.00000000000021
  0
LINE
  8
0
  6
CONTINUOUS
 62
     7
 10
-236.75
 20
175.65
 11
-238.75
 21
175.65
  0
LINE
  8
0
  6
CONTINUOUS
 62
     7
 10
-238.75
 20
176.15
 11
-236.75
 21
176.15
  0
ARC
  8
0
  6
CONTINUOUS
 62
     7
 10
-238.75
 20
175.9
 40
0.2500000000000002
 50
90.0
 51
270.0000000000002
  0
ARC
  8
0
  6
CONTINUOUS
 62
     7
 10
-236.75
 20
183.4
 40
0.250000000000028
 50
270.0
 51
90.00000000000021
  0
LINE
  8
0
  6
CONTINUOUS
 62
     7
 10
-236.75
 20
183.15
 11
-239.75
 21
183.15
  0
LINE
  8
0
  6
CONTINUOUS
 62
     7
 10
-239.75
 20
183.65
 11
-236.75
 21
183.65
  0
ARC
  8
0
  6
CONTINUOUS
 62
     7
 10
-239.75
 20
183.4
 40
0.2499999999999725
 50
90.0
 51
270.0000000000002
  0
ARC
  8
0
  6
CONTINUOUS
 62
     7
 10
-236.75
 20
104.1
 40
0.2500000000000002
 50
269.9999999999998
 51
90.0
  0
ARC
  8
0
  6
CONTINUOUS
 62
     7
 10
-238.75
 20
104.1
 40
0.2500000000000002
 50
89.99999999999982
 51
270.0
  0
LINE
  8
0
  6
CONTINUOUS
 62
     7
 10
-238.75
 20
103.85
 11
-236.75
 21
103.85
  0
LINE
  8
0
  6
CONTINUOUS
 62
     7
 10
-236.75
 20
104.35
 11
-238.75
 21
104.35
  0
LINE
  8
0
  6
CONTINUOUS
 62
     7
 10
-236.75
 20
99.35000000000005
 11
-238.75
 21
99.35000000000005
  0
ARC
  8
0
  6
CONTINUOUS
 62
     7
 10
-236.75
 20
99.10000000000005
 40
0.2500000000000002
 50
269.9999999999998
 51
89.99999999999841
  0
LINE
  8
0
  6
CONTINUOUS
 62
     7
 10
-238.75
 20
98.85000000000005
 11
-236.75
 21
98.85000000000005
  0
ARC
  8
0
  6
CONTINUOUS
 62
     7
 10
-238.75
 20
99.10000000000005
 40
0.2500000000000002
 50
89.99999999999982
 51
270.0
  0
ARC
  8
0
  6
CONTINUOUS
 62
     7
 10
-236.75
 20
178.4
 40
0.250000000000028
 50
270.0
 51
90.00000000000021
  0
ARC
  8
0
  6
CONTINUOUS
 62
     7
 10
-239.75
 20
178.4
 40
0.2499999999999725
 50
90.0
 51
270.0000000000002
  0
LINE
  8
0
  6
CONTINUOUS
 62
     7
 10
-236.75
 20
178.15
 11
-239.75
 21
178.15
  0
LINE
  8
0
  6
CONTINUOUS
 62
     7
 10
-239.75
 20
178.65
 11
-236.75
 21
178.65
  0
LINE
  8
0
  6
CONTINUOUS
 62
     7
 10
-236.75
 20
96.85000000000005
 11
-239.75
 21
96.85000000000005
  0
ARC
  8
0
  6
CONTINUOUS
 62
     7
 10
-236.75
 20
96.60000000000005
 40
0.2500000000000002
 50
269.9999999999998
 51
89.99999999999841
  0
LINE
  8
0
  6
CONTINUOUS
 62
     7
 10
-239.75
 20
96.35000000000005
 11
-236.75
 21
96.35000000000005
  0
ARC
  8
0
  6
CONTINUOUS
 62
     7
 10
-239.75
 20
96.60000000000005
 40
0.2500000000000002
 50
89.99999999999982
 51
270.0
  0
ARC
  8
0
  6
CONTINUOUS
 62
     7
 10
-236.75
 20
101.6000000000001
 40
0.2500000000000002
 50
269.9999999999998
 51
89.99999999999841
  0
ARC
  8
0
  6
CONTINUOUS
 62
     7
 10
-239.75
 20
101.6000000000001
 40
0.2500000000000002
 50
89.99999999999982
 51
270.0
  0
LINE
  8
0
  6
CONTINUOUS
 62
     7
 10
-239.75
 20
101.3500000000001
 11
-236.75
 21
101.3500000000001
  0
LINE
  8
0
  6
CONTINUOUS
 62
     7
 10
-236.75
 20
101.8500000000001
 11
-239.75
 21
101.8500000000001
  0
LINE
  8
0
  6
CONTINUOUS
 62
     7
 10
-237.5062987825574
 20
173.65
 11
-236.75
 21
173.65
  0
ARC
  8
0
  6
CONTINUOUS
 62
     7
 10
-239.5
 20
172.6070927866929
 40
2.249999999999991
 50
13.96281338800541
 51
27.61411350358177
  0
LINE
  8
0
  6
CONTINUOUS
 62
     7
 10
-236.75
 20
173.15
 11
-237.3164817935865
 21
173.15
  0
ARC
  8
0
  6
CONTINUOUS
 62
     7
 10
-236.75
 20
173.4
 40
0.2500000000000002
 50
270.0
 51
90.0
  0
CIRCLE
  8
0
  6
CONTINUOUS
 62
     7
 10
-236.75
 20
107.6
 40
0.2500000000000002
  0
LINE
  8
0
  6
CONTINUOUS
 62
     7
 10
-236.75
 20
106.85
 11
-237.3164817935865
 21
106.85
  0
ARC
  8
0
  6
CONTINUOUS
 62
     7
 10
-239.5
 20
107.3929072133071
 40
2.249999999999991
 50
332.3858864964182
 51
346.0371866119946
  0
LINE
  8
0
  6
CONTINUOUS
 62
     7
 10
-237.5062987825574
 20
106.35
 11
-236.75
 21
106.35
  0
ARC
  8
0
  6
CONTINUOUS
 62
     7
 10
-236.75
 20
106.6
 40
0.2500000000000002
 50
270.0
 51
90.0
  0
CIRCLE
  8
0
  6
CONTINUOUS
 62
     7
 10
-236.75
 20
172.4
 40
0.2500000000000002
  0
ARC
  8
0
  6
CONTINUOUS
 62
     7
 10
-239.5
 20
172.6070927866929
 40
2.250000000000018
 50
166.0371866119945
 51
13.9628133880056
  0
ARC
  8
0
  6
CONTINUOUS
 62
     7
 10
-239.5
 20
172.6070927866929
 40
2.250000000000001
 50
27.6141135035819
 51
152.3858864964182
  0
LINE
  8
0
  6
CONTINUOUS
 62
     7
 10
-236.1
 20
112.5
 11
-236.1
 21
96.6
  0
ARC
  8
0
  6
CONTINUOUS
 62
     7
 10
-232.5
 20
96.6
 40
3.599999999999992
 50
180.0000000000001
 51
359.9999999999998
  0
LINE
  8
0
  6
CONTINUOUS
 62
     7
 10
-228.9
 20
96.6
 11
-228.9
 21
112.5
  0
LINE
  8
0
  6
CONTINUOUS
 62
     7
 10
-228.9
 20
183.4
 11
-228.9
 21
167.5
  0
ARC
  8
0
  6
CONTINUOUS
 62
     7
 10
-232.5
 20
183.4
 40
3.599999999999992
 50
0.0000000000001137
 51
179.9999999999999
  0
LINE
  8
0
  6
CONTINUOUS
 62
     7
 10
-236.1
 20
167.5
 11
-236.1
 21
183.4
  0
CIRCLE
  8
0
  6
CONTINUOUS
 62
     7
 10
-225.5
 20
172.6070927866929
 40
2.250000000000002
  0
ARC
  8
0
  6
CONTINUOUS
 62
     7
 10
-232.5
 20
140.0
 40
55.87
 50
47.98190997941519
 51
60.59999999999997
  0
ARC
  8
0
  6
CONTINUOUS
 62
     7
 10
-206.1531955434754
 20
186.7580452428205
 40
2.199999999999994
 50
60.60000000000001
 51
240.5999999999999
  0
ARC
  8
0
  6
CONTINUOUS
 62
     7
 10
-232.5
 20
140.0
 40
51.47000000000003
 50
48.10678336598108
 51
60.60000000000002
  0
ARC
  8
0
  6
CONTINUOUS
 62
     7
 10
-194.549579053718
 20
177.950420946282
 40
3.600000000000001
 50
174.2070239145653
 51
275.7929760854345
  0
ARC
  8
0
  6
CONTINUOUS
 62
     7
 10
-232.5
 20
140.0
 40
51.47000000000003
 50
29.40000000000003
 51
41.89321663401898
  0
ARC
  8
0
  6
CONTINUOUS
 62
     7
 10
-185.7419547571794
 20
166.3468044565246
 40
2.200000000000004
 50
209.3999999999994
 51
29.40000000000044
  0
ARC
  8
0
  6
CONTINUOUS
 62
     7
 10
-232.5
 20
140.0
 40
55.87
 50
29.4
 51
42.01809002058478
  0
ARC
  8
0
  6
CONTINUOUS
 62
     7
 10
-194.549579053718
 20
177.950420946282
 40
3.600000000000004
 50
351.163957458827
 51
98.83604254117296
  0
ARC
  8
0
  6
CONTINUOUS
 62
     7
 10
-232.5
 20
140.0
 40
51.47
 50
119.4
 51
131.8932166340188
  0
ARC
  8
0
  6
CONTINUOUS
 62
     7
 10
-258.8468044565246
 20
186.7580452428205
 40
2.200000000000007
 50
299.4000000000009
 51
119.3999999999998
  0
ARC
  8
0
  6
CONTINUOUS
 62
     7
 10
-232.5
 20
140.0
 40
55.87
 50
119.4
 51
132.0180900205848
  0
ARC
  8
0
  6
CONTINUOUS
 62
     7
 10
-270.450420946282
 20
177.950420946282
 40
3.599999999999987
 50
81.16395745882842
 51
188.8360425411713
  0
ARC
  8
0
  6
CONTINUOUS
 62
     7
 10
-232.5
 20
140.0
 40
55.87
 50
137.9819099794152
 51
150.6
  0
ARC
  8
0
  6
CONTINUOUS
 62
     7
 10
-279.2580452428206
 20
166.3468044565246
 40
2.200000000000007
 50
150.6
 51
330.5999999999998
  0
ARC
  8
0
  6
CONTINUOUS
 62
     7
 10
-232.5
 20
140.0
 40
51.47
 50
138.1067833659812
 51
150.6
  0
ARC
  8
0
  6
CONTINUOUS
 62
     7
 10
-270.450420946282
 20
177.950420946282
 40
3.599999999999988
 50
264.207023914563
 51
5.792976085437203
  0
ARC
  8
0
  6
CONTINUOUS
 62
     7
 10
-239.5
 20
107.3929072133071
 40
2.250000000000013
 50
207.6141135035811
 51
332.3858864964185
  0
ARC
  8
0
  6
CONTINUOUS
 62
     7
 10
-239.5
 20
107.3929072133071
 40
2.250000000000012
 50
346.0371866119953
 51
193.9628133880049
  0
CIRCLE
  8
0
  6
CONTINUOUS
 62
     7
 10
-225.5
 20
107.3929072133071
 40
2.250000000000002
  0
ARC
  8
0
  6
CONTINUOUS
 62
     7
 10
-232.5
 20
140.0
 40
55.87
 50
317.9819099794153
 51
330.6
  0
ARC
  8
0
  6
CONTINUOUS
 62
     7
 10
-185.7419547571794
 20
113.6531955434754
 40
2.200000000000011
 50
330.5999999999996
 51
150.6000000000006
  0
ARC
  8
0
  6
CONTINUOUS
 62
     7
 10
-232.5
 20
140.0
 40
51.47000000000003
 50
318.106783365981
 51
330.6
  0
ARC
  8
0
  6
CONTINUOUS
 62
     7
 10
-194.549579053718
 20
102.049579053718
 40
3.600000000000003
 50
84.20702391456553
 51
185.7929760854347
  0
ARC
  8
0
  6
CONTINUOUS
 62
     7
 10
-232.5
 20
140.0
 40
51.47000000000003
 50
299.4
 51
311.8932166340189
  0
ARC
  8
0
  6
CONTINUOUS
 62
     7
 10
-206.1531955434754
 20
93.24195475717947
 40
2.199999999999994
 50
119.4000000000001
 51
299.4
  0
ARC
  8
0
  6
CONTINUOUS
 62
     7
 10
-232.5
 20
140.0
 40
55.87
 50
299.4000000000001
 51
312.0180900205849
  0
ARC
  8
0
  6
CONTINUOUS
 62
     7
 10
-194.549579053718
 20
102.049579053718
 40
3.6
 50
261.163957458827
 51
8.836042541172958
  0
ARC
  8
0
  6
CONTINUOUS
 62
     7
 10
-232.5
 20
140.0
 40
51.46999999999999
 50
209.3999999999999
 51
221.8932166340188
  0
ARC
  8
0
  6
CONTINUOUS
 62
     7
 10
-279.2580452428206
 20
113.6531955434754
 40
2.2
 50
29.4000000000002
 51
209.3999999999999
  0
ARC
  8
0
  6
CONTINUOUS
 62
     7
 10
-232.5
 20
140.0
 40
55.87
 50
209.4000000000001
 51
222.0180900205848
  0
ARC
  8
0
  6
CONTINUOUS
 62
     7
 10
-270.450420946282
 20
102.0495790537181
 40
3.600000000000001
 50
171.1639574588287
 51
278.8360425411715
  0
ARC
  8
0
  6
CONTINUOUS
 62
     7
 10
-232.5
 20
140.0
 40
55.87
 50
227.9819099794152
 51
240.6000000000001
  0
ARC
  8
0
  6
CONTINUOUS
 62
     7
 10
-258.8468044565246
 20
93.2419547571795
 40
2.199999999999995
 50
240.6000000000002
 51
60.5999999999991
  0
ARC
  8
0
  6
CONTINUOUS
 62
     7
 10
-232.5
 20
140.0
 40
51.47
 50
228.1067833659812
 51
240.6000000000001
  0
ARC
  8
0
  6
CONTINUOUS
 62
     7
 10
-270.450420946282
 20
102.0495790537181
 40
3.599999999999988
 50
354.2070239145629
 51
95.79297608543699
  0
ARC
  8
0
  6
CONTINUOUS
 62
     7
 10
-232.5
 20
85.49999999999994
 40
0.5000000000000004
 50
0.0
 51
179.9999999999746
  0
LINE
  8
0
  6
CONTINUOUS
 62
     7
 10
-233.0
 20
85.49999999999994
 11
-233.0
 21
84.99999999999994
  0
LINE
  8
0
  6
CONTINUOUS
 62
     7
 10
-284.4999999999999
 20
85.00000000000001
 11
-233.0
 21
84.99999999999994
  0
ARC
  8
0
  6
CONTINUOUS
 62
     7
 10
-284.4999999999999
 20
88.00000000000001
 40
3.000000000000003
 50
180.0
 51
270.0
  0
LINE
  8
0
  6
CONTINUOUS
 62
     7
 10
-287.5
 20
88.00000000000001
 11
-287.5
 21
139.5
  0
LINE
  8
0
  6
CONTINUOUS
 62
     7
 10
-287.5000000000001
 20
139.5
 11
-287.0000000000001
 21
139.5
  0
ARC
  8
0
  6
CONTINUOUS
 62
     7
 10
-287.0000000000001
 20
140.0
 40
0.5000000000000004
 50
269.9999999999992
 51
90.00000000001829
  0
ARC
  8
0
  6
CONTINUOUS
 62
     7
 10
-284.4999999999999
 20
192.0
 40
3.000000000000003
 50
90.0
 51
180.0
  0
LINE
  8
0
  6
CONTINUOUS
 62
     7
 10
-284.4999999999999
 20
195.0
 11
-233.0
 21
195.0000000000001
  0
LINE
  8
0
  6
CONTINUOUS
 62
     7
 10
-233.0
 20
195.0000000000001
 11
-233.0
 21
194.5000000000001
  0
ARC
  8
0
  6
CONTINUOUS
 62
     7
 10
-232.5
 20
194.5000000000001
 40
0.5000000000000004
 50
180.0000000000024
 51
359.9999999999832
  0
LINE
  8
0
  6
CONTINUOUS
 62
     7
 10
-232.0
 20
194.5000000000001
 11
-232.0
 21
195.0000000000001
  0
LINE
  8
0
  6
CONTINUOUS
 62
     7
 10
-232.0
 20
195.0000000000001
 11
-180.5
 21
195.0
  0
ARC
  8
0
  6
CONTINUOUS
 62
     7
 10
-180.5
 20
192.0
 40
3.000000000000003
 50
0.0
 51
90.0
  0
LINE
  8
0
  6
CONTINUOUS
 62
     7
 10
-177.5
 20
192.0
 11
-177.4999999999999
 21
140.5
  0
LINE
  8
0
  6
CONTINUOUS
 62
     7
 10
-177.4999999999999
 20
140.5
 11
-178.0
 21
140.5
  0
ARC
  8
0
  6
CONTINUOUS
 62
     7
 10
-178.0
 20
140.0
 40
0.5000000000000004
 50
90.0
 51
270.0000000000256
  0
LINE
  8
0
  6
CONTINUOUS
 62
     7
 10
-177.9999999999999
 20
139.5
 11
-177.4999999999999
 21
139.5
  0
LINE
  8
0
  6
CONTINUOUS
 62
     7
 10
-177.4999999999999
 20
139.5
 11
-177.5
 21
88.00000000000001
  0
ARC
  8
0
  6
CONTINUOUS
 62
     7
 10
-180.5
 20
88.00000000000001
 40
3.000000000000003
 50
270.0
 51
0.0
  0
LINE
  8
0
  6
CONTINUOUS
 62
     7
 10
-232.0
 20
84.99999999999994
 11
-180.5
 21
85.00000000000001
  0
LINE
  8
0
  6
CONTINUOUS
 62
     7
 10
-232.0
 20
84.99999999999994
 11
-232.0
 21
85.49999999999994
  0
CIRCLE
  8
0
  6
CONTINUOUS
 62
     7
 10
-202.5
 20
110.0
 40
2.999999999999975
  0
CIRCLE
  8
0
  6
CONTINUOUS
 62
     7
 10
-262.5
 20
170.0
 40
3.000000000000003
  0
LINE
  8
0
  6
CONTINUOUS
 62
     7
 10
-287.0000000000001
 20
140.5
 11
-287.5000000000001
 21
140.5
  0
LINE
  8
0
  6
CONTINUOUS
 62
     7
 10
-287.5000000000001
 20
140.5
 11
-287.5
 21
192.0
  0
LINE
  8
0
  6
CONTINUOUS
 62
     7
 10
-236.1
 20
167.0
 11
-241.5043063163168
 21
167.0
  0
LINE
  8
0
  6
CONTINUOUS
 62
     7
 10
-236.1
 20
167.5
 11
-236.1
 21
167.0
  0
LINE
  8
0
  6
CONTINUOUS
 62
     7
 10
-223.4956936836832
 20
167.0
 11
-228.9
 21
167.0
  0
LINE
  8
0
  6
CONTINUOUS
 62
     7
 10
-228.9
 20
167.0
 11
-228.9
 21
167.5
  0
LINE
  8
0
  6
CONTINUOUS
 62
     7
 10
-241.5043063163168
 20
113.0
 11
-236.1
 21
113.0
  0
LINE
  8
0
  6
CONTINUOUS
 62
     7
 10
-236.1
 20
113.0
 11
-236.1
 21
112.5
  0
CIRCLE
  8
0
  6
CONTINUOUS
 62
     7
 10
-239.5
 20
107.3929072133071
 40
1.741273796781351
  0
CIRCLE
  8
0
  6
CONTINUOUS
 62
     7
 10
-239.5
 20
172.6070927866929
 40
1.741273796781351
  0
CIRCLE
  8
0
  6
CONTINUOUS
 62
     7
 10
-225.5
 20
172.6070927866929
 40
1.741273796781379
  0
CIRCLE
  8
0
  6
CONTINUOUS
 62
     7
 10
-225.5
 20
107.3929072133071
 40
1.741273796781379
  0
LINE
  8
0
  6
CONTINUOUS
 62
     7
 10
-228.9
 20
113.0
 11
-223.4956936836832
 21
113.0
  0
LINE
  8
0
  6
CONTINUOUS
 62
     7
 10
-228.9
 20
112.5
 11
-228.9
 21
113.0
  0
LINE
  8
0
  6
CONTINUOUS
 62
     7
 10
-250.4323667746217
 20
161.0000000000001
 11
-250.4541839440986
 21
161.0000000000001
  0
LINE
  8
0
  6
CONTINUOUS
 62
     7
 10
-250.3909522302763
 20
112.0006035537164
 11
-250.3909522302766
 21
167.9993964462833
  0
LINE
  8
0
  6
CONTINUOUS
 62
     7
 10
-223.4956936836832
 20
113.0
 11
-223.4542410616771
 21
113.0
  0
LINE
  8
0
  6
CONTINUOUS
 62
     7
 10
-241.5457589383229
 20
113.0
 11
-241.5043063163168
 21
113.0
  0
LINE
  8
0
  6
CONTINUOUS
 62
     7
 10
-241.5043063163168
 20
167.0
 11
-241.5457589383229
 21
167.0
  0
LINE
  8
0
  6
CONTINUOUS
 62
     7
 10
-223.4542410616771
 20
167.0
 11
-223.4956936836832
 21
167.0
  0
LINE
  8
0
  6
CONTINUOUS
 62
     7
 10
-214.5458160559015
 20
161.0000000000001
 11
-214.5676332253784
 21
161.0000000000001
  0
LINE
  8
0
  6
CONTINUOUS
 62
     7
 10
-214.6090477697234
 20
167.956938770772
 11
-214.6090477697234
 21
112.0430612292276
  0
CIRCLE
  8
0
  6
CONTINUOUS
 62
     7
 10
-239.5
 20
107.3929072133071
 40
1.658360909126855
  0
CIRCLE
  8
0
  6
CONTINUOUS
 62
     7
 10
-239.5
 20
172.6070927866929
 40
1.658360909126855
  0
CIRCLE
  8
0
  6
CONTINUOUS
 62
     7
 10
-225.5
 20
172.6070927866929
 40
1.658360909126855
  0
CIRCLE
  8
0
  6
CONTINUOUS
 62
     7
 10
-225.5
 20
107.3929072133071
 40
1.658360909126855
  0
ARC
  8
0
  6
CONTINUOUS
 62
     7
 10
-235.6
 20
112.0
 40
1.000000000000001
 50
0.0
 51
90.0
  0
LINE
  8
0
  6
CONTINUOUS
 62
     7
 10
-234.6
 20
112.0
 11
-234.6
 21
99.39999999999999
  0
LINE
  8
0
  6
CONTINUOUS
 62
     7
 10
-230.4
 20
99.39999999999999
 11
-230.4
 21
112.0
  0
ARC
  8
0
  6
CONTINUOUS
 62
     7
 10
-229.4
 20
112.0
 40
1.000000000000001
 50
90.0
 51
180.0
  0
LINE
  8
0
  6
CONTINUOUS
 62
     7
 10
-229.4
 20
113.0
 11
-228.9
 21
113.0
  0
LINE
  8
0
  6
CONTINUOUS
 62
     7
 10
-236.1
 20
113.0
 11
-235.6
 21
113.0
  0
LINE
  8
0
  6
CONTINUOUS
 62
     7
 10
-234.6
 20
168.0
 11
-234.6
 21
180.6
  0
ARC
  8
0
  6
CONTINUOUS
 62
     7
 10
-235.6
 20
168.0
 40
1.000000000000001
 50
270.0
 51
0.0
  0
ARC
  8
0
  6
CONTINUOUS
 62
     7
 10
-229.4
 20
168.0
 40
1.000000000000001
 50
180.0
 51
270.0
  0
LINE
  8
0
  6
CONTINUOUS
 62
     7
 10
-230.4
 20
180.6
 11
-230.4
 21
168.0
  0
LINE
  8
0
  6
CONTINUOUS
 62
     7
 10
-229.4
 20
167.0
 11
-228.9
 21
167.0
  0
LINE
  8
0
  6
CONTINUOUS
 62
     7
 10
-236.1
 20
167.0
 11
-235.6
 21
167.0
  0
LINE
  8
0
  6
CONTINUOUS
 62
     7
 10
-241.5675761077998
 20
113.0
 11
-241.5457589383229
 21
113.0
  0
LINE
  8
0
  6
CONTINUOUS
 62
     7
 10
-223.4542410616771
 20
113.0
 11
-223.4324238922002
 21
113.0
  0
ARC
  8
0
  6
CONTINUOUS
 62
     7
 10
-248.5001191668795
 20
167.9781676085291
 40
1.890952230276298
 50
124.8502017196648
 51
179.3567535238908
  0
LINE
  8
0
  6
CONTINUOUS
 62
     7
 10
-241.5675761077998
 20
167.0
 11
-241.5457589383229
 21
167.0
  0
LINE
  8
0
  6
CONTINUOUS
 62
     7
 10
-223.4542410616771
 20
167.0
 11
-223.4324238922002
 21
167.0
  0
ARC
  8
0
  6
CONTINUOUS
 62
     7
 10
-248.5001191668795
 20
112.0218323914709
 40
1.890952230276297
 50
180.6432464761182
 51
235.1497982803354
  0
ARC
  8
0
  6
CONTINUOUS
 62
     7
 10
-245.5
 20
169.2332416321053
 40
2.390952230276266
 50
0.0
 51
118.2114758412125
  0
ARC
  8
0
  6
CONTINUOUS
 62
     7
 10
-232.5
 20
135.0
 40
29.89095223027629
 50
235.1497982803355
 51
241.7885241587876
  0
ARC
  8
0
  6
CONTINUOUS
 62
     7
 10
-232.5
 20
145.0
 40
29.8909522302763
 50
118.2114758412124
 51
124.8502017196646
  0
ARC
  8
0
  6
CONTINUOUS
 62
     7
 10
-245.5
 20
110.7667583678948
 40
2.3909522302763
 50
241.7885241587876
 51
0.0
  0
LINE
  8
0
  6
CONTINUOUS
 62
     7
 10
-243.1090477697237
 20
169.2332416321053
 11
-243.1090477697237
 21
168.5
  0
POLYLINE
  8
0
  6
CONTINUOUS
 62
     7
 66
     1
  0
VERTEX
  8
0
  6
CONTINUOUS
 62
     7
 10
-241.6090287298059
 20
113.0
  0
VERTEX
  8
0
  6
CONTINUOUS
 62
     7
 10
-241.9016679273338
 20
112.9711779206049
  0
VERTEX
  8
0
  6
CONTINUOUS
 62
     7
 10
-242.1830611646147
 20
112.8858192987669
  0
VERTEX
  8
0
  6
CONTINUOUS
 62
     7
 10
-242.4423946573469
 20
112.7472044184538
  0
VERTEX
  8
0
  6
CONTINUOUS
 62
     7
 10
-242.6697023648407
 20
112.5606601717798
  0
VERTEX
  8
0
  6
CONTINUOUS
 62
     7
 10
-242.8562489793728
 20
112.3333553495294
  0
VERTEX
  8
0
  6
CONTINUOUS
 62
     7
 10
-242.9948656191632
 20
112.0740251485476
  0
VERTEX
  8
0
  6
CONTINUOUS
 62
     7
 10
-243.0802253244819
 20
111.7926354830242
  0
VERTEX
  8
0
  6
CONTINUOUS
 62
     7
 10
-243.1090477697237
 20
111.5
  0
SEQEND
  8
0
  6
CONTINUOUS
 62
     7
  0
LINE
  8
0
  6
CONTINUOUS
 62
     7
 10
-241.6090287298059
 20
113.0
 11
-241.5675761077998
 21
113.0
  0
LINE
  8
0
  6
CONTINUOUS
 62
     7
 10
-243.1090477697237
 20
111.5
 11
-243.1090477697237
 21
110.7667583678948
  0
LINE
  8
0
  6
CONTINUOUS
 62
     7
 10
-241.5675761077998
 20
167.0
 11
-241.6090287298059
 21
167.0
  0
POLYLINE
  8
0
  6
CONTINUOUS
 62
     7
 66
     1
  0
VERTEX
  8
0
  6
CONTINUOUS
 62
     7
 10
-243.1090477697237
 20
168.5
  0
VERTEX
  8
0
  6
CONTINUOUS
 62
     7
 10
-243.0802253244819
 20
168.2073645169758
  0
VERTEX
  8
0
  6
CONTINUOUS
 62
     7
 10
-242.9948656191632
 20
167.9259748514524
  0
VERTEX
  8
0
  6
CONTINUOUS
 62
     7
 10
-242.8562489793728
 20
167.6666446504706
  0
VERTEX
  8
0
  6
CONTINUOUS
 62
     7
 10
-242.6697023648407
 20
167.4393398282202
  0
VERTEX
  8
0
  6
CONTINUOUS
 62
     7
 10
-242.4423946573469
 20
167.2527955815462
  0
VERTEX
  8
0
  6
CONTINUOUS
 62
     7
 10
-242.1830611646147
 20
167.1141807012331
  0
VERTEX
  8
0
  6
CONTINUOUS
 62
     7
 10
-241.9016679273338
 20
167.0288220793952
  0
VERTEX
  8
0
  6
CONTINUOUS
 62
     7
 10
-241.6090287298059
 20
167.0
  0
SEQEND
  8
0
  6
CONTINUOUS
 62
     7
  0
POLYLINE
  8
0
  6
CONTINUOUS
 62
     7
 66
     1
  0
VERTEX
  8
0
  6
CONTINUOUS
 62
     7
 10
-223.3909712701941
 20
167.0
  0
VERTEX
  8
0
  6
CONTINUOUS
 62
     7
 10
-223.0983320726662
 20
167.0288220793952
  0
VERTEX
  8
0
  6
CONTINUOUS
 62
     7
 10
-222.8169388353854
 20
167.1141807012331
  0
VERTEX
  8
0
  6
CONTINUOUS
 62
     7
 10
-222.5576053426531
 20
167.2527955815462
  0
VERTEX
  8
0
  6
CONTINUOUS
 62
     7
 10
-222.3302976351593
 20
167.4393398282202
  0
VERTEX
  8
0
  6
CONTINUOUS
 62
     7
 10
-222.1437510206272
 20
167.6666446504706
  0
VERTEX
  8
0
  6
CONTINUOUS
 62
     7
 10
-222.0051343808368
 20
167.9259748514524
  0
VERTEX
  8
0
  6
CONTINUOUS
 62
     7
 10
-221.9197746755182
 20
168.2073645169758
  0
VERTEX
  8
0
  6
CONTINUOUS
 62
     7
 10
-221.8909522302763
 20
168.5
  0
SEQEND
  8
0
  6
CONTINUOUS
 62
     7
  0
LINE
  8
0
  6
CONTINUOUS
 62
     7
 10
-223.3909712701941
 20
167.0
 11
-223.4324238922002
 21
167.0
  0
LINE
  8
0
  6
CONTINUOUS
 62
     7
 10
-221.8909522302763
 20
110.7667583678948
 11
-221.8909522302763
 21
111.5
  0
ARC
  8
0
  6
CONTINUOUS
 62
     7
 10
-219.5
 20
169.2332416321053
 40
2.390952230276272
 50
61.78852415878765
 51
180.0
  0
LINE
  8
0
  6
CONTINUOUS
 62
     7
 10
-221.8909522302763
 20
168.5
 11
-221.8909522302763
 21
169.2332416321053
  0
ARC
  8
0
  6
CONTINUOUS
 62
     7
 10
-219.5
 20
110.7667583678948
 40
2.390952230276316
 50
180.0
 51
298.2114758412123
  0
LINE
  8
0
  6
CONTINUOUS
 62
     7
 10
-223.4324238922002
 20
113.0
 11
-223.3909712701941
 21
113.0
  0
POLYLINE
  8
0
  6
CONTINUOUS
 62
     7
 66
     1
  0
VERTEX
  8
0
  6
CONTINUOUS
 62
     7
 10
-221.8909522302763
 20
111.5
  0
VERTEX
  8
0
  6
CONTINUOUS
 62
     7
 10
-221.9197746755182
 20
111.7926354830242
  0
VERTEX
  8
0
  6
CONTINUOUS
 62
     7
 10
-222.0051343808368
 20
112.0740251485476
  0
VERTEX
  8
0
  6
CONTINUOUS
 62
     7
 10
-222.1437510206272
 20
112.3333553495294
  0
VERTEX
  8
0
  6
CONTINUOUS
 62
     7
 10
-222.3302976351593
 20
112.5606601717798
  0
VERTEX
  8
0
  6
CONTINUOUS
 62
     7
 10
-222.5576053426531
 20
112.7472044184538
  0
VERTEX
  8
0
  6
CONTINUOUS
 62
     7
 10
-222.8169388353854
 20
112.8858192987669
  0
VERTEX
  8
0
  6
CONTINUOUS
 62
     7
 10
-223.0983320726662
 20
112.9711779206049
  0
VERTEX
  8
0
  6
CONTINUOUS
 62
     7
 10
-223.3909712701941
 20
113.0
  0
SEQEND
  8
0
  6
CONTINUOUS
 62
     7
  0
ARC
  8
0
  6
CONTINUOUS
 62
     7
 10
-216.4998808331205
 20
167.9781676085291
 40
1.890952230276297
 50
359.3567535238058
 51
55.1497982803353
  0
ARC
  8
0
  6
CONTINUOUS
 62
     7
 10
-232.5
 20
145.0
 40
29.8909522302763
 50
55.14979828033552
 51
61.78852415878765
  0
ARC
  8
0
  6
CONTINUOUS
 62
     7
 10
-232.5
 20
135.0
 40
29.89095223027629
 50
298.2114758412123
 51
304.8502017196647
  0
ARC
  8
0
  6
CONTINUOUS
 62
     7
 10
-216.4998808331205
 20
112.021832391471
 40
1.890952230276299
 50
304.8502017196646
 51
0.6432464761849701
  0
ENDBLK
  8
0
  0
BLOCK
  8
0
  2
D_FRAME_VIEW_3750
 70
     0
 10
0.0
 20
0.0
  0
LINE
  8
0
  6
CONTINUOUS
 62
     7
 10
-373.0000000000001
 20
48.44687576256713
 11
-373.5000000000001
 21
48.44687576256713
  0
ARC
  8
0
  6
CONTINUOUS
 62
     7
 10
-372.5000000000001
 20
54.84999999999998
 40
6.480740698407859
 50
253.0738426957017
 51
261.1236049190267
  0
ARC
  8
0
  6
CONTINUOUS
 62
     7
 10
-372.5000000000001
 20
54.84999999999998
 40
6.480740698407864
 50
278.8763950809733
 51
286.9261573042983
  0
LINE
  8
0
  6
CONTINUOUS
 62
     7
 10
-371.5000000000001
 20
48.44687576256713
 11
-372.0000000000001
 21
48.44687576256713
  0
LINE
  8
0
  6
CONTINUOUS
 62
     7
 10
-372.0000000000001
 20
48.44687576256712
 11
-372.0000000000001
 21
48.64999999999997
  0
LINE
  8
0
  6
CONTINUOUS
 62
     7
 10
-373.0000000000001
 20
48.64999999999998
 11
-373.0000000000001
 21
48.44687576256713
  0
LINE
  8
0
  6
CONTINUOUS
 62
     7
 10
-353.0967545995726
 20
56.30000000070165
 11
-391.905265082718
 21
56.30000000070165
  0
LINE
  8
0
  6
CONTINUOUS
 62
     7
 10
-353.0967545995726
 20
54.00000000070165
 11
-391.905265082718
 21
54.00000000070165
  0
LINE
  8
0
  6
CONTINUOUS
 62
     7
 10
-353.0967545995726
 20
54.00000000070165
 11
-352.5009281341216
 21
54.00000000070165
  0
LINE
  8
0
  6
CONTINUOUS
 62
     7
 10
-352.5009281341216
 20
56.30000000070165
 11
-353.0967545995726
 21
56.30000000070165
  0
LINE
  8
0
  6
CONTINUOUS
 62
     7
 10
-392.5009279742055
 20
56.30000000070165
 11
-392.5009279742055
 21
54.00000000070165
  0
LINE
  8
0
  6
CONTINUOUS
 62
     7
 10
-392.5009279782034
 20
54.00000000070165
 11
-391.905265082718
 21
54.00000000070165
  0
LINE
  8
0
  6
CONTINUOUS
 62
     7
 10
-391.905265082718
 20
56.30000000070165
 11
-392.5009279782034
 21
56.30000000070165
  0
LINE
  8
0
  6
CONTINUOUS
 62
     7
 10
-352.4999902718244
 20
56.30000000070165
 11
-352.4999902718244
 21
54.00000000070165
  0
LINE
  8
0
  6
CONTINUOUS
 62
     7
 10
-352.4999902718244
 20
54.00000000070165
 11
-352.5009281341216
 21
54.00000000070165
  0
LINE
  8
0
  6
CONTINUOUS
 62
     7
 10
-352.4999902718244
 20
56.30000000070165
 11
-352.5009281341216
 21
56.30000000070165
  0
LINE
  8
0
  6
CONTINUOUS
 62
     7
 10
-424.5000000000001
 20
51.14999999999998
 11
-373.0000000000001
 21
51.15
  0
LINE
  8
0
  6
CONTINUOUS
 62
     7
 10
-373.0000000000001
 20
50.6500000000001
 11
-373.0000000000001
 21
51.14999999999998
  0
LINE
  8
0
  6
CONTINUOUS
 62
     7
 10
-320.5
 20
48.64999999999998
 11
-372.0
 21
48.6500000000001
  0
LINE
  8
0
  6
CONTINUOUS
 62
     7
 10
-372.0000000000001
 20
50.64999999999998
 11
-372.0000000000001
 21
48.6500000000001
  0
LINE
  8
0
  6
CONTINUOUS
 62
     7
 10
-373.0000000000001
 20
48.6500000000002
 11
-424.5000000000001
 21
48.64999999999998
  0
LINE
  8
0
  6
CONTINUOUS
 62
     7
 10
-373.0000000000001
 20
50.6500000000001
 11
-373.0000000000001
 21
48.6500000000002
  0
LINE
  8
0
  6
CONTINUOUS
 62
     7
 10
-427.0000000000001
 20
51.14999999999998
 11
-424.5000000000001
 21
51.14999999999998
  0
ARC
  8
0
  6
CONTINUOUS
 62
     7
 10
-427.0000000000001
 20
50.64999999999998
 40
0.5000000000000004
 50
90.0
 51
180.0
  0
LINE
  8
0
  6
CONTINUOUS
 62
     7
 10
-320.5
 20
51.14999999999998
 11
-318.0
 21
51.14999999999998
  0
ARC
  8
0
  6
CONTINUOUS
 62
     7
 10
-318.0000000000001
 20
50.64999999999998
 40
0.5000000000000004
 50
0.0
 51
90.0000000000008
  0
LINE
  8
0
  6
CONTINUOUS
 62
     7
 10
-427.5000000000001
 20
50.64999999999998
 11
-427.5000000000001
 21
48.64999999999998
  0
LINE
  8
0
  6
CONTINUOUS
 62
     7
 10
-427.5000000000001
 20
48.64999999999998
 11
-424.5000000000001
 21
48.64999999999998
  0
LINE
  8
0
  6
CONTINUOUS
 62
     7
 10
-317.5
 20
48.64999999999998
 11
-317.5
 21
50.64999999999998
  0
LINE
  8
0
  6
CONTINUOUS
 62
     7
 10
-320.5
 20
48.64999999999998
 11
-317.5
 21
48.64999999999998
  0
LINE
  8
0
  6
CONTINUOUS
 62
     7
 10
-372.0000000000001
 20
51.15000000000008
 11
-320.5000000000001
 21
51.14999999999998
  0
LINE
  8
0
  6
CONTINUOUS
 62
     7
 10
-372.0000000000001
 20
51.14999999999998
 11
-372.0000000000001
 21
50.64999999999998
  0
LINE
  8
0
  6
CONTINUOUS
 62
     7
 10
-372.0000000000001
 20
51.14999999999997
 11
-373.0000000000001
 21
51.15
  0
LINE
  8
0
  6
CONTINUOUS
 62
     7
 10
-372.0000000000001
 20
48.64999999999987
 11
-373.0000000000001
 21
48.6500000000001
  0
LINE
  8
0
  6
CONTINUOUS
 62
     7
 10
-393.3923758366396
 20
59.14999999999999
 11
-351.6076241633604
 21
59.14999999999999
  0
LINE
  8
0
  6
CONTINUOUS
 62
     7
 10
-352.2034344938302
 20
56.39999999999999
 11
-392.7965655061699
 21
56.39999999999999
  0
LINE
  8
0
  6
CONTINUOUS
 62
     7
 10
-392.7967747247606
 20
53.89999999999999
 11
-392.7965655061699
 21
56.39999999999999
  0
LINE
  8
0
  6
CONTINUOUS
 62
     7
 10
-352.2032252752396
 20
53.89999999999999
 11
-392.7967747247605
 21
53.89999999999999
  0
LINE
  8
0
  6
CONTINUOUS
 62
     7
 10
-352.2034344938302
 20
56.39999999999999
 11
-352.2032252752396
 21
53.89999999999999
  0
ARC
  8
0
  6
CONTINUOUS
 62
     7
 10
-348.4257454670071
 20
53.14999999999998
 40
2.000000000000002
 50
180.4999999999999
 51
269.9999999999998
  0
ARC
  8
0
  6
CONTINUOUS
 62
     7
 10
-396.574254532993
 20
53.14999999999998
 40
2.000000000000002
 50
270.0
 51
359.5000000000001
  0
LINE
  8
0
  6
CONTINUOUS
 62
     7
 10
-368.25
 20
48.34999999999999
 11
-368.5000000000001
 21
48.34999999999999
  0
LINE
  8
0
  6
CONTINUOUS
 62
     7
 10
-365.25
 20
48.34999999999999
 11
-368.25
 21
48.34999999999999
  0
LINE
  8
0
  6
CONTINUOUS
 62
     7
 10
-365.0000000000001
 20
48.34999999999999
 11
-365.2500000000001
 21
48.34999999999999
  0
LINE
  8
0
  6
CONTINUOUS
 62
     7
 10
-394.5743306868646
 20
53.13254692900324
 11
-394.521817169477
 21
59.14999999999998
  0
LINE
  8
0
  6
CONTINUOUS
 62
     7
 10
-394.5218171694769
 20
59.14999999999998
 11
-393.3923758366396
 21
59.14999999999998
  0
LINE
  8
0
  6
CONTINUOUS
 62
     7
 10
-350.4781828305231
 20
59.14999999999998
 11
-350.4256693131355
 21
53.13254692900324
  0
LINE
  8
0
  6
CONTINUOUS
 62
     7
 10
-351.6076241633604
 20
59.14999999999998
 11
-350.4781828305232
 21
59.14999999999998
  0
LINE
  8
0
  6
CONTINUOUS
 62
     7
 10
-368.9
 20
61.64999999999998
 11
-367.9
 21
61.64999999999998
  0
LINE
  8
0
  6
CONTINUOUS
 62
     7
 10
-368.9
 20
59.14999999999998
 11
-368.9
 21
61.64999999999998
  0
LINE
  8
0
  6
CONTINUOUS
 62
     7
 10
-381.6241437954473
 20
61.64999999999998
 11
-384.8255977587622
 21
61.64999999999998
  0
LINE
  8
0
  6
CONTINUOUS
 62
     7
 10
-363.3758562045527
 20
61.64999999999998
 11
-367.9
 21
61.64999999999998
  0
LINE
  8
0
  6
CONTINUOUS
 62
     7
 10
-377.1
 20
61.64999999999998
 11
-376.1
 21
61.64999999999998
  0
LINE
  8
0
  6
CONTINUOUS
 62
     7
 10
-376.1
 20
61.64999999999998
 11
-376.1
 21
59.14999999999998
  0
LINE
  8
0
  6
CONTINUOUS
 62
     7
 10
-360.1744022412379
 20
61.64999999999998
 11
-363.3758562045527
 21
61.64999999999998
  0
LINE
  8
0
  6
CONTINUOUS
 62
     7
 10
-377.1
 20
61.64999999999998
 11
-381.6241437954474
 21
61.64999999999998
  0
LINE
  8
0
  6
CONTINUOUS
 62
     7
 10
-352.9625788004633
 20
61.64999999999998
 11
-360.1744022412379
 21
61.64999999999998
  0
LINE
  8
0
  6
CONTINUOUS
 62
     7
 10
-384.8255977587622
 20
61.64999999999998
 11
-392.0374211995368
 21
61.64999999999998
  0
LINE
  8
0
  6
CONTINUOUS
 62
     7
 10
-361.0000000000001
 20
48.34999999999999
 11
-361.2500000000001
 21
48.34999999999999
  0
LINE
  8
0
  6
CONTINUOUS
 62
     7
 10
-361.2500000000001
 20
48.34999999999999
 11
-363.5062987825575
 21
48.34999999999999
  0
LINE
  8
0
  6
CONTINUOUS
 62
     7
 10
-363.5062987825575
 20
48.64999999999998
 11
-363.5062987825575
 21
48.34999999999999
  0
LINE
  8
0
  6
CONTINUOUS
 62
     7
 10
-394.5000000000001
 20
61.64999999999998
 11
-392.0374211995368
 21
61.64999999999998
  0
LINE
  8
0
  6
CONTINUOUS
 62
     7
 10
-394.5218171694769
 20
59.14999999999998
 11
-394.5000000000001
 21
61.64999999999998
  0
LINE
  8
0
  6
CONTINUOUS
 62
     7
 10
-352.9625788004633
 20
61.64999999999998
 11
-350.5
 21
61.64999999999998
  0
LINE
  8
0
  6
CONTINUOUS
 62
     7
 10
-350.5
 20
61.64999999999998
 11
-350.4781828305231
 21
59.14999999999998
  0
LINE
  8
0
  6
CONTINUOUS
 62
     7
 10
-396.1094367802141
 20
56.80790365177241
 11
-396.5429843912362
 21
56.71575026225329
  0
ARC
  8
0
  6
CONTINUOUS
 62
     7
 10
-396.5252601618497
 20
58.76419885324001
 40
2.0
 50
282.0000000000002
 51
359.4999999999999
  0
ARC
  8
0
  6
CONTINUOUS
 62
     7
 10
-348.4747398381504
 20
58.76419885324001
 40
2.0
 50
180.4999999999997
 51
257.9999999999998
  0
LINE
  8
0
  6
CONTINUOUS
 62
     7
 10
-348.4570156087638
 20
56.71575026225329
 11
-348.8905632197859
 21
56.80790365177241
  0
LINE
  8
0
  6
CONTINUOUS
 62
     7
 10
-354.5676332253784
 20
56.39999999999999
 11
-354.5667605386055
 21
56.30000000070165
  0
LINE
  8
0
  6
CONTINUOUS
 62
     7
 10
-354.5466887426867
 20
54.00000000070165
 11
-354.5458160559015
 21
53.89999999999999
  0
LINE
  8
0
  6
CONTINUOUS
 62
     7
 10
-390.4541839440986
 20
53.89999999999999
 11
-390.4533112573134
 21
54.00000000070165
  0
LINE
  8
0
  6
CONTINUOUS
 62
     7
 10
-390.4332394613946
 20
56.30000000070165
 11
-390.4323667746216
 21
56.39999999999999
  0
LINE
  8
0
  6
CONTINUOUS
 62
     7
 10
-418.0642056690494
 20
52.14127346450162
 11
-422.7277806568708
 21
51.14999999999998
  0
LINE
  8
0
  6
CONTINUOUS
 62
     7
 10
-322.2722193431293
 20
51.14999999999998
 11
-326.9357943309507
 21
52.1412734645016
  0
LINE
  8
0
  6
CONTINUOUS
 62
     7
 10
-418.0642056690494
 20
52.1412734645016
 11
-396.5429843912362
 21
56.71575026225329
  0
LINE
  8
0
  6
CONTINUOUS
 62
     7
 10
-326.9357943309507
 20
52.1412734645016
 11
-348.4570156087638
 21
56.71575026225329
  0
LINE
  8
0
  6
CONTINUOUS
 62
     7
 10
-374.5000000000001
 20
56.39999999999999
 11
-374.5000000000001
 21
56.30000000070165
  0
LINE
  8
0
  6
CONTINUOUS
 62
     7
 10
-374.5000000000001
 20
54.00000000070165
 11
-374.5000000000001
 21
53.89999999999999
  0
LINE
  8
0
  6
CONTINUOUS
 62
     7
 10
-370.5000000000001
 20
53.89999999999999
 11
-370.5000000000001
 21
54.00000000070165
  0
LINE
  8
0
  6
CONTINUOUS
 62
     7
 10
-370.5000000000001
 20
56.30000000070165
 11
-370.5000000000001
 21
56.39999999999999
  0
LINE
  8
0
  6
CONTINUOUS
 62
     7
 10
-368.5000000000001
 20
48.65000000000015
 11
-368.5000000000001
 21
48.3500000000001
  0
LINE
  8
0
  6
CONTINUOUS
 62
     7
 10
-365.0000000000001
 20
48.3500000000001
 11
-365.0000000000001
 21
48.6500000000001
  0
LINE
  8
0
  6
CONTINUOUS
 62
     7
 10
-361.0000000000001
 20
48.3500000000001
 11
-361.0000000000001
 21
48.65000000000015
  0
ENDBLK
  8
0
  0
ENDSEC
  0
SECTION
  2
ENTITIES
  0
TEXT
  8
0
  6
CONTINUOUS
 62
     7
 10
-242.5263723896461
 20
53.32842003251221
 40
3.0
  1
OF-12PX38
  0
LINE
  8
0
  6
CENTER
 62
     1
 10
-225.5
 20
103.7345463041802
 11
-225.5
 21
111.051268122434
  0
LINE
  8
0
  6
CENTER
 62
     1
 10
-239.5
 20
168.9487318775661
 11
-239.5
 21
176.2654536958198
  0
LINE
  8
0
  6
CENTER
 62
     1
 10
-239.5
 20
103.7345463041802
 11
-239.5
 21
111.051268122434
  0
LINE
  8
0
  6
CENTER
 62
     1
 10
-225.5
 20
168.9487318775661
 11
-225.5
 21
176.2654536958198
  0
LINE
  8
0
  6
CENTER
 62
     1
 10
-290.5000000000001
 20
140.0
 11
-174.4999999999999
 21
140.0
  0
LINE
  8
0
  6
CENTER
 62
     1
 10
-372.5000000000001
 20
81.99999999999994
 11
-372.5000000000001
 21
198.0000000000001
  0
LINE
  8
0
  6
CENTER
 62
     1
 10
-372.5000000000001
 20
45.34999999999999
 11
-372.5000000000001
 21
64.64999999999998
  0
LINE
  8
0
  6
CENTER
 62
     1
 10
-430.5000000000001
 20
140.0
 11
-314.5
 21
140.0
  0
LINE
  8
0
  6
CENTER
 62
     1
 10
-232.5
 20
81.99999999999994
 11
-232.5
 21
198.0000000000001
  0
INSERT
  8
0
  6
CONTINUOUS
 62
     7
  2
D_FRAME_VIEW_3160
 10
0.0
 20
0.0
 30
0.0
  0
INSERT
  8
0
  6
CONTINUOUS
 62
     7
  2
D_FRAME_VIEW_3593
 10
0.0
 20
0.0
 30
0.0
  0
INSERT
  8
0
  6
CONTINUOUS
 62
     7
  2
D_FRAME_VIEW_3750
 10
0.0
 20
0.0
 30
0.0
  0
ENDSEC
  0
EOF
