  0
SECTION
  2
HEADER
  9
$ACADVER
  1
AC1006
  9
$DWGCODEPAGE
  3
ansi_932
  9
$INSBASE
 10
0.0
 20
0.0
 30
0.0
  9
$EXTMIN
 10
419.0
 20
77.5340909090909
  9
$EXTMAX
 10
581.05
 20
246.0
  9
$LIMMIN
 10
0.0
 20
0.0
  9
$LIMMAX
 10
12.0
 20
9.0
  9
$ORTHOMODE
 70
     0
  9
$REGENMODE
 70
     1
  9
$FILLMODE
 70
     1
  9
$QTEXTMODE
 70
     0
  9
$MIRRTEXT
 70
     1
  9
$DRAGMODE
 70
     2
  9
$LTSCALE
 40
1.0
  9
$OSMODE
 70
    37
  9
$ATTMODE
 70
     1
  9
$TEXTSIZE
 40
0.2
  9
$TRACEWID
 40
0.05
  9
$TEXTSTYLE
  7
STANDARD
  9
$CLAYER
  8
0
  9
$CELTYPE
  6
BYLAYER
  9
$CECOLOR
 62
   256
  9
$DIMSCALE
 40
1.0
  9
$DIMASZ
 40
3.0
  9
$DIMEXO
 40
0.0625
  9
$DIMDLI
 40
0.38
  9
$DIMRND
 40
0.0
  9
$DIMDLE
 40
0.0
  9
$DIMEXE
 40
1.5
  9
$DIMTP
 40
0.0
  9
$DIMTM
 40
0.0
  9
$DIMTXT
 40
3.0
  9
$DIMCEN
 40
0.09
  9
$DIMTSZ
 40
0.0
  9
$DIMTOL
 70
     0
  9
$DIMLIM
 70
     0
  9
$DIMTIH
 70
     1
  9
$DIMTOH
 70
     1
  9
$DIMSE1
 70
     0
  9
$DIMSE2
 70
     0
  9
$DIMTAD
 70
     1
  9
$DIMZIN
 70
     0
  9
$DIMBLK
  1

  9
$DIMASO
 70
     1
  9
$DIMSHO
 70
     1
  9
$DIMPOST
  1

  9
$DIMAPOST
  1

  9
$DIMALT
 70
     0
  9
$DIMALTD
 70
     2
  9
$DIMALTF
 40
25.4
  9
$DIMLFAC
 40
1.0
  9
$DIMTOFL
 70
     0
  9
$DIMTVP
 40
0.0
  9
$DIMTIX
 70
     0
  9
$DIMSOXD
 70
     0
  9
$DIMSAH
 70
     0
  9
$DIMBLK1
  1

  9
$DIMBLK2
  1

  9
$LUNITS
 70
     2
  9
$LUPREC
 70
     4
  9
$SKETCHINC
 40
0.1
  9
$FILLETRAD
 40
0.5
  9
$AUNITS
 70
     0
  9
$AUPREC
 70
     0
  9
$MENU
  1
.
  9
$ELEVATION
 40
0.0
  9
$THICKNESS
 40
0.0
  9
$LIMCHECK
 70
     0
  9
$CHAMFERA
 40
0.0
  9
$CHAMFERB
 40
0.0
  9
$SKPOLY
 70
     0
  9
$TDCREATE
 40
2459062.689975474
  9
$TDUPDATE
 40
2459062.68997566
  9
$TDINDWG
 40
0.0000000116
  9
$TDUSRTIMER
 40
0.0000000116
  9
$USRTIMER
 70
     1
  9
$ANGBASE
 50
0.0
  9
$ANGDIR
 70
     0
  9
$PDMODE
 70
     0
  9
$PDSIZE
 40
0.0
  9
$PLINEWID
 40
0.0
  9
$COORDS
 70
     1
  9
$SPLFRAME
 70
     0
  9
$SPLINETYPE
 70
     6
  9
$SPLINESEGS
 70
     8
  9
$ATTDIA
 70
     0
  9
$ATTREQ
 70
     1
  9
$HANDLING
 70
     1
  9
$HANDSEED
  5
1E2
  9
$SURFTAB1
 70
     6
  9
$SURFTAB2
 70
     6
  9
$SURFTYPE
 70
     6
  9
$SURFU
 70
     6
  9
$SURFV
 70
     6
  9
$UCSNAME
  2

  9
$UCSORG
 10
0.0
 20
0.0
 30
0.0
  9
$UCSXDIR
 10
1.0
 20
0.0
 30
0.0
  9
$UCSYDIR
 10
0.0
 20
1.0
 30
0.0
  9
$USERI1
 70
     0
  9
$USERI2
 70
     0
  9
$USERI3
 70
     0
  9
$USERI4
 70
     0
  9
$USERI5
 70
     0
  9
$USERR1
 40
0.0
  9
$USERR2
 40
0.0
  9
$USERR3
 40
0.0
  9
$USERR4
 40
0.0
  9
$USERR5
 40
0.0
  9
$WORLDVIEW
 70
     1
  0
ENDSEC
  0
SECTION
  2
TABLES
  0
TABLE
  2
VPORT
 70
     1
  0
VPORT
  2
*ACTIVE
 70
     0
 10
0.0
 20
0.0
 11
1.0
 21
1.0
 12
500.025
 22
161.7670454545455
 13
0.0
 23
0.0
 14
0.5
 24
0.5
 15
0.5
 25
0.5
 16
0.0
 26
0.0
 36
1.0
 17
0.0
 27
0.0
 37
0.0
 40
168.4659090909091
 41
1.6
 42
50.0
 43
0.0
 44
0.0
 50
0.0
 51
0.0
 71
     0
 72
   100
 73
     1
 74
     3
 75
     0
 76
     0
 77
     0
 78
     0
  0
ENDTAB
  0
TABLE
  2
LTYPE
 70
     2
  0
LTYPE
  2
CONTINUOUS
 70
     0
  3
Solid line
 72
    65
 73
     0
 40
0.0
  0
LTYPE
  2
CENTER
 70
     0
  3

 72
    65
 73
     0
 40
0.0
  0
ENDTAB
  0
TABLE
  2
LAYER
 70
     2
  0
LAYER
  2
0
 70
     0
 62
     7
  6
CONTINUOUS
  0
LAYER
  2
1
 70
     0
 62
     7
  6
CONTINUOUS
  0
ENDTAB
  0
TABLE
  2
STYLE
 70
     2
  0
STYLE
  2
STANDARD
 70
     0
 40
0.0
 41
1.0
 50
0.0
 71
     0
 42
0.2
  3
txt
  4

  0
STYLE
  2
ＭＳ_ゴシック
 70
     0
 40
0.0
 41
1.0
 50
0.0
 71
     0
 42
0.2
  3
ＭＳ ゴシック.shx
  4

  0
ENDTAB
  0
TABLE
  2
VIEW
 70
     0
  0
ENDTAB
  0
TABLE
  2
UCS
 70
     0
  0
ENDTAB
  0
ENDSEC
  0
SECTION
  2
BLOCKS
  0
BLOCK
  8
0
  2
D_FRAME_VIEW_3324
 70
     0
 10
0.0
 20
0.0
 30
0.0
  0
ARC
  5
94
  8
1
  6
CONTINUOUS
 62
     7
 10
521.5000000000001
 20
81.45
 30
0.0
 40
0.5000000000000004
 50
270.0
 51
0.0000000000010232
  0
LINE
  5
95
  8
1
  6
CONTINUOUS
 62
     7
 10
522.0000000000001
 20
87.55000000000001
 30
0.0
 11
522.0000000000001
 21
81.45000000000002
 31
0.0
  0
ARC
  5
96
  8
1
  6
CONTINUOUS
 62
     7
 10
495.5000000000002
 20
84.93602743792724
 30
0.0
 40
0.5000000000000004
 50
179.9999999999993
 51
270.0
  0
LINE
  5
97
  8
1
  6
CONTINUOUS
 62
     7
 10
495.0000000000002
 20
84.93602743792725
 30
0.0
 11
495.0000000000002
 21
87.55000000000001
 31
0.0
  0
LINE
  5
98
  8
1
  6
CONTINUOUS
 62
     7
 10
455.0000000000002
 20
87.55000000000001
 30
0.0
 11
455.0000000000002
 21
84.9360274379272
 31
0.0
  0
ARC
  5
99
  8
1
  6
CONTINUOUS
 62
     7
 10
454.5000000000002
 20
84.9360274379272
 30
0.0
 40
0.5000000000000004
 50
261.8950085855774
 51
270.0
  0
LINE
  5
9A
  8
1
  6
CONTINUOUS
 62
     7
 10
428.0000000000002
 20
81.45000000000002
 30
0.0
 11
428.0000000000002
 21
87.55000000000001
 31
0.0
  0
ARC
  5
9B
  8
1
  6
CONTINUOUS
 62
     7
 10
428.5000000000002
 20
81.45
 30
0.0
 40
0.5000000000000004
 50
179.9999999999989
 51
270.0
  0
ARC
  5
9C
  8
1
  6
CONTINUOUS
 62
     7
 10
530.5000000000001
 20
81.45
 30
0.0
 40
0.5000000000000004
 50
270.0
 51
359.9999999999999
  0
LINE
  5
9D
  8
1
  6
CONTINUOUS
 62
     7
 10
531.0
 20
87.55000000000001
 30
0.0
 11
531.0
 21
81.45
 31
0.0
  0
ARC
  5
9E
  8
1
  6
CONTINUOUS
 62
     7
 10
419.5000000000001
 20
81.45
 30
0.0
 40
0.5000000000000004
 50
180.0
 51
270.0
  0
LINE
  5
9F
  8
1
  6
CONTINUOUS
 62
     7
 10
419.0000000000001
 20
81.45
 30
0.0
 11
419.0000000000001
 21
87.55000000000001
 31
0.0
  0
LINE
  5
A0
  8
1
  6
CONTINUOUS
 62
     7
 10
512.75
 20
97.05000000000001
 30
0.0
 11
514.2500000000001
 21
97.05000000000001
 31
0.0
  0
LINE
  5
A1
  8
1
  6
CONTINUOUS
 62
     7
 10
511.75
 20
93.55000000000001
 30
0.0
 11
515.25
 21
93.55000000000001
 31
0.0
  0
LINE
  5
A2
  8
1
  6
CONTINUOUS
 62
     7
 10
438.25
 20
93.55000000000001
 30
0.0
 11
434.75
 21
93.55000000000001
 31
0.0
  0
LINE
  5
A3
  8
1
  6
CONTINUOUS
 62
     7
 10
437.25
 20
97.05000000000001
 30
0.0
 11
435.75
 21
97.05000000000001
 31
0.0
  0
ARC
  5
A4
  8
1
  6
CONTINUOUS
 62
     7
 10
470.6862658997086
 20
88.37704237368642
 30
0.0
 40
1.130643355783991
 50
312.9894351033442
 51
8.352019836248303
  0
ARC
  5
A5
  8
1
  6
CONTINUOUS
 62
     7
 10
479.3137341002912
 20
88.37704237368641
 30
0.0
 40
1.130643355783791
 50
171.6479801637487
 51
227.0105648966655
  0
LINE
  5
A6
  8
1
  6
CONTINUOUS
 62
     7
 10
471.8166717549714
 20
92.30601041369644
 30
0.0
 11
471.8887350782286
 21
92.50414619823944
 31
0.0
  0
LINE
  5
A7
  8
1
  6
CONTINUOUS
 62
     7
 10
478.1833282450287
 20
92.30601041369644
 30
0.0
 11
478.1112649217714
 21
92.50414619823944
 31
0.0
  0
LINE
  5
A8
  8
1
  6
CONTINUOUS
 62
     7
 10
478.1017915457467
 20
95.09541181869471
 30
0.0
 11
478.1739733614728
 21
95.29703817368286
 31
0.0
  0
LINE
  5
A9
  8
1
  6
CONTINUOUS
 62
     7
 10
471.8982084542533
 20
95.09541181869471
 30
0.0
 11
471.8260266385273
 21
95.29703817368286
 31
0.0
  0
ARC
  5
AA
  8
1
  6
CONTINUOUS
 62
     7
 10
497.082943322398
 20
88.55000000000001
 30
0.0
 40
1.000000000000001
 50
180.4999999999998
 51
270.0
  0
LINE
  5
AB
  8
1
  6
CONTINUOUS
 62
     7
 10
496.0829813993338
 20
88.54127346450163
 30
0.0
 11
496.0000000000001
 21
98.05000000000001
 31
0.0
  0
LINE
  5
AC
  8
1
  6
CONTINUOUS
 62
     7
 10
478.45
 20
95.08964051942576
 30
0.0
 11
478.45
 21
92.51035948057428
 31
0.0
  0
LINE
  5
AD
  8
1
  6
CONTINUOUS
 62
     7
 10
471.55
 20
95.08964051942576
 30
0.0
 11
471.55
 21
92.51035948057428
 31
0.0
  0
ARC
  5
AE
  8
1
  6
CONTINUOUS
 62
     7
 10
452.9170566776021
 20
88.55000000000001
 30
0.0
 40
1.000000000000001
 50
270.0
 51
359.5000000000001
  0
LINE
  5
AF
  8
1
  6
CONTINUOUS
 62
     7
 10
453.9170186006662
 20
88.54127346450163
 30
0.0
 11
454.0000000000001
 21
98.05000000000001
 31
0.0
  0
LINE
  5
B0
  8
1
  6
CONTINUOUS
 62
     7
 10
473.9999999999999
 20
92.65000000000002
 30
0.0
 11
473.9999999999999
 21
94.95000000000002
 31
0.0
  0
LINE
  5
B1
  8
1
  6
CONTINUOUS
 62
     7
 10
475.9999999999999
 20
94.95000000000002
 30
0.0
 11
475.9999999999999
 21
92.65000000000002
 31
0.0
  0
ARC
  5
B2
  8
1
  6
CONTINUOUS
 62
     7
 10
524.2121716765454
 20
89.55
 30
0.0
 40
2.0
 50
257.8887569839247
 51
270.0
  0
LINE
  5
B3
  8
1
  6
CONTINUOUS
 62
     7
 10
497.6055941619798
 20
93.21388789399528
 30
0.0
 11
511.75
 21
90.17868681823094
 31
0.0
  0
LINE
  5
B4
  8
1
  6
CONTINUOUS
 62
     7
 10
515.25
 20
89.42763344159353
 30
0.0
 11
523.7925508226014
 21
87.59451583004738
 31
0.0
  0
ARC
  5
B5
  8
1
  6
CONTINUOUS
 62
     7
 10
425.7878283234546
 20
89.55
 30
0.0
 40
2.0
 50
270.0
 51
282.1112430160722
  0
LINE
  5
B6
  8
1
  6
CONTINUOUS
 62
     7
 10
452.3944058380202
 20
93.21388789399526
 30
0.0
 11
438.25
 21
90.17868681823094
 31
0.0
  0
LINE
  5
B7
  8
1
  6
CONTINUOUS
 62
     7
 10
434.75
 20
89.42763344159353
 30
0.0
 11
426.2074491773986
 21
87.59451583004736
 31
0.0
  0
LINE
  5
B8
  8
1
  6
CONTINUOUS
 62
     7
 10
453.4990065130308
 20
84.5523340891893
 30
0.0
 11
453.3898319750502
 21
84.5626314265621
 31
0.0
  0
ARC
  5
B9
  8
1
  6
CONTINUOUS
 62
     7
 10
515.75
 20
88.05000000000001
 30
0.0
 40
0.5000000000000004
 50
180.0
 51
270.0
  0
ARC
  5
BA
  8
1
  6
CONTINUOUS
 62
     7
 10
511.25
 20
88.05000000000001
 30
0.0
 40
0.500000000000056
 50
270.0
 51
0.0
  0
ARC
  5
BB
  8
1
  6
CONTINUOUS
 62
     7
 10
438.75
 20
88.05000000000001
 30
0.0
 40
0.5000000000000004
 50
180.0
 51
270.0
  0
ARC
  5
BC
  8
1
  6
CONTINUOUS
 62
     7
 10
434.25
 20
88.05000000000001
 30
0.0
 40
0.5000000000000004
 50
270.0
 51
0.0
  0
LINE
  5
BD
  8
1
  6
CONTINUOUS
 62
     7
 10
515.25
 20
93.55000000000001
 30
0.0
 11
514.2500000000001
 21
97.05000000000001
 31
0.0
  0
LINE
  5
BE
  8
1
  6
CONTINUOUS
 62
     7
 10
512.75
 20
97.05000000000001
 30
0.0
 11
511.75
 21
93.55000000000001
 31
0.0
  0
LINE
  5
BF
  8
1
  6
CONTINUOUS
 62
     7
 10
511.75
 20
93.55000000000001
 30
0.0
 11
511.75
 21
88.05000000000001
 31
0.0
  0
LINE
  5
C0
  8
1
  6
CONTINUOUS
 62
     7
 10
515.25
 20
88.05000000000001
 30
0.0
 11
515.25
 21
93.55000000000001
 31
0.0
  0
LINE
  5
C1
  8
1
  6
CONTINUOUS
 62
     7
 10
434.75
 20
93.55000000000001
 30
0.0
 11
434.75
 21
88.05000000000001
 31
0.0
  0
LINE
  5
C2
  8
1
  6
CONTINUOUS
 62
     7
 10
438.25
 20
88.05000000000001
 30
0.0
 11
438.25
 21
93.55000000000001
 31
0.0
  0
LINE
  5
C3
  8
1
  6
CONTINUOUS
 62
     7
 10
438.25
 20
93.55000000000001
 30
0.0
 11
437.25
 21
97.05000000000001
 31
0.0
  0
LINE
  5
C4
  8
1
  6
CONTINUOUS
 62
     7
 10
435.75
 20
97.05000000000001
 30
0.0
 11
434.75
 21
93.55000000000001
 31
0.0
  0
ENDBLK
  8
0
  0
BLOCK
  8
0
  2
D_FRAME_VIEW_3153
 70
     0
 10
0.0
 20
0.0
 30
0.0
  0
ARC
  5
C9
  8
1
  6
CONTINUOUS
 62
     7
 10
594.8499999999999
 20
163.5430021764238
 30
0.0
 40
19.39999999999994
 50
144.531335718901
 51
180.0
  0
LINE
  5
CA
  8
1
  6
CONTINUOUS
 62
     7
 10
575.4499999999999
 20
163.5430021764238
 30
0.0
 11
575.4499999999999
 21
145.5
 31
0.0
  0
ARC
  5
CB
  8
1
  6
CONTINUOUS
 62
     7
 10
579.05
 20
133.0
 30
0.0
 40
0.4999999999999449
 50
269.999999999999
 51
0.0000000000007958
  0
ARC
  5
CC
  8
1
  6
CONTINUOUS
 62
     7
 10
577.5499999999998
 20
142.4999999999999
 30
0.0
 40
2.000000000000002
 50
0.0
 51
90.0
  0
ARC
  5
CD
  8
1
  6
CONTINUOUS
 62
     7
 10
576.4499999999999
 20
145.5
 30
0.0
 40
1.000000000000001
 50
180.0
 51
269.9999999999999
  0
LINE
  5
CE
  8
1
  6
CONTINUOUS
 62
     7
 10
576.4499999999999
 20
144.5
 30
0.0
 11
577.5499999999998
 21
144.5
 31
0.0
  0
LINE
  5
CF
  8
1
  6
CONTINUOUS
 62
     7
 10
579.05
 20
132.5
 30
0.0
 11
572.9499999999999
 21
132.5
 31
0.0
  0
LINE
  5
D0
  8
1
  6
CONTINUOUS
 62
     7
 10
572.9499999999999
 20
244.5
 30
0.0
 11
579.05
 21
244.5
 31
0.0
  0
ARC
  5
D1
  8
1
  6
CONTINUOUS
 62
     7
 10
579.05
 20
244.0000000000001
 30
0.0
 40
0.5000000000000004
 50
0.0
 51
90.0000000000011
  0
LINE
  5
D2
  8
1
  6
CONTINUOUS
 62
     7
 10
577.5499999999998
 20
232.5000000000001
 30
0.0
 11
576.4499999999999
 21
232.5000000000001
 31
0.0
  0
ARC
  5
D3
  8
1
  6
CONTINUOUS
 62
     7
 10
594.8499999999999
 20
213.4569978235763
 30
0.0
 40
19.39999999999997
 50
180.0
 51
215.468664281099
  0
LINE
  5
D4
  8
1
  6
CONTINUOUS
 62
     7
 10
575.4499999999999
 20
231.5000000000001
 30
0.0
 11
575.4499999999999
 21
213.4569978235763
 31
0.0
  0
ARC
  5
D5
  8
1
  6
CONTINUOUS
 62
     7
 10
576.4499999999999
 20
231.5000000000001
 30
0.0
 40
1.000000000000001
 50
90.00000000000009
 51
180.0
  0
ARC
  5
D6
  8
1
  6
CONTINUOUS
 62
     7
 10
577.5499999999998
 20
234.5000000000001
 30
0.0
 40
2.000000000000002
 50
270.0
 51
0.0
  0
LINE
  5
D7
  8
1
  6
CONTINUOUS
 62
     7
 10
572.9499999999999
 20
188.5
 30
0.0
 11
572.6499999999999
 21
188.5
 31
0.0
  0
LINE
  5
D8
  8
1
  6
CONTINUOUS
 62
     7
 10
575.4499999999999
 20
156.75
 30
0.0
 11
576.3499999999999
 21
156.75
 31
0.0
  0
LINE
  5
D9
  8
1
  6
CONTINUOUS
 62
     7
 10
575.4499999999999
 20
220.25
 30
0.0
 11
576.3499999999999
 21
220.25
 31
0.0
  0
LINE
  5
DA
  8
1
  6
CONTINUOUS
 62
     7
 10
576.3499999999999
 20
220.25
 30
0.0
 11
576.4499999999999
 21
220.15
 31
0.0
  0
LINE
  5
DB
  8
1
  6
CONTINUOUS
 62
     7
 10
576.4499999999999
 20
220.15
 30
0.0
 11
576.4499999999999
 21
207.3088273640006
 31
0.0
  0
LINE
  5
DC
  8
1
  6
CONTINUOUS
 62
     7
 10
576.4499999999999
 20
169.6911726359994
 30
0.0
 11
576.4499999999999
 21
156.8500000000001
 31
0.0
  0
LINE
  5
DD
  8
1
  6
CONTINUOUS
 62
     7
 10
576.4499999999999
 20
156.8500000000001
 30
0.0
 11
576.3499999999999
 21
156.75
 31
0.0
  0
LINE
  5
DE
  8
1
  6
CONTINUOUS
 62
     7
 10
579.05
 20
131.0
 30
0.0
 11
572.9499999999999
 21
131.0
 31
0.0
  0
ARC
  5
DF
  8
1
  6
CONTINUOUS
 62
     7
 10
579.05
 20
131.5
 30
0.0
 40
0.4999999999999449
 50
270.0000000000001
 51
0.0
  0
LINE
  5
E0
  8
1
  6
CONTINUOUS
 62
     7
 10
572.9499999999999
 20
246.0
 30
0.0
 11
579.05
 21
246.0
 31
0.0
  0
ARC
  5
E1
  8
1
  6
CONTINUOUS
 62
     7
 10
579.05
 20
245.5
 30
0.0
 40
0.5000000000000004
 50
0.0
 51
90.0
  0
LINE
  5
E2
  8
1
  6
CONTINUOUS
 62
     7
 10
563.4499999999999
 20
240.75
 30
0.0
 11
563.4499999999999
 21
239.25
 31
0.0
  0
LINE
  5
E3
  8
1
  6
CONTINUOUS
 62
     7
 10
566.9499999999999
 20
241.75
 30
0.0
 11
566.9499999999999
 21
238.25
 31
0.0
  0
LINE
  5
E4
  8
1
  6
CONTINUOUS
 62
     7
 10
566.9499999999999
 20
135.25
 30
0.0
 11
566.9499999999999
 21
138.75
 31
0.0
  0
LINE
  5
E5
  8
1
  6
CONTINUOUS
 62
     7
 10
563.4499999999999
 20
136.25
 30
0.0
 11
563.4499999999999
 21
137.75
 31
0.0
  0
ARC
  5
E6
  8
1
  6
CONTINUOUS
 62
     7
 10
567.1742193895586
 20
209.5391480403979
 30
0.0
 40
1.017374177935301
 50
95.80630023498178
 51
119.8512059930381
  0
POLYLINE
  5
E7
  8
1
  6
CONTINUOUS
 62
     7
 66
     1
 10
0.0
 20
0.0
 30
0.0
  0
VERTEX
  5
1D8
  8
1
  6
CONTINUOUS
 62
     7
 10
566.6678221088542
 20
210.4215379836909
 30
0.0
  0
VERTEX
  5
1D9
  8
1
  6
CONTINUOUS
 62
     7
 10
565.9949094973472
 20
210.0140859210617
 30
0.0
  0
VERTEX
  5
1DA
  8
1
  6
CONTINUOUS
 62
     7
 10
565.3480810070488
 20
209.5663790189434
 30
0.0
  0
SEQEND
  5
1E0
  8
1
  6
CONTINUOUS
 62
     7
  0
ARC
  5
E8
  8
1
  6
CONTINUOUS
 62
     7
 10
567.7092720637937
 20
215.5648192536767
 30
0.0
 40
3.180759230698015
 50
222.0692386754602
 51
258.4295017576292
  0
ARC
  5
E9
  8
1
  6
CONTINUOUS
 62
     7
 10
567.1742193895586
 20
163.5391480403973
 30
0.0
 40
1.017374177935837
 50
95.80630023498502
 51
119.851205993028
  0
POLYLINE
  5
EA
  8
1
  6
CONTINUOUS
 62
     7
 66
     1
 10
0.0
 20
0.0
 30
0.0
  0
VERTEX
  5
1DB
  8
1
  6
CONTINUOUS
 62
     7
 10
566.6678221088542
 20
164.4215379836909
 30
0.0
  0
VERTEX
  5
1DC
  8
1
  6
CONTINUOUS
 62
     7
 10
565.9949094973471
 20
164.0140859210618
 30
0.0
  0
VERTEX
  5
1DD
  8
1
  6
CONTINUOUS
 62
     7
 10
565.3480810070488
 20
163.5663790189434
 30
0.0
  0
SEQEND
  5
1E1
  8
1
  6
CONTINUOUS
 62
     7
  0
ARC
  5
EB
  8
1
  6
CONTINUOUS
 62
     7
 10
567.7092720637932
 20
169.5648192536758
 30
0.0
 40
3.180759230697026
 50
222.0692386754554
 51
258.4295017576358
  0
ARC
  5
EC
  8
1
  6
CONTINUOUS
 62
     7
 10
571.9653984375926
 20
227.4130217361862
 30
0.0
 40
0.9847114121044535
 50
269.6117900620072
 51
359.1441717578211
  0
LINE
  5
ED
  8
1
  6
CONTINUOUS
 62
     7
 10
568.1939895863035
 20
226.3964636168274
 30
0.0
 11
568.0492943339857
 21
226.3346577374498
 31
0.0
  0
LINE
  5
EE
  8
1
  6
CONTINUOUS
 62
     7
 10
565.3490294874264
 20
226.3115145966019
 30
0.0
 11
565.202961826317
 21
226.3711439217641
 31
0.0
  0
LINE
  5
EF
  8
1
  6
CONTINUOUS
 62
     7
 10
568.0132708006051
 20
149.7962220978993
 30
0.0
 11
568.0018320113394
 21
150.4515498960406
 31
0.0
  0
LINE
  5
F0
  8
1
  6
CONTINUOUS
 62
     7
 10
567.9980954646354
 20
226.334383486659
 30
0.0
 11
568.0132708006051
 21
227.2037779021007
 31
0.0
  0
LINE
  5
F1
  8
1
  6
CONTINUOUS
 62
     7
 10
565.3985645393022
 20
150.474268267093
 30
0.0
 11
565.3871901470611
 21
149.8226297720293
 31
0.0
  0
LINE
  5
F2
  8
1
  6
CONTINUOUS
 62
     7
 10
565.3871901470611
 20
227.1773702279707
 30
0.0
 11
565.4022936474547
 21
226.3120912699315
 31
0.0
  0
ARC
  5
F3
  8
1
  6
CONTINUOUS
 62
     7
 10
572.4499999999999
 20
242.25
 30
0.0
 40
0.500000000000056
 50
270.0
 51
0.0
  0
ARC
  5
F4
  8
1
  6
CONTINUOUS
 62
     7
 10
572.4499999999999
 20
237.75
 30
0.0
 40
0.5000000000000004
 50
0.0
 51
90.0
  0
ARC
  5
F5
  8
1
  6
CONTINUOUS
 62
     7
 10
572.4499999999999
 20
139.25
 30
0.0
 40
0.500000000000056
 50
270.0
 51
0.0
  0
ARC
  5
F6
  8
1
  6
CONTINUOUS
 62
     7
 10
572.4499999999999
 20
134.75
 30
0.0
 40
0.5000000000000004
 50
0.0
 51
90.0
  0
LINE
  5
F7
  8
1
  6
CONTINUOUS
 62
     7
 10
566.9499999999999
 20
241.7500000000001
 30
0.0
 11
563.4499999999999
 21
240.75
 31
0.0
  0
LINE
  5
F8
  8
1
  6
CONTINUOUS
 62
     7
 10
563.4499999999999
 20
239.25
 30
0.0
 11
566.9499999999999
 21
238.25
 31
0.0
  0
LINE
  5
F9
  8
1
  6
CONTINUOUS
 62
     7
 10
566.9499999999999
 20
238.25
 30
0.0
 11
572.4499999999999
 21
238.25
 31
0.0
  0
LINE
  5
FA
  8
1
  6
CONTINUOUS
 62
     7
 10
572.4499999999999
 20
241.75
 30
0.0
 11
566.9499999999999
 21
241.75
 31
0.0
  0
LINE
  5
FB
  8
1
  6
CONTINUOUS
 62
     7
 10
566.9499999999999
 20
135.25
 30
0.0
 11
572.4499999999999
 21
135.25
 31
0.0
  0
LINE
  5
FC
  8
1
  6
CONTINUOUS
 62
     7
 10
572.4499999999999
 20
138.75
 30
0.0
 11
566.9499999999999
 21
138.75
 31
0.0
  0
LINE
  5
FD
  8
1
  6
CONTINUOUS
 62
     7
 10
566.9499999999999
 20
138.75
 30
0.0
 11
563.4499999999999
 21
137.75
 31
0.0
  0
LINE
  5
FE
  8
1
  6
CONTINUOUS
 62
     7
 10
563.4499999999999
 20
136.25
 30
0.0
 11
566.9499999999999
 21
135.25
 31
0.0
  0
ARC
  5
FF
  8
1
  6
CONTINUOUS
 62
     7
 10
571.9499999999999
 20
149.4170566776021
 30
0.0
 40
1.000000000000003
 50
0.0
 51
89.50000000000006
  0
LINE
  5
100
  8
1
  6
CONTINUOUS
 62
     7
 10
562.4499999999999
 20
150.5000000000001
 30
0.0
 11
571.9587265354983
 21
150.4170186006663
 31
0.0
  0
ARC
  5
101
  8
1
  6
CONTINUOUS
 62
     7
 10
571.9499999999999
 20
148.5670566776021
 30
0.0
 40
1.000000000000003
 50
0.0
 51
89.50000000000006
  0
ARC
  5
102
  8
1
  6
CONTINUOUS
 62
     7
 10
571.9499999999999
 20
228.432943322398
 30
0.0
 40
0.9999999999998899
 50
270.4999999999999
 51
0.0
  0
LINE
  5
103
  8
1
  6
CONTINUOUS
 62
     7
 10
568.211492923894
 20
149.5997202129758
 30
0.0
 11
571.9587265354983
 21
149.5670186006663
 31
0.0
  0
LINE
  5
104
  8
1
  6
CONTINUOUS
 62
     7
 10
571.9587265354983
 20
227.4329813993338
 30
0.0
 11
568.211492923894
 21
227.4002797870242
 31
0.0
  0
ARC
  5
105
  8
1
  6
CONTINUOUS
 62
     7
 10
568.2132403396365
 20
149.7997125791868
 30
0.0
 40
0.2000000000000632
 50
180.9999999999999
 51
269.5000000000001
  0
ARC
  5
106
  8
1
  6
CONTINUOUS
 62
     7
 10
568.2132403396365
 20
227.2002874208133
 30
0.0
 40
0.19999999999999
 50
90.49999999999997
 51
179.0000000000002
  0
ARC
  5
107
  8
1
  6
CONTINUOUS
 62
     7
 10
565.1872206080299
 20
149.8261202533168
 30
0.0
 40
0.2000000000000168
 50
269.5000000000001
 51
359.0000000000001
  0
ARC
  5
108
  8
1
  6
CONTINUOUS
 62
     7
 10
565.1872206080299
 20
227.1738797466833
 30
0.0
 40
0.2000000000000632
 50
0.9999999999998488
 51
90.49999999999997
  0
LINE
  5
109
  8
1
  6
CONTINUOUS
 62
     7
 10
562.4499999999999
 20
149.65
 30
0.0
 11
565.1854756800891
 21
149.6261278653951
 31
0.0
  0
LINE
  5
10A
  8
1
  6
CONTINUOUS
 62
     7
 10
565.1854756800891
 20
227.373872134605
 30
0.0
 11
562.4499999999999
 21
227.35
 31
0.0
  0
LINE
  5
10B
  8
1
  6
CONTINUOUS
 62
     7
 10
568.0018320113394
 20
226.5484501039595
 30
0.0
 11
565.3985645393022
 21
226.525731732907
 31
0.0
  0
ENDBLK
  8
0
  0
BLOCK
  8
0
  2
D_FRAME_VIEW_2614
 70
     0
 10
0.0
 20
0.0
 30
0.0
  0
CIRCLE
  5
121
  8
1
  6
CONTINUOUS
 62
     7
 10
467.7817388751643
 20
155.9405281625502
 30
0.0
 40
1.649999999999999
  0
CIRCLE
  5
122
  8
1
  6
CONTINUOUS
 62
     7
 10
482.2182611248357
 20
155.9405281625502
 30
0.0
 40
1.649999999999999
  0
CIRCLE
  5
123
  8
1
  6
CONTINUOUS
 62
     7
 10
475.0
 20
155.15
 30
0.0
 40
3.999999999999998
  0
ARC
  5
124
  8
1
  6
CONTINUOUS
 62
     7
 10
492.0000000000001
 20
154.5
 30
0.0
 40
3.999999999999986
 50
210.5491958000574
 51
359.9999999999998
  0
ARC
  5
125
  8
1
  6
CONTINUOUS
 62
     7
 10
487.6940553651461
 20
151.9585936219619
 30
0.0
 40
0.999990557909573
 50
30.55060632516643
 51
111.9212890089673
  0
ARC
  5
126
  8
1
  6
CONTINUOUS
 62
     7
 10
475.0
 20
183.5
 30
0.0
 40
32.99999999999999
 50
275.5042560822232
 51
291.9226995340757
  0
ARC
  5
127
  8
1
  6
CONTINUOUS
 62
     7
 10
475.0
 20
155.15
 30
0.0
 40
5.499999999999999
 50
234.8640728369424
 51
305.1359271630575
  0
ARC
  5
128
  8
1
  6
CONTINUOUS
 62
     7
 10
475.0
 20
183.5
 30
0.0
 40
32.99999999999999
 50
238.6673561927105
 51
264.4957439177767
  0
ARC
  5
129
  8
1
  6
CONTINUOUS
 62
     7
 10
461.9996505984174
 20
162.1456471500863
 30
0.0
 40
7.999650598456894
 50
179.9998197438196
 51
238.6675364488911
  0
LINE
  5
12A
  8
1
  6
CONTINUOUS
 62
     7
 10
454.0000000000001
 20
162.1456723174979
 30
0.0
 11
454.0000000000001
 21
222.5
 31
0.0
  0
ARC
  5
12B
  8
1
  6
CONTINUOUS
 62
     7
 10
458.0
 20
222.5
 30
0.0
 40
3.999999999999986
 50
30.54919580005753
 51
179.9999999999999
  0
ARC
  5
12C
  8
1
  6
CONTINUOUS
 62
     7
 10
462.3059446348539
 20
225.0414063780381
 30
0.0
 40
0.9999905579095422
 50
210.5506063251653
 51
291.9212890089715
  0
ARC
  5
12D
  8
1
  6
CONTINUOUS
 62
     7
 10
474.9999999999999
 20
193.5
 30
0.0
 40
32.99999999999999
 50
95.50425608222314
 51
111.9226995340758
  0
ARC
  5
12E
  8
1
  6
CONTINUOUS
 62
     7
 10
475.0
 20
221.85
 30
0.0
 40
5.5
 50
54.86407283694235
 51
125.1359271630575
  0
ARC
  5
12F
  8
1
  6
CONTINUOUS
 62
     7
 10
474.9999999999999
 20
193.5
 30
0.0
 40
32.99999999999999
 50
58.66735619271049
 51
84.49574391777674
  0
ARC
  5
130
  8
1
  6
CONTINUOUS
 62
     7
 10
488.0003494015827
 20
214.8543528499137
 30
0.0
 40
7.999650598456894
 50
359.9998197438196
 51
58.66753644889103
  0
LINE
  5
131
  8
1
  6
CONTINUOUS
 62
     7
 10
496.0
 20
214.8543276825022
 30
0.0
 11
496.0
 21
154.5
 31
0.0
  0
CIRCLE
  5
132
  8
1
  6
CONTINUOUS
 62
     7
 10
482.2182611248357
 20
221.0594718374498
 30
0.0
 40
1.649999999999998
  0
CIRCLE
  5
133
  8
1
  6
CONTINUOUS
 62
     7
 10
467.7817388751643
 20
221.0594718374498
 30
0.0
 40
1.649999999999999
  0
CIRCLE
  5
134
  8
1
  6
CONTINUOUS
 62
     7
 10
475.0
 20
221.85
 30
0.0
 40
3.999999999999998
  0
ARC
  5
135
  8
1
  6
CONTINUOUS
 62
     7
 10
488.000218376188
 20
214.8542792205394
 30
0.0
 40
4.999781623836792
 50
359.9998197419977
 51
58.66768356591992
  0
ARC
  5
136
  8
1
  6
CONTINUOUS
 62
     7
 10
475.0
 20
193.5
 30
0.0
 40
30.0
 50
58.66750330791753
 51
63.48547725902826
  0
ARC
  5
137
  8
1
  6
CONTINUOUS
 62
     7
 10
487.4998552655505
 20
218.5551735875586
 30
0.0
 40
1.999855268623027
 50
63.48230122801396
 51
180.0031760310144
  0
LINE
  5
138
  8
1
  6
CONTINUOUS
 62
     7
 10
485.5000000000001
 20
218.5550627311848
 30
0.0
 11
485.5000000000001
 21
218.2499428845963
 31
0.0
  0
ARC
  5
139
  8
1
  6
CONTINUOUS
 62
     7
 10
484.0000236585152
 20
218.2501317555106
 30
0.0
 40
1.500131754609699
 50
270.0012778467656
 51
292.4973664853112
  0
ARC
  5
13A
  8
1
  6
CONTINUOUS
 62
     7
 10
484.0001335284406
 20
218.2498664715595
 30
0.0
 40
1.499844618796519
 50
292.4973664853045
 51
314.9999999999985
  0
ARC
  5
13B
  8
1
  6
CONTINUOUS
 62
     7
 10
484.0001335284405
 20
218.2498664715596
 30
0.0
 40
1.499844618796715
 50
315.0
 51
337.5026335146916
  0
ARC
  5
13C
  8
1
  6
CONTINUOUS
 62
     7
 10
483.9998682444892
 20
218.2499763414849
 30
0.0
 40
1.500131754610004
 50
337.5026335146937
 51
359.9987221532344
  0
LINE
  5
13D
  8
1
  6
CONTINUOUS
 62
     7
 10
484.0000571154038
 20
216.75
 30
0.0
 11
465.9999428845963
 21
216.75
 31
0.0
  0
ARC
  5
13E
  8
1
  6
CONTINUOUS
 62
     7
 10
466.0001317555108
 20
218.2499763414849
 30
0.0
 40
1.500131754610004
 50
180.0012778467656
 51
202.4973664853063
  0
ARC
  5
13F
  8
1
  6
CONTINUOUS
 62
     7
 10
465.9998664715596
 20
218.2498664715596
 30
0.0
 40
1.499844618796715
 50
202.4973664853084
 51
225.0
  0
ARC
  5
140
  8
1
  6
CONTINUOUS
 62
     7
 10
465.9998664715594
 20
218.2498664715595
 30
0.0
 40
1.499844618796519
 50
225.0000000000015
 51
247.5026335146955
  0
ARC
  5
141
  8
1
  6
CONTINUOUS
 62
     7
 10
465.9999763414849
 20
218.2501317555105
 30
0.0
 40
1.500131754609671
 50
247.5026335146884
 51
269.9987221532344
  0
LINE
  5
142
  8
1
  6
CONTINUOUS
 62
     7
 10
464.5
 20
218.2499428845963
 30
0.0
 11
464.5
 21
218.5550627311848
 31
0.0
  0
ARC
  5
143
  8
1
  6
CONTINUOUS
 62
     7
 10
462.5001447344442
 20
218.5551735875502
 30
0.0
 40
1.999855268628285
 50
359.9968239692289
 51
116.5176987717418
  0
ARC
  5
144
  8
1
  6
CONTINUOUS
 62
     7
 10
475.0
 20
193.5
 30
0.0
 40
30.0
 50
116.5145227409717
 51
121.3324966920825
  0
ARC
  5
145
  8
1
  6
CONTINUOUS
 62
     7
 10
461.9997816238098
 20
214.8542792205406
 30
0.0
 40
4.999781623834527
 50
121.3323164340655
 51
180.0001802580169
  0
LINE
  5
146
  8
1
  6
CONTINUOUS
 62
     7
 10
457.0
 20
214.8542634907482
 30
0.0
 11
457.0
 21
162.1457365092519
 31
0.0
  0
ARC
  5
147
  8
1
  6
CONTINUOUS
 62
     7
 10
461.9997816238121
 20
162.1457207794607
 30
0.0
 40
4.999781623836814
 50
179.9998197419979
 51
238.6676835659197
  0
ARC
  5
148
  8
1
  6
CONTINUOUS
 62
     7
 10
475.0
 20
183.5
 30
0.0
 40
30.0
 50
238.6675033079175
 51
243.4854772590282
  0
ARC
  5
149
  8
1
  6
CONTINUOUS
 62
     7
 10
462.5001447344495
 20
158.4448264124414
 30
0.0
 40
1.999855268623027
 50
243.482301228014
 51
0.0031760310143909
  0
LINE
  5
14A
  8
1
  6
CONTINUOUS
 62
     7
 10
464.5
 20
158.4449372688153
 30
0.0
 11
464.5
 21
158.7500571154038
 31
0.0
  0
ARC
  5
14B
  8
1
  6
CONTINUOUS
 62
     7
 10
465.9999763414849
 20
158.7498682444895
 30
0.0
 40
1.500131754609699
 50
90.00127784676557
 51
112.4973664853112
  0
ARC
  5
14C
  8
1
  6
CONTINUOUS
 62
     7
 10
465.9998664715594
 20
158.7501335284406
 30
0.0
 40
1.499844618796519
 50
112.4973664853045
 51
134.9999999999985
  0
ARC
  5
14D
  8
1
  6
CONTINUOUS
 62
     7
 10
465.9998664715596
 20
158.7501335284404
 30
0.0
 40
1.499844618796715
 50
135.0
 51
157.5026335146916
  0
ARC
  5
14E
  8
1
  6
CONTINUOUS
 62
     7
 10
466.0001317555108
 20
158.7500236585152
 30
0.0
 40
1.500131754610004
 50
157.5026335146937
 51
179.9987221532345
  0
LINE
  5
14F
  8
1
  6
CONTINUOUS
 62
     7
 10
465.9999428845963
 20
160.25
 30
0.0
 11
484.0000571154038
 21
160.25
 31
0.0
  0
ARC
  5
150
  8
1
  6
CONTINUOUS
 62
     7
 10
483.9998682444892
 20
158.7500236585152
 30
0.0
 40
1.500131754610004
 50
0.0012778467655608
 51
22.49736648530632
  0
ARC
  5
151
  8
1
  6
CONTINUOUS
 62
     7
 10
484.0001335284405
 20
158.7501335284404
 30
0.0
 40
1.499844618796715
 50
22.49736648530837
 51
45.00000000000001
  0
ARC
  5
152
  8
1
  6
CONTINUOUS
 62
     7
 10
484.0001335284406
 20
158.7501335284406
 30
0.0
 40
1.499844618796519
 50
45.0000000000015
 51
67.50263351469549
  0
ARC
  5
153
  8
1
  6
CONTINUOUS
 62
     7
 10
484.0000236585152
 20
158.7498682444895
 30
0.0
 40
1.500131754609671
 50
67.50263351468843
 51
89.99872215323444
  0
LINE
  5
154
  8
1
  6
CONTINUOUS
 62
     7
 10
485.5000000000001
 20
158.7500571154038
 30
0.0
 11
485.5000000000001
 21
158.4449372688153
 31
0.0
  0
ARC
  5
155
  8
1
  6
CONTINUOUS
 62
     7
 10
487.4998552655558
 20
158.4448264124499
 30
0.0
 40
1.999855268628285
 50
179.9968239692289
 51
296.5176987717418
  0
ARC
  5
156
  8
1
  6
CONTINUOUS
 62
     7
 10
475.0
 20
183.5
 30
0.0
 40
30.0
 50
296.5145227409716
 51
301.3324966920824
  0
ARC
  5
157
  8
1
  6
CONTINUOUS
 62
     7
 10
488.0002183761903
 20
162.1457207794594
 30
0.0
 40
4.999781623834505
 50
301.3323164340654
 51
0.0001802580170533
  0
LINE
  5
158
  8
1
  6
CONTINUOUS
 62
     7
 10
493.0000000000001
 20
162.1457365092519
 30
0.0
 11
493.0000000000001
 21
214.8542634907481
 31
0.0
  0
CIRCLE
  5
159
  8
1
  6
CONTINUOUS
 62
     7
 10
475.0
 20
221.85
 30
0.0
 40
2.099999999999989
  0
CIRCLE
  5
15A
  8
1
  6
CONTINUOUS
 62
     7
 10
475.0
 20
155.15
 30
0.0
 40
2.099999999999989
  0
CIRCLE
  5
15B
  8
1
  6
CONTINUOUS
 62
     7
 10
513.5
 20
240.0
 30
0.0
 40
0.7500000000000007
  0
CIRCLE
  5
15C
  8
1
  6
CONTINUOUS
 62
     7
 10
513.5
 20
240.0
 30
0.0
 40
1.750000000000002
  0
CIRCLE
  5
15D
  8
1
  6
CONTINUOUS
 62
     7
 10
436.5
 20
240.0
 30
0.0
 40
0.7500000000000007
  0
CIRCLE
  5
15E
  8
1
  6
CONTINUOUS
 62
     7
 10
513.5
 20
137.0
 30
0.0
 40
0.7500000000000007
  0
CIRCLE
  5
15F
  8
1
  6
CONTINUOUS
 62
     7
 10
513.5
 20
137.0
 30
0.0
 40
1.750000000000002
  0
CIRCLE
  5
160
  8
1
  6
CONTINUOUS
 62
     7
 10
436.5
 20
137.0
 30
0.0
 40
0.7500000000000007
  0
CIRCLE
  5
161
  8
1
  6
CONTINUOUS
 62
     7
 10
436.5
 20
137.0
 30
0.0
 40
1.750000000000002
  0
CIRCLE
  5
162
  8
1
  6
CONTINUOUS
 62
     7
 10
436.5
 20
240.0
 30
0.0
 40
1.750000000000002
  0
LINE
  5
163
  8
1
  6
CONTINUOUS
 62
     7
 10
458.2
 20
186.9
 30
0.0
 11
457.0000000000001
 21
186.9
 31
0.0
  0
LINE
  5
164
  8
1
  6
CONTINUOUS
 62
     7
 10
458.2
 20
185.7
 30
0.0
 11
458.2
 21
186.9
 31
0.0
  0
LINE
  5
165
  8
1
  6
CONTINUOUS
 62
     7
 10
457.0
 20
185.7
 30
0.0
 11
458.2
 21
185.7
 31
0.0
  0
LINE
  5
166
  8
1
  6
CONTINUOUS
 62
     7
 10
493.0000000000001
 20
191.3
 30
0.0
 11
491.8000000000001
 21
191.3
 31
0.0
  0
LINE
  5
167
  8
1
  6
CONTINUOUS
 62
     7
 10
491.8
 20
190.1
 30
0.0
 11
493.0
 21
190.1
 31
0.0
  0
LINE
  5
168
  8
1
  6
CONTINUOUS
 62
     7
 10
491.8
 20
191.3
 30
0.0
 11
491.8
 21
190.1
 31
0.0
  0
LINE
  5
169
  8
1
  6
CONTINUOUS
 62
     7
 10
491.8
 20
185.7
 30
0.0
 11
491.8
 21
186.9
 31
0.0
  0
LINE
  5
16A
  8
1
  6
CONTINUOUS
 62
     7
 10
493.0000000000001
 20
185.7
 30
0.0
 11
491.8000000000001
 21
185.7
 31
0.0
  0
LINE
  5
16B
  8
1
  6
CONTINUOUS
 62
     7
 10
491.8
 20
186.9
 30
0.0
 11
493.0
 21
186.9
 31
0.0
  0
LINE
  5
16C
  8
1
  6
CONTINUOUS
 62
     7
 10
457.0
 20
191.3
 30
0.0
 11
458.2
 21
191.3
 31
0.0
  0
LINE
  5
16D
  8
1
  6
CONTINUOUS
 62
     7
 10
458.2
 20
190.1
 30
0.0
 11
457.0000000000001
 21
190.1
 31
0.0
  0
LINE
  5
16E
  8
1
  6
CONTINUOUS
 62
     7
 10
458.2
 20
191.3
 30
0.0
 11
458.2
 21
190.1
 31
0.0
  0
ARC
  5
16F
  8
1
  6
CONTINUOUS
 62
     7
 10
497.0889135170817
 20
213.5060599349314
 30
0.0
 40
1.006040232985993
 50
180.8399961575226
 51
269.6599848049783
  0
ARC
  5
170
  8
1
  6
CONTINUOUS
 62
     7
 10
452.9083836605405
 20
167.5000878370072
 30
0.0
 40
1.00008783640666
 50
270.0012778467656
 51
270.4968897619418
  0
ARC
  5
171
  8
1
  6
CONTINUOUS
 62
     7
 10
497.0916163394596
 20
209.4999121629928
 30
0.0
 40
1.00008783640666
 50
90.00127784676557
 51
90.49688976194176
  0
ARC
  5
172
  8
1
  6
CONTINUOUS
 62
     7
 10
497.0889135170818
 20
167.5060599349314
 30
0.0
 40
1.006040232985993
 50
180.839996157521
 51
269.6599848049783
  0
ARC
  5
173
  8
1
  6
CONTINUOUS
 62
     7
 10
452.9083836605405
 20
213.5000878370076
 30
0.0
 40
1.000087836407021
 50
270.0012778467656
 51
270.4968897619384
  0
ARC
  5
174
  8
1
  6
CONTINUOUS
 62
     7
 10
497.0916163394596
 20
163.4999121629924
 30
0.0
 40
1.000087836407021
 50
90.00127784676557
 51
90.4968897619384
  0
ARC
  5
175
  8
1
  6
CONTINUOUS
 62
     7
 10
452.9110864829183
 20
209.4939400650687
 30
0.0
 40
1.006040232985993
 50
0.839996157521
 51
89.65998480497831
  0
ARC
  5
176
  8
1
  6
CONTINUOUS
 62
     7
 10
440.2
 20
132.5000000000001
 30
0.0
 40
0.1999999999999988
 50
270.0
 51
0.0
  0
LINE
  5
177
  8
1
  6
CONTINUOUS
 62
     7
 10
440.4
 20
132.5000000000001
 30
0.0
 11
440.4
 21
134.5000000000001
 31
0.0
  0
LINE
  5
178
  8
1
  6
CONTINUOUS
 62
     7
 10
440.4
 20
134.5
 30
0.0
 11
432.6
 21
134.5
 31
0.0
  0
LINE
  5
179
  8
1
  6
CONTINUOUS
 62
     7
 10
432.6
 20
134.5
 30
0.0
 11
432.6
 21
132.5
 31
0.0
  0
ARC
  5
17A
  8
1
  6
CONTINUOUS
 62
     7
 10
432.8
 20
132.5000000000001
 30
0.0
 40
0.1999999999999988
 50
180.0
 51
270.0
  0
LINE
  5
17B
  8
1
  6
CONTINUOUS
 62
     7
 10
432.8
 20
132.3
 30
0.0
 11
440.2
 21
132.3
 31
0.0
  0
LINE
  5
17C
  8
1
  6
CONTINUOUS
 62
     7
 10
517.4000000000001
 20
134.5
 30
0.0
 11
517.4000000000001
 21
132.5
 31
0.0
  0
LINE
  5
17D
  8
1
  6
CONTINUOUS
 62
     7
 10
509.6
 20
134.5
 30
0.0
 11
517.4000000000001
 21
134.5
 31
0.0
  0
LINE
  5
17E
  8
1
  6
CONTINUOUS
 62
     7
 10
509.6
 20
132.5
 30
0.0
 11
509.6
 21
134.5
 31
0.0
  0
ARC
  5
17F
  8
1
  6
CONTINUOUS
 62
     7
 10
509.8
 20
132.5
 30
0.0
 40
0.1999999999999988
 50
180.0
 51
270.0
  0
LINE
  5
180
  8
1
  6
CONTINUOUS
 62
     7
 10
517.1999999999999
 20
132.3
 30
0.0
 11
509.8
 21
132.3
 31
0.0
  0
ARC
  5
181
  8
1
  6
CONTINUOUS
 62
     7
 10
517.1999999999999
 20
132.5
 30
0.0
 40
0.1999999999999988
 50
270.0
 51
0.0
  0
ARC
  5
182
  8
1
  6
CONTINUOUS
 62
     7
 10
509.8
 20
244.5
 30
0.0
 40
0.1999999999999988
 50
90.0
 51
180.0
  0
LINE
  5
183
  8
1
  6
CONTINUOUS
 62
     7
 10
509.6
 20
244.5
 30
0.0
 11
509.6
 21
242.5
 31
0.0
  0
LINE
  5
184
  8
1
  6
CONTINUOUS
 62
     7
 10
509.6
 20
242.5
 30
0.0
 11
517.4000000000001
 21
242.5
 31
0.0
  0
LINE
  5
185
  8
1
  6
CONTINUOUS
 62
     7
 10
517.4000000000001
 20
242.5
 30
0.0
 11
517.4000000000001
 21
244.5
 31
0.0
  0
ARC
  5
186
  8
1
  6
CONTINUOUS
 62
     7
 10
517.1999999999999
 20
244.5
 30
0.0
 40
0.1999999999999988
 50
0.0
 51
90.0
  0
LINE
  5
187
  8
1
  6
CONTINUOUS
 62
     7
 10
517.1999999999999
 20
244.7
 30
0.0
 11
509.8
 21
244.7
 31
0.0
  0
LINE
  5
188
  8
1
  6
CONTINUOUS
 62
     7
 10
432.6
 20
242.5
 30
0.0
 11
432.6
 21
244.5
 31
0.0
  0
LINE
  5
189
  8
1
  6
CONTINUOUS
 62
     7
 10
440.4
 20
242.5
 30
0.0
 11
432.6
 21
242.5
 31
0.0
  0
LINE
  5
18A
  8
1
  6
CONTINUOUS
 62
     7
 10
440.4
 20
244.5
 30
0.0
 11
440.4
 21
242.5
 31
0.0
  0
ARC
  5
18B
  8
1
  6
CONTINUOUS
 62
     7
 10
440.2
 20
244.5
 30
0.0
 40
0.1999999999999988
 50
0.0
 51
90.0
  0
LINE
  5
18C
  8
1
  6
CONTINUOUS
 62
     7
 10
432.8
 20
244.7
 30
0.0
 11
440.2
 21
244.7
 31
0.0
  0
ARC
  5
18D
  8
1
  6
CONTINUOUS
 62
     7
 10
432.8
 20
244.5
 30
0.0
 40
0.1999999999999988
 50
90.0
 51
180.0
  0
LINE
  5
18E
  8
1
  6
CONTINUOUS
 62
     7
 10
419.5
 20
189.0
 30
0.0
 11
419.0
 21
189.0
 31
0.0
  0
LINE
  5
18F
  8
1
  6
CONTINUOUS
 62
     7
 10
419.0000000000001
 20
189.0
 30
0.0
 11
419.0000000000001
 21
240.5
 31
0.0
  0
ARC
  5
190
  8
1
  6
CONTINUOUS
 62
     7
 10
423.0000000000001
 20
240.5
 30
0.0
 40
4.000000000000004
 50
90.0
 51
180.0000000000002
  0
LINE
  5
191
  8
1
  6
CONTINUOUS
 62
     7
 10
423.0000000000001
 20
244.5
 30
0.0
 11
427.4999999999999
 21
244.5
 31
0.0
  0
ARC
  5
192
  8
1
  6
CONTINUOUS
 62
     7
 10
427.4999999999999
 20
245.0
 30
0.0
 40
0.5000000000000004
 50
270.0
 51
0.0
  0
LINE
  5
193
  8
1
  6
CONTINUOUS
 62
     7
 10
427.9999999999999
 20
245.0
 30
0.0
 11
427.9999999999999
 21
245.5
 31
0.0
  0
ARC
  5
194
  8
1
  6
CONTINUOUS
 62
     7
 10
428.4999999999999
 20
245.5
 30
0.0
 40
0.5000000000000004
 50
90.0
 51
180.0
  0
LINE
  5
195
  8
1
  6
CONTINUOUS
 62
     7
 10
428.4999999999999
 20
246.0
 30
0.0
 11
454.4999999999999
 21
246.0
 31
0.0
  0
ARC
  5
196
  8
1
  6
CONTINUOUS
 62
     7
 10
454.4999999999999
 20
245.5
 30
0.0
 40
0.5000000000000004
 50
0.0
 51
90.00000000000159
  0
LINE
  5
197
  8
1
  6
CONTINUOUS
 62
     7
 10
454.9999999999999
 20
245.5
 30
0.0
 11
454.9999999999999
 21
245.0
 31
0.0
  0
ARC
  5
198
  8
1
  6
CONTINUOUS
 62
     7
 10
455.4999999999999
 20
245.0
 30
0.0
 40
0.5000000000000004
 50
180.0
 51
270.0
  0
LINE
  5
199
  8
1
  6
CONTINUOUS
 62
     7
 10
455.4999999999999
 20
244.5
 30
0.0
 11
474.4999999999999
 21
244.5
 31
0.0
  0
LINE
  5
19A
  8
1
  6
CONTINUOUS
 62
     7
 10
474.4999999999999
 20
245.0
 30
0.0
 11
475.4999999999999
 21
245.0
 31
0.0
  0
LINE
  5
19B
  8
1
  6
CONTINUOUS
 62
     7
 10
475.4999999999999
 20
244.5
 30
0.0
 11
494.4999999999999
 21
244.5
 31
0.0
  0
ARC
  5
19C
  8
1
  6
CONTINUOUS
 62
     7
 10
494.4999999999999
 20
245.0
 30
0.0
 40
0.5000000000000004
 50
270.0000000000007
 51
0.0
  0
LINE
  5
19D
  8
1
  6
CONTINUOUS
 62
     7
 10
494.9999999999999
 20
245.0
 30
0.0
 11
494.9999999999999
 21
245.5
 31
0.0
  0
ARC
  5
19E
  8
1
  6
CONTINUOUS
 62
     7
 10
495.4999999999999
 20
245.5
 30
0.0
 40
0.5000000000000004
 50
90.00000000000318
 51
180.0
  0
LINE
  5
19F
  8
1
  6
CONTINUOUS
 62
     7
 10
495.4999999999998
 20
246.0
 30
0.0
 11
521.4999999999999
 21
246.0
 31
0.0
  0
ARC
  5
1A0
  8
1
  6
CONTINUOUS
 62
     7
 10
521.4999999999999
 20
245.5
 30
0.0
 40
0.5000000000000004
 50
0.0
 51
90.00000000000638
  0
LINE
  5
1A1
  8
1
  6
CONTINUOUS
 62
     7
 10
521.9999999999999
 20
245.5
 30
0.0
 11
521.9999999999999
 21
245.0
 31
0.0
  0
ARC
  5
1A2
  8
1
  6
CONTINUOUS
 62
     7
 10
522.5
 20
245.0
 30
0.0
 40
0.5000000000000004
 50
180.0
 51
270.0000000000007
  0
LINE
  5
1A3
  8
1
  6
CONTINUOUS
 62
     7
 10
522.5
 20
244.5
 30
0.0
 11
527.0000000000001
 21
244.5
 31
0.0
  0
ARC
  5
1A4
  8
1
  6
CONTINUOUS
 62
     7
 10
527.0
 20
240.5
 30
0.0
 40
4.000000000000004
 50
0.0
 51
89.9999999999999
  0
LINE
  5
1A5
  8
1
  6
CONTINUOUS
 62
     7
 10
531.0
 20
240.5
 30
0.0
 11
531.0
 21
189.0000000000001
 31
0.0
  0
LINE
  5
1A6
  8
1
  6
CONTINUOUS
 62
     7
 10
531.0
 20
189.0
 30
0.0
 11
530.5000000000001
 21
189.0
 31
0.0
  0
LINE
  5
1A7
  8
1
  6
CONTINUOUS
 62
     7
 10
530.5000000000001
 20
188.0
 30
0.0
 11
531.0
 21
188.0
 31
0.0
  0
LINE
  5
1A8
  8
1
  6
CONTINUOUS
 62
     7
 10
531.0
 20
188.0
 30
0.0
 11
531.0
 21
136.5
 31
0.0
  0
ARC
  5
1A9
  8
1
  6
CONTINUOUS
 62
     7
 10
527.0
 20
136.5
 30
0.0
 40
3.999999999999996
 50
270.0
 51
0.0000000000002274
  0
LINE
  5
1AA
  8
1
  6
CONTINUOUS
 62
     7
 10
527.0
 20
132.5
 30
0.0
 11
522.5000000000001
 21
132.5
 31
0.0
  0
ARC
  5
1AB
  8
1
  6
CONTINUOUS
 62
     7
 10
522.5000000000001
 20
132.0
 30
0.0
 40
0.5000000000000004
 50
90.0
 51
180.0
  0
LINE
  5
1AC
  8
1
  6
CONTINUOUS
 62
     7
 10
522.0000000000001
 20
132.0
 30
0.0
 11
522.0000000000001
 21
131.5
 31
0.0
  0
ARC
  5
1AD
  8
1
  6
CONTINUOUS
 62
     7
 10
521.5000000000001
 20
131.5
 30
0.0
 40
0.5000000000000004
 50
270.0
 51
0.0
  0
LINE
  5
1AE
  8
1
  6
CONTINUOUS
 62
     7
 10
521.5000000000001
 20
131.0
 30
0.0
 11
495.5000000000001
 21
131.0
 31
0.0
  0
ARC
  5
1AF
  8
1
  6
CONTINUOUS
 62
     7
 10
495.5000000000002
 20
131.5
 30
0.0
 40
0.5000000000000004
 50
180.0
 51
270.0000000000015
  0
LINE
  5
1B0
  8
1
  6
CONTINUOUS
 62
     7
 10
495.0000000000002
 20
131.5
 30
0.0
 11
495.0000000000002
 21
132.0
 31
0.0
  0
ARC
  5
1B1
  8
1
  6
CONTINUOUS
 62
     7
 10
494.5000000000002
 20
132.0
 30
0.0
 40
0.5000000000000004
 50
0.0
 51
90.0
  0
LINE
  5
1B2
  8
1
  6
CONTINUOUS
 62
     7
 10
474.5000000000001
 20
132.5
 30
0.0
 11
455.5000000000002
 21
132.5
 31
0.0
  0
ARC
  5
1B3
  8
1
  6
CONTINUOUS
 62
     7
 10
455.5000000000002
 20
132.0
 30
0.0
 40
0.5000000000000004
 50
90.0000000000008
 51
180.0
  0
LINE
  5
1B4
  8
1
  6
CONTINUOUS
 62
     7
 10
455.0000000000002
 20
132.0
 30
0.0
 11
455.0000000000002
 21
131.5
 31
0.0
  0
ARC
  5
1B5
  8
1
  6
CONTINUOUS
 62
     7
 10
454.5000000000002
 20
131.5
 30
0.0
 40
0.5000000000000004
 50
270.0000000000032
 51
0.0
  0
LINE
  5
1B6
  8
1
  6
CONTINUOUS
 62
     7
 10
454.5000000000002
 20
131.0
 30
0.0
 11
428.5000000000002
 21
131.0
 31
0.0
  0
ARC
  5
1B7
  8
1
  6
CONTINUOUS
 62
     7
 10
428.5000000000002
 20
131.5
 30
0.0
 40
0.5000000000000004
 50
180.0
 51
270.0000000000064
  0
LINE
  5
1B8
  8
1
  6
CONTINUOUS
 62
     7
 10
428.0000000000002
 20
131.5
 30
0.0
 11
428.0000000000002
 21
132.0
 31
0.0
  0
ARC
  5
1B9
  8
1
  6
CONTINUOUS
 62
     7
 10
427.5000000000002
 20
132.0
 30
0.0
 40
0.5000000000000004
 50
0.0
 51
90.0000000000008
  0
LINE
  5
1BA
  8
1
  6
CONTINUOUS
 62
     7
 10
427.5000000000002
 20
132.5
 30
0.0
 11
423.0000000000001
 21
132.5
 31
0.0
  0
ARC
  5
1BB
  8
1
  6
CONTINUOUS
 62
     7
 10
423.0000000000001
 20
136.5
 30
0.0
 40
3.999999999999996
 50
180.0
 51
269.9999999999999
  0
LINE
  5
1BC
  8
1
  6
CONTINUOUS
 62
     7
 10
419.0000000000001
 20
136.5
 30
0.0
 11
419.0000000000001
 21
188.0000000000001
 31
0.0
  0
LINE
  5
1BD
  8
1
  6
CONTINUOUS
 62
     7
 10
419.0000000000001
 20
188.0
 30
0.0
 11
419.5000000000001
 21
188.0
 31
0.0
  0
LINE
  5
1BE
  8
1
  6
CONTINUOUS
 62
     7
 10
475.4999999999999
 20
245.0
 30
0.0
 11
475.4999999999999
 21
244.5
 31
0.0
  0
LINE
  5
1BF
  8
1
  6
CONTINUOUS
 62
     7
 10
475.5000000000001
 20
132.5
 30
0.0
 11
475.5000000000001
 21
132.0
 31
0.0
  0
LINE
  5
1C0
  8
1
  6
CONTINUOUS
 62
     7
 10
475.5000000000001
 20
132.0
 30
0.0
 11
474.5000000000001
 21
132.0
 31
0.0
  0
LINE
  5
1C1
  8
1
  6
CONTINUOUS
 62
     7
 10
494.5000000000002
 20
132.5
 30
0.0
 11
475.5000000000001
 21
132.5
 31
0.0
  0
LINE
  5
1C2
  8
1
  6
CONTINUOUS
 62
     7
 10
474.5000000000001
 20
132.0
 30
0.0
 11
474.5000000000001
 21
132.5
 31
0.0
  0
LINE
  5
1C3
  8
1
  6
CONTINUOUS
 62
     7
 10
474.4999999999999
 20
244.5
 30
0.0
 11
474.4999999999999
 21
245.0
 31
0.0
  0
CIRCLE
  5
1C4
  8
1
  6
CONTINUOUS
 62
     7
 10
505.0
 20
144.0
 30
0.0
 40
1.61
  0
CIRCLE
  5
1C5
  8
1
  6
CONTINUOUS
 62
     7
 10
430.5000000000001
 20
158.5
 30
0.0
 40
1.61
  0
CIRCLE
  5
1C6
  8
1
  6
CONTINUOUS
 62
     7
 10
445.0000000000001
 20
233.0
 30
0.0
 40
1.61
  0
CIRCLE
  5
1C7
  8
1
  6
CONTINUOUS
 62
     7
 10
519.5000000000001
 20
218.5
 30
0.0
 40
1.61
  0
CIRCLE
  5
1C8
  8
1
  6
CONTINUOUS
 62
     7
 10
519.5000000000001
 20
218.5
 30
0.0
 40
2.499999999999995
  0
CIRCLE
  5
1C9
  8
1
  6
CONTINUOUS
 62
     7
 10
430.5000000000001
 20
158.5
 30
0.0
 40
2.500000000000002
  0
CIRCLE
  5
1CA
  8
1
  6
CONTINUOUS
 62
     7
 10
445.0
 20
233.0
 30
0.0
 40
2.499999999999999
  0
CIRCLE
  5
1CB
  8
1
  6
CONTINUOUS
 62
     7
 10
505.0
 20
144.0
 30
0.0
 40
2.499999999999999
  0
LINE
  5
1CC
  8
1
  6
CONTINUOUS
 62
     7
 10
509.6
 20
243.0500000000001
 30
0.0
 11
517.4000000000001
 21
243.0500000000001
 31
0.0
  0
LINE
  5
1CD
  8
1
  6
CONTINUOUS
 62
     7
 10
517.4000000000001
 20
133.95
 30
0.0
 11
509.6
 21
133.95
 31
0.0
  0
LINE
  5
1CE
  8
1
  6
CONTINUOUS
 62
     7
 10
432.6
 20
243.0500000000001
 30
0.0
 11
440.4
 21
243.0500000000001
 31
0.0
  0
LINE
  5
1CF
  8
1
  6
CONTINUOUS
 62
     7
 10
440.4
 20
133.95
 30
0.0
 11
432.6
 21
133.95
 31
0.0
  0
ENDBLK
  8
0
  0
ENDSEC
  0
SECTION
  2
ENTITIES
  0
TEXT
  5
70
  8
1
  6
CONTINUOUS
 62
     7
 10
546.0810460172565
 20
84.46403338752032
 30
0.0
 40
5.0
  1
OF-12PYX
  0
TEXT
  5
71
  8
1
  6
CONTINUOUS
 62
     7
 10
546.0810460172565
 20
76.96403338752033
 30
0.0
 40
5.0
  1
OF-12PYXS
  0
LINE
  5
72
  8
1
  6
CENTER
 62
     1
 10
558.9999999999999
 20
188.5
 30
0.0
 11
581.05
 21
188.5
 31
0.0
  0
LINE
  5
74
  8
1
  6
CENTER
 62
     1
 10
475.0
 20
79.45
 30
0.0
 11
475.0
 21
101.5
 31
0.0
  0
LINE
  5
75
  8
1
  6
CONTINUOUS
 62
     7
 10
579.05
 20
189.0
 30
0.0
 11
572.9499999999999
 21
189.0
 31
0.0
  0
LINE
  5
76
  8
1
  6
CONTINUOUS
 62
     7
 10
567.0712960252994
 20
164.5513026723683
 30
0.0
 11
572.9054841699526
 21
164.5003884837634
 31
0.0
  0
ARC
  5
77
  8
1
  6
CONTINUOUS
 62
     7
 10
451.4798180900489
 20
63.72836785774949
 30
0.0
 40
20.92163214225051
 50
57.89205885880818
 51
79.89166369173232
  0
LINE
  5
78
  8
1
  6
CONTINUOUS
 62
     7
 10
567.0712960252994
 20
210.5513026723682
 30
0.0
 11
572.9499999999999
 21
210.5
 31
0.0
  0
ARC
  5
79
  8
1
  6
CONTINUOUS
 62
     7
 10
530.5000000000001
 20
188.5
 30
0.0
 40
0.5000000000000004
 50
90.0
 51
270.0
  0
LINE
  5
7A
  8
1
  6
CONTINUOUS
 62
     7
 10
579.5499999999998
 20
142.4999999999999
 30
0.0
 11
579.5499999999998
 21
131.5
 31
0.0
  0
LINE
  5
7B
  8
1
  6
CONTINUOUS
 62
     7
 10
452.9597086375011
 20
164.5
 30
0.0
 11
425.7878283234546
 21
164.5
 31
0.0
  0
LINE
  5
7C
  8
1
  6
CONTINUOUS
 62
     7
 10
572.9054841699526
 20
166.4996115162367
 30
0.0
 11
567.0712960252994
 21
166.4486973276318
 31
0.0
  0
ARC
  5
7D
  8
1
  6
CONTINUOUS
 62
     7
 10
498.5201819099511
 20
63.72836785774949
 30
0.0
 40
20.92163214225051
 50
100.5385208037826
 51
122.1079411411918
  0
ARC
  5
7E
  8
1
  6
CONTINUOUS
 62
     7
 10
419.5000000000001
 20
188.5
 30
0.0
 40
0.5000000000000004
 50
270.0
 51
90.0
  0
LINE
  5
7F
  8
1
  6
CONTINUOUS
 62
     7
 10
524.2121716765454
 20
164.5
 30
0.0
 11
497.0915940348672
 21
164.5
 31
0.0
  0
LINE
  5
80
  8
1
  6
CONTINUOUS
 62
     7
 10
425.7878283234546
 20
166.5
 30
0.0
 11
452.9597086375011
 21
166.5
 31
0.0
  0
LINE
  5
81
  8
1
  6
CONTINUOUS
 62
     7
 10
572.9499999999999
 20
188.0
 30
0.0
 11
579.05
 21
188.0
 31
0.0
  0
LINE
  5
82
  8
1
  6
CONTINUOUS
 62
     7
 10
524.2121716765454
 20
210.5
 30
0.0
 11
497.0915940348671
 21
210.5
 31
0.0
  0
LINE
  5
83
  8
1
  6
CONTINUOUS
 62
     7
 10
572.9499999999999
 20
212.5000000000001
 30
0.0
 11
567.0712960252994
 21
212.4486973276318
 31
0.0
  0
LINE
  5
84
  8
1
  6
CONTINUOUS
 62
     7
 10
579.05
 20
202.2000000000001
 30
0.0
 11
579.05
 21
174.8
 31
0.0
  0
LINE
  5
85
  8
1
  6
CONTINUOUS
 62
     7
 10
579.5499999999998
 20
245.5
 30
0.0
 11
579.5499999999998
 21
234.5000000000001
 31
0.0
  0
LINE
  5
86
  8
1
  6
CONTINUOUS
 62
     7
 10
497.0915940348671
 20
212.5
 30
0.0
 11
524.2121716765454
 21
212.5
 31
0.0
  0
LINE
  5
87
  8
1
  6
CONTINUOUS
 62
     7
 10
452.9084059651329
 20
210.5
 30
0.0
 11
425.7878283234546
 21
210.5
 31
0.0
  0
LINE
  5
88
  8
1
  6
CONTINUOUS
 62
     7
 10
497.0915940348672
 20
166.5
 30
0.0
 11
524.2121716765454
 21
166.5
 31
0.0
  0
LINE
  5
89
  8
1
  6
CONTINUOUS
 62
     7
 10
568.1357467270319
 20
226.3353954475819
 30
0.0
 11
571.9559530623469
 21
226.4948003793679
 31
0.0
  0
ARC
  5
8A
  8
1
  6
CONTINUOUS
 62
     7
 10
451.4798180900489
 20
63.72836785774949
 30
0.0
 40
20.92163214225052
 50
80.89228066773856
 51
124.5986696747285
  0
ARC
  5
8B
  8
1
  6
CONTINUOUS
 62
     7
 10
451.9747849840763
 20
95.1693720639479
 30
0.0
 40
2.0
 50
282.1112430160723
 51
359.5000000000002
  0
LINE
  5
8C
  8
1
  6
CONTINUOUS
 62
     7
 10
565.2613480934745
 20
226.3107593390309
 30
0.0
 11
562.4507843492738
 21
226.3797791049617
 31
0.0
  0
LINE
  5
8D
  8
1
  6
CONTINUOUS
 62
     7
 10
572.9499999999999
 20
131.0
 30
0.0
 11
572.9499999999999
 21
246.0
 31
0.0
  0
LINE
  5
8E
  8
1
  6
CONTINUOUS
 62
     7
 10
425.7878283234546
 20
212.5
 30
0.0
 11
452.9084059651329
 21
212.5
 31
0.0
  0
ARC
  5
8F
  8
1
  6
CONTINUOUS
 62
     7
 10
498.0252150159238
 20
95.1693720639479
 30
0.0
 40
2.0
 50
180.5
 51
257.8887569839261
  0
ARC
  5
90
  8
1
  6
CONTINUOUS
 62
     7
 10
498.5201819099511
 20
63.72836785774949
 30
0.0
 40
20.92163214225052
 50
55.40133032527166
 51
98.53820789443785
  0
LINE
  5
91
  8
1
  6
CONTINUOUS
 62
     7
 10
562.4499999999999
 20
227.35
 30
0.0
 11
562.4499999999999
 21
149.65
 31
0.0
  0
ARC
  5
92
  8
1
  6
CONTINUOUS
 62
     7
 10
452.9110864829183
 20
163.4939400650688
 30
0.0
 40
1.006040232985882
 50
0.8399961575163388
 51
89.65998480497827
  0
INSERT
  5
C5
  8
1
  6
CONTINUOUS
 62
     7
  2
D_FRAME_VIEW_3324
 10
0.0
 20
0.0
 30
0.0
  0
INSERT
  5
10C
  8
1
  6
CONTINUOUS
 62
     7
  2
D_FRAME_VIEW_3153
 10
0.0
 20
0.0
 30
0.0
  0
LINE
  5
10D
  8
1
  6
CONTINUOUS
 62
     7
 10
471.55
 20
94.9780810350512
 30
0.0
 11
478.4495429030194
 21
94.92192268545794
 31
0.0
  0
LINE
  5
10E
  8
1
  6
CONTINUOUS
 62
     7
 10
471.5504570969807
 20
92.67807731454214
 30
0.0
 11
478.45
 21
92.62191896494882
 31
0.0
  0
LINE
  5
10F
  8
1
  6
CONTINUOUS
 62
     7
 10
478.1653562091951
 20
98.05000001985384
 30
0.0
 11
478.1739733614728
 21
95.29703817368286
 31
0.0
  0
LINE
  5
110
  8
1
  6
CONTINUOUS
 62
     7
 10
478.195081988691
 20
88.54127346450164
 30
0.0
 11
478.1833282469379
 21
92.30601041370241
 31
0.0
  0
LINE
  5
111
  8
1
  6
CONTINUOUS
 62
     7
 10
471.804918011309
 20
88.54127346450163
 30
0.0
 11
471.8166717530621
 21
92.30601041370241
 31
0.0
  0
LINE
  5
112
  8
1
  6
CONTINUOUS
 62
     7
 10
471.8260266385273
 20
95.29703817368286
 30
0.0
 11
471.834643790805
 21
98.05000001985384
 31
0.0
  0
LINE
  5
113
  8
1
  6
CONTINUOUS
 62
     7
 10
454.0000000000001
 20
98.05000000000001
 30
0.0
 11
496.0000000000001
 21
98.05000000000001
 31
0.0
  0
LINE
  5
114
  8
1
  6
CONTINUOUS
 62
     7
 10
530.5
 20
80.95
 30
0.0
 11
510.4
 21
80.95
 31
0.0
  0
LINE
  5
115
  8
1
  6
CONTINUOUS
 62
     7
 10
474.5000000000001
 20
81.45000000000002
 30
0.0
 11
474.5000000000001
 21
87.55000000000007
 31
0.0
  0
LINE
  5
116
  8
1
  6
CONTINUOUS
 62
     7
 10
419.0000000000001
 20
87.55000000000001
 30
0.0
 11
531.0
 21
87.55000000000001
 31
0.0
  0
LINE
  5
117
  8
1
  6
CONTINUOUS
 62
     7
 10
475.5000000000001
 20
87.55000000000007
 30
0.0
 11
475.5000000000001
 21
81.45000000000002
 31
0.0
  0
LINE
  5
118
  8
1
  6
CONTINUOUS
 62
     7
 10
455.4093069127049
 20
84.30011512556699
 30
0.0
 11
454.4295062605433
 21
84.44102174836657
 31
0.0
  0
LINE
  5
119
  8
1
  6
CONTINUOUS
 62
     7
 10
495.5702682184513
 20
84.44236370494568
 30
0.0
 11
494.5938346313498
 21
84.27827025516902
 31
0.0
  0
LINE
  5
11A
  8
1
  6
CONTINUOUS
 62
     7
 10
487.4
 20
81.45000000000002
 30
0.0
 11
462.6
 21
81.45000000000002
 31
0.0
  0
LINE
  5
11B
  8
1
  6
CONTINUOUS
 62
     7
 10
439.6
 20
80.95
 30
0.0
 11
419.5000000000001
 21
80.95
 31
0.0
  0
LINE
  5
11C
  8
1
  6
CENTER
 62
     1
 10
475.0
 20
134.5
 30
0.0
 11
475.0
 21
242.5
 31
0.0
  0
LINE
  5
11D
  8
1
  6
CENTER
 62
     1
 10
529.0000000000001
 20
188.5
 30
0.0
 11
421.0000000000001
 21
188.5
 31
0.0
  0
INSERT
  5
1D0
  8
1
  6
CONTINUOUS
 62
     7
  2
D_FRAME_VIEW_2614
 10
0.0
 20
0.0
 30
0.0
  0
ENDSEC
  0
EOF
