  0
SECTION
  2
HEADER
  9
$ACADVER
  1
AC1006
  9
$DWGCODEPAGE
  3
ansi_932
  9
$INSBASE
 10
0.0
 20
0.0
 30
0.0
  9
$EXTMIN
 10
574.970088533
 20
94.001451
  9
$EXTMAX
 10
1165.3874278577
 20
192.4833261155
  9
$LIMMIN
 10
0.0
 20
0.0
  9
$LIMMAX
 10
12.0
 20
9.0
  9
$ORTHOMODE
 70
     0
  9
$REGENMODE
 70
     1
  9
$FILLMODE
 70
     1
  9
$QTEXTMODE
 70
     0
  9
$MIRRTEXT
 70
     1
  9
$DRAGMODE
 70
     2
  9
$LTSCALE
 40
1.0
  9
$OSMODE
 70
    37
  9
$ATTMODE
 70
     1
  9
$TEXTSIZE
 40
0.2
  9
$TRACEWID
 40
0.05
  9
$TEXTSTYLE
  7
STANDARD
  9
$CLAYER
  8
0
  9
$CELTYPE
  6
BYLAYER
  9
$CECOLOR
 62
   256
  9
$DIMSCALE
 40
1.0
  9
$DIMASZ
 40
2.0
  9
$DIMEXO
 40
0.0625
  9
$DIMDLI
 40
0.38
  9
$DIMRND
 40
0.0
  9
$DIMDLE
 40
0.0
  9
$DIMEXE
 40
1.0
  9
$DIMTP
 40
0.0
  9
$DIMTM
 40
0.0
  9
$DIMTXT
 40
3.2
  9
$DIMCEN
 40
0.09
  9
$DIMTSZ
 40
0.0
  9
$DIMTOL
 70
     0
  9
$DIMLIM
 70
     0
  9
$DIMTIH
 70
     1
  9
$DIMTOH
 70
     1
  9
$DIMSE1
 70
     0
  9
$DIMSE2
 70
     0
  9
$DIMTAD
 70
     1
  9
$DIMZIN
 70
     0
  9
$DIMBLK
  1

  9
$DIMASO
 70
     1
  9
$DIMSHO
 70
     1
  9
$DIMPOST
  1

  9
$DIMAPOST
  1

  9
$DIMALT
 70
     0
  9
$DIMALTD
 70
     2
  9
$DIMALTF
 40
25.4
  9
$DIMLFAC
 40
1.0
  9
$DIMTOFL
 70
     0
  9
$DIMTVP
 40
0.0
  9
$DIMTIX
 70
     0
  9
$DIMSOXD
 70
     0
  9
$DIMSAH
 70
     0
  9
$DIMBLK1
  1

  9
$DIMBLK2
  1

  9
$LUNITS
 70
     2
  9
$LUPREC
 70
     4
  9
$SKETCHINC
 40
0.1
  9
$FILLETRAD
 40
0.5
  9
$AUNITS
 70
     0
  9
$AUPREC
 70
     0
  9
$MENU
  1
.
  9
$ELEVATION
 40
0.0
  9
$THICKNESS
 40
0.0
  9
$LIMCHECK
 70
     0
  9
$CHAMFERA
 40
0.0
  9
$CHAMFERB
 40
0.0
  9
$SKPOLY
 70
     0
  9
$TDCREATE
 40
2459691.438053137
  9
$TDUPDATE
 40
2459691.438053287
  9
$TDINDWG
 40
0.0000000116
  9
$TDUSRTIMER
 40
0.0000000116
  9
$USRTIMER
 70
     1
  9
$ANGBASE
 50
0.0
  9
$ANGDIR
 70
     0
  9
$PDMODE
 70
     0
  9
$PDSIZE
 40
0.0
  9
$PLINEWID
 40
0.0
  9
$COORDS
 70
     1
  9
$SPLFRAME
 70
     0
  9
$SPLINETYPE
 70
     6
  9
$SPLINESEGS
 70
     8
  9
$ATTDIA
 70
     0
  9
$ATTREQ
 70
     1
  9
$HANDLING
 70
     1
  9
$HANDSEED
  5
F4
  9
$SURFTAB1
 70
     6
  9
$SURFTAB2
 70
     6
  9
$SURFTYPE
 70
     6
  9
$SURFU
 70
     6
  9
$SURFV
 70
     6
  9
$UCSNAME
  2

  9
$UCSORG
 10
0.0
 20
0.0
 30
0.0
  9
$UCSXDIR
 10
1.0
 20
0.0
 30
0.0
  9
$UCSYDIR
 10
0.0
 20
1.0
 30
0.0
  9
$USERI1
 70
     0
  9
$USERI2
 70
     0
  9
$USERI3
 70
     0
  9
$USERI4
 70
     0
  9
$USERI5
 70
     0
  9
$USERR1
 40
0.0
  9
$USERR2
 40
0.0
  9
$USERR3
 40
0.0
  9
$USERR4
 40
0.0
  9
$USERR5
 40
0.0
  9
$WORLDVIEW
 70
     1
  0
ENDSEC
  0
SECTION
  2
TABLES
  0
TABLE
  2
VPORT
 70
     1
  0
VPORT
  2
*ACTIVE
 70
     0
 10
0.0
 20
0.0
 11
1.0
 21
1.0
 12
870.1787581953499
 22
143.24238855775
 13
0.0
 23
0.0
 14
0.5
 24
0.5
 15
0.5
 25
0.5
 16
0.0
 26
0.0
 36
1.0
 17
0.0
 27
0.0
 37
0.0
 40
98.4818751155
 41
1.6
 42
50.0
 43
0.0
 44
0.0
 50
0.0
 51
0.0
 71
     0
 72
   100
 73
     1
 74
     3
 75
     0
 76
     0
 77
     0
 78
     0
  0
ENDTAB
  0
TABLE
  2
LTYPE
 70
     3
  0
LTYPE
  2
CONTINUOUS
 70
     0
  3
Solid line
 72
    65
 73
     0
 40
0.0
  0
LTYPE
  2
CENTER
 70
     0
  3

 72
    65
 73
     0
 40
0.0
  0
LTYPE
  2
DASHED
 70
     0
  3

 72
    65
 73
     0
 40
0.0
  0
ENDTAB
  0
TABLE
  2
LAYER
 70
     2
  0
LAYER
  2
0
 70
     0
 62
     7
  6
CONTINUOUS
  0
LAYER
  2
1
 70
     0
 62
     7
  6
CONTINUOUS
  0
ENDTAB
  0
TABLE
  2
STYLE
 70
     2
  0
STYLE
  2
STANDARD
 70
     0
 40
0.0
 41
1.0
 50
0.0
 71
     0
 42
0.2
  3
txt
  4

  0
STYLE
  2
ＭＳ_ゴシック
 70
     0
 40
0.0
 41
1.0
 50
0.0
 71
     0
 42
0.2
  3
ＭＳ ゴシック.shx
  4

  0
ENDTAB
  0
TABLE
  2
VIEW
 70
     0
  0
ENDTAB
  0
TABLE
  2
UCS
 70
     0
  0
ENDTAB
  0
ENDSEC
  0
SECTION
  2
BLOCKS
  0
ENDSEC
  0
SECTION
  2
ENTITIES
  0
LINE
  5
70
  8
1
  6
CONTINUOUS
 62
     7
 10
812.2340205555
 20
186.4833261155
 30
0.0
 11
816.7061565105
 21
186.4833261155
 31
0.0
  0
LINE
  5
71
  8
1
  6
CONTINUOUS
 62
     7
 10
812.2340205555
 20
182.4833261155
 30
0.0
 11
816.7061565105
 21
182.4833261155
 31
0.0
  0
LINE
  5
72
  8
1
  6
CONTINUOUS
 62
     7
 10
1074.970088533
 20
182.4833261155
 30
0.0
 11
1074.970088533
 21
186.4833261155
 31
0.0
  0
LINE
  5
73
  8
1
  6
CONTINUOUS
 62
     7
 10
833.2340205555
 20
182.4833261155
 30
0.0
 11
837.7061565105
 21
182.4833261155
 31
0.0
  0
LINE
  5
74
  8
1
  6
CONTINUOUS
 62
     7
 10
833.2340205555
 20
116.4833261155
 30
0.0
 11
837.7061565105
 21
116.4833261155
 31
0.0
  0
ARC
  5
75
  8
1
  6
CONTINUOUS
 62
     7
 10
835.470088533
 20
184.4833261155
 30
0.0
 40
3.0
 50
138.1896851042
 51
221.8103148958
  0
ARC
  5
76
  8
1
  6
CONTINUOUS
 62
     7
 10
835.470088533
 20
184.4833261155
 30
0.0
 40
3.0
 50
318.1896851042
 51
41.81031489579999
  0
LINE
  5
77
  8
1
  6
CONTINUOUS
 62
     7
 10
833.2340205555
 20
112.4833261155
 30
0.0
 11
837.7061565105
 21
112.4833261155
 31
0.0
  0
LINE
  5
78
  8
1
  6
CONTINUOUS
 62
     7
 10
833.2340205555
 20
186.4833261155
 30
0.0
 11
837.7061565105
 21
186.4833261155
 31
0.0
  0
ARC
  5
79
  8
1
  6
CONTINUOUS
 62
     7
 10
814.470088533
 20
184.4833261155
 30
0.0
 40
3.0
 50
138.1896851042
 51
221.8103148958
  0
ARC
  5
7A
  8
1
  6
CONTINUOUS
 62
     7
 10
814.470088533
 20
184.4833261155
 30
0.0
 40
3.0
 50
318.1896851042
 51
41.81031489579999
  0
LINE
  5
7B
  8
1
  6
CONTINUOUS
 62
     7
 10
574.970088533
 20
112.4833261155
 30
0.0
 11
805.970088533
 21
112.4833261155
 31
0.0
  0
LINE
  5
7C
  8
1
  6
CONTINUOUS
 62
     7
 10
1074.970088533
 20
112.4833261155
 30
0.0
 11
1074.970088533
 21
116.4833261155
 31
0.0
  0
LINE
  5
7D
  8
1
  6
CONTINUOUS
 62
     7
 10
843.970088533
 20
182.4833261155
 30
0.0
 11
1074.970088533
 21
182.4833261155
 31
0.0
  0
LINE
  5
7E
  8
1
  6
CONTINUOUS
 62
     7
 10
1074.970088533
 20
116.4833261155
 30
0.0
 11
843.970088533
 21
116.4833261155
 31
0.0
  0
LINE
  5
7F
  8
1
  6
CONTINUOUS
 62
     7
 10
843.970088533
 20
112.4833261155
 30
0.0
 11
1074.970088533
 21
112.4833261155
 31
0.0
  0
LINE
  5
80
  8
1
  6
CONTINUOUS
 62
     7
 10
574.970088533
 20
186.4833261155
 30
0.0
 11
574.970088533
 21
182.4833261155
 31
0.0
  0
LINE
  5
81
  8
1
  6
CONTINUOUS
 62
     7
 10
574.970088533
 20
116.4833261155
 30
0.0
 11
574.970088533
 21
112.4833261155
 31
0.0
  0
LINE
  5
82
  8
1
  6
CONTINUOUS
 62
     7
 10
805.970088533
 20
186.4833261155
 30
0.0
 11
574.970088533
 21
186.4833261155
 31
0.0
  0
LINE
  5
83
  8
1
  6
CONTINUOUS
 62
     7
 10
1074.970088533
 20
186.4833261155
 30
0.0
 11
843.970088533
 21
186.4833261155
 31
0.0
  0
LINE
  5
84
  8
1
  6
CONTINUOUS
 62
     7
 10
574.970088533
 20
182.4833261155
 30
0.0
 11
805.970088533
 21
182.4833261155
 31
0.0
  0
LINE
  5
85
  8
1
  6
CONTINUOUS
 62
     7
 10
805.970088533
 20
116.4833261155
 30
0.0
 11
574.970088533
 21
116.4833261155
 31
0.0
  0
LINE
  5
86
  8
1
  6
CONTINUOUS
 62
     7
 10
1157.3874278577
 20
130.9833261155
 30
0.0
 11
1157.3874278577
 21
129.9833261155
 31
0.0
  0
CIRCLE
  5
87
  8
1
  6
CONTINUOUS
 62
     7
 10
1137.8874278577
 20
114.4833261155
 30
0.0
 40
2.0
  0
ARC
  5
88
  8
1
  6
CONTINUOUS
 62
     7
 10
1137.3874278577
 20
145.1427222735
 30
0.0
 40
1.0
 50
180.0
 51
246.8014094864
  0
LINE
  5
89
  8
1
  6
CONTINUOUS
 62
     7
 10
812.2340205555
 20
182.4833261155
 30
0.0
 11
816.7061565105
 21
186.4833261155
 31
0.0
  0
LINE
  5
8A
  8
1
  6
CONTINUOUS
 62
     7
 10
1141.8874278577
 20
168.9833261155
 30
0.0
 11
1157.3874278577
 21
168.9833261155
 31
0.0
  0
LINE
  5
8B
  8
1
  6
CONTINUOUS
 62
     7
 10
833.2340205555
 20
112.4833261155
 30
0.0
 11
837.7061565105
 21
116.4833261155
 31
0.0
  0
ARC
  5
8C
  8
1
  6
CONTINUOUS
 62
     7
 10
1137.8874278577
 20
119.4833261155
 30
0.0
 40
2.0
 50
270.0
 51
0.0
  0
LINE
  5
8D
  8
1
  6
CONTINUOUS
 62
     7
 10
1157.3874278577
 20
167.9833261155
 30
0.0
 11
1157.3874278577
 21
168.9833261155
 31
0.0
  0
LINE
  5
8E
  8
1
  6
CONTINUOUS
 62
     7
 10
833.2340205555
 20
186.4833261155
 30
0.0
 11
837.7061565105
 21
182.4833261155
 31
0.0
  0
ARC
  5
8F
  8
1
  6
CONTINUOUS
 62
     7
 10
1141.8874278577
 20
131.9833261155
 30
0.0
 40
1.0
 50
180.0
 51
270.0
  0
LINE
  5
90
  8
1
  6
CONTINUOUS
 62
     7
 10
1140.8874278577
 20
182.4833261155
 30
0.0
 11
1140.8874278577
 21
184.4833261155
 31
0.0
  0
ARC
  5
91
  8
1
  6
CONTINUOUS
 62
     7
 10
1138.8874278577
 20
180.4833261155
 30
0.0
 40
2.0
 50
0.0
 51
90.0
  0
LINE
  5
92
  8
1
  6
CENTER
 62
     7
 10
791.970088533
 20
149.4833261155
 30
0.0
 11
857.970088533
 21
149.4833261155
 31
0.0
  0
LINE
  5
94
  8
1
  6
CONTINUOUS
 62
     7
 10
1141.8874278577
 20
129.9833261155
 30
0.0
 11
1157.3874278577
 21
129.9833261155
 31
0.0
  0
LINE
  5
95
  8
1
  6
CONTINUOUS
 62
     7
 10
1138.7103035133
 20
181.306201771
 30
0.0
 11
1139.7103035133
 21
182.306201771
 31
0.0
  0
CIRCLE
  5
96
  8
1
  6
CONTINUOUS
 62
     7
 10
824.970088533
 20
149.4833261155
 30
0.0
 40
6.5
  0
LINE
  5
97
  8
1
  6
CONTINUOUS
 62
     7
 10
1138.8874278577
 20
182.4833261155
 30
0.0
 11
1137.8874278577
 21
182.4833261155
 31
0.0
  0
ARC
  5
98
  8
1
  6
CONTINUOUS
 62
     7
 10
1137.3874278577
 20
153.8239299575
 30
0.0
 40
1.0
 50
113.1985905136
 51
180.0
  0
LINE
  5
99
  8
1
  6
CONTINUOUS
 62
     7
 10
833.2340205555
 20
116.4833261155
 30
0.0
 11
837.7061565105
 21
112.4833261155
 31
0.0
  0
ARC
  5
9A
  8
1
  6
CONTINUOUS
 62
     7
 10
1141.8874278577
 20
166.9833261155
 30
0.0
 40
1.0
 50
90.0
 51
180.0
  0
LINE
  5
9B
  8
1
  6
CONTINUOUS
 62
     7
 10
1139.8874278577
 20
119.4833261155
 30
0.0
 11
1139.8874278577
 21
179.4833261155
 31
0.0
  0
LINE
  5
9C
  8
1
  6
CONTINUOUS
 62
     7
 10
1140.8874278577
 20
114.4833261155
 30
0.0
 11
1140.8874278577
 21
116.4833261155
 31
0.0
  0
LINE
  5
9D
  8
1
  6
CONTINUOUS
 62
     7
 10
1136.9935085591
 20
144.2235772434
 30
0.0
 11
1137.8874278572
 21
143.8404689729
 31
0.0
  0
LINE
  5
9E
  8
1
  6
CONTINUOUS
 62
     7
 10
812.2340205555
 20
116.4833261155
 30
0.0
 11
816.7061565105
 21
112.4833261155
 31
0.0
  0
LINE
  5
9F
  8
1
  6
CONTINUOUS
 62
     7
 10
1141.8874278577
 20
167.9833261155
 30
0.0
 11
1157.3874278577
 21
167.9833261155
 31
0.0
  0
CIRCLE
  5
A0
  8
1
  6
CONTINUOUS
 62
     7
 10
824.970088533
 20
149.4833261155
 30
0.0
 40
4.340603842
  0
CIRCLE
  5
A1
  8
1
  6
CONTINUOUS
 62
     7
 10
1137.8874278577
 20
184.4833261155
 30
0.0
 40
2.0
  0
LINE
  5
A2
  8
1
  6
CONTINUOUS
 62
     7
 10
833.2340205555
 20
182.4833261155
 30
0.0
 11
837.7061565105
 21
186.4833261155
 31
0.0
  0
ARC
  5
A3
  8
1
  6
CONTINUOUS
 62
     7
 10
1137.8874278577
 20
179.4833261155
 30
0.0
 40
2.0
 50
0.0
 51
90.0
  0
ARC
  5
A4
  8
1
  6
CONTINUOUS
 62
     7
 10
1137.8874278577
 20
119.4833261155
 30
0.0
 40
3.0
 50
270.0
 51
0.0
  0
ARC
  5
A5
  8
1
  6
CONTINUOUS
 62
     7
 10
1141.8874278577
 20
131.9833261155
 30
0.0
 40
2.0
 50
240.0
 51
270.0
  0
LINE
  5
A6
  8
1
  6
CONTINUOUS
 62
     7
 10
1139.8874278577
 20
182.4833261155
 30
0.0
 11
1140.8874278577
 21
182.4833261155
 31
0.0
  0
LINE
  5
A7
  8
1
  6
CONTINUOUS
 62
     7
 10
1139.4489806705
 20
116.9217733027
 30
0.0
 11
1138.7103035133
 21
117.66045046
 31
0.0
  0
LINE
  5
A8
  8
1
  6
CONTINUOUS
 62
     7
 10
1141.8874278577
 20
130.9833261155
 30
0.0
 11
1157.3874278577
 21
130.9833261155
 31
0.0
  0
LINE
  5
A9
  8
1
  6
CONTINUOUS
 62
     7
 10
1140.8874278577
 20
119.4833261155
 30
0.0
 11
1140.8874278577
 21
180.4833261155
 31
0.0
  0
ARC
  5
AA
  8
1
  6
CONTINUOUS
 62
     7
 10
1141.8874278577
 20
166.9833261155
 30
0.0
 40
2.0
 50
90.0
 51
120.0000000002
  0
LINE
  5
AB
  8
1
  6
CONTINUOUS
 62
     7
 10
1139.8874278577
 20
184.4833261155
 30
0.0
 11
1139.8874278577
 21
182.4833261155
 31
0.0
  0
LINE
  5
AC
  8
1
  6
CONTINUOUS
 62
     7
 10
812.2340205555
 20
112.4833261155
 30
0.0
 11
816.7061565105
 21
116.4833261155
 31
0.0
  0
LINE
  5
AD
  8
1
  6
CONTINUOUS
 62
     7
 10
1137.8874278577
 20
181.4833261155
 30
0.0
 11
1137.8874278577
 21
117.4833261155
 31
0.0
  0
LINE
  5
AE
  8
1
  6
CONTINUOUS
 62
     7
 10
1139.8874278577
 20
116.4833261155
 30
0.0
 11
1139.8874278577
 21
114.4833261155
 31
0.0
  0
LINE
  5
AF
  8
1
  6
CENTER
 62
     7
 10
1126.3874278577
 20
149.4833261155
 30
0.0
 11
1165.3874278577
 21
149.4833261155
 31
0.0
  0
ARC
  5
B0
  8
1
  6
CONTINUOUS
 62
     7
 10
1137.8874278577
 20
184.4833261155
 30
0.0
 40
3.0
 50
0.0
 51
270.0
  0
LINE
  5
B1
  8
1
  6
CONTINUOUS
 62
     7
 10
1136.9935085591
 20
154.7430749875
 30
0.0
 11
1137.8874278572
 21
155.1261832581
 31
0.0
  0
LINE
  5
B2
  8
1
  6
CONTINUOUS
 62
     7
 10
1136.3874278577
 20
145.1427222735
 30
0.0
 11
1136.3874278577
 21
153.8239299575
 31
0.0
  0
LINE
  5
B3
  8
1
  6
CENTER
 62
     7
 10
824.970088533
 20
106.4833261155
 30
0.0
 11
824.970088533
 21
192.4833261155
 31
0.0
  0
LINE
  5
B4
  8
1
  6
CONTINUOUS
 62
     7
 10
812.2340205555
 20
186.4833261155
 30
0.0
 11
816.7061565105
 21
182.4833261155
 31
0.0
  0
ARC
  5
B5
  8
1
  6
CONTINUOUS
 62
     7
 10
1137.8874278577
 20
114.4833261155
 30
0.0
 40
3.0
 50
90.0
 51
0.0
  0
LINE
  5
B6
  8
1
  6
CONTINUOUS
 62
     7
 10
1140.8874278577
 20
116.4833261155
 30
0.0
 11
1139.8874278577
 21
116.4833261155
 31
0.0
  0
LINE
  5
B7
  8
1
  6
CONTINUOUS
 62
     7
 10
827.670088533
 20
168.9833261155
 30
0.0
 11
827.370088533
 21
180.0833261155
 31
0.0
  0
LINE
  5
B8
  8
1
  6
CONTINUOUS
 62
     7
 10
822.270088533
 20
132.4833261155
 30
0.0
 11
822.270088533
 21
129.9833261155
 31
0.0
  0
LINE
  5
B9
  8
1
  6
CONTINUOUS
 62
     7
 10
843.970088533
 20
187.4833261155
 30
0.0
 11
805.970088533
 21
187.4833261155
 31
0.0
  0
LINE
  5
BA
  8
1
  6
DASHED
 62
     7
 10
805.970088533
 20
112.4833261155
 30
0.0
 11
843.970088533
 21
112.4833261155
 31
0.0
  0
LINE
  5
BC
  8
1
  6
DASHED
 62
     7
 10
805.970088533
 20
116.4833261155
 30
0.0
 11
843.970088533
 21
116.4833261155
 31
0.0
  0
LINE
  5
BD
  8
1
  6
CONTINUOUS
 62
     7
 10
839.470088533
 20
181.4833261155
 30
0.0
 11
839.470088533
 21
117.4833261155
 31
0.0
  0
LINE
  5
BE
  8
1
  6
CONTINUOUS
 62
     7
 10
805.970088533
 20
187.4833261155
 30
0.0
 11
805.970088533
 21
171.4833261155
 31
0.0
  0
LINE
  5
BF
  8
1
  6
CONTINUOUS
 62
     7
 10
805.970088533
 20
171.4833261155
 30
0.0
 11
805.470088533
 21
171.4833261155
 31
0.0
  0
LINE
  5
C0
  8
1
  6
DASHED
 62
     7
 10
805.970088533
 20
186.4833261155
 30
0.0
 11
843.970088533
 21
186.4833261155
 31
0.0
  0
LINE
  5
C1
  8
1
  6
CONTINUOUS
 62
     7
 10
827.670088533
 20
166.4833261155
 30
0.0
 11
827.670088533
 21
168.9833261155
 31
0.0
  0
LINE
  5
C2
  8
1
  6
CONTINUOUS
 62
     7
 10
810.470088533
 20
181.4833261155
 30
0.0
 11
810.470088533
 21
117.4833261155
 31
0.0
  0
LINE
  5
C3
  8
1
  6
CONTINUOUS
 62
     7
 10
810.470088533
 20
117.4833261155
 30
0.0
 11
805.970088533
 21
117.4833261155
 31
0.0
  0
LINE
  5
C4
  8
1
  6
DASHED
 62
     7
 10
805.970088533
 20
182.4833261155
 30
0.0
 11
843.970088533
 21
182.4833261155
 31
0.0
  0
LINE
  5
C5
  8
1
  6
CONTINUOUS
 62
     7
 10
827.670088533
 20
132.4833261155
 30
0.0
 11
827.670088533
 21
129.9833261155
 31
0.0
  0
LINE
  5
C6
  8
1
  6
CONTINUOUS
 62
     7
 10
822.270088533
 20
166.4833261155
 30
0.0
 11
822.270088533
 21
168.9833261155
 31
0.0
  0
LINE
  5
C7
  8
1
  6
DASHED
 62
     7
 10
822.270088533
 20
167.9833261155
 30
0.0
 11
827.670088533
 21
167.9833261155
 31
0.0
  0
ARC
  5
C8
  8
1
  6
CONTINUOUS
 62
     7
 10
824.970088533
 20
118.8833261155
 30
0.0
 40
2.4
 50
180.0
 51
0.0
  0
LINE
  5
C9
  8
1
  6
CONTINUOUS
 62
     7
 10
805.970088533
 20
111.4833261155
 30
0.0
 11
843.970088533
 21
111.4833261155
 31
0.0
  0
LINE
  5
CA
  8
1
  6
CONTINUOUS
 62
     7
 10
822.270088533
 20
129.9833261155
 30
0.0
 11
822.570088533
 21
118.8833261155
 31
0.0
  0
LINE
  5
CB
  8
1
  6
DASHED
 62
     7
 10
822.270088533
 20
130.9833261155
 30
0.0
 11
827.670088533
 21
130.9833261155
 31
0.0
  0
ARC
  5
CC
  8
1
  6
CONTINUOUS
 62
     7
 10
824.970088533
 20
180.0833261155
 30
0.0
 40
2.4
 50
0.0
 51
180.0
  0
LINE
  5
CD
  8
1
  6
CONTINUOUS
 62
     7
 10
805.970088533
 20
181.4833261155
 30
0.0
 11
810.470088533
 21
181.4833261155
 31
0.0
  0
LINE
  5
CE
  8
1
  6
CONTINUOUS
 62
     7
 10
815.470088533
 20
181.4833261155
 30
0.0
 11
815.470088533
 21
117.4833261155
 31
0.0
  0
LINE
  5
CF
  8
1
  6
CONTINUOUS
 62
     7
 10
815.470088533
 20
117.4833261155
 30
0.0
 11
834.470088533
 21
117.4833261155
 31
0.0
  0
LINE
  5
D0
  8
1
  6
CONTINUOUS
 62
     7
 10
834.470088533
 20
117.4833261155
 30
0.0
 11
834.470088533
 21
181.4833261155
 31
0.0
  0
LINE
  5
D1
  8
1
  6
CONTINUOUS
 62
     7
 10
843.970088533
 20
181.4833261155
 30
0.0
 11
839.470088533
 21
181.4833261155
 31
0.0
  0
LINE
  5
D2
  8
1
  6
CONTINUOUS
 62
     7
 10
839.470088533
 20
117.4833261155
 30
0.0
 11
843.970088533
 21
117.4833261155
 31
0.0
  0
LINE
  5
D3
  8
1
  6
CONTINUOUS
 62
     7
 10
827.670088533
 20
129.9833261155
 30
0.0
 11
827.370088533
 21
118.8833261155
 31
0.0
  0
LINE
  5
D4
  8
1
  6
CONTINUOUS
 62
     7
 10
843.970088533
 20
171.4833261155
 30
0.0
 11
843.970088533
 21
187.4833261155
 31
0.0
  0
LINE
  5
D5
  8
1
  6
CONTINUOUS
 62
     7
 10
805.970088533
 20
127.4833261155
 30
0.0
 11
805.970088533
 21
111.4833261155
 31
0.0
  0
LINE
  5
D6
  8
1
  6
CONTINUOUS
 62
     7
 10
822.270088533
 20
168.9833261155
 30
0.0
 11
822.570088533
 21
180.0833261155
 31
0.0
  0
LINE
  5
D7
  8
1
  6
CONTINUOUS
 62
     7
 10
834.470088533
 20
181.4833261155
 30
0.0
 11
815.470088533
 21
181.4833261155
 31
0.0
  0
LINE
  5
D8
  8
1
  6
CONTINUOUS
 62
     7
 10
843.970088533
 20
111.4833261155
 30
0.0
 11
843.970088533
 21
127.4833261155
 31
0.0
  0
LINE
  5
D9
  8
1
  6
CONTINUOUS
 62
     7
 10
822.270088533
 20
129.9833261155
 30
0.0
 11
827.670088533
 21
129.9833261155
 31
0.0
  0
ARC
  5
DA
  8
1
  6
CONTINUOUS
 62
     7
 10
835.470088533
 20
114.4833261155
 30
0.0
 40
3.0
 50
138.1896851042
 51
221.8103148958
  0
ARC
  5
DB
  8
1
  6
CONTINUOUS
 62
     7
 10
835.470088533
 20
114.4833261155
 30
0.0
 40
3.0
 50
318.1896851042
 51
41.81031489579999
  0
LINE
  5
DC
  8
1
  6
CONTINUOUS
 62
     7
 10
843.970088533
 20
171.4833261155
 30
0.0
 11
844.470088533
 21
171.4833261155
 31
0.0
  0
LINE
  5
DD
  8
1
  6
CONTINUOUS
 62
     7
 10
801.970088533
 20
130.9833261155
 30
0.0
 11
805.470088533
 21
127.4833261155
 31
0.0
  0
LINE
  5
DE
  8
1
  6
CONTINUOUS
 62
     7
 10
844.470088533
 20
171.4833261155
 30
0.0
 11
847.970088533
 21
167.9833261155
 31
0.0
  0
LINE
  5
DF
  8
1
  6
CONTINUOUS
 62
     7
 10
847.970088533
 20
130.9833261155
 30
0.0
 11
844.470088533
 21
127.4833261155
 31
0.0
  0
LINE
  5
E0
  8
1
  6
CONTINUOUS
 62
     7
 10
801.970088533
 20
167.9833261155
 30
0.0
 11
801.970088533
 21
130.9833261155
 31
0.0
  0
LINE
  5
E1
  8
1
  6
CONTINUOUS
 62
     7
 10
822.270088533
 20
168.9833261155
 30
0.0
 11
827.670088533
 21
168.9833261155
 31
0.0
  0
ARC
  5
E2
  8
1
  6
CONTINUOUS
 62
     7
 10
814.470088533
 20
114.4833261155
 30
0.0
 40
3.0
 50
138.1896851042
 51
221.8103148958
  0
ARC
  5
E3
  8
1
  6
CONTINUOUS
 62
     7
 10
814.470088533
 20
114.4833261155
 30
0.0
 40
3.0
 50
318.1896851042
 51
41.81031489579999
  0
LINE
  5
E4
  8
1
  6
CONTINUOUS
 62
     7
 10
847.970088533
 20
167.9833261155
 30
0.0
 11
847.970088533
 21
130.9833261155
 31
0.0
  0
LINE
  5
E5
  8
1
  6
CONTINUOUS
 62
     7
 10
812.2340205555
 20
116.4833261155
 30
0.0
 11
816.7061565105
 21
116.4833261155
 31
0.0
  0
LINE
  5
E6
  8
1
  6
CONTINUOUS
 62
     7
 10
805.470088533
 20
171.4833261155
 30
0.0
 11
801.970088533
 21
167.9833261155
 31
0.0
  0
LINE
  5
E7
  8
1
  6
CONTINUOUS
 62
     7
 10
812.2340205555
 20
112.4833261155
 30
0.0
 11
816.7061565105
 21
112.4833261155
 31
0.0
  0
LINE
  5
E8
  8
1
  6
CONTINUOUS
 62
     7
 10
844.470088533
 20
127.4833261155
 30
0.0
 11
843.970088533
 21
127.4833261155
 31
0.0
  0
LINE
  5
E9
  8
1
  6
CONTINUOUS
 62
     7
 10
805.470088533
 20
127.4833261155
 30
0.0
 11
805.970088533
 21
127.4833261155
 31
0.0
  0
TEXT
  5
EA
  8
1
  6
CONTINUOUS
 62
     7
 10
1139.863503297078
 20
93.68781463636364
 30
0.0
 40
3.0
  1
ＯＦ－３３Ｍ
 41
0.877025
 51
14.999825
  0
CIRCLE
  5
EB
  8
1
  6
CONTINUOUS
 62
     7
 10
844.470088533
 20
149.4833261155
 30
0.0
 40
2.000000000000002
  0
CIRCLE
  5
EC
  8
1
  6
CONTINUOUS
 62
     7
 10
805.470088533
 20
149.4833261155
 30
0.0
 40
2.000000000000002
  0
ENDSEC
  0
EOF
