  0
SECTION
  2
HEADER
  9
$ACADVER
  1
AC1006
  9
$DWGCODEPAGE
  3
ansi_932
  9
$INSBASE
 10
0.0
 20
0.0
 30
0.0
  9
$EXTMIN
 10
-722.5833333333331
 20
-68.68939393939398
  9
$EXTMAX
 10
-405.5166666666665
 20
200.3333333333333
  9
$LIMMIN
 10
0.0
 20
0.0
  9
$LIMMAX
 10
12.0
 20
9.0
  9
$ORTHOMODE
 70
     0
  9
$REGENMODE
 70
     1
  9
$FILLMODE
 70
     1
  9
$QTEXTMODE
 70
     0
  9
$MIRRTEXT
 70
     1
  9
$DRAGMODE
 70
     2
  9
$LTSCALE
 40
1.0
  9
$OSMODE
 70
    37
  9
$ATTMODE
 70
     1
  9
$TEXTSIZE
 40
0.2
  9
$TRACEWID
 40
0.05
  9
$TEXTSTYLE
  7
STANDARD
  9
$CLAYER
  8
0
  9
$CELTYPE
  6
BYLAYER
  9
$CECOLOR
 62
   256
  9
$DIMSCALE
 40
1.0
  9
$DIMASZ
 40
3.0
  9
$DIMEXO
 40
0.0625
  9
$DIMDLI
 40
0.38
  9
$DIMRND
 40
0.0
  9
$DIMDLE
 40
0.0
  9
$DIMEXE
 40
1.5
  9
$DIMTP
 40
0.0
  9
$DIMTM
 40
0.0
  9
$DIMTXT
 40
3.0
  9
$DIMCEN
 40
0.09
  9
$DIMTSZ
 40
0.0
  9
$DIMTOL
 70
     0
  9
$DIMLIM
 70
     0
  9
$DIMTIH
 70
     1
  9
$DIMTOH
 70
     1
  9
$DIMSE1
 70
     0
  9
$DIMSE2
 70
     0
  9
$DIMTAD
 70
     1
  9
$DIMZIN
 70
     0
  9
$DIMBLK
  1

  9
$DIMASO
 70
     1
  9
$DIMSHO
 70
     1
  9
$DIMPOST
  1

  9
$DIMAPOST
  1

  9
$DIMALT
 70
     0
  9
$DIMALTD
 70
     2
  9
$DIMALTF
 40
25.4
  9
$DIMLFAC
 40
1.0
  9
$DIMTOFL
 70
     0
  9
$DIMTVP
 40
0.0
  9
$DIMTIX
 70
     0
  9
$DIMSOXD
 70
     0
  9
$DIMSAH
 70
     0
  9
$DIMBLK1
  1

  9
$DIMBLK2
  1

  9
$LUNITS
 70
     2
  9
$LUPREC
 70
     4
  9
$SKETCHINC
 40
0.1
  9
$FILLETRAD
 40
0.5
  9
$AUNITS
 70
     0
  9
$AUPREC
 70
     0
  9
$MENU
  1
.
  9
$ELEVATION
 40
0.0
  9
$THICKNESS
 40
0.0
  9
$LIMCHECK
 70
     0
  9
$CHAMFERA
 40
0.0
  9
$CHAMFERB
 40
0.0
  9
$SKPOLY
 70
     0
  9
$TDCREATE
 40
2460455.399377616
  9
$TDUPDATE
 40
2460455.399377847
  9
$TDINDWG
 40
0.0000000116
  9
$TDUSRTIMER
 40
0.0000000116
  9
$USRTIMER
 70
     1
  9
$ANGBASE
 50
0.0
  9
$ANGDIR
 70
     0
  9
$PDMODE
 70
     0
  9
$PDSIZE
 40
0.0
  9
$PLINEWID
 40
0.0
  9
$COORDS
 70
     1
  9
$SPLFRAME
 70
     0
  9
$SPLINETYPE
 70
     6
  9
$SPLINESEGS
 70
     8
  9
$ATTDIA
 70
     0
  9
$ATTREQ
 70
     1
  9
$HANDLING
 70
     1
  9
$HANDSEED
  5
459
  9
$SURFTAB1
 70
     6
  9
$SURFTAB2
 70
     6
  9
$SURFTYPE
 70
     6
  9
$SURFU
 70
     6
  9
$SURFV
 70
     6
  9
$UCSNAME
  2

  9
$UCSORG
 10
0.0
 20
0.0
 30
0.0
  9
$UCSXDIR
 10
1.0
 20
0.0
 30
0.0
  9
$UCSYDIR
 10
0.0
 20
1.0
 30
0.0
  9
$USERI1
 70
     0
  9
$USERI2
 70
     0
  9
$USERI3
 70
     0
  9
$USERI4
 70
     0
  9
$USERI5
 70
     0
  9
$USERR1
 40
0.0
  9
$USERR2
 40
0.0
  9
$USERR3
 40
0.0
  9
$USERR4
 40
0.0
  9
$USERR5
 40
0.0
  9
$WORLDVIEW
 70
     1
  0
ENDSEC
  0
SECTION
  2
TABLES
  0
TABLE
  2
VPORT
 70
     1
  0
VPORT
  2
*ACTIVE
 70
     0
 10
0.0
 20
0.0
 11
1.0
 21
1.0
 12
-564.0499999999998
 22
65.82196969696966
 13
0.0
 23
0.0
 14
0.5
 24
0.5
 15
0.5
 25
0.5
 16
0.0
 26
0.0
 36
1.0
 17
0.0
 27
0.0
 37
0.0
 40
269.0227272727273
 41
1.6
 42
50.0
 43
0.0
 44
0.0
 50
0.0
 51
0.0
 71
     0
 72
   100
 73
     1
 74
     3
 75
     0
 76
     0
 77
     0
 78
     0
  0
ENDTAB
  0
TABLE
  2
LTYPE
 70
     2
  0
LTYPE
  2
CONTINUOUS
 70
     0
  3
Solid line
 72
    65
 73
     0
 40
0.0
  0
LTYPE
  2
CENTER
 70
     0
  3

 72
    65
 73
     0
 40
0.0
  0
ENDTAB
  0
TABLE
  2
LAYER
 70
     1
  0
LAYER
  2
0
 70
     0
 62
     7
  6
CONTINUOUS
  0
ENDTAB
  0
TABLE
  2
STYLE
 70
     2
  0
STYLE
  2
STANDARD
 70
     0
 40
0.0
 41
1.0
 50
0.0
 71
     0
 42
0.2
  3
txt
  4

  0
STYLE
  2
ＭＳ_ゴシック
 70
     0
 40
0.0
 41
1.0
 50
0.0
 71
     0
 42
0.2
  3
ＭＳ ゴシック.shx
  4

  0
ENDTAB
  0
TABLE
  2
VIEW
 70
     0
  0
ENDTAB
  0
TABLE
  2
UCS
 70
     0
  0
ENDTAB
  0
ENDSEC
  0
SECTION
  2
BLOCKS
  0
BLOCK
  8
0
  2
D_FRAME_VIEW_1330
 70
     0
 10
0.0
 20
0.0
 30
0.0
  0
CIRCLE
  5
70
  8
0
  6
CONTINUOUS
 62
     9
 10
-603.3333333333331
 20
145.3333333333333
 30
0.0
 40
2.000000000000002
  0
CIRCLE
  5
71
  8
0
  6
CONTINUOUS
 62
     7
 10
-527.3333333333331
 20
60.83333333333329
 30
0.0
 40
4.700000000000037
  0
LINE
  5
72
  8
0
  6
CONTINUOUS
 62
     7
 10
-526.0333333333331
 20
61.33333333333329
 30
0.0
 11
-524.5833333333331
 21
61.33333333333329
 31
0.0
  0
POLYLINE
  5
73
  8
0
  6
CONTINUOUS
 62
     7
 66
     1
 10
0.0
 20
0.0
 30
0.0
  0
VERTEX
  5
1D7
  8
0
  6
CONTINUOUS
 62
     7
 10
-526.8333333333331
 20
62.1333333333333
 30
0.0
  0
VERTEX
  5
1D8
  8
0
  6
CONTINUOUS
 62
     7
 10
-526.8326828997504
 20
62.10114098583262
 30
0.0
  0
VERTEX
  5
1D9
  8
0
  6
CONTINUOUS
 62
     7
 10
-526.8307310665608
 20
62.06891369608361
 30
0.0
  0
VERTEX
  5
1DA
  8
0
  6
CONTINUOUS
 62
     7
 10
-526.8274770351028
 20
62.03673172082561
 30
0.0
  0
VERTEX
  5
1DB
  8
0
  6
CONTINUOUS
 62
     7
 10
-526.8229200067144
 20
62.004675316798
 30
0.0
  0
VERTEX
  5
1DC
  8
0
  6
CONTINUOUS
 62
     7
 10
-526.816867964708
 20
61.97187524109379
 30
0.0
  0
VERTEX
  5
1DD
  8
0
  6
CONTINUOUS
 62
     7
 10
-526.8094327232859
 20
61.9392682067675
 30
0.0
  0
VERTEX
  5
1DE
  8
0
  6
CONTINUOUS
 62
     7
 10
-526.8006294636596
 20
61.90694451524896
 30
0.0
  0
VERTEX
  5
1DF
  8
0
  6
CONTINUOUS
 62
     7
 10
-526.7904733670401
 20
61.87499446796797
 30
0.0
  0
VERTEX
  5
1E0
  8
0
  6
CONTINUOUS
 62
     7
 10
-526.7792838786593
 20
61.84427764124734
 30
0.0
  0
VERTEX
  5
1E1
  8
0
  6
CONTINUOUS
 62
     7
 10
-526.7668192349666
 20
61.81397416883603
 30
0.0
  0
VERTEX
  5
1E2
  8
0
  6
CONTINUOUS
 62
     7
 10
-526.7531097331907
 20
61.784166677988
 30
0.0
  0
VERTEX
  5
1E3
  8
0
  6
CONTINUOUS
 62
     7
 10
-526.7381856705598
 20
61.7549377959572
 30
0.0
  0
VERTEX
  5
1E4
  8
0
  6
CONTINUOUS
 62
     7
 10
-526.7215416311026
 20
61.72545601625139
 30
0.0
  0
VERTEX
  5
1E5
  8
0
  6
CONTINUOUS
 62
     7
 10
-526.7036301628123
 20
61.69664980580765
 30
0.0
  0
VERTEX
  5
1E6
  8
0
  6
CONTINUOUS
 62
     7
 10
-526.6845024387023
 20
61.66860398211354
 30
0.0
  0
VERTEX
  5
1E7
  8
0
  6
CONTINUOUS
 62
     7
 10
-526.6642096317864
 20
61.64140336265658
 30
0.0
  0
VERTEX
  5
1E8
  8
0
  6
CONTINUOUS
 62
     7
 10
-526.6439258541081
 20
61.6164462028788
 30
0.0
  0
VERTEX
  5
1E9
  8
0
  6
CONTINUOUS
 62
     7
 10
-526.6226298308272
 20
61.59229572579871
 30
0.0
  0
VERTEX
  5
1EA
  8
0
  6
CONTINUOUS
 62
     7
 10
-526.6003787697134
 20
61.56901515515219
 30
0.0
  0
VERTEX
  5
1EB
  8
0
  6
CONTINUOUS
 62
     7
 10
-526.5772298785367
 20
61.54666771467507
 30
0.0
  0
VERTEX
  5
1EC
  8
0
  6
CONTINUOUS
 62
     7
 10
-526.5524728821852
 20
61.52465514132835
 30
0.0
  0
VERTEX
  5
1ED
  8
0
  6
CONTINUOUS
 62
     7
 10
-526.5268097530386
 20
61.50367298858388
 30
0.0
  0
VERTEX
  5
1EE
  8
0
  6
CONTINUOUS
 62
     7
 10
-526.5003146277247
 20
61.48377696183181
 30
0.0
  0
VERTEX
  5
1EF
  8
0
  6
CONTINUOUS
 62
     7
 10
-526.4730616428706
 20
61.4650227664623
 30
0.0
  0
VERTEX
  5
1F0
  8
0
  6
CONTINUOUS
 62
     7
 10
-526.4461937091131
 20
61.44810183376683
 30
0.0
  0
VERTEX
  5
1F1
  8
0
  6
CONTINUOUS
 62
     7
 10
-526.4186762203074
 20
61.43226018581478
 30
0.0
  0
VERTEX
  5
1F2
  8
0
  6
CONTINUOUS
 62
     7
 10
-526.3905815115745
 20
61.41753333993071
 30
0.0
  0
VERTEX
  5
1F3
  8
0
  6
CONTINUOUS
 62
     7
 10
-526.3619819180359
 20
61.40395681343919
 30
0.0
  0
VERTEX
  5
1F4
  8
0
  6
CONTINUOUS
 62
     7
 10
-526.3320760915067
 20
61.39120906132202
 30
0.0
  0
VERTEX
  5
1F5
  8
0
  6
CONTINUOUS
 62
     7
 10
-526.3016923778827
 20
61.3796916984085
 30
0.0
  0
VERTEX
  5
1F6
  8
0
  6
CONTINUOUS
 62
     7
 10
-526.2709123656593
 20
61.36942766943211
 30
0.0
  0
VERTEX
  5
1F7
  8
0
  6
CONTINUOUS
 62
     7
 10
-526.2398176433313
 20
61.36043991912629
 30
0.0
  0
VERTEX
  5
1F8
  8
0
  6
CONTINUOUS
 62
     7
 10
-526.2058955176244
 20
61.35217555201444
 30
0.0
  0
VERTEX
  5
1F9
  8
0
  6
CONTINUOUS
 62
     7
 10
-526.1716421285279
 20
61.3454040017816
 30
0.0
  0
VERTEX
  5
1FA
  8
0
  6
CONTINUOUS
 62
     7
 10
-526.137158345796
 20
61.34012963661243
 30
0.0
  0
VERTEX
  5
1FB
  8
0
  6
CONTINUOUS
 62
     7
 10
-526.1025450391833
 20
61.33635682469156
 30
0.0
  0
VERTEX
  5
1FC
  8
0
  6
CONTINUOUS
 62
     7
 10
-526.0679030784441
 20
61.33408993420363
 30
0.0
  0
VERTEX
  5
1FD
  8
0
  6
CONTINUOUS
 62
     7
 10
-526.0333333333331
 20
61.33333333333329
 30
0.0
  0
SEQEND
  5
449
  8
0
  6
CONTINUOUS
 62
     7
  0
LINE
  5
74
  8
0
  6
CONTINUOUS
 62
     7
 10
-526.8333333333331
 20
62.88668642321979
 30
0.0
 11
-526.8333333333331
 21
62.1333333333333
 31
0.0
  0
ARC
  5
75
  8
0
  6
CONTINUOUS
 62
     7
 10
-527.3333333333331
 20
60.83333333333329
 30
0.0
 40
2.113352528980047
 50
76.3145799001943
 51
103.6854200998057
  0
LINE
  5
76
  8
0
  6
CONTINUOUS
 62
     7
 10
-527.8333333333331
 20
62.1333333333333
 30
0.0
 11
-527.8333333333331
 21
62.88668642321979
 31
0.0
  0
POLYLINE
  5
77
  8
0
  6
CONTINUOUS
 62
     7
 66
     1
 10
0.0
 20
0.0
 30
0.0
  0
VERTEX
  5
1FE
  8
0
  6
CONTINUOUS
 62
     7
 10
-528.6333333333332
 20
61.33333333333329
 30
0.0
  0
VERTEX
  5
1FF
  8
0
  6
CONTINUOUS
 62
     7
 10
-528.6011409858326
 20
61.33398376691607
 30
0.0
  0
VERTEX
  5
200
  8
0
  6
CONTINUOUS
 62
     7
 10
-528.5689136960835
 20
61.33593560010561
 30
0.0
  0
VERTEX
  5
201
  8
0
  6
CONTINUOUS
 62
     7
 10
-528.5367317208255
 20
61.33918963156368
 30
0.0
  0
VERTEX
  5
202
  8
0
  6
CONTINUOUS
 62
     7
 10
-528.504675316798
 20
61.34374665995208
 30
0.0
  0
VERTEX
  5
203
  8
0
  6
CONTINUOUS
 62
     7
 10
-528.4718752410937
 20
61.34979870195853
 30
0.0
  0
VERTEX
  5
204
  8
0
  6
CONTINUOUS
 62
     7
 10
-528.4392682067673
 20
61.35723394338056
 30
0.0
  0
VERTEX
  5
205
  8
0
  6
CONTINUOUS
 62
     7
 10
-528.4069445152488
 20
61.36603720300691
 30
0.0
  0
VERTEX
  5
206
  8
0
  6
CONTINUOUS
 62
     7
 10
-528.3749944679679
 20
61.37619329962634
 30
0.0
  0
VERTEX
  5
207
  8
0
  6
CONTINUOUS
 62
     7
 10
-528.3442776412472
 20
61.38738278800723
 30
0.0
  0
VERTEX
  5
208
  8
0
  6
CONTINUOUS
 62
     7
 10
-528.3139741688359
 20
61.39984743169975
 30
0.0
  0
VERTEX
  5
209
  8
0
  6
CONTINUOUS
 62
     7
 10
-528.2841666779879
 20
61.41355693347564
 30
0.0
  0
VERTEX
  5
20A
  8
0
  6
CONTINUOUS
 62
     7
 10
-528.2549377959571
 20
61.42848099610666
 30
0.0
  0
VERTEX
  5
20B
  8
0
  6
CONTINUOUS
 62
     7
 10
-528.2254560162512
 20
61.44512503556389
 30
0.0
  0
VERTEX
  5
20C
  8
0
  6
CONTINUOUS
 62
     7
 10
-528.1966498058075
 20
61.4630365038542
 30
0.0
  0
VERTEX
  5
20D
  8
0
  6
CONTINUOUS
 62
     7
 10
-528.1686039821134
 20
61.48216422796411
 30
0.0
  0
VERTEX
  5
20E
  8
0
  6
CONTINUOUS
 62
     7
 10
-528.1414033626564
 20
61.50245703488009
 30
0.0
  0
VERTEX
  5
20F
  8
0
  6
CONTINUOUS
 62
     7
 10
-528.1164462028787
 20
61.5227408125583
 30
0.0
  0
VERTEX
  5
210
  8
0
  6
CONTINUOUS
 62
     7
 10
-528.0922957257986
 20
61.54403683583926
 30
0.0
  0
VERTEX
  5
211
  8
0
  6
CONTINUOUS
 62
     7
 10
-528.069015155152
 20
61.56628789695306
 30
0.0
  0
VERTEX
  5
212
  8
0
  6
CONTINUOUS
 62
     7
 10
-528.046667714675
 20
61.58943678812973
 30
0.0
  0
VERTEX
  5
213
  8
0
  6
CONTINUOUS
 62
     7
 10
-528.0246551413283
 20
61.61419378448126
 30
0.0
  0
VERTEX
  5
214
  8
0
  6
CONTINUOUS
 62
     7
 10
-528.0036729885837
 20
61.63985691362775
 30
0.0
  0
VERTEX
  5
215
  8
0
  6
CONTINUOUS
 62
     7
 10
-527.9837769618317
 20
61.66635203894179
 30
0.0
  0
VERTEX
  5
216
  8
0
  6
CONTINUOUS
 62
     7
 10
-527.9650227664622
 20
61.69360502379595
 30
0.0
  0
VERTEX
  5
217
  8
0
  6
CONTINUOUS
 62
     7
 10
-527.9481018337667
 20
61.72047295755329
 30
0.0
  0
VERTEX
  5
218
  8
0
  6
CONTINUOUS
 62
     7
 10
-527.9322601858146
 20
61.74799044635914
 30
0.0
  0
VERTEX
  5
219
  8
0
  6
CONTINUOUS
 62
     7
 10
-527.9175333399306
 20
61.77608515509202
 30
0.0
  0
VERTEX
  5
21A
  8
0
  6
CONTINUOUS
 62
     7
 10
-527.903956813439
 20
61.8046847486305
 30
0.0
  0
VERTEX
  5
21B
  8
0
  6
CONTINUOUS
 62
     7
 10
-527.8912090613219
 20
61.83459057515985
 30
0.0
  0
VERTEX
  5
21C
  8
0
  6
CONTINUOUS
 62
     7
 10
-527.8796916984085
 20
61.86497428878372
 30
0.0
  0
VERTEX
  5
21D
  8
0
  6
CONTINUOUS
 62
     7
 10
-527.869427669432
 20
61.89575430100713
 30
0.0
  0
VERTEX
  5
21E
  8
0
  6
CONTINUOUS
 62
     7
 10
-527.8604399191262
 20
61.92684902333508
 30
0.0
  0
VERTEX
  5
21F
  8
0
  6
CONTINUOUS
 62
     7
 10
-527.8521755520144
 20
61.96077114904202
 30
0.0
  0
VERTEX
  5
220
  8
0
  6
CONTINUOUS
 62
     7
 10
-527.8454040017815
 20
61.99502453813864
 30
0.0
  0
VERTEX
  5
221
  8
0
  6
CONTINUOUS
 62
     7
 10
-527.8401296366123
 20
62.02950832087049
 30
0.0
  0
VERTEX
  5
222
  8
0
  6
CONTINUOUS
 62
     7
 10
-527.8363568246914
 20
62.06412162748317
 30
0.0
  0
VERTEX
  5
223
  8
0
  6
CONTINUOUS
 62
     7
 10
-527.8340899342036
 20
62.09876358822225
 30
0.0
  0
VERTEX
  5
224
  8
0
  6
CONTINUOUS
 62
     7
 10
-527.8333333333331
 20
62.1333333333333
 30
0.0
  0
SEQEND
  5
44A
  8
0
  6
CONTINUOUS
 62
     7
  0
LINE
  5
78
  8
0
  6
CONTINUOUS
 62
     7
 10
-530.0833333333333
 20
61.33333333333329
 30
0.0
 11
-528.6333333333332
 21
61.33333333333329
 31
0.0
  0
LINE
  5
79
  8
0
  6
CONTINUOUS
 62
     7
 10
-530.0833333333333
 20
60.33333333333329
 30
0.0
 11
-530.0833333333333
 21
61.33333333333329
 31
0.0
  0
LINE
  5
7A
  8
0
  6
CONTINUOUS
 62
     7
 10
-528.6333333333332
 20
60.33333333333329
 30
0.0
 11
-530.0833333333333
 21
60.33333333333329
 31
0.0
  0
POLYLINE
  5
7B
  8
0
  6
CONTINUOUS
 62
     7
 66
     1
 10
0.0
 20
0.0
 30
0.0
  0
VERTEX
  5
225
  8
0
  6
CONTINUOUS
 62
     7
 10
-527.8333333333331
 20
59.53333333333329
 30
0.0
  0
VERTEX
  5
226
  8
0
  6
CONTINUOUS
 62
     7
 10
-527.8339837669159
 20
59.56552568083396
 30
0.0
  0
VERTEX
  5
227
  8
0
  6
CONTINUOUS
 62
     7
 10
-527.8359356001055
 20
59.59775297058299
 30
0.0
  0
VERTEX
  5
228
  8
0
  6
CONTINUOUS
 62
     7
 10
-527.8391896315635
 20
59.62993494584099
 30
0.0
  0
VERTEX
  5
229
  8
0
  6
CONTINUOUS
 62
     7
 10
-527.8437466599519
 20
59.66199134986859
 30
0.0
  0
VERTEX
  5
22A
  8
0
  6
CONTINUOUS
 62
     7
 10
-527.8497987019583
 20
59.6947914255728
 30
0.0
  0
VERTEX
  5
22B
  8
0
  6
CONTINUOUS
 62
     7
 10
-527.8572339433805
 20
59.72739845989909
 30
0.0
  0
VERTEX
  5
22C
  8
0
  6
CONTINUOUS
 62
     7
 10
-527.8660372030068
 20
59.75972215141763
 30
0.0
  0
VERTEX
  5
22D
  8
0
  6
CONTINUOUS
 62
     7
 10
-527.8761932996262
 20
59.79167219869861
 30
0.0
  0
VERTEX
  5
22E
  8
0
  6
CONTINUOUS
 62
     7
 10
-527.887382788007
 20
59.82238902541925
 30
0.0
  0
VERTEX
  5
22F
  8
0
  6
CONTINUOUS
 62
     7
 10
-527.8998474316996
 20
59.85269249783055
 30
0.0
  0
VERTEX
  5
230
  8
0
  6
CONTINUOUS
 62
     7
 10
-527.9135569334755
 20
59.88249998867859
 30
0.0
  0
VERTEX
  5
231
  8
0
  6
CONTINUOUS
 62
     7
 10
-527.9284809961066
 20
59.91172887070939
 30
0.0
  0
VERTEX
  5
232
  8
0
  6
CONTINUOUS
 62
     7
 10
-527.9451250355638
 20
59.94121065041519
 30
0.0
  0
VERTEX
  5
233
  8
0
  6
CONTINUOUS
 62
     7
 10
-527.9630365038541
 20
59.97001686085893
 30
0.0
  0
VERTEX
  5
234
  8
0
  6
CONTINUOUS
 62
     7
 10
-527.982164227964
 20
59.99806268455305
 30
0.0
  0
VERTEX
  5
235
  8
0
  6
CONTINUOUS
 62
     7
 10
-528.00245703488
 20
60.02526330401
 30
0.0
  0
VERTEX
  5
236
  8
0
  6
CONTINUOUS
 62
     7
 10
-528.0227408125581
 20
60.05022046378779
 30
0.0
  0
VERTEX
  5
237
  8
0
  6
CONTINUOUS
 62
     7
 10
-528.044036835839
 20
60.07437094086787
 30
0.0
  0
VERTEX
  5
238
  8
0
  6
CONTINUOUS
 62
     7
 10
-528.066287896953
 20
60.09765151151439
 30
0.0
  0
VERTEX
  5
239
  8
0
  6
CONTINUOUS
 62
     7
 10
-528.0894367881295
 20
60.11999895199151
 30
0.0
  0
VERTEX
  5
23A
  8
0
  6
CONTINUOUS
 62
     7
 10
-528.1141937844811
 20
60.14201152533823
 30
0.0
  0
VERTEX
  5
23B
  8
0
  6
CONTINUOUS
 62
     7
 10
-528.1398569136277
 20
60.1629936780827
 30
0.0
  0
VERTEX
  5
23C
  8
0
  6
CONTINUOUS
 62
     7
 10
-528.1663520389417
 20
60.18288970483478
 30
0.0
  0
VERTEX
  5
23D
  8
0
  6
CONTINUOUS
 62
     7
 10
-528.1936050237958
 20
60.20164390020429
 30
0.0
  0
VERTEX
  5
23E
  8
0
  6
CONTINUOUS
 62
     7
 10
-528.2204729575532
 20
60.21856483289976
 30
0.0
  0
VERTEX
  5
23F
  8
0
  6
CONTINUOUS
 62
     7
 10
-528.247990446359
 20
60.2344064808518
 30
0.0
  0
VERTEX
  5
240
  8
0
  6
CONTINUOUS
 62
     7
 10
-528.2760851550919
 20
60.24913332673588
 30
0.0
  0
VERTEX
  5
241
  8
0
  6
CONTINUOUS
 62
     7
 10
-528.3046847486304
 20
60.2627098532274
 30
0.0
  0
VERTEX
  5
242
  8
0
  6
CONTINUOUS
 62
     7
 10
-528.3345905751597
 20
60.27545760534457
 30
0.0
  0
VERTEX
  5
243
  8
0
  6
CONTINUOUS
 62
     7
 10
-528.3649742887836
 20
60.28697496825809
 30
0.0
  0
VERTEX
  5
244
  8
0
  6
CONTINUOUS
 62
     7
 10
-528.3957543010071
 20
60.29723899723449
 30
0.0
  0
VERTEX
  5
245
  8
0
  6
CONTINUOUS
 62
     7
 10
-528.426849023335
 20
60.30622674754029
 30
0.0
  0
VERTEX
  5
246
  8
0
  6
CONTINUOUS
 62
     7
 10
-528.4607711490419
 20
60.31449111465215
 30
0.0
  0
VERTEX
  5
247
  8
0
  6
CONTINUOUS
 62
     7
 10
-528.4950245381385
 20
60.32126266488498
 30
0.0
  0
VERTEX
  5
248
  8
0
  6
CONTINUOUS
 62
     7
 10
-528.5295083208704
 20
60.32653703005416
 30
0.0
  0
VERTEX
  5
249
  8
0
  6
CONTINUOUS
 62
     7
 10
-528.564121627483
 20
60.33030984197503
 30
0.0
  0
VERTEX
  5
24A
  8
0
  6
CONTINUOUS
 62
     7
 10
-528.5987635882221
 20
60.33257673246295
 30
0.0
  0
VERTEX
  5
24B
  8
0
  6
CONTINUOUS
 62
     7
 10
-528.6333333333332
 20
60.33333333333329
 30
0.0
  0
SEQEND
  5
44B
  8
0
  6
CONTINUOUS
 62
     7
  0
LINE
  5
7C
  8
0
  6
CONTINUOUS
 62
     7
 10
-527.8333333333331
 20
58.77998024344679
 30
0.0
 11
-527.8333333333331
 21
59.53333333333329
 31
0.0
  0
ARC
  5
7D
  8
0
  6
CONTINUOUS
 62
     7
 10
-527.3333333333331
 20
60.83333333333329
 30
0.0
 40
2.113352528980081
 50
256.3145799001944
 51
283.6854200998056
  0
LINE
  5
7E
  8
0
  6
CONTINUOUS
 62
     7
 10
-526.8333333333331
 20
59.53333333333328
 30
0.0
 11
-526.8333333333331
 21
58.7799802434468
 31
0.0
  0
POLYLINE
  5
7F
  8
0
  6
CONTINUOUS
 62
     7
 66
     1
 10
0.0
 20
0.0
 30
0.0
  0
VERTEX
  5
24C
  8
0
  6
CONTINUOUS
 62
     7
 10
-526.0333333333331
 20
60.33333333333329
 30
0.0
  0
VERTEX
  5
24D
  8
0
  6
CONTINUOUS
 62
     7
 10
-526.0655256808338
 20
60.33268289975052
 30
0.0
  0
VERTEX
  5
24E
  8
0
  6
CONTINUOUS
 62
     7
 10
-526.0977529705829
 20
60.33073106656098
 30
0.0
  0
VERTEX
  5
24F
  8
0
  6
CONTINUOUS
 62
     7
 10
-526.1299349458408
 20
60.3274770351029
 30
0.0
  0
VERTEX
  5
250
  8
0
  6
CONTINUOUS
 62
     7
 10
-526.1619913498685
 20
60.3229200067145
 30
0.0
  0
VERTEX
  5
251
  8
0
  6
CONTINUOUS
 62
     7
 10
-526.1947914255727
 20
60.31686796470805
 30
0.0
  0
VERTEX
  5
252
  8
0
  6
CONTINUOUS
 62
     7
 10
-526.227398459899
 20
60.30943272328602
 30
0.0
  0
VERTEX
  5
253
  8
0
  6
CONTINUOUS
 62
     7
 10
-526.2597221514175
 20
60.30062946365967
 30
0.0
  0
VERTEX
  5
254
  8
0
  6
CONTINUOUS
 62
     7
 10
-526.2916721986985
 20
60.29047336704024
 30
0.0
  0
VERTEX
  5
255
  8
0
  6
CONTINUOUS
 62
     7
 10
-526.3223890254192
 20
60.27928387865936
 30
0.0
  0
VERTEX
  5
256
  8
0
  6
CONTINUOUS
 62
     7
 10
-526.3526924978304
 20
60.26681923496685
 30
0.0
  0
VERTEX
  5
257
  8
0
  6
CONTINUOUS
 62
     7
 10
-526.3824999886784
 20
60.25310973319095
 30
0.0
  0
VERTEX
  5
258
  8
0
  6
CONTINUOUS
 62
     7
 10
-526.4117288707093
 20
60.23818567055993
 30
0.0
  0
VERTEX
  5
259
  8
0
  6
CONTINUOUS
 62
     7
 10
-526.4412106504151
 20
60.2215416311027
 30
0.0
  0
VERTEX
  5
25A
  8
0
  6
CONTINUOUS
 62
     7
 10
-526.4700168608588
 20
60.20363016281239
 30
0.0
  0
VERTEX
  5
25B
  8
0
  6
CONTINUOUS
 62
     7
 10
-526.4980626845529
 20
60.18450243870248
 30
0.0
  0
VERTEX
  5
25C
  8
0
  6
CONTINUOUS
 62
     7
 10
-526.5252633040099
 20
60.16420963178649
 30
0.0
  0
VERTEX
  5
25D
  8
0
  6
CONTINUOUS
 62
     7
 10
-526.5502204637876
 20
60.14392585410828
 30
0.0
  0
VERTEX
  5
25E
  8
0
  6
CONTINUOUS
 62
     7
 10
-526.5743709408678
 20
60.12262983082732
 30
0.0
  0
VERTEX
  5
25F
  8
0
  6
CONTINUOUS
 62
     7
 10
-526.5976515115143
 20
60.10037876971352
 30
0.0
  0
VERTEX
  5
260
  8
0
  6
CONTINUOUS
 62
     7
 10
-526.6199989519914
 20
60.07722987853685
 30
0.0
  0
VERTEX
  5
261
  8
0
  6
CONTINUOUS
 62
     7
 10
-526.642011525338
 20
60.05247288218533
 30
0.0
  0
VERTEX
  5
262
  8
0
  6
CONTINUOUS
 62
     7
 10
-526.6629936780826
 20
60.02680975303884
 30
0.0
  0
VERTEX
  5
263
  8
0
  6
CONTINUOUS
 62
     7
 10
-526.6828897048347
 20
60.0003146277248
 30
0.0
  0
VERTEX
  5
264
  8
0
  6
CONTINUOUS
 62
     7
 10
-526.7016439002041
 20
59.97306164287063
 30
0.0
  0
VERTEX
  5
265
  8
0
  6
CONTINUOUS
 62
     7
 10
-526.7185648328996
 20
59.9461937091133
 30
0.0
  0
VERTEX
  5
266
  8
0
  6
CONTINUOUS
 62
     7
 10
-526.7344064808517
 20
59.91867622030745
 30
0.0
  0
VERTEX
  5
267
  8
0
  6
CONTINUOUS
 62
     7
 10
-526.7491333267358
 20
59.89058151157457
 30
0.0
  0
VERTEX
  5
268
  8
0
  6
CONTINUOUS
 62
     7
 10
-526.7627098532273
 20
59.86198191803609
 30
0.0
  0
VERTEX
  5
269
  8
0
  6
CONTINUOUS
 62
     7
 10
-526.7754576053445
 20
59.83207609150674
 30
0.0
  0
VERTEX
  5
26A
  8
0
  6
CONTINUOUS
 62
     7
 10
-526.7869749682579
 20
59.80169237788287
 30
0.0
  0
VERTEX
  5
26B
  8
0
  6
CONTINUOUS
 62
     7
 10
-526.7972389972344
 20
59.77091236565946
 30
0.0
  0
VERTEX
  5
26C
  8
0
  6
CONTINUOUS
 62
     7
 10
-526.8062267475402
 20
59.73981764333151
 30
0.0
  0
VERTEX
  5
26D
  8
0
  6
CONTINUOUS
 62
     7
 10
-526.814491114652
 20
59.70589551762456
 30
0.0
  0
VERTEX
  5
26E
  8
0
  6
CONTINUOUS
 62
     7
 10
-526.8212626648848
 20
59.67164212852795
 30
0.0
  0
VERTEX
  5
26F
  8
0
  6
CONTINUOUS
 62
     7
 10
-526.8265370300539
 20
59.6371583457961
 30
0.0
  0
VERTEX
  5
270
  8
0
  6
CONTINUOUS
 62
     7
 10
-526.8303098419749
 20
59.60254503918341
 30
0.0
  0
VERTEX
  5
271
  8
0
  6
CONTINUOUS
 62
     7
 10
-526.8325767324628
 20
59.56790307844433
 30
0.0
  0
VERTEX
  5
272
  8
0
  6
CONTINUOUS
 62
     7
 10
-526.8333333333331
 20
59.53333333333328
 30
0.0
  0
SEQEND
  5
44C
  8
0
  6
CONTINUOUS
 62
     7
  0
LINE
  5
80
  8
0
  6
CONTINUOUS
 62
     7
 10
-524.5833333333331
 20
60.33333333333329
 30
0.0
 11
-526.0333333333331
 21
60.33333333333329
 31
0.0
  0
LINE
  5
81
  8
0
  6
CONTINUOUS
 62
     7
 10
-524.5833333333331
 20
61.33333333333329
 30
0.0
 11
-524.5833333333331
 21
60.33333333333329
 31
0.0
  0
CIRCLE
  5
82
  8
0
  6
CONTINUOUS
 62
     7
 10
-679.3333333333331
 20
60.83333333333329
 30
0.0
 40
4.699999999999926
  0
LINE
  5
83
  8
0
  6
CONTINUOUS
 62
     7
 10
-682.0833333333331
 20
60.33333333333329
 30
0.0
 11
-680.6333333333332
 21
60.33333333333329
 31
0.0
  0
POLYLINE
  5
84
  8
0
  6
CONTINUOUS
 62
     7
 66
     1
 10
0.0
 20
0.0
 30
0.0
  0
VERTEX
  5
273
  8
0
  6
CONTINUOUS
 62
     7
 10
-680.6333333333332
 20
60.33333333333329
 30
0.0
  0
VERTEX
  5
274
  8
0
  6
CONTINUOUS
 62
     7
 10
-680.6011409858324
 20
60.33268289975052
 30
0.0
  0
VERTEX
  5
275
  8
0
  6
CONTINUOUS
 62
     7
 10
-680.5689136960834
 20
60.33073106656099
 30
0.0
  0
VERTEX
  5
276
  8
0
  6
CONTINUOUS
 62
     7
 10
-680.5367317208255
 20
60.32747703510291
 30
0.0
  0
VERTEX
  5
277
  8
0
  6
CONTINUOUS
 62
     7
 10
-680.5046753167978
 20
60.3229200067145
 30
0.0
  0
VERTEX
  5
278
  8
0
  6
CONTINUOUS
 62
     7
 10
-680.4718752410936
 20
60.31686796470807
 30
0.0
  0
VERTEX
  5
279
  8
0
  6
CONTINUOUS
 62
     7
 10
-680.4392682067673
 20
60.30943272328602
 30
0.0
  0
VERTEX
  5
27A
  8
0
  6
CONTINUOUS
 62
     7
 10
-680.4069445152488
 20
60.30062946365967
 30
0.0
  0
VERTEX
  5
27B
  8
0
  6
CONTINUOUS
 62
     7
 10
-680.3749944679678
 20
60.29047336704024
 30
0.0
  0
VERTEX
  5
27C
  8
0
  6
CONTINUOUS
 62
     7
 10
-680.3442776412471
 20
60.27928387865936
 30
0.0
  0
VERTEX
  5
27D
  8
0
  6
CONTINUOUS
 62
     7
 10
-680.3139741688359
 20
60.26681923496684
 30
0.0
  0
VERTEX
  5
27E
  8
0
  6
CONTINUOUS
 62
     7
 10
-680.2841666779879
 20
60.25310973319095
 30
0.0
  0
VERTEX
  5
27F
  8
0
  6
CONTINUOUS
 62
     7
 10
-680.2549377959571
 20
60.23818567055992
 30
0.0
  0
VERTEX
  5
280
  8
0
  6
CONTINUOUS
 62
     7
 10
-680.2254560162513
 20
60.2215416311027
 30
0.0
  0
VERTEX
  5
281
  8
0
  6
CONTINUOUS
 62
     7
 10
-680.1966498058075
 20
60.20363016281238
 30
0.0
  0
VERTEX
  5
282
  8
0
  6
CONTINUOUS
 62
     7
 10
-680.1686039821134
 20
60.18450243870248
 30
0.0
  0
VERTEX
  5
283
  8
0
  6
CONTINUOUS
 62
     7
 10
-680.1414033626564
 20
60.16420963178649
 30
0.0
  0
VERTEX
  5
284
  8
0
  6
CONTINUOUS
 62
     7
 10
-680.1164462028787
 20
60.14392585410829
 30
0.0
  0
VERTEX
  5
285
  8
0
  6
CONTINUOUS
 62
     7
 10
-680.0922957257985
 20
60.12262983082733
 30
0.0
  0
VERTEX
  5
286
  8
0
  6
CONTINUOUS
 62
     7
 10
-680.069015155152
 20
60.10037876971354
 30
0.0
  0
VERTEX
  5
287
  8
0
  6
CONTINUOUS
 62
     7
 10
-680.0466677146749
 20
60.07722987853686
 30
0.0
  0
VERTEX
  5
288
  8
0
  6
CONTINUOUS
 62
     7
 10
-680.0246551413283
 20
60.05247288218533
 30
0.0
  0
VERTEX
  5
289
  8
0
  6
CONTINUOUS
 62
     7
 10
-680.0036729885837
 20
60.02680975303885
 30
0.0
  0
VERTEX
  5
28A
  8
0
  6
CONTINUOUS
 62
     7
 10
-679.9837769618316
 20
60.0003146277248
 30
0.0
  0
VERTEX
  5
28B
  8
0
  6
CONTINUOUS
 62
     7
 10
-679.9650227664622
 20
59.97306164287063
 30
0.0
  0
VERTEX
  5
28C
  8
0
  6
CONTINUOUS
 62
     7
 10
-679.9481018337667
 20
59.94619370911329
 30
0.0
  0
VERTEX
  5
28D
  8
0
  6
CONTINUOUS
 62
     7
 10
-679.9322601858146
 20
59.91867622030745
 30
0.0
  0
VERTEX
  5
28E
  8
0
  6
CONTINUOUS
 62
     7
 10
-679.9175333399305
 20
59.89058151157457
 30
0.0
  0
VERTEX
  5
28F
  8
0
  6
CONTINUOUS
 62
     7
 10
-679.9039568134391
 20
59.86198191803609
 30
0.0
  0
VERTEX
  5
290
  8
0
  6
CONTINUOUS
 62
     7
 10
-679.8912090613218
 20
59.83207609150674
 30
0.0
  0
VERTEX
  5
291
  8
0
  6
CONTINUOUS
 62
     7
 10
-679.8796916984084
 20
59.80169237788287
 30
0.0
  0
VERTEX
  5
292
  8
0
  6
CONTINUOUS
 62
     7
 10
-679.869427669432
 20
59.77091236565946
 30
0.0
  0
VERTEX
  5
293
  8
0
  6
CONTINUOUS
 62
     7
 10
-679.8604399191262
 20
59.73981764333151
 30
0.0
  0
VERTEX
  5
294
  8
0
  6
CONTINUOUS
 62
     7
 10
-679.8521755520143
 20
59.70589551762456
 30
0.0
  0
VERTEX
  5
295
  8
0
  6
CONTINUOUS
 62
     7
 10
-679.8454040017814
 20
59.67164212852795
 30
0.0
  0
VERTEX
  5
296
  8
0
  6
CONTINUOUS
 62
     7
 10
-679.8401296366123
 20
59.63715834579609
 30
0.0
  0
VERTEX
  5
297
  8
0
  6
CONTINUOUS
 62
     7
 10
-679.8363568246914
 20
59.60254503918341
 30
0.0
  0
VERTEX
  5
298
  8
0
  6
CONTINUOUS
 62
     7
 10
-679.8340899342035
 20
59.56790307844432
 30
0.0
  0
VERTEX
  5
299
  8
0
  6
CONTINUOUS
 62
     7
 10
-679.8333333333331
 20
59.53333333333328
 30
0.0
  0
SEQEND
  5
44D
  8
0
  6
CONTINUOUS
 62
     7
  0
LINE
  5
85
  8
0
  6
CONTINUOUS
 62
     7
 10
-679.8333333333331
 20
59.53333333333328
 30
0.0
 11
-679.8333333333331
 21
58.7799802434468
 31
0.0
  0
ARC
  5
86
  8
0
  6
CONTINUOUS
 62
     7
 10
-679.3333333333331
 20
60.83333333333329
 30
0.0
 40
2.113352528980081
 50
256.3145799001944
 51
283.6854200998056
  0
LINE
  5
87
  8
0
  6
CONTINUOUS
 62
     7
 10
-678.8333333333331
 20
58.77998024344679
 30
0.0
 11
-678.8333333333331
 21
59.53333333333329
 31
0.0
  0
POLYLINE
  5
88
  8
0
  6
CONTINUOUS
 62
     7
 66
     1
 10
0.0
 20
0.0
 30
0.0
  0
VERTEX
  5
29A
  8
0
  6
CONTINUOUS
 62
     7
 10
-678.8333333333331
 20
59.53333333333329
 30
0.0
  0
VERTEX
  5
29B
  8
0
  6
CONTINUOUS
 62
     7
 10
-678.8326828997504
 20
59.56552568083396
 30
0.0
  0
VERTEX
  5
29C
  8
0
  6
CONTINUOUS
 62
     7
 10
-678.8307310665609
 20
59.59775297058299
 30
0.0
  0
VERTEX
  5
29D
  8
0
  6
CONTINUOUS
 62
     7
 10
-678.8274770351028
 20
59.62993494584099
 30
0.0
  0
VERTEX
  5
29E
  8
0
  6
CONTINUOUS
 62
     7
 10
-678.8229200067144
 20
59.66199134986859
 30
0.0
  0
VERTEX
  5
29F
  8
0
  6
CONTINUOUS
 62
     7
 10
-678.8168679647079
 20
59.6947914255728
 30
0.0
  0
VERTEX
  5
2A0
  8
0
  6
CONTINUOUS
 62
     7
 10
-678.8094327232859
 20
59.72739845989909
 30
0.0
  0
VERTEX
  5
2A1
  8
0
  6
CONTINUOUS
 62
     7
 10
-678.8006294636594
 20
59.75972215141763
 30
0.0
  0
VERTEX
  5
2A2
  8
0
  6
CONTINUOUS
 62
     7
 10
-678.7904733670401
 20
59.79167219869861
 30
0.0
  0
VERTEX
  5
2A3
  8
0
  6
CONTINUOUS
 62
     7
 10
-678.7792838786592
 20
59.82238902541924
 30
0.0
  0
VERTEX
  5
2A4
  8
0
  6
CONTINUOUS
 62
     7
 10
-678.7668192349668
 20
59.85269249783055
 30
0.0
  0
VERTEX
  5
2A5
  8
0
  6
CONTINUOUS
 62
     7
 10
-678.7531097331907
 20
59.88249998867859
 30
0.0
  0
VERTEX
  5
2A6
  8
0
  6
CONTINUOUS
 62
     7
 10
-678.7381856705598
 20
59.91172887070938
 30
0.0
  0
VERTEX
  5
2A7
  8
0
  6
CONTINUOUS
 62
     7
 10
-678.7215416311026
 20
59.94121065041519
 30
0.0
  0
VERTEX
  5
2A8
  8
0
  6
CONTINUOUS
 62
     7
 10
-678.7036301628121
 20
59.97001686085893
 30
0.0
  0
VERTEX
  5
2A9
  8
0
  6
CONTINUOUS
 62
     7
 10
-678.6845024387023
 20
59.99806268455304
 30
0.0
  0
VERTEX
  5
2AA
  8
0
  6
CONTINUOUS
 62
     7
 10
-678.6642096317863
 20
60.02526330401
 30
0.0
  0
VERTEX
  5
2AB
  8
0
  6
CONTINUOUS
 62
     7
 10
-678.6439258541081
 20
60.05022046378779
 30
0.0
  0
VERTEX
  5
2AC
  8
0
  6
CONTINUOUS
 62
     7
 10
-678.6226298308272
 20
60.07437094086787
 30
0.0
  0
VERTEX
  5
2AD
  8
0
  6
CONTINUOUS
 62
     7
 10
-678.6003787697133
 20
60.09765151151439
 30
0.0
  0
VERTEX
  5
2AE
  8
0
  6
CONTINUOUS
 62
     7
 10
-678.5772298785367
 20
60.11999895199151
 30
0.0
  0
VERTEX
  5
2AF
  8
0
  6
CONTINUOUS
 62
     7
 10
-678.5524728821853
 20
60.14201152533823
 30
0.0
  0
VERTEX
  5
2B0
  8
0
  6
CONTINUOUS
 62
     7
 10
-678.5268097530387
 20
60.1629936780827
 30
0.0
  0
VERTEX
  5
2B1
  8
0
  6
CONTINUOUS
 62
     7
 10
-678.5003146277246
 20
60.18288970483478
 30
0.0
  0
VERTEX
  5
2B2
  8
0
  6
CONTINUOUS
 62
     7
 10
-678.4730616428704
 20
60.20164390020429
 30
0.0
  0
VERTEX
  5
2B3
  8
0
  6
CONTINUOUS
 62
     7
 10
-678.4461937091131
 20
60.21856483289977
 30
0.0
  0
VERTEX
  5
2B4
  8
0
  6
CONTINUOUS
 62
     7
 10
-678.4186762203072
 20
60.23440648085181
 30
0.0
  0
VERTEX
  5
2B5
  8
0
  6
CONTINUOUS
 62
     7
 10
-678.3905815115745
 20
60.24913332673588
 30
0.0
  0
VERTEX
  5
2B6
  8
0
  6
CONTINUOUS
 62
     7
 10
-678.361981918036
 20
60.2627098532274
 30
0.0
  0
VERTEX
  5
2B7
  8
0
  6
CONTINUOUS
 62
     7
 10
-678.3320760915066
 20
60.27545760534456
 30
0.0
  0
VERTEX
  5
2B8
  8
0
  6
CONTINUOUS
 62
     7
 10
-678.3016923778828
 20
60.28697496825808
 30
0.0
  0
VERTEX
  5
2B9
  8
0
  6
CONTINUOUS
 62
     7
 10
-678.2709123656592
 20
60.29723899723449
 30
0.0
  0
VERTEX
  5
2BA
  8
0
  6
CONTINUOUS
 62
     7
 10
-678.2398176433314
 20
60.30622674754029
 30
0.0
  0
VERTEX
  5
2BB
  8
0
  6
CONTINUOUS
 62
     7
 10
-678.2058955176244
 20
60.31449111465215
 30
0.0
  0
VERTEX
  5
2BC
  8
0
  6
CONTINUOUS
 62
     7
 10
-678.1716421285278
 20
60.32126266488498
 30
0.0
  0
VERTEX
  5
2BD
  8
0
  6
CONTINUOUS
 62
     7
 10
-678.1371583457959
 20
60.32653703005416
 30
0.0
  0
VERTEX
  5
2BE
  8
0
  6
CONTINUOUS
 62
     7
 10
-678.1025450391833
 20
60.33030984197503
 30
0.0
  0
VERTEX
  5
2BF
  8
0
  6
CONTINUOUS
 62
     7
 10
-678.0679030784443
 20
60.33257673246295
 30
0.0
  0
VERTEX
  5
2C0
  8
0
  6
CONTINUOUS
 62
     7
 10
-678.0333333333332
 20
60.33333333333329
 30
0.0
  0
SEQEND
  5
44E
  8
0
  6
CONTINUOUS
 62
     7
  0
LINE
  5
89
  8
0
  6
CONTINUOUS
 62
     7
 10
-678.0333333333332
 20
60.33333333333329
 30
0.0
 11
-676.583333333333
 21
60.33333333333329
 31
0.0
  0
LINE
  5
8A
  8
0
  6
CONTINUOUS
 62
     7
 10
-676.583333333333
 20
60.33333333333329
 30
0.0
 11
-676.583333333333
 21
61.33333333333329
 31
0.0
  0
LINE
  5
8B
  8
0
  6
CONTINUOUS
 62
     7
 10
-676.583333333333
 20
61.33333333333329
 30
0.0
 11
-678.0333333333332
 21
61.33333333333329
 31
0.0
  0
POLYLINE
  5
8C
  8
0
  6
CONTINUOUS
 62
     7
 66
     1
 10
0.0
 20
0.0
 30
0.0
  0
VERTEX
  5
2C1
  8
0
  6
CONTINUOUS
 62
     7
 10
-678.0333333333332
 20
61.33333333333329
 30
0.0
  0
VERTEX
  5
2C2
  8
0
  6
CONTINUOUS
 62
     7
 10
-678.0655256808337
 20
61.33398376691607
 30
0.0
  0
VERTEX
  5
2C3
  8
0
  6
CONTINUOUS
 62
     7
 10
-678.0977529705829
 20
61.33593560010561
 30
0.0
  0
VERTEX
  5
2C4
  8
0
  6
CONTINUOUS
 62
     7
 10
-678.1299349458408
 20
61.33918963156368
 30
0.0
  0
VERTEX
  5
2C5
  8
0
  6
CONTINUOUS
 62
     7
 10
-678.1619913498685
 20
61.34374665995208
 30
0.0
  0
VERTEX
  5
2C6
  8
0
  6
CONTINUOUS
 62
     7
 10
-678.1947914255727
 20
61.34979870195852
 30
0.0
  0
VERTEX
  5
2C7
  8
0
  6
CONTINUOUS
 62
     7
 10
-678.227398459899
 20
61.35723394338056
 30
0.0
  0
VERTEX
  5
2C8
  8
0
  6
CONTINUOUS
 62
     7
 10
-678.2597221514175
 20
61.36603720300691
 30
0.0
  0
VERTEX
  5
2C9
  8
0
  6
CONTINUOUS
 62
     7
 10
-678.2916721986984
 20
61.37619329962634
 30
0.0
  0
VERTEX
  5
2CA
  8
0
  6
CONTINUOUS
 62
     7
 10
-678.322389025419
 20
61.38738278800724
 30
0.0
  0
VERTEX
  5
2CB
  8
0
  6
CONTINUOUS
 62
     7
 10
-678.3526924978305
 20
61.39984743169975
 30
0.0
  0
VERTEX
  5
2CC
  8
0
  6
CONTINUOUS
 62
     7
 10
-678.3824999886784
 20
61.41355693347564
 30
0.0
  0
VERTEX
  5
2CD
  8
0
  6
CONTINUOUS
 62
     7
 10
-678.4117288707092
 20
61.42848099610666
 30
0.0
  0
VERTEX
  5
2CE
  8
0
  6
CONTINUOUS
 62
     7
 10
-678.4412106504151
 20
61.44512503556389
 30
0.0
  0
VERTEX
  5
2CF
  8
0
  6
CONTINUOUS
 62
     7
 10
-678.4700168608588
 20
61.46303650385421
 30
0.0
  0
VERTEX
  5
2D0
  8
0
  6
CONTINUOUS
 62
     7
 10
-678.4980626845529
 20
61.48216422796411
 30
0.0
  0
VERTEX
  5
2D1
  8
0
  6
CONTINUOUS
 62
     7
 10
-678.5252633040099
 20
61.50245703488009
 30
0.0
  0
VERTEX
  5
2D2
  8
0
  6
CONTINUOUS
 62
     7
 10
-678.5502204637877
 20
61.5227408125583
 30
0.0
  0
VERTEX
  5
2D3
  8
0
  6
CONTINUOUS
 62
     7
 10
-678.5743709408677
 20
61.54403683583926
 30
0.0
  0
VERTEX
  5
2D4
  8
0
  6
CONTINUOUS
 62
     7
 10
-678.5976515115142
 20
61.56628789695305
 30
0.0
  0
VERTEX
  5
2D5
  8
0
  6
CONTINUOUS
 62
     7
 10
-678.6199989519913
 20
61.58943678812972
 30
0.0
  0
VERTEX
  5
2D6
  8
0
  6
CONTINUOUS
 62
     7
 10
-678.642011525338
 20
61.61419378448125
 30
0.0
  0
VERTEX
  5
2D7
  8
0
  6
CONTINUOUS
 62
     7
 10
-678.6629936780826
 20
61.63985691362774
 30
0.0
  0
VERTEX
  5
2D8
  8
0
  6
CONTINUOUS
 62
     7
 10
-678.6828897048346
 20
61.66635203894179
 30
0.0
  0
VERTEX
  5
2D9
  8
0
  6
CONTINUOUS
 62
     7
 10
-678.7016439002041
 20
61.69360502379595
 30
0.0
  0
VERTEX
  5
2DA
  8
0
  6
CONTINUOUS
 62
     7
 10
-678.7185648328996
 20
61.7204729575533
 30
0.0
  0
VERTEX
  5
2DB
  8
0
  6
CONTINUOUS
 62
     7
 10
-678.7344064808517
 20
61.74799044635913
 30
0.0
  0
VERTEX
  5
2DC
  8
0
  6
CONTINUOUS
 62
     7
 10
-678.7491333267357
 20
61.77608515509202
 30
0.0
  0
VERTEX
  5
2DD
  8
0
  6
CONTINUOUS
 62
     7
 10
-678.7627098532273
 20
61.80468474863049
 30
0.0
  0
VERTEX
  5
2DE
  8
0
  6
CONTINUOUS
 62
     7
 10
-678.7754576053444
 20
61.83459057515984
 30
0.0
  0
VERTEX
  5
2DF
  8
0
  6
CONTINUOUS
 62
     7
 10
-678.7869749682579
 20
61.86497428878372
 30
0.0
  0
VERTEX
  5
2E0
  8
0
  6
CONTINUOUS
 62
     7
 10
-678.7972389972343
 20
61.89575430100713
 30
0.0
  0
VERTEX
  5
2E1
  8
0
  6
CONTINUOUS
 62
     7
 10
-678.8062267475401
 20
61.92684902333508
 30
0.0
  0
VERTEX
  5
2E2
  8
0
  6
CONTINUOUS
 62
     7
 10
-678.814491114652
 20
61.96077114904202
 30
0.0
  0
VERTEX
  5
2E3
  8
0
  6
CONTINUOUS
 62
     7
 10
-678.8212626648848
 20
61.99502453813862
 30
0.0
  0
VERTEX
  5
2E4
  8
0
  6
CONTINUOUS
 62
     7
 10
-678.826537030054
 20
62.0295083208705
 30
0.0
  0
VERTEX
  5
2E5
  8
0
  6
CONTINUOUS
 62
     7
 10
-678.8303098419749
 20
62.06412162748317
 30
0.0
  0
VERTEX
  5
2E6
  8
0
  6
CONTINUOUS
 62
     7
 10
-678.8325767324627
 20
62.09876358822225
 30
0.0
  0
VERTEX
  5
2E7
  8
0
  6
CONTINUOUS
 62
     7
 10
-678.8333333333331
 20
62.1333333333333
 30
0.0
  0
SEQEND
  5
44F
  8
0
  6
CONTINUOUS
 62
     7
  0
LINE
  5
8D
  8
0
  6
CONTINUOUS
 62
     7
 10
-678.8333333333331
 20
62.1333333333333
 30
0.0
 11
-678.8333333333331
 21
62.88668642321979
 31
0.0
  0
ARC
  5
8E
  8
0
  6
CONTINUOUS
 62
     7
 10
-679.3333333333331
 20
60.83333333333329
 30
0.0
 40
2.113352528980047
 50
76.3145799001943
 51
103.6854200998057
  0
LINE
  5
8F
  8
0
  6
CONTINUOUS
 62
     7
 10
-679.8333333333331
 20
62.88668642321979
 30
0.0
 11
-679.8333333333331
 21
62.1333333333333
 31
0.0
  0
POLYLINE
  5
90
  8
0
  6
CONTINUOUS
 62
     7
 66
     1
 10
0.0
 20
0.0
 30
0.0
  0
VERTEX
  5
2E8
  8
0
  6
CONTINUOUS
 62
     7
 10
-679.8333333333331
 20
62.1333333333333
 30
0.0
  0
VERTEX
  5
2E9
  8
0
  6
CONTINUOUS
 62
     7
 10
-679.8339837669159
 20
62.10114098583263
 30
0.0
  0
VERTEX
  5
2EA
  8
0
  6
CONTINUOUS
 62
     7
 10
-679.8359356001055
 20
62.0689136960836
 30
0.0
  0
VERTEX
  5
2EB
  8
0
  6
CONTINUOUS
 62
     7
 10
-679.8391896315635
 20
62.03673172082561
 30
0.0
  0
VERTEX
  5
2EC
  8
0
  6
CONTINUOUS
 62
     7
 10
-679.843746659952
 20
62.004675316798
 30
0.0
  0
VERTEX
  5
2ED
  8
0
  6
CONTINUOUS
 62
     7
 10
-679.8497987019583
 20
61.97187524109379
 30
0.0
  0
VERTEX
  5
2EE
  8
0
  6
CONTINUOUS
 62
     7
 10
-679.8572339433804
 20
61.93926820676749
 30
0.0
  0
VERTEX
  5
2EF
  8
0
  6
CONTINUOUS
 62
     7
 10
-679.8660372030067
 20
61.90694451524896
 30
0.0
  0
VERTEX
  5
2F0
  8
0
  6
CONTINUOUS
 62
     7
 10
-679.8761932996263
 20
61.87499446796797
 30
0.0
  0
VERTEX
  5
2F1
  8
0
  6
CONTINUOUS
 62
     7
 10
-679.8873827880071
 20
61.84427764124734
 30
0.0
  0
VERTEX
  5
2F2
  8
0
  6
CONTINUOUS
 62
     7
 10
-679.8998474316996
 20
61.81397416883603
 30
0.0
  0
VERTEX
  5
2F3
  8
0
  6
CONTINUOUS
 62
     7
 10
-679.9135569334755
 20
61.784166677988
 30
0.0
  0
VERTEX
  5
2F4
  8
0
  6
CONTINUOUS
 62
     7
 10
-679.9284809961065
 20
61.7549377959572
 30
0.0
  0
VERTEX
  5
2F5
  8
0
  6
CONTINUOUS
 62
     7
 10
-679.9451250355637
 20
61.72545601625139
 30
0.0
  0
VERTEX
  5
2F6
  8
0
  6
CONTINUOUS
 62
     7
 10
-679.963036503854
 20
61.69664980580766
 30
0.0
  0
VERTEX
  5
2F7
  8
0
  6
CONTINUOUS
 62
     7
 10
-679.982164227964
 20
61.66860398211355
 30
0.0
  0
VERTEX
  5
2F8
  8
0
  6
CONTINUOUS
 62
     7
 10
-680.00245703488
 20
61.64140336265658
 30
0.0
  0
VERTEX
  5
2F9
  8
0
  6
CONTINUOUS
 62
     7
 10
-680.0227408125581
 20
61.6164462028788
 30
0.0
  0
VERTEX
  5
2FA
  8
0
  6
CONTINUOUS
 62
     7
 10
-680.0440368358392
 20
61.59229572579871
 30
0.0
  0
VERTEX
  5
2FB
  8
0
  6
CONTINUOUS
 62
     7
 10
-680.0662878969529
 20
61.56901515515219
 30
0.0
  0
VERTEX
  5
2FC
  8
0
  6
CONTINUOUS
 62
     7
 10
-680.0894367881295
 20
61.54666771467507
 30
0.0
  0
VERTEX
  5
2FD
  8
0
  6
CONTINUOUS
 62
     7
 10
-680.1141937844811
 20
61.52465514132835
 30
0.0
  0
VERTEX
  5
2FE
  8
0
  6
CONTINUOUS
 62
     7
 10
-680.1398569136277
 20
61.50367298858388
 30
0.0
  0
VERTEX
  5
2FF
  8
0
  6
CONTINUOUS
 62
     7
 10
-680.1663520389416
 20
61.48377696183181
 30
0.0
  0
VERTEX
  5
300
  8
0
  6
CONTINUOUS
 62
     7
 10
-680.1936050237957
 20
61.4650227664623
 30
0.0
  0
VERTEX
  5
301
  8
0
  6
CONTINUOUS
 62
     7
 10
-680.2204729575532
 20
61.44810183376682
 30
0.0
  0
VERTEX
  5
302
  8
0
  6
CONTINUOUS
 62
     7
 10
-680.2479904463589
 20
61.43226018581478
 30
0.0
  0
VERTEX
  5
303
  8
0
  6
CONTINUOUS
 62
     7
 10
-680.2760851550919
 20
61.41753333993071
 30
0.0
  0
VERTEX
  5
304
  8
0
  6
CONTINUOUS
 62
     7
 10
-680.3046847486304
 20
61.40395681343918
 30
0.0
  0
VERTEX
  5
305
  8
0
  6
CONTINUOUS
 62
     7
 10
-680.3345905751596
 20
61.39120906132201
 30
0.0
  0
VERTEX
  5
306
  8
0
  6
CONTINUOUS
 62
     7
 10
-680.3649742887836
 20
61.37969169840849
 30
0.0
  0
VERTEX
  5
307
  8
0
  6
CONTINUOUS
 62
     7
 10
-680.395754301007
 20
61.36942766943211
 30
0.0
  0
VERTEX
  5
308
  8
0
  6
CONTINUOUS
 62
     7
 10
-680.426849023335
 20
61.36043991912629
 30
0.0
  0
VERTEX
  5
309
  8
0
  6
CONTINUOUS
 62
     7
 10
-680.4607711490419
 20
61.35217555201442
 30
0.0
  0
VERTEX
  5
30A
  8
0
  6
CONTINUOUS
 62
     7
 10
-680.4950245381385
 20
61.34540400178159
 30
0.0
  0
VERTEX
  5
30B
  8
0
  6
CONTINUOUS
 62
     7
 10
-680.5295083208704
 20
61.34012963661243
 30
0.0
  0
VERTEX
  5
30C
  8
0
  6
CONTINUOUS
 62
     7
 10
-680.564121627483
 20
61.33635682469156
 30
0.0
  0
VERTEX
  5
30D
  8
0
  6
CONTINUOUS
 62
     7
 10
-680.5987635882221
 20
61.33408993420363
 30
0.0
  0
VERTEX
  5
30E
  8
0
  6
CONTINUOUS
 62
     7
 10
-680.6333333333332
 20
61.33333333333329
 30
0.0
  0
SEQEND
  5
450
  8
0
  6
CONTINUOUS
 62
     7
  0
LINE
  5
91
  8
0
  6
CONTINUOUS
 62
     7
 10
-680.6333333333332
 20
61.33333333333329
 30
0.0
 11
-682.0833333333331
 21
61.33333333333329
 31
0.0
  0
LINE
  5
92
  8
0
  6
CONTINUOUS
 62
     7
 10
-682.0833333333331
 20
61.33333333333329
 30
0.0
 11
-682.0833333333331
 21
60.33333333333329
 31
0.0
  0
CIRCLE
  5
93
  8
0
  6
CONTINUOUS
 62
     7
 10
-527.3333333333331
 20
165.8333333333333
 30
0.0
 40
4.700000000000037
  0
LINE
  5
94
  8
0
  6
CONTINUOUS
 62
     7
 10
-524.5833333333331
 20
166.3333333333333
 30
0.0
 11
-526.0333333333331
 21
166.3333333333333
 31
0.0
  0
POLYLINE
  5
95
  8
0
  6
CONTINUOUS
 62
     7
 66
     1
 10
0.0
 20
0.0
 30
0.0
  0
VERTEX
  5
30F
  8
0
  6
CONTINUOUS
 62
     7
 10
-526.0333333333331
 20
166.3333333333333
 30
0.0
  0
VERTEX
  5
310
  8
0
  6
CONTINUOUS
 62
     7
 10
-526.0655256808338
 20
166.333983766916
 30
0.0
  0
VERTEX
  5
311
  8
0
  6
CONTINUOUS
 62
     7
 10
-526.0977529705829
 20
166.3359356001056
 30
0.0
  0
VERTEX
  5
312
  8
0
  6
CONTINUOUS
 62
     7
 10
-526.1299349458408
 20
166.3391896315637
 30
0.0
  0
VERTEX
  5
313
  8
0
  6
CONTINUOUS
 62
     7
 10
-526.1619913498685
 20
166.343746659952
 30
0.0
  0
VERTEX
  5
314
  8
0
  6
CONTINUOUS
 62
     7
 10
-526.1947914255727
 20
166.3497987019585
 30
0.0
  0
VERTEX
  5
315
  8
0
  6
CONTINUOUS
 62
     7
 10
-526.227398459899
 20
166.3572339433805
 30
0.0
  0
VERTEX
  5
316
  8
0
  6
CONTINUOUS
 62
     7
 10
-526.2597221514175
 20
166.3660372030069
 30
0.0
  0
VERTEX
  5
317
  8
0
  6
CONTINUOUS
 62
     7
 10
-526.2916721986985
 20
166.3761932996263
 30
0.0
  0
VERTEX
  5
318
  8
0
  6
CONTINUOUS
 62
     7
 10
-526.3223890254192
 20
166.3873827880072
 30
0.0
  0
VERTEX
  5
319
  8
0
  6
CONTINUOUS
 62
     7
 10
-526.3526924978304
 20
166.3998474316997
 30
0.0
  0
VERTEX
  5
31A
  8
0
  6
CONTINUOUS
 62
     7
 10
-526.3824999886784
 20
166.4135569334756
 30
0.0
  0
VERTEX
  5
31B
  8
0
  6
CONTINUOUS
 62
     7
 10
-526.4117288707093
 20
166.4284809961066
 30
0.0
  0
VERTEX
  5
31C
  8
0
  6
CONTINUOUS
 62
     7
 10
-526.4412106504151
 20
166.4451250355638
 30
0.0
  0
VERTEX
  5
31D
  8
0
  6
CONTINUOUS
 62
     7
 10
-526.4700168608588
 20
166.4630365038542
 30
0.0
  0
VERTEX
  5
31E
  8
0
  6
CONTINUOUS
 62
     7
 10
-526.4980626845529
 20
166.4821642279641
 30
0.0
  0
VERTEX
  5
31F
  8
0
  6
CONTINUOUS
 62
     7
 10
-526.5252633040099
 20
166.5024570348801
 30
0.0
  0
VERTEX
  5
320
  8
0
  6
CONTINUOUS
 62
     7
 10
-526.5502204637876
 20
166.5227408125583
 30
0.0
  0
VERTEX
  5
321
  8
0
  6
CONTINUOUS
 62
     7
 10
-526.5743709408678
 20
166.5440368358392
 30
0.0
  0
VERTEX
  5
322
  8
0
  6
CONTINUOUS
 62
     7
 10
-526.5976515115143
 20
166.566287896953
 30
0.0
  0
VERTEX
  5
323
  8
0
  6
CONTINUOUS
 62
     7
 10
-526.6199989519914
 20
166.5894367881297
 30
0.0
  0
VERTEX
  5
324
  8
0
  6
CONTINUOUS
 62
     7
 10
-526.642011525338
 20
166.6141937844812
 30
0.0
  0
VERTEX
  5
325
  8
0
  6
CONTINUOUS
 62
     7
 10
-526.6629936780826
 20
166.6398569136277
 30
0.0
  0
VERTEX
  5
326
  8
0
  6
CONTINUOUS
 62
     7
 10
-526.6828897048347
 20
166.6663520389418
 30
0.0
  0
VERTEX
  5
327
  8
0
  6
CONTINUOUS
 62
     7
 10
-526.7016439002041
 20
166.6936050237959
 30
0.0
  0
VERTEX
  5
328
  8
0
  6
CONTINUOUS
 62
     7
 10
-526.7185648328996
 20
166.7204729575533
 30
0.0
  0
VERTEX
  5
329
  8
0
  6
CONTINUOUS
 62
     7
 10
-526.7344064808517
 20
166.7479904463591
 30
0.0
  0
VERTEX
  5
32A
  8
0
  6
CONTINUOUS
 62
     7
 10
-526.7491333267358
 20
166.776085155092
 30
0.0
  0
VERTEX
  5
32B
  8
0
  6
CONTINUOUS
 62
     7
 10
-526.7627098532273
 20
166.8046847486305
 30
0.0
  0
VERTEX
  5
32C
  8
0
  6
CONTINUOUS
 62
     7
 10
-526.7754576053445
 20
166.8345905751598
 30
0.0
  0
VERTEX
  5
32D
  8
0
  6
CONTINUOUS
 62
     7
 10
-526.7869749682579
 20
166.8649742887837
 30
0.0
  0
VERTEX
  5
32E
  8
0
  6
CONTINUOUS
 62
     7
 10
-526.7972389972344
 20
166.8957543010071
 30
0.0
  0
VERTEX
  5
32F
  8
0
  6
CONTINUOUS
 62
     7
 10
-526.8062267475402
 20
166.9268490233351
 30
0.0
  0
VERTEX
  5
330
  8
0
  6
CONTINUOUS
 62
     7
 10
-526.814491114652
 20
166.960771149042
 30
0.0
  0
VERTEX
  5
331
  8
0
  6
CONTINUOUS
 62
     7
 10
-526.8212626648849
 20
166.9950245381386
 30
0.0
  0
VERTEX
  5
332
  8
0
  6
CONTINUOUS
 62
     7
 10
-526.8265370300539
 20
167.0295083208705
 30
0.0
  0
VERTEX
  5
333
  8
0
  6
CONTINUOUS
 62
     7
 10
-526.8303098419749
 20
167.0641216274832
 30
0.0
  0
VERTEX
  5
334
  8
0
  6
CONTINUOUS
 62
     7
 10
-526.8325767324628
 20
167.0987635882222
 30
0.0
  0
VERTEX
  5
335
  8
0
  6
CONTINUOUS
 62
     7
 10
-526.8333333333331
 20
167.1333333333333
 30
0.0
  0
SEQEND
  5
451
  8
0
  6
CONTINUOUS
 62
     7
  0
LINE
  5
96
  8
0
  6
CONTINUOUS
 62
     7
 10
-526.8333333333331
 20
167.1333333333333
 30
0.0
 11
-526.8333333333331
 21
167.8866864232198
 31
0.0
  0
ARC
  5
97
  8
0
  6
CONTINUOUS
 62
     7
 10
-527.3333333333331
 20
165.8333333333333
 30
0.0
 40
2.113352528980073
 50
76.3145799001943
 51
103.6854200998057
  0
LINE
  5
98
  8
0
  6
CONTINUOUS
 62
     7
 10
-527.8333333333331
 20
167.8866864232198
 30
0.0
 11
-527.8333333333331
 21
167.1333333333333
 31
0.0
  0
POLYLINE
  5
99
  8
0
  6
CONTINUOUS
 62
     7
 66
     1
 10
0.0
 20
0.0
 30
0.0
  0
VERTEX
  5
336
  8
0
  6
CONTINUOUS
 62
     7
 10
-527.8333333333331
 20
167.1333333333333
 30
0.0
  0
VERTEX
  5
337
  8
0
  6
CONTINUOUS
 62
     7
 10
-527.8339837669159
 20
167.1011409858326
 30
0.0
  0
VERTEX
  5
338
  8
0
  6
CONTINUOUS
 62
     7
 10
-527.8359356001055
 20
167.0689136960836
 30
0.0
  0
VERTEX
  5
339
  8
0
  6
CONTINUOUS
 62
     7
 10
-527.8391896315635
 20
167.0367317208256
 30
0.0
  0
VERTEX
  5
33A
  8
0
  6
CONTINUOUS
 62
     7
 10
-527.8437466599519
 20
167.004675316798
 30
0.0
  0
VERTEX
  5
33B
  8
0
  6
CONTINUOUS
 62
     7
 10
-527.8497987019584
 20
166.9718752410938
 30
0.0
  0
VERTEX
  5
33C
  8
0
  6
CONTINUOUS
 62
     7
 10
-527.8572339433805
 20
166.9392682067675
 30
0.0
  0
VERTEX
  5
33D
  8
0
  6
CONTINUOUS
 62
     7
 10
-527.8660372030068
 20
166.906944515249
 30
0.0
  0
VERTEX
  5
33E
  8
0
  6
CONTINUOUS
 62
     7
 10
-527.8761932996262
 20
166.874994467968
 30
0.0
  0
VERTEX
  5
33F
  8
0
  6
CONTINUOUS
 62
     7
 10
-527.8873827880071
 20
166.8442776412473
 30
0.0
  0
VERTEX
  5
340
  8
0
  6
CONTINUOUS
 62
     7
 10
-527.8998474316996
 20
166.813974168836
 30
0.0
  0
VERTEX
  5
341
  8
0
  6
CONTINUOUS
 62
     7
 10
-527.9135569334755
 20
166.784166677988
 30
0.0
  0
VERTEX
  5
342
  8
0
  6
CONTINUOUS
 62
     7
 10
-527.9284809961066
 20
166.7549377959572
 30
0.0
  0
VERTEX
  5
343
  8
0
  6
CONTINUOUS
 62
     7
 10
-527.9451250355638
 20
166.7254560162514
 30
0.0
  0
VERTEX
  5
344
  8
0
  6
CONTINUOUS
 62
     7
 10
-527.9630365038541
 20
166.6966498058077
 30
0.0
  0
VERTEX
  5
345
  8
0
  6
CONTINUOUS
 62
     7
 10
-527.982164227964
 20
166.6686039821135
 30
0.0
  0
VERTEX
  5
346
  8
0
  6
CONTINUOUS
 62
     7
 10
-528.00245703488
 20
166.6414033626566
 30
0.0
  0
VERTEX
  5
347
  8
0
  6
CONTINUOUS
 62
     7
 10
-528.0227408125581
 20
166.6164462028788
 30
0.0
  0
VERTEX
  5
348
  8
0
  6
CONTINUOUS
 62
     7
 10
-528.044036835839
 20
166.5922957257987
 30
0.0
  0
VERTEX
  5
349
  8
0
  6
CONTINUOUS
 62
     7
 10
-528.066287896953
 20
166.5690151551522
 30
0.0
  0
VERTEX
  5
34A
  8
0
  6
CONTINUOUS
 62
     7
 10
-528.0894367881295
 20
166.5466677146751
 30
0.0
  0
VERTEX
  5
34B
  8
0
  6
CONTINUOUS
 62
     7
 10
-528.1141937844811
 20
166.5246551413284
 30
0.0
  0
VERTEX
  5
34C
  8
0
  6
CONTINUOUS
 62
     7
 10
-528.1398569136277
 20
166.5036729885839
 30
0.0
  0
VERTEX
  5
34D
  8
0
  6
CONTINUOUS
 62
     7
 10
-528.1663520389417
 20
166.4837769618318
 30
0.0
  0
VERTEX
  5
34E
  8
0
  6
CONTINUOUS
 62
     7
 10
-528.1936050237958
 20
166.4650227664623
 30
0.0
  0
VERTEX
  5
34F
  8
0
  6
CONTINUOUS
 62
     7
 10
-528.2204729575532
 20
166.4481018337668
 30
0.0
  0
VERTEX
  5
350
  8
0
  6
CONTINUOUS
 62
     7
 10
-528.247990446359
 20
166.4322601858148
 30
0.0
  0
VERTEX
  5
351
  8
0
  6
CONTINUOUS
 62
     7
 10
-528.2760851550918
 20
166.4175333399307
 30
0.0
  0
VERTEX
  5
352
  8
0
  6
CONTINUOUS
 62
     7
 10
-528.3046847486304
 20
166.4039568134392
 30
0.0
  0
VERTEX
  5
353
  8
0
  6
CONTINUOUS
 62
     7
 10
-528.3345905751597
 20
166.391209061322
 30
0.0
  0
VERTEX
  5
354
  8
0
  6
CONTINUOUS
 62
     7
 10
-528.3649742887836
 20
166.3796916984085
 30
0.0
  0
VERTEX
  5
355
  8
0
  6
CONTINUOUS
 62
     7
 10
-528.3957543010071
 20
166.3694276694321
 30
0.0
  0
VERTEX
  5
356
  8
0
  6
CONTINUOUS
 62
     7
 10
-528.426849023335
 20
166.3604399191263
 30
0.0
  0
VERTEX
  5
357
  8
0
  6
CONTINUOUS
 62
     7
 10
-528.4607711490419
 20
166.3521755520144
 30
0.0
  0
VERTEX
  5
358
  8
0
  6
CONTINUOUS
 62
     7
 10
-528.4950245381385
 20
166.3454040017816
 30
0.0
  0
VERTEX
  5
359
  8
0
  6
CONTINUOUS
 62
     7
 10
-528.5295083208704
 20
166.3401296366124
 30
0.0
  0
VERTEX
  5
35A
  8
0
  6
CONTINUOUS
 62
     7
 10
-528.564121627483
 20
166.3363568246916
 30
0.0
  0
VERTEX
  5
35B
  8
0
  6
CONTINUOUS
 62
     7
 10
-528.5987635882221
 20
166.3340899342036
 30
0.0
  0
VERTEX
  5
35C
  8
0
  6
CONTINUOUS
 62
     7
 10
-528.6333333333332
 20
166.3333333333333
 30
0.0
  0
SEQEND
  5
452
  8
0
  6
CONTINUOUS
 62
     7
  0
LINE
  5
9A
  8
0
  6
CONTINUOUS
 62
     7
 10
-528.6333333333332
 20
166.3333333333333
 30
0.0
 11
-530.0833333333333
 21
166.3333333333333
 31
0.0
  0
LINE
  5
9B
  8
0
  6
CONTINUOUS
 62
     7
 10
-530.0833333333333
 20
166.3333333333333
 30
0.0
 11
-530.0833333333333
 21
165.3333333333333
 31
0.0
  0
LINE
  5
9C
  8
0
  6
CONTINUOUS
 62
     7
 10
-530.0833333333333
 20
165.3333333333333
 30
0.0
 11
-528.6333333333332
 21
165.3333333333333
 31
0.0
  0
POLYLINE
  5
9D
  8
0
  6
CONTINUOUS
 62
     7
 66
     1
 10
0.0
 20
0.0
 30
0.0
  0
VERTEX
  5
35D
  8
0
  6
CONTINUOUS
 62
     7
 10
-528.6333333333332
 20
165.3333333333333
 30
0.0
  0
VERTEX
  5
35E
  8
0
  6
CONTINUOUS
 62
     7
 10
-528.6011409858326
 20
165.3326828997505
 30
0.0
  0
VERTEX
  5
35F
  8
0
  6
CONTINUOUS
 62
     7
 10
-528.5689136960835
 20
165.330731066561
 30
0.0
  0
VERTEX
  5
360
  8
0
  6
CONTINUOUS
 62
     7
 10
-528.5367317208255
 20
165.3274770351029
 30
0.0
  0
VERTEX
  5
361
  8
0
  6
CONTINUOUS
 62
     7
 10
-528.504675316798
 20
165.3229200067145
 30
0.0
  0
VERTEX
  5
362
  8
0
  6
CONTINUOUS
 62
     7
 10
-528.4718752410936
 20
165.3168679647081
 30
0.0
  0
VERTEX
  5
363
  8
0
  6
CONTINUOUS
 62
     7
 10
-528.4392682067673
 20
165.309432723286
 30
0.0
  0
VERTEX
  5
364
  8
0
  6
CONTINUOUS
 62
     7
 10
-528.4069445152488
 20
165.3006294636596
 30
0.0
  0
VERTEX
  5
365
  8
0
  6
CONTINUOUS
 62
     7
 10
-528.3749944679679
 20
165.2904733670402
 30
0.0
  0
VERTEX
  5
366
  8
0
  6
CONTINUOUS
 62
     7
 10
-528.3442776412472
 20
165.2792838786593
 30
0.0
  0
VERTEX
  5
367
  8
0
  6
CONTINUOUS
 62
     7
 10
-528.3139741688359
 20
165.2668192349668
 30
0.0
  0
VERTEX
  5
368
  8
0
  6
CONTINUOUS
 62
     7
 10
-528.2841666779879
 20
165.2531097331909
 30
0.0
  0
VERTEX
  5
369
  8
0
  6
CONTINUOUS
 62
     7
 10
-528.2549377959571
 20
165.2381856705599
 30
0.0
  0
VERTEX
  5
36A
  8
0
  6
CONTINUOUS
 62
     7
 10
-528.2254560162512
 20
165.2215416311027
 30
0.0
  0
VERTEX
  5
36B
  8
0
  6
CONTINUOUS
 62
     7
 10
-528.1966498058075
 20
165.2036301628124
 30
0.0
  0
VERTEX
  5
36C
  8
0
  6
CONTINUOUS
 62
     7
 10
-528.1686039821134
 20
165.1845024387025
 30
0.0
  0
VERTEX
  5
36D
  8
0
  6
CONTINUOUS
 62
     7
 10
-528.1414033626564
 20
165.1642096317865
 30
0.0
  0
VERTEX
  5
36E
  8
0
  6
CONTINUOUS
 62
     7
 10
-528.1164462028787
 20
165.1439258541083
 30
0.0
  0
VERTEX
  5
36F
  8
0
  6
CONTINUOUS
 62
     7
 10
-528.0922957257986
 20
165.1226298308273
 30
0.0
  0
VERTEX
  5
370
  8
0
  6
CONTINUOUS
 62
     7
 10
-528.0690151551521
 20
165.1003787697135
 30
0.0
  0
VERTEX
  5
371
  8
0
  6
CONTINUOUS
 62
     7
 10
-528.046667714675
 20
165.0772298785369
 30
0.0
  0
VERTEX
  5
372
  8
0
  6
CONTINUOUS
 62
     7
 10
-528.0246551413283
 20
165.0524728821853
 30
0.0
  0
VERTEX
  5
373
  8
0
  6
CONTINUOUS
 62
     7
 10
-528.0036729885837
 20
165.0268097530388
 30
0.0
  0
VERTEX
  5
374
  8
0
  6
CONTINUOUS
 62
     7
 10
-527.9837769618317
 20
165.0003146277248
 30
0.0
  0
VERTEX
  5
375
  8
0
  6
CONTINUOUS
 62
     7
 10
-527.9650227664622
 20
164.9730616428706
 30
0.0
  0
VERTEX
  5
376
  8
0
  6
CONTINUOUS
 62
     7
 10
-527.9481018337667
 20
164.9461937091133
 30
0.0
  0
VERTEX
  5
377
  8
0
  6
CONTINUOUS
 62
     7
 10
-527.9322601858146
 20
164.9186762203074
 30
0.0
  0
VERTEX
  5
378
  8
0
  6
CONTINUOUS
 62
     7
 10
-527.9175333399306
 20
164.8905815115745
 30
0.0
  0
VERTEX
  5
379
  8
0
  6
CONTINUOUS
 62
     7
 10
-527.903956813439
 20
164.8619819180361
 30
0.0
  0
VERTEX
  5
37A
  8
0
  6
CONTINUOUS
 62
     7
 10
-527.8912090613219
 20
164.8320760915067
 30
0.0
  0
VERTEX
  5
37B
  8
0
  6
CONTINUOUS
 62
     7
 10
-527.8796916984085
 20
164.8016923778828
 30
0.0
  0
VERTEX
  5
37C
  8
0
  6
CONTINUOUS
 62
     7
 10
-527.869427669432
 20
164.7709123656594
 30
0.0
  0
VERTEX
  5
37D
  8
0
  6
CONTINUOUS
 62
     7
 10
-527.8604399191262
 20
164.7398176433315
 30
0.0
  0
VERTEX
  5
37E
  8
0
  6
CONTINUOUS
 62
     7
 10
-527.8521755520144
 20
164.7058955176246
 30
0.0
  0
VERTEX
  5
37F
  8
0
  6
CONTINUOUS
 62
     7
 10
-527.8454040017815
 20
164.6716421285279
 30
0.0
  0
VERTEX
  5
380
  8
0
  6
CONTINUOUS
 62
     7
 10
-527.8401296366123
 20
164.6371583457961
 30
0.0
  0
VERTEX
  5
381
  8
0
  6
CONTINUOUS
 62
     7
 10
-527.8363568246914
 20
164.6025450391834
 30
0.0
  0
VERTEX
  5
382
  8
0
  6
CONTINUOUS
 62
     7
 10
-527.8340899342036
 20
164.5679030784443
 30
0.0
  0
VERTEX
  5
383
  8
0
  6
CONTINUOUS
 62
     7
 10
-527.8333333333331
 20
164.5333333333332
 30
0.0
  0
SEQEND
  5
453
  8
0
  6
CONTINUOUS
 62
     7
  0
LINE
  5
9E
  8
0
  6
CONTINUOUS
 62
     7
 10
-527.8333333333331
 20
164.5333333333332
 30
0.0
 11
-527.8333333333331
 21
163.7799802434468
 31
0.0
  0
ARC
  5
9F
  8
0
  6
CONTINUOUS
 62
     7
 10
-527.3333333333331
 20
165.8333333333333
 30
0.0
 40
2.113352528980047
 50
256.3145799001944
 51
283.6854200998056
  0
LINE
  5
A0
  8
0
  6
CONTINUOUS
 62
     7
 10
-526.8333333333331
 20
163.7799802434468
 30
0.0
 11
-526.8333333333331
 21
164.5333333333333
 31
0.0
  0
POLYLINE
  5
A1
  8
0
  6
CONTINUOUS
 62
     7
 66
     1
 10
0.0
 20
0.0
 30
0.0
  0
VERTEX
  5
384
  8
0
  6
CONTINUOUS
 62
     7
 10
-526.8333333333331
 20
164.5333333333333
 30
0.0
  0
VERTEX
  5
385
  8
0
  6
CONTINUOUS
 62
     7
 10
-526.8326828997504
 20
164.5655256808339
 30
0.0
  0
VERTEX
  5
386
  8
0
  6
CONTINUOUS
 62
     7
 10
-526.8307310665608
 20
164.597752970583
 30
0.0
  0
VERTEX
  5
387
  8
0
  6
CONTINUOUS
 62
     7
 10
-526.8274770351028
 20
164.629934945841
 30
0.0
  0
VERTEX
  5
388
  8
0
  6
CONTINUOUS
 62
     7
 10
-526.8229200067144
 20
164.6619913498686
 30
0.0
  0
VERTEX
  5
389
  8
0
  6
CONTINUOUS
 62
     7
 10
-526.816867964708
 20
164.6947914255728
 30
0.0
  0
VERTEX
  5
38A
  8
0
  6
CONTINUOUS
 62
     7
 10
-526.8094327232859
 20
164.7273984598991
 30
0.0
  0
VERTEX
  5
38B
  8
0
  6
CONTINUOUS
 62
     7
 10
-526.8006294636596
 20
164.7597221514176
 30
0.0
  0
VERTEX
  5
38C
  8
0
  6
CONTINUOUS
 62
     7
 10
-526.7904733670401
 20
164.7916721986986
 30
0.0
  0
VERTEX
  5
38D
  8
0
  6
CONTINUOUS
 62
     7
 10
-526.7792838786593
 20
164.8223890254192
 30
0.0
  0
VERTEX
  5
38E
  8
0
  6
CONTINUOUS
 62
     7
 10
-526.7668192349666
 20
164.8526924978305
 30
0.0
  0
VERTEX
  5
38F
  8
0
  6
CONTINUOUS
 62
     7
 10
-526.7531097331907
 20
164.8824999886786
 30
0.0
  0
VERTEX
  5
390
  8
0
  6
CONTINUOUS
 62
     7
 10
-526.7381856705598
 20
164.9117288707094
 30
0.0
  0
VERTEX
  5
391
  8
0
  6
CONTINUOUS
 62
     7
 10
-526.7215416311026
 20
164.9412106504152
 30
0.0
  0
VERTEX
  5
392
  8
0
  6
CONTINUOUS
 62
     7
 10
-526.7036301628123
 20
164.9700168608589
 30
0.0
  0
VERTEX
  5
393
  8
0
  6
CONTINUOUS
 62
     7
 10
-526.6845024387023
 20
164.998062684553
 30
0.0
  0
VERTEX
  5
394
  8
0
  6
CONTINUOUS
 62
     7
 10
-526.6642096317864
 20
165.02526330401
 30
0.0
  0
VERTEX
  5
395
  8
0
  6
CONTINUOUS
 62
     7
 10
-526.6439258541081
 20
165.0502204637878
 30
0.0
  0
VERTEX
  5
396
  8
0
  6
CONTINUOUS
 62
     7
 10
-526.6226298308272
 20
165.0743709408679
 30
0.0
  0
VERTEX
  5
397
  8
0
  6
CONTINUOUS
 62
     7
 10
-526.6003787697134
 20
165.0976515115144
 30
0.0
  0
VERTEX
  5
398
  8
0
  6
CONTINUOUS
 62
     7
 10
-526.5772298785367
 20
165.1199989519915
 30
0.0
  0
VERTEX
  5
399
  8
0
  6
CONTINUOUS
 62
     7
 10
-526.5524728821852
 20
165.1420115253382
 30
0.0
  0
VERTEX
  5
39A
  8
0
  6
CONTINUOUS
 62
     7
 10
-526.5268097530386
 20
165.1629936780827
 30
0.0
  0
VERTEX
  5
39B
  8
0
  6
CONTINUOUS
 62
     7
 10
-526.5003146277247
 20
165.1828897048347
 30
0.0
  0
VERTEX
  5
39C
  8
0
  6
CONTINUOUS
 62
     7
 10
-526.4730616428706
 20
165.2016439002043
 30
0.0
  0
VERTEX
  5
39D
  8
0
  6
CONTINUOUS
 62
     7
 10
-526.4461937091131
 20
165.2185648328997
 30
0.0
  0
VERTEX
  5
39E
  8
0
  6
CONTINUOUS
 62
     7
 10
-526.4186762203074
 20
165.2344064808518
 30
0.0
  0
VERTEX
  5
39F
  8
0
  6
CONTINUOUS
 62
     7
 10
-526.3905815115745
 20
165.2491333267359
 30
0.0
  0
VERTEX
  5
3A0
  8
0
  6
CONTINUOUS
 62
     7
 10
-526.3619819180359
 20
165.2627098532274
 30
0.0
  0
VERTEX
  5
3A1
  8
0
  6
CONTINUOUS
 62
     7
 10
-526.3320760915067
 20
165.2754576053446
 30
0.0
  0
VERTEX
  5
3A2
  8
0
  6
CONTINUOUS
 62
     7
 10
-526.3016923778827
 20
165.2869749682581
 30
0.0
  0
VERTEX
  5
3A3
  8
0
  6
CONTINUOUS
 62
     7
 10
-526.2709123656593
 20
165.2972389972345
 30
0.0
  0
VERTEX
  5
3A4
  8
0
  6
CONTINUOUS
 62
     7
 10
-526.2398176433313
 20
165.3062267475403
 30
0.0
  0
VERTEX
  5
3A5
  8
0
  6
CONTINUOUS
 62
     7
 10
-526.2058955176244
 20
165.3144911146522
 30
0.0
  0
VERTEX
  5
3A6
  8
0
  6
CONTINUOUS
 62
     7
 10
-526.1716421285279
 20
165.321262664885
 30
0.0
  0
VERTEX
  5
3A7
  8
0
  6
CONTINUOUS
 62
     7
 10
-526.137158345796
 20
165.3265370300541
 30
0.0
  0
VERTEX
  5
3A8
  8
0
  6
CONTINUOUS
 62
     7
 10
-526.1025450391833
 20
165.330309841975
 30
0.0
  0
VERTEX
  5
3A9
  8
0
  6
CONTINUOUS
 62
     7
 10
-526.0679030784441
 20
165.3325767324629
 30
0.0
  0
VERTEX
  5
3AA
  8
0
  6
CONTINUOUS
 62
     7
 10
-526.0333333333331
 20
165.3333333333333
 30
0.0
  0
SEQEND
  5
454
  8
0
  6
CONTINUOUS
 62
     7
  0
LINE
  5
A2
  8
0
  6
CONTINUOUS
 62
     7
 10
-526.0333333333331
 20
165.3333333333333
 30
0.0
 11
-524.5833333333331
 21
165.3333333333333
 31
0.0
  0
LINE
  5
A3
  8
0
  6
CONTINUOUS
 62
     7
 10
-524.5833333333331
 20
165.3333333333333
 30
0.0
 11
-524.5833333333331
 21
166.3333333333333
 31
0.0
  0
CIRCLE
  5
A4
  8
0
  6
CONTINUOUS
 62
     7
 10
-679.3333333333331
 20
165.8333333333333
 30
0.0
 40
4.699999999999926
  0
LINE
  5
A5
  8
0
  6
CONTINUOUS
 62
     7
 10
-680.6333333333332
 20
165.3333333333333
 30
0.0
 11
-682.0833333333331
 21
165.3333333333333
 31
0.0
  0
POLYLINE
  5
A6
  8
0
  6
CONTINUOUS
 62
     7
 66
     1
 10
0.0
 20
0.0
 30
0.0
  0
VERTEX
  5
3AB
  8
0
  6
CONTINUOUS
 62
     7
 10
-679.8333333333331
 20
164.5333333333333
 30
0.0
  0
VERTEX
  5
3AC
  8
0
  6
CONTINUOUS
 62
     7
 10
-679.8339837669159
 20
164.5655256808339
 30
0.0
  0
VERTEX
  5
3AD
  8
0
  6
CONTINUOUS
 62
     7
 10
-679.8359356001055
 20
164.5977529705829
 30
0.0
  0
VERTEX
  5
3AE
  8
0
  6
CONTINUOUS
 62
     7
 10
-679.8391896315635
 20
164.629934945841
 30
0.0
  0
VERTEX
  5
3AF
  8
0
  6
CONTINUOUS
 62
     7
 10
-679.843746659952
 20
164.6619913498686
 30
0.0
  0
VERTEX
  5
3B0
  8
0
  6
CONTINUOUS
 62
     7
 10
-679.8497987019583
 20
164.6947914255728
 30
0.0
  0
VERTEX
  5
3B1
  8
0
  6
CONTINUOUS
 62
     7
 10
-679.8572339433804
 20
164.7273984598991
 30
0.0
  0
VERTEX
  5
3B2
  8
0
  6
CONTINUOUS
 62
     7
 10
-679.8660372030067
 20
164.7597221514176
 30
0.0
  0
VERTEX
  5
3B3
  8
0
  6
CONTINUOUS
 62
     7
 10
-679.8761932996263
 20
164.7916721986986
 30
0.0
  0
VERTEX
  5
3B4
  8
0
  6
CONTINUOUS
 62
     7
 10
-679.8873827880071
 20
164.8223890254192
 30
0.0
  0
VERTEX
  5
3B5
  8
0
  6
CONTINUOUS
 62
     7
 10
-679.8998474316996
 20
164.8526924978305
 30
0.0
  0
VERTEX
  5
3B6
  8
0
  6
CONTINUOUS
 62
     7
 10
-679.9135569334755
 20
164.8824999886786
 30
0.0
  0
VERTEX
  5
3B7
  8
0
  6
CONTINUOUS
 62
     7
 10
-679.9284809961065
 20
164.9117288707094
 30
0.0
  0
VERTEX
  5
3B8
  8
0
  6
CONTINUOUS
 62
     7
 10
-679.9451250355637
 20
164.9412106504152
 30
0.0
  0
VERTEX
  5
3B9
  8
0
  6
CONTINUOUS
 62
     7
 10
-679.963036503854
 20
164.9700168608589
 30
0.0
  0
VERTEX
  5
3BA
  8
0
  6
CONTINUOUS
 62
     7
 10
-679.982164227964
 20
164.998062684553
 30
0.0
  0
VERTEX
  5
3BB
  8
0
  6
CONTINUOUS
 62
     7
 10
-680.00245703488
 20
165.02526330401
 30
0.0
  0
VERTEX
  5
3BC
  8
0
  6
CONTINUOUS
 62
     7
 10
-680.0227408125581
 20
165.0502204637878
 30
0.0
  0
VERTEX
  5
3BD
  8
0
  6
CONTINUOUS
 62
     7
 10
-680.0440368358392
 20
165.0743709408679
 30
0.0
  0
VERTEX
  5
3BE
  8
0
  6
CONTINUOUS
 62
     7
 10
-680.0662878969529
 20
165.0976515115144
 30
0.0
  0
VERTEX
  5
3BF
  8
0
  6
CONTINUOUS
 62
     7
 10
-680.0894367881295
 20
165.1199989519915
 30
0.0
  0
VERTEX
  5
3C0
  8
0
  6
CONTINUOUS
 62
     7
 10
-680.1141937844811
 20
165.1420115253382
 30
0.0
  0
VERTEX
  5
3C1
  8
0
  6
CONTINUOUS
 62
     7
 10
-680.1398569136277
 20
165.1629936780827
 30
0.0
  0
VERTEX
  5
3C2
  8
0
  6
CONTINUOUS
 62
     7
 10
-680.1663520389416
 20
165.1828897048347
 30
0.0
  0
VERTEX
  5
3C3
  8
0
  6
CONTINUOUS
 62
     7
 10
-680.1936050237957
 20
165.2016439002043
 30
0.0
  0
VERTEX
  5
3C4
  8
0
  6
CONTINUOUS
 62
     7
 10
-680.2204729575532
 20
165.2185648328997
 30
0.0
  0
VERTEX
  5
3C5
  8
0
  6
CONTINUOUS
 62
     7
 10
-680.2479904463589
 20
165.2344064808518
 30
0.0
  0
VERTEX
  5
3C6
  8
0
  6
CONTINUOUS
 62
     7
 10
-680.2760851550919
 20
165.2491333267359
 30
0.0
  0
VERTEX
  5
3C7
  8
0
  6
CONTINUOUS
 62
     7
 10
-680.3046847486304
 20
165.2627098532274
 30
0.0
  0
VERTEX
  5
3C8
  8
0
  6
CONTINUOUS
 62
     7
 10
-680.3345905751596
 20
165.2754576053446
 30
0.0
  0
VERTEX
  5
3C9
  8
0
  6
CONTINUOUS
 62
     7
 10
-680.3649742887836
 20
165.2869749682581
 30
0.0
  0
VERTEX
  5
3CA
  8
0
  6
CONTINUOUS
 62
     7
 10
-680.395754301007
 20
165.2972389972345
 30
0.0
  0
VERTEX
  5
3CB
  8
0
  6
CONTINUOUS
 62
     7
 10
-680.426849023335
 20
165.3062267475403
 30
0.0
  0
VERTEX
  5
3CC
  8
0
  6
CONTINUOUS
 62
     7
 10
-680.4607711490419
 20
165.3144911146521
 30
0.0
  0
VERTEX
  5
3CD
  8
0
  6
CONTINUOUS
 62
     7
 10
-680.4950245381385
 20
165.321262664885
 30
0.0
  0
VERTEX
  5
3CE
  8
0
  6
CONTINUOUS
 62
     7
 10
-680.5295083208704
 20
165.3265370300541
 30
0.0
  0
VERTEX
  5
3CF
  8
0
  6
CONTINUOUS
 62
     7
 10
-680.564121627483
 20
165.330309841975
 30
0.0
  0
VERTEX
  5
3D0
  8
0
  6
CONTINUOUS
 62
     7
 10
-680.5987635882221
 20
165.3325767324629
 30
0.0
  0
VERTEX
  5
3D1
  8
0
  6
CONTINUOUS
 62
     7
 10
-680.6333333333332
 20
165.3333333333333
 30
0.0
  0
SEQEND
  5
455
  8
0
  6
CONTINUOUS
 62
     7
  0
LINE
  5
A7
  8
0
  6
CONTINUOUS
 62
     7
 10
-679.8333333333331
 20
163.7799802434468
 30
0.0
 11
-679.8333333333331
 21
164.5333333333333
 31
0.0
  0
ARC
  5
A8
  8
0
  6
CONTINUOUS
 62
     7
 10
-679.3333333333331
 20
165.8333333333333
 30
0.0
 40
2.113352528980047
 50
256.3145799001944
 51
283.6854200998056
  0
LINE
  5
A9
  8
0
  6
CONTINUOUS
 62
     7
 10
-678.8333333333331
 20
164.5333333333332
 30
0.0
 11
-678.8333333333331
 21
163.7799802434468
 31
0.0
  0
POLYLINE
  5
AA
  8
0
  6
CONTINUOUS
 62
     7
 66
     1
 10
0.0
 20
0.0
 30
0.0
  0
VERTEX
  5
3D2
  8
0
  6
CONTINUOUS
 62
     7
 10
-678.0333333333332
 20
165.3333333333333
 30
0.0
  0
VERTEX
  5
3D3
  8
0
  6
CONTINUOUS
 62
     7
 10
-678.0655256808337
 20
165.3326828997505
 30
0.0
  0
VERTEX
  5
3D4
  8
0
  6
CONTINUOUS
 62
     7
 10
-678.0977529705829
 20
165.330731066561
 30
0.0
  0
VERTEX
  5
3D5
  8
0
  6
CONTINUOUS
 62
     7
 10
-678.1299349458408
 20
165.3274770351029
 30
0.0
  0
VERTEX
  5
3D6
  8
0
  6
CONTINUOUS
 62
     7
 10
-678.1619913498685
 20
165.3229200067145
 30
0.0
  0
VERTEX
  5
3D7
  8
0
  6
CONTINUOUS
 62
     7
 10
-678.1947914255726
 20
165.3168679647081
 30
0.0
  0
VERTEX
  5
3D8
  8
0
  6
CONTINUOUS
 62
     7
 10
-678.227398459899
 20
165.309432723286
 30
0.0
  0
VERTEX
  5
3D9
  8
0
  6
CONTINUOUS
 62
     7
 10
-678.2597221514175
 20
165.3006294636596
 30
0.0
  0
VERTEX
  5
3DA
  8
0
  6
CONTINUOUS
 62
     7
 10
-678.2916721986984
 20
165.2904733670402
 30
0.0
  0
VERTEX
  5
3DB
  8
0
  6
CONTINUOUS
 62
     7
 10
-678.322389025419
 20
165.2792838786593
 30
0.0
  0
VERTEX
  5
3DC
  8
0
  6
CONTINUOUS
 62
     7
 10
-678.3526924978304
 20
165.2668192349668
 30
0.0
  0
VERTEX
  5
3DD
  8
0
  6
CONTINUOUS
 62
     7
 10
-678.3824999886784
 20
165.2531097331909
 30
0.0
  0
VERTEX
  5
3DE
  8
0
  6
CONTINUOUS
 62
     7
 10
-678.4117288707092
 20
165.2381856705599
 30
0.0
  0
VERTEX
  5
3DF
  8
0
  6
CONTINUOUS
 62
     7
 10
-678.4412106504151
 20
165.2215416311027
 30
0.0
  0
VERTEX
  5
3E0
  8
0
  6
CONTINUOUS
 62
     7
 10
-678.4700168608588
 20
165.2036301628124
 30
0.0
  0
VERTEX
  5
3E1
  8
0
  6
CONTINUOUS
 62
     7
 10
-678.4980626845529
 20
165.1845024387025
 30
0.0
  0
VERTEX
  5
3E2
  8
0
  6
CONTINUOUS
 62
     7
 10
-678.5252633040099
 20
165.1642096317865
 30
0.0
  0
VERTEX
  5
3E3
  8
0
  6
CONTINUOUS
 62
     7
 10
-678.5502204637877
 20
165.1439258541083
 30
0.0
  0
VERTEX
  5
3E4
  8
0
  6
CONTINUOUS
 62
     7
 10
-678.5743709408677
 20
165.1226298308273
 30
0.0
  0
VERTEX
  5
3E5
  8
0
  6
CONTINUOUS
 62
     7
 10
-678.5976515115143
 20
165.1003787697135
 30
0.0
  0
VERTEX
  5
3E6
  8
0
  6
CONTINUOUS
 62
     7
 10
-678.6199989519913
 20
165.0772298785369
 30
0.0
  0
VERTEX
  5
3E7
  8
0
  6
CONTINUOUS
 62
     7
 10
-678.642011525338
 20
165.0524728821853
 30
0.0
  0
VERTEX
  5
3E8
  8
0
  6
CONTINUOUS
 62
     7
 10
-678.6629936780826
 20
165.0268097530388
 30
0.0
  0
VERTEX
  5
3E9
  8
0
  6
CONTINUOUS
 62
     7
 10
-678.6828897048346
 20
165.0003146277248
 30
0.0
  0
VERTEX
  5
3EA
  8
0
  6
CONTINUOUS
 62
     7
 10
-678.7016439002041
 20
164.9730616428706
 30
0.0
  0
VERTEX
  5
3EB
  8
0
  6
CONTINUOUS
 62
     7
 10
-678.7185648328996
 20
164.9461937091133
 30
0.0
  0
VERTEX
  5
3EC
  8
0
  6
CONTINUOUS
 62
     7
 10
-678.7344064808517
 20
164.9186762203074
 30
0.0
  0
VERTEX
  5
3ED
  8
0
  6
CONTINUOUS
 62
     7
 10
-678.7491333267357
 20
164.8905815115745
 30
0.0
  0
VERTEX
  5
3EE
  8
0
  6
CONTINUOUS
 62
     7
 10
-678.7627098532273
 20
164.8619819180361
 30
0.0
  0
VERTEX
  5
3EF
  8
0
  6
CONTINUOUS
 62
     7
 10
-678.7754576053444
 20
164.8320760915067
 30
0.0
  0
VERTEX
  5
3F0
  8
0
  6
CONTINUOUS
 62
     7
 10
-678.7869749682579
 20
164.8016923778828
 30
0.0
  0
VERTEX
  5
3F1
  8
0
  6
CONTINUOUS
 62
     7
 10
-678.7972389972343
 20
164.7709123656594
 30
0.0
  0
VERTEX
  5
3F2
  8
0
  6
CONTINUOUS
 62
     7
 10
-678.8062267475401
 20
164.7398176433315
 30
0.0
  0
VERTEX
  5
3F3
  8
0
  6
CONTINUOUS
 62
     7
 10
-678.814491114652
 20
164.7058955176246
 30
0.0
  0
VERTEX
  5
3F4
  8
0
  6
CONTINUOUS
 62
     7
 10
-678.8212626648848
 20
164.6716421285279
 30
0.0
  0
VERTEX
  5
3F5
  8
0
  6
CONTINUOUS
 62
     7
 10
-678.826537030054
 20
164.6371583457961
 30
0.0
  0
VERTEX
  5
3F6
  8
0
  6
CONTINUOUS
 62
     7
 10
-678.8303098419749
 20
164.6025450391834
 30
0.0
  0
VERTEX
  5
3F7
  8
0
  6
CONTINUOUS
 62
     7
 10
-678.8325767324627
 20
164.5679030784443
 30
0.0
  0
VERTEX
  5
3F8
  8
0
  6
CONTINUOUS
 62
     7
 10
-678.8333333333331
 20
164.5333333333332
 30
0.0
  0
SEQEND
  5
456
  8
0
  6
CONTINUOUS
 62
     7
  0
LINE
  5
AB
  8
0
  6
CONTINUOUS
 62
     7
 10
-676.583333333333
 20
165.3333333333333
 30
0.0
 11
-678.0333333333332
 21
165.3333333333333
 31
0.0
  0
LINE
  5
AC
  8
0
  6
CONTINUOUS
 62
     7
 10
-676.583333333333
 20
166.3333333333333
 30
0.0
 11
-676.583333333333
 21
165.3333333333333
 31
0.0
  0
LINE
  5
AD
  8
0
  6
CONTINUOUS
 62
     7
 10
-678.0333333333332
 20
166.3333333333333
 30
0.0
 11
-676.583333333333
 21
166.3333333333333
 31
0.0
  0
POLYLINE
  5
AE
  8
0
  6
CONTINUOUS
 62
     7
 66
     1
 10
0.0
 20
0.0
 30
0.0
  0
VERTEX
  5
3F9
  8
0
  6
CONTINUOUS
 62
     7
 10
-678.8333333333331
 20
167.1333333333333
 30
0.0
  0
VERTEX
  5
3FA
  8
0
  6
CONTINUOUS
 62
     7
 10
-678.8326828997504
 20
167.1011409858326
 30
0.0
  0
VERTEX
  5
3FB
  8
0
  6
CONTINUOUS
 62
     7
 10
-678.8307310665609
 20
167.0689136960836
 30
0.0
  0
VERTEX
  5
3FC
  8
0
  6
CONTINUOUS
 62
     7
 10
-678.8274770351028
 20
167.0367317208256
 30
0.0
  0
VERTEX
  5
3FD
  8
0
  6
CONTINUOUS
 62
     7
 10
-678.8229200067144
 20
167.004675316798
 30
0.0
  0
VERTEX
  5
3FE
  8
0
  6
CONTINUOUS
 62
     7
 10
-678.816867964708
 20
166.9718752410938
 30
0.0
  0
VERTEX
  5
3FF
  8
0
  6
CONTINUOUS
 62
     7
 10
-678.8094327232859
 20
166.9392682067675
 30
0.0
  0
VERTEX
  5
400
  8
0
  6
CONTINUOUS
 62
     7
 10
-678.8006294636594
 20
166.906944515249
 30
0.0
  0
VERTEX
  5
401
  8
0
  6
CONTINUOUS
 62
     7
 10
-678.7904733670401
 20
166.874994467968
 30
0.0
  0
VERTEX
  5
402
  8
0
  6
CONTINUOUS
 62
     7
 10
-678.7792838786593
 20
166.8442776412473
 30
0.0
  0
VERTEX
  5
403
  8
0
  6
CONTINUOUS
 62
     7
 10
-678.7668192349668
 20
166.813974168836
 30
0.0
  0
VERTEX
  5
404
  8
0
  6
CONTINUOUS
 62
     7
 10
-678.7531097331907
 20
166.784166677988
 30
0.0
  0
VERTEX
  5
405
  8
0
  6
CONTINUOUS
 62
     7
 10
-678.7381856705598
 20
166.7549377959572
 30
0.0
  0
VERTEX
  5
406
  8
0
  6
CONTINUOUS
 62
     7
 10
-678.7215416311026
 20
166.7254560162514
 30
0.0
  0
VERTEX
  5
407
  8
0
  6
CONTINUOUS
 62
     7
 10
-678.7036301628121
 20
166.6966498058077
 30
0.0
  0
VERTEX
  5
408
  8
0
  6
CONTINUOUS
 62
     7
 10
-678.6845024387023
 20
166.6686039821135
 30
0.0
  0
VERTEX
  5
409
  8
0
  6
CONTINUOUS
 62
     7
 10
-678.6642096317863
 20
166.6414033626566
 30
0.0
  0
VERTEX
  5
40A
  8
0
  6
CONTINUOUS
 62
     7
 10
-678.6439258541081
 20
166.6164462028788
 30
0.0
  0
VERTEX
  5
40B
  8
0
  6
CONTINUOUS
 62
     7
 10
-678.6226298308272
 20
166.5922957257987
 30
0.0
  0
VERTEX
  5
40C
  8
0
  6
CONTINUOUS
 62
     7
 10
-678.6003787697133
 20
166.5690151551522
 30
0.0
  0
VERTEX
  5
40D
  8
0
  6
CONTINUOUS
 62
     7
 10
-678.5772298785367
 20
166.546667714675
 30
0.0
  0
VERTEX
  5
40E
  8
0
  6
CONTINUOUS
 62
     7
 10
-678.5524728821853
 20
166.5246551413284
 30
0.0
  0
VERTEX
  5
40F
  8
0
  6
CONTINUOUS
 62
     7
 10
-678.5268097530387
 20
166.5036729885839
 30
0.0
  0
VERTEX
  5
410
  8
0
  6
CONTINUOUS
 62
     7
 10
-678.5003146277246
 20
166.4837769618318
 30
0.0
  0
VERTEX
  5
411
  8
0
  6
CONTINUOUS
 62
     7
 10
-678.4730616428704
 20
166.4650227664623
 30
0.0
  0
VERTEX
  5
412
  8
0
  6
CONTINUOUS
 62
     7
 10
-678.4461937091131
 20
166.4481018337668
 30
0.0
  0
VERTEX
  5
413
  8
0
  6
CONTINUOUS
 62
     7
 10
-678.4186762203072
 20
166.4322601858148
 30
0.0
  0
VERTEX
  5
414
  8
0
  6
CONTINUOUS
 62
     7
 10
-678.3905815115744
 20
166.4175333399307
 30
0.0
  0
VERTEX
  5
415
  8
0
  6
CONTINUOUS
 62
     7
 10
-678.361981918036
 20
166.4039568134392
 30
0.0
  0
VERTEX
  5
416
  8
0
  6
CONTINUOUS
 62
     7
 10
-678.3320760915066
 20
166.391209061322
 30
0.0
  0
VERTEX
  5
417
  8
0
  6
CONTINUOUS
 62
     7
 10
-678.3016923778828
 20
166.3796916984085
 30
0.0
  0
VERTEX
  5
418
  8
0
  6
CONTINUOUS
 62
     7
 10
-678.2709123656592
 20
166.3694276694321
 30
0.0
  0
VERTEX
  5
419
  8
0
  6
CONTINUOUS
 62
     7
 10
-678.2398176433314
 20
166.3604399191263
 30
0.0
  0
VERTEX
  5
41A
  8
0
  6
CONTINUOUS
 62
     7
 10
-678.2058955176244
 20
166.3521755520144
 30
0.0
  0
VERTEX
  5
41B
  8
0
  6
CONTINUOUS
 62
     7
 10
-678.1716421285278
 20
166.3454040017816
 30
0.0
  0
VERTEX
  5
41C
  8
0
  6
CONTINUOUS
 62
     7
 10
-678.1371583457959
 20
166.3401296366124
 30
0.0
  0
VERTEX
  5
41D
  8
0
  6
CONTINUOUS
 62
     7
 10
-678.1025450391833
 20
166.3363568246916
 30
0.0
  0
VERTEX
  5
41E
  8
0
  6
CONTINUOUS
 62
     7
 10
-678.0679030784443
 20
166.3340899342036
 30
0.0
  0
VERTEX
  5
41F
  8
0
  6
CONTINUOUS
 62
     7
 10
-678.0333333333332
 20
166.3333333333333
 30
0.0
  0
SEQEND
  5
457
  8
0
  6
CONTINUOUS
 62
     7
  0
LINE
  5
AF
  8
0
  6
CONTINUOUS
 62
     7
 10
-678.8333333333331
 20
167.8866864232198
 30
0.0
 11
-678.8333333333331
 21
167.1333333333333
 31
0.0
  0
ARC
  5
B0
  8
0
  6
CONTINUOUS
 62
     7
 10
-679.3333333333331
 20
165.8333333333333
 30
0.0
 40
2.113352528980073
 50
76.3145799001943
 51
103.6854200998057
  0
LINE
  5
B1
  8
0
  6
CONTINUOUS
 62
     7
 10
-679.8333333333331
 20
167.1333333333333
 30
0.0
 11
-679.8333333333331
 21
167.8866864232198
 31
0.0
  0
POLYLINE
  5
B2
  8
0
  6
CONTINUOUS
 62
     7
 66
     1
 10
0.0
 20
0.0
 30
0.0
  0
VERTEX
  5
420
  8
0
  6
CONTINUOUS
 62
     7
 10
-680.6333333333332
 20
166.3333333333333
 30
0.0
  0
VERTEX
  5
421
  8
0
  6
CONTINUOUS
 62
     7
 10
-680.6011409858324
 20
166.333983766916
 30
0.0
  0
VERTEX
  5
422
  8
0
  6
CONTINUOUS
 62
     7
 10
-680.5689136960834
 20
166.3359356001056
 30
0.0
  0
VERTEX
  5
423
  8
0
  6
CONTINUOUS
 62
     7
 10
-680.5367317208255
 20
166.3391896315637
 30
0.0
  0
VERTEX
  5
424
  8
0
  6
CONTINUOUS
 62
     7
 10
-680.5046753167978
 20
166.343746659952
 30
0.0
  0
VERTEX
  5
425
  8
0
  6
CONTINUOUS
 62
     7
 10
-680.4718752410936
 20
166.3497987019585
 30
0.0
  0
VERTEX
  5
426
  8
0
  6
CONTINUOUS
 62
     7
 10
-680.4392682067673
 20
166.3572339433805
 30
0.0
  0
VERTEX
  5
427
  8
0
  6
CONTINUOUS
 62
     7
 10
-680.4069445152488
 20
166.3660372030069
 30
0.0
  0
VERTEX
  5
428
  8
0
  6
CONTINUOUS
 62
     7
 10
-680.3749944679678
 20
166.3761932996263
 30
0.0
  0
VERTEX
  5
429
  8
0
  6
CONTINUOUS
 62
     7
 10
-680.3442776412471
 20
166.3873827880072
 30
0.0
  0
VERTEX
  5
42A
  8
0
  6
CONTINUOUS
 62
     7
 10
-680.3139741688359
 20
166.3998474316997
 30
0.0
  0
VERTEX
  5
42B
  8
0
  6
CONTINUOUS
 62
     7
 10
-680.2841666779879
 20
166.4135569334756
 30
0.0
  0
VERTEX
  5
42C
  8
0
  6
CONTINUOUS
 62
     7
 10
-680.2549377959571
 20
166.4284809961066
 30
0.0
  0
VERTEX
  5
42D
  8
0
  6
CONTINUOUS
 62
     7
 10
-680.2254560162513
 20
166.4451250355638
 30
0.0
  0
VERTEX
  5
42E
  8
0
  6
CONTINUOUS
 62
     7
 10
-680.1966498058075
 20
166.4630365038542
 30
0.0
  0
VERTEX
  5
42F
  8
0
  6
CONTINUOUS
 62
     7
 10
-680.1686039821134
 20
166.4821642279641
 30
0.0
  0
VERTEX
  5
430
  8
0
  6
CONTINUOUS
 62
     7
 10
-680.1414033626564
 20
166.5024570348801
 30
0.0
  0
VERTEX
  5
431
  8
0
  6
CONTINUOUS
 62
     7
 10
-680.1164462028787
 20
166.5227408125583
 30
0.0
  0
VERTEX
  5
432
  8
0
  6
CONTINUOUS
 62
     7
 10
-680.0922957257985
 20
166.5440368358392
 30
0.0
  0
VERTEX
  5
433
  8
0
  6
CONTINUOUS
 62
     7
 10
-680.069015155152
 20
166.566287896953
 30
0.0
  0
VERTEX
  5
434
  8
0
  6
CONTINUOUS
 62
     7
 10
-680.0466677146749
 20
166.5894367881297
 30
0.0
  0
VERTEX
  5
435
  8
0
  6
CONTINUOUS
 62
     7
 10
-680.0246551413283
 20
166.6141937844812
 30
0.0
  0
VERTEX
  5
436
  8
0
  6
CONTINUOUS
 62
     7
 10
-680.0036729885837
 20
166.6398569136277
 30
0.0
  0
VERTEX
  5
437
  8
0
  6
CONTINUOUS
 62
     7
 10
-679.9837769618316
 20
166.6663520389418
 30
0.0
  0
VERTEX
  5
438
  8
0
  6
CONTINUOUS
 62
     7
 10
-679.9650227664622
 20
166.6936050237959
 30
0.0
  0
VERTEX
  5
439
  8
0
  6
CONTINUOUS
 62
     7
 10
-679.9481018337667
 20
166.7204729575533
 30
0.0
  0
VERTEX
  5
43A
  8
0
  6
CONTINUOUS
 62
     7
 10
-679.9322601858146
 20
166.7479904463591
 30
0.0
  0
VERTEX
  5
43B
  8
0
  6
CONTINUOUS
 62
     7
 10
-679.9175333399305
 20
166.776085155092
 30
0.0
  0
VERTEX
  5
43C
  8
0
  6
CONTINUOUS
 62
     7
 10
-679.9039568134391
 20
166.8046847486305
 30
0.0
  0
VERTEX
  5
43D
  8
0
  6
CONTINUOUS
 62
     7
 10
-679.8912090613218
 20
166.8345905751598
 30
0.0
  0
VERTEX
  5
43E
  8
0
  6
CONTINUOUS
 62
     7
 10
-679.8796916984084
 20
166.8649742887837
 30
0.0
  0
VERTEX
  5
43F
  8
0
  6
CONTINUOUS
 62
     7
 10
-679.869427669432
 20
166.8957543010071
 30
0.0
  0
VERTEX
  5
440
  8
0
  6
CONTINUOUS
 62
     7
 10
-679.8604399191262
 20
166.9268490233351
 30
0.0
  0
VERTEX
  5
441
  8
0
  6
CONTINUOUS
 62
     7
 10
-679.8521755520143
 20
166.960771149042
 30
0.0
  0
VERTEX
  5
442
  8
0
  6
CONTINUOUS
 62
     7
 10
-679.8454040017815
 20
166.9950245381386
 30
0.0
  0
VERTEX
  5
443
  8
0
  6
CONTINUOUS
 62
     7
 10
-679.8401296366123
 20
167.0295083208705
 30
0.0
  0
VERTEX
  5
444
  8
0
  6
CONTINUOUS
 62
     7
 10
-679.8363568246914
 20
167.0641216274832
 30
0.0
  0
VERTEX
  5
445
  8
0
  6
CONTINUOUS
 62
     7
 10
-679.8340899342035
 20
167.0987635882222
 30
0.0
  0
VERTEX
  5
446
  8
0
  6
CONTINUOUS
 62
     7
 10
-679.8333333333331
 20
167.1333333333333
 30
0.0
  0
SEQEND
  5
458
  8
0
  6
CONTINUOUS
 62
     7
  0
LINE
  5
B3
  8
0
  6
CONTINUOUS
 62
     7
 10
-682.0833333333331
 20
166.3333333333333
 30
0.0
 11
-680.6333333333332
 21
166.3333333333333
 31
0.0
  0
LINE
  5
B4
  8
0
  6
CONTINUOUS
 62
     7
 10
-682.0833333333331
 20
165.3333333333333
 30
0.0
 11
-682.0833333333331
 21
166.3333333333333
 31
0.0
  0
ARC
  5
B5
  8
0
  6
CONTINUOUS
 62
     7
 10
-690.5833333333331
 20
58.33333333333329
 30
0.0
 40
5.000000000000115
 50
179.9999999999998
 51
270.0
  0
ARC
  5
B6
  8
0
  6
CONTINUOUS
 62
     7
 10
-690.5833333333331
 20
168.3333333333333
 30
0.0
 40
5.000000000000004
 50
90.0
 51
180.0
  0
ARC
  5
B7
  8
0
  6
CONTINUOUS
 62
     7
 10
-516.0833333333333
 20
168.3333333333333
 30
0.0
 40
5.000000000000115
 50
359.9999999999998
 51
90.0
  0
ARC
  5
B8
  8
0
  6
CONTINUOUS
 62
     7
 10
-516.0833333333333
 20
58.33333333333329
 30
0.0
 40
4.999999999999997
 50
270.0
 51
0.0
  0
CIRCLE
  5
B9
  8
0
  6
CONTINUOUS
 62
     7
 10
-557.3333333333331
 20
71.58333333333327
 30
0.0
 40
1.649999999999929
  0
CIRCLE
  5
BA
  8
0
  6
CONTINUOUS
 62
     7
 10
-603.3333333333331
 20
71.58333333333327
 30
0.0
 40
1.65000000000004
  0
CIRCLE
  5
BB
  8
0
  6
CONTINUOUS
 62
     7
 10
-649.3333333333331
 20
71.58333333333327
 30
0.0
 40
1.65000000000004
  0
CIRCLE
  5
BC
  8
0
  6
CONTINUOUS
 62
     7
 10
-557.3333333333331
 20
155.0833333333333
 30
0.0
 40
1.649999999999929
  0
CIRCLE
  5
BD
  8
0
  6
CONTINUOUS
 62
     7
 10
-603.3333333333331
 20
155.0833333333333
 30
0.0
 40
1.65000000000004
  0
CIRCLE
  5
BE
  8
0
  6
CONTINUOUS
 62
     7
 10
-649.3333333333331
 20
155.0833333333333
 30
0.0
 40
1.65000000000004
  0
LINE
  5
BF
  8
0
  6
CONTINUOUS
 62
     7
 10
-552.8333333333331
 20
70.83333333333329
 30
0.0
 11
-552.8333333333331
 21
71.58333333333327
 31
0.0
  0
ARC
  5
C0
  8
0
  6
CONTINUOUS
 62
     7
 10
-549.3333333333333
 20
70.83333333333329
 30
0.0
 40
3.500000000000003
 50
180.0
 51
270.0000000000001
  0
LINE
  5
C1
  8
0
  6
CONTINUOUS
 62
     7
 10
-533.3333333333333
 20
67.33333333333329
 30
0.0
 11
-549.3333333333331
 21
67.33333333333329
 31
0.0
  0
ARC
  5
C2
  8
0
  6
CONTINUOUS
 62
     7
 10
-533.3333333333333
 20
70.83333333333329
 30
0.0
 40
3.500000000000059
 50
270.0
 51
359.9999999999998
  0
LINE
  5
C3
  8
0
  6
CONTINUOUS
 62
     7
 10
-529.8333333333331
 20
155.8333333333333
 30
0.0
 11
-529.8333333333331
 21
70.83333333333329
 31
0.0
  0
ARC
  5
C4
  8
0
  6
CONTINUOUS
 62
     7
 10
-533.3333333333333
 20
155.8333333333333
 30
0.0
 40
3.500000000000003
 50
0.0
 51
90.0
  0
LINE
  5
C5
  8
0
  6
CONTINUOUS
 62
     7
 10
-549.3333333333331
 20
159.3333333333333
 30
0.0
 11
-533.3333333333333
 21
159.3333333333333
 31
0.0
  0
ARC
  5
C6
  8
0
  6
CONTINUOUS
 62
     7
 10
-549.3333333333333
 20
155.8333333333333
 30
0.0
 40
3.499999999999948
 50
89.9999999999999
 51
180.0
  0
LINE
  5
C7
  8
0
  6
CONTINUOUS
 62
     7
 10
-552.8333333333331
 20
155.0833333333333
 30
0.0
 11
-552.8333333333331
 21
155.8333333333333
 31
0.0
  0
ARC
  5
C8
  8
0
  6
CONTINUOUS
 62
     7
 10
-557.3333333333331
 20
155.0833333333333
 30
0.0
 40
4.50000000000006
 50
179.9999999999999
 51
0.0000000000001137
  0
LINE
  5
C9
  8
0
  6
CONTINUOUS
 62
     7
 10
-561.8333333333331
 20
155.8333333333333
 30
0.0
 11
-561.8333333333331
 21
155.0833333333333
 31
0.0
  0
ARC
  5
CA
  8
0
  6
CONTINUOUS
 62
     7
 10
-565.3333333333331
 20
155.8333333333333
 30
0.0
 40
3.500000000000003
 50
0.0000000000002274
 51
90.0
  0
LINE
  5
CB
  8
0
  6
CONTINUOUS
 62
     7
 10
-595.3333333333331
 20
159.3333333333333
 30
0.0
 11
-565.3333333333331
 21
159.3333333333333
 31
0.0
  0
ARC
  5
CC
  8
0
  6
CONTINUOUS
 62
     7
 10
-595.3333333333331
 20
155.8333333333333
 30
0.0
 40
3.500000000000059
 50
90.00000000000011
 51
180.0
  0
LINE
  5
CD
  8
0
  6
CONTINUOUS
 62
     7
 10
-598.8333333333331
 20
155.0833333333333
 30
0.0
 11
-598.8333333333333
 21
155.8333333333333
 31
0.0
  0
ARC
  5
CE
  8
0
  6
CONTINUOUS
 62
     7
 10
-603.3333333333331
 20
155.0833333333333
 30
0.0
 40
4.499999999999948
 50
179.9999999999999
 51
0.0000000000001137
  0
LINE
  5
CF
  8
0
  6
CONTINUOUS
 62
     7
 10
-607.8333333333331
 20
155.8333333333333
 30
0.0
 11
-607.8333333333331
 21
155.0833333333333
 31
0.0
  0
ARC
  5
D0
  8
0
  6
CONTINUOUS
 62
     7
 10
-611.3333333333331
 20
155.8333333333333
 30
0.0
 40
3.500000000000003
 50
0.0
 51
89.9999999999999
  0
LINE
  5
D1
  8
0
  6
CONTINUOUS
 62
     7
 10
-641.3333333333331
 20
159.3333333333333
 30
0.0
 11
-611.3333333333331
 21
159.3333333333333
 31
0.0
  0
ARC
  5
D2
  8
0
  6
CONTINUOUS
 62
     7
 10
-641.3333333333331
 20
155.8333333333333
 30
0.0
 40
3.499999999999948
 50
90.0
 51
179.9999999999998
  0
LINE
  5
D3
  8
0
  6
CONTINUOUS
 62
     7
 10
-644.8333333333331
 20
155.0833333333333
 30
0.0
 11
-644.8333333333331
 21
155.8333333333333
 31
0.0
  0
ARC
  5
D4
  8
0
  6
CONTINUOUS
 62
     7
 10
-649.3333333333331
 20
155.0833333333333
 30
0.0
 40
4.499999999999948
 50
179.9999999999999
 51
0.0
  0
LINE
  5
D5
  8
0
  6
CONTINUOUS
 62
     7
 10
-653.8333333333331
 20
155.8333333333333
 30
0.0
 11
-653.8333333333331
 21
155.0833333333333
 31
0.0
  0
ARC
  5
D6
  8
0
  6
CONTINUOUS
 62
     7
 10
-657.3333333333331
 20
155.8333333333333
 30
0.0
 40
3.500000000000003
 50
0.0
 51
90.00000000000011
  0
LINE
  5
D7
  8
0
  6
CONTINUOUS
 62
     7
 10
-673.3333333333331
 20
159.3333333333333
 30
0.0
 11
-657.3333333333331
 21
159.3333333333333
 31
0.0
  0
ARC
  5
D8
  8
0
  6
CONTINUOUS
 62
     7
 10
-673.3333333333331
 20
155.8333333333333
 30
0.0
 40
3.500000000000059
 50
90.0
 51
179.9999999999999
  0
LINE
  5
D9
  8
0
  6
CONTINUOUS
 62
     7
 10
-676.8333333333331
 20
70.83333333333327
 30
0.0
 11
-676.8333333333331
 21
155.8333333333333
 31
0.0
  0
ARC
  5
DA
  8
0
  6
CONTINUOUS
 62
     7
 10
-673.3333333333331
 20
70.83333333333329
 30
0.0
 40
3.500000000000003
 50
180.0000000000001
 51
270.0
  0
LINE
  5
DB
  8
0
  6
CONTINUOUS
 62
     7
 10
-657.3333333333331
 20
67.33333333333329
 30
0.0
 11
-673.3333333333331
 21
67.33333333333329
 31
0.0
  0
ARC
  5
DC
  8
0
  6
CONTINUOUS
 62
     7
 10
-657.3333333333331
 20
70.83333333333329
 30
0.0
 40
3.499999999999948
 50
269.9999999999999
 51
0.0
  0
LINE
  5
DD
  8
0
  6
CONTINUOUS
 62
     7
 10
-653.8333333333331
 20
71.58333333333327
 30
0.0
 11
-653.8333333333331
 21
70.83333333333329
 31
0.0
  0
ARC
  5
DE
  8
0
  6
CONTINUOUS
 62
     7
 10
-649.3333333333331
 20
71.58333333333327
 30
0.0
 40
4.50000000000006
 50
359.9999999999998
 51
180.0
  0
LINE
  5
DF
  8
0
  6
CONTINUOUS
 62
     7
 10
-644.8333333333331
 20
70.83333333333327
 30
0.0
 11
-644.8333333333331
 21
71.58333333333327
 31
0.0
  0
ARC
  5
E0
  8
0
  6
CONTINUOUS
 62
     7
 10
-641.3333333333331
 20
70.83333333333329
 30
0.0
 40
3.500000000000003
 50
180.0000000000002
 51
270.0
  0
LINE
  5
E1
  8
0
  6
CONTINUOUS
 62
     7
 10
-611.3333333333331
 20
67.33333333333329
 30
0.0
 11
-641.3333333333331
 21
67.33333333333329
 31
0.0
  0
ARC
  5
E2
  8
0
  6
CONTINUOUS
 62
     7
 10
-611.3333333333331
 20
70.83333333333329
 30
0.0
 40
3.500000000000059
 50
270.0000000000001
 51
0.0
  0
LINE
  5
E3
  8
0
  6
CONTINUOUS
 62
     7
 10
-607.8333333333333
 20
71.58333333333327
 30
0.0
 11
-607.8333333333331
 21
70.83333333333329
 31
0.0
  0
ARC
  5
E4
  8
0
  6
CONTINUOUS
 62
     7
 10
-603.3333333333331
 20
71.58333333333327
 30
0.0
 40
4.499999999999948
 50
0.0
 51
180.0000000000001
  0
LINE
  5
E5
  8
0
  6
CONTINUOUS
 62
     7
 10
-598.8333333333331
 20
70.83333333333329
 30
0.0
 11
-598.8333333333333
 21
71.58333333333327
 31
0.0
  0
ARC
  5
E6
  8
0
  6
CONTINUOUS
 62
     7
 10
-595.3333333333331
 20
70.83333333333329
 30
0.0
 40
3.500000000000003
 50
180.0
 51
269.9999999999999
  0
LINE
  5
E7
  8
0
  6
CONTINUOUS
 62
     7
 10
-565.3333333333331
 20
67.33333333333329
 30
0.0
 11
-595.3333333333331
 21
67.33333333333329
 31
0.0
  0
ARC
  5
E8
  8
0
  6
CONTINUOUS
 62
     7
 10
-565.3333333333331
 20
70.83333333333329
 30
0.0
 40
3.499999999999948
 50
270.0
 51
0.0
  0
LINE
  5
E9
  8
0
  6
CONTINUOUS
 62
     7
 10
-561.8333333333331
 20
71.58333333333327
 30
0.0
 11
-561.8333333333331
 21
70.83333333333329
 31
0.0
  0
ARC
  5
EA
  8
0
  6
CONTINUOUS
 62
     7
 10
-557.3333333333331
 20
71.58333333333327
 30
0.0
 40
4.499999999999948
 50
359.9999999999998
 51
180.0
  0
ARC
  5
EB
  8
0
  6
CONTINUOUS
 62
     7
 10
-581.3333333333331
 20
113.3333333333333
 30
0.0
 40
13.55000000000004
 50
188.4646373600733
 51
171.5353626399268
  0
ARC
  5
EC
  8
0
  6
CONTINUOUS
 62
     7
 10
-594.8833333333331
 20
113.3333333333333
 30
0.0
 40
1.99999999999999
 50
274.2323186800369
 51
85.76768131996312
  0
ARC
  5
ED
  8
0
  6
CONTINUOUS
 62
     7
 10
-614.4333333333332
 20
113.3333333333333
 30
0.0
 40
2.000000000000003
 50
95.26389541185326
 51
264.7361045881466
  0
ARC
  5
EE
  8
0
  6
CONTINUOUS
 62
     7
 10
-625.3333333333331
 20
113.3333333333333
 30
0.0
 40
10.89999999999998
 50
10.52779082370688
 51
349.4722091762931
  0
CIRCLE
  5
EF
  8
0
  6
CONTINUOUS
 62
     7
 10
-658.3333333333333
 20
143.3333333333333
 30
0.0
 40
3.000000000000003
  0
CIRCLE
  5
F0
  8
0
  6
CONTINUOUS
 62
     7
 10
-603.3333333333331
 20
145.3333333333333
 30
0.0
 40
1.750000000000029
  0
CIRCLE
  5
F1
  8
0
  6
CONTINUOUS
 62
     7
 10
-548.3333333333331
 20
143.3333333333333
 30
0.0
 40
3.000000000000003
  0
CIRCLE
  5
F2
  8
0
  6
CONTINUOUS
 62
     7
 10
-658.3333333333333
 20
83.33333333333329
 30
0.0
 40
3.000000000000003
  0
CIRCLE
  5
F3
  8
0
  6
CONTINUOUS
 62
     7
 10
-548.3333333333331
 20
83.33333333333329
 30
0.0
 40
3.000000000000003
  0
LINE
  5
F4
  8
0
  6
CONTINUOUS
 62
     7
 10
-509.0833333333331
 20
54.33333333333322
 30
0.0
 11
-486.0833333333331
 21
54.33333333333321
 31
0.0
  0
LINE
  5
F5
  8
0
  6
CONTINUOUS
 62
     7
 10
-486.0833333333331
 20
52.32333333333322
 30
0.0
 11
-509.0833333333331
 21
52.32333333333322
 31
0.0
  0
LINE
  5
F6
  8
0
  6
CONTINUOUS
 62
     7
 10
-486.0833333333331
 20
54.33333333333321
 30
0.0
 11
-486.0833333333331
 21
52.32333333333322
 31
0.0
  0
LINE
  5
F7
  8
0
  6
CONTINUOUS
 62
     7
 10
-509.0833333333331
 20
52.32333333333322
 30
0.0
 11
-509.0833333333331
 21
54.33333333333322
 31
0.0
  0
LINE
  5
F8
  8
0
  6
CONTINUOUS
 62
     7
 10
-697.5833333333333
 20
54.33333333333322
 30
0.0
 11
-720.5833333333333
 21
54.33333333333321
 31
0.0
  0
LINE
  5
F9
  8
0
  6
CONTINUOUS
 62
     7
 10
-720.5833333333333
 20
52.32333333333322
 30
0.0
 11
-697.5833333333333
 21
52.32333333333322
 31
0.0
  0
LINE
  5
FA
  8
0
  6
CONTINUOUS
 62
     7
 10
-720.5833333333333
 20
54.33333333333321
 30
0.0
 11
-720.5833333333333
 21
52.32333333333322
 31
0.0
  0
LINE
  5
FB
  8
0
  6
CONTINUOUS
 62
     7
 10
-697.5833333333333
 20
52.32333333333322
 30
0.0
 11
-697.5833333333333
 21
54.33333333333322
 31
0.0
  0
LINE
  5
FC
  8
0
  6
CONTINUOUS
 62
     7
 10
-509.0833333333331
 20
172.3333333333333
 30
0.0
 11
-486.0833333333331
 21
172.3333333333334
 31
0.0
  0
LINE
  5
FD
  8
0
  6
CONTINUOUS
 62
     7
 10
-486.0833333333331
 20
174.3433333333333
 30
0.0
 11
-509.0833333333331
 21
174.3433333333333
 31
0.0
  0
LINE
  5
FE
  8
0
  6
CONTINUOUS
 62
     7
 10
-486.0833333333331
 20
172.3333333333334
 30
0.0
 11
-486.0833333333331
 21
174.3433333333333
 31
0.0
  0
LINE
  5
FF
  8
0
  6
CONTINUOUS
 62
     7
 10
-509.0833333333331
 20
174.3433333333333
 30
0.0
 11
-509.0833333333331
 21
172.3333333333333
 31
0.0
  0
LINE
  5
100
  8
0
  6
CONTINUOUS
 62
     7
 10
-720.5833333333333
 20
174.3433333333333
 30
0.0
 11
-697.5833333333333
 21
174.3433333333333
 31
0.0
  0
LINE
  5
101
  8
0
  6
CONTINUOUS
 62
     7
 10
-720.5833333333333
 20
172.3333333333334
 30
0.0
 11
-720.5833333333333
 21
174.3433333333333
 31
0.0
  0
LINE
  5
102
  8
0
  6
CONTINUOUS
 62
     7
 10
-697.5833333333333
 20
172.3333333333333
 30
0.0
 11
-720.5833333333333
 21
172.3333333333334
 31
0.0
  0
LINE
  5
103
  8
0
  6
CONTINUOUS
 62
     7
 10
-697.5833333333333
 20
174.3433333333333
 30
0.0
 11
-697.5833333333333
 21
172.3333333333333
 31
0.0
  0
LINE
  5
104
  8
0
  6
CONTINUOUS
 62
     7
 10
-511.0933333333332
 20
53.32333333333327
 30
0.0
 11
-511.0833333333331
 21
53.32333333333328
 31
0.0
  0
LINE
  5
105
  8
0
  6
CONTINUOUS
 62
     9
 10
-511.0833333333332
 20
51.33333333333329
 30
0.0
 11
-695.5833333333331
 21
51.33333333333329
 31
0.0
  0
LINE
  5
106
  8
0
  6
CONTINUOUS
 62
     7
 10
-695.5833333333331
 20
53.32333333333327
 30
0.0
 11
-695.5733333333332
 21
53.32333333333327
 31
0.0
  0
LINE
  5
107
  8
0
  6
CONTINUOUS
 62
     7
 10
-695.5733333333332
 20
53.32333333333327
 30
0.0
 11
-695.5733333333332
 21
53.33333333333329
 31
0.0
  0
LINE
  5
108
  8
0
  6
CONTINUOUS
 62
     7
 10
-695.5733333333332
 20
53.33333333333329
 30
0.0
 11
-511.0933333333332
 21
53.33333333333329
 31
0.0
  0
LINE
  5
109
  8
0
  6
CONTINUOUS
 62
     7
 10
-511.0933333333332
 20
53.33333333333329
 30
0.0
 11
-511.0933333333332
 21
53.32333333333327
 31
0.0
  0
LINE
  5
10A
  8
0
  6
CONTINUOUS
 62
     7
 10
-511.0833333333332
 20
173.3433333333333
 30
0.0
 11
-509.0833333333331
 21
173.3433333333333
 31
0.0
  0
LINE
  5
10B
  8
0
  6
CONTINUOUS
 62
     9
 10
-695.5833333333331
 20
175.3333333333333
 30
0.0
 11
-511.0833333333332
 21
175.3333333333333
 31
0.0
  0
LINE
  5
10C
  8
0
  6
CONTINUOUS
 62
     7
 10
-695.5833333333331
 20
173.3433333333333
 30
0.0
 11
-697.5833333333333
 21
173.3433333333333
 31
0.0
  0
LINE
  5
10D
  8
0
  6
CONTINUOUS
 62
     7
 10
-486.0833333333332
 20
174.3433333333333
 30
0.0
 11
-486.0833333333332
 21
198.3333333333333
 31
0.0
  0
LINE
  5
10E
  8
0
  6
CONTINUOUS
 62
     7
 10
-720.5833333333331
 20
174.3433333333333
 30
0.0
 11
-720.5833333333331
 21
198.3333333333333
 31
0.0
  0
LINE
  5
10F
  8
0
  6
CONTINUOUS
 62
     7
 10
-720.5833333333331
 20
198.3333333333333
 30
0.0
 11
-486.0833333333332
 21
198.3333333333333
 31
0.0
  0
LINE
  5
110
  8
0
  6
CONTINUOUS
 62
     7
 10
-695.5833333333331
 20
175.3333333333333
 30
0.0
 11
-695.5833333333331
 21
173.3433333333333
 31
0.0
  0
LINE
  5
111
  8
0
  6
CONTINUOUS
 62
     7
 10
-511.0833333333332
 20
175.3333333333333
 30
0.0
 11
-511.0833333333332
 21
173.3433333333333
 31
0.0
  0
LINE
  5
112
  8
0
  6
CONTINUOUS
 62
     7
 10
-511.0933333333332
 20
173.3433333333333
 30
0.0
 11
-511.0933333333332
 21
173.3333333333333
 31
0.0
  0
LINE
  5
113
  8
0
  6
CONTINUOUS
 62
     7
 10
-511.0933333333332
 20
173.3333333333333
 30
0.0
 11
-695.5733333333332
 21
173.3333333333333
 31
0.0
  0
LINE
  5
114
  8
0
  6
CONTINUOUS
 62
     7
 10
-695.5733333333332
 20
173.3333333333333
 30
0.0
 11
-695.5733333333332
 21
173.3433333333333
 31
0.0
  0
LINE
  5
115
  8
0
  6
CONTINUOUS
 62
     7
 10
-695.5733333333332
 20
173.3433333333333
 30
0.0
 11
-695.5833333333333
 21
173.3433333333333
 31
0.0
  0
LINE
  5
116
  8
0
  6
CONTINUOUS
 62
     7
 10
-511.0833333333332
 20
173.3433333333333
 30
0.0
 11
-511.0933333333332
 21
173.3433333333333
 31
0.0
  0
LINE
  5
117
  8
0
  6
CONTINUOUS
 62
     7
 10
-720.5833333333331
 20
52.32333333333322
 30
0.0
 11
-720.5833333333331
 21
28.33333333333329
 31
0.0
  0
LINE
  5
118
  8
0
  6
CONTINUOUS
 62
     7
 10
-720.5833333333331
 20
28.33333333333329
 30
0.0
 11
-486.0833333333332
 21
28.33333333333329
 31
0.0
  0
LINE
  5
119
  8
0
  6
CONTINUOUS
 62
     7
 10
-486.0833333333332
 20
52.32333333333322
 30
0.0
 11
-486.0833333333332
 21
28.33333333333329
 31
0.0
  0
LINE
  5
11A
  8
0
  6
CONTINUOUS
 62
     7
 10
-695.5833333333331
 20
51.33333333333329
 30
0.0
 11
-695.5833333333331
 21
53.32333333333327
 31
0.0
  0
LINE
  5
11B
  8
0
  6
CONTINUOUS
 62
     7
 10
-511.0833333333332
 20
51.33333333333329
 30
0.0
 11
-511.0833333333332
 21
53.32333333333327
 31
0.0
  0
LINE
  5
11C
  8
0
  6
CONTINUOUS
 62
     7
 10
-511.0833333333332
 20
53.32333333333327
 30
0.0
 11
-509.0833333333331
 21
53.32333333333327
 31
0.0
  0
LINE
  5
11D
  8
0
  6
CONTINUOUS
 62
     7
 10
-695.5833333333331
 20
53.32333333333327
 30
0.0
 11
-697.5833333333333
 21
53.32333333333327
 31
0.0
  0
LINE
  5
11E
  8
0
  6
CONTINUOUS
 62
     9
 10
-509.0833333333332
 20
172.3333333333333
 30
0.0
 11
-509.0833333333331
 21
54.33333333333324
 31
0.0
  0
LINE
  5
11F
  8
0
  6
CONTINUOUS
 62
     7
 10
-509.0833333333331
 20
53.33333333333329
 30
0.0
 11
-511.0833333333331
 21
53.33333333333329
 31
0.0
  0
LINE
  5
120
  8
0
  6
CONTINUOUS
 62
     7
 10
-511.0833333333331
 20
53.33333333333329
 30
0.0
 11
-511.0833333333331
 21
173.3333333333333
 31
0.0
  0
LINE
  5
121
  8
0
  6
CONTINUOUS
 62
     7
 10
-511.0833333333331
 20
173.3333333333333
 30
0.0
 11
-509.0833333333332
 21
173.3333333333333
 31
0.0
  0
LINE
  5
122
  8
0
  6
CONTINUOUS
 62
     7
 10
-486.0833333333332
 20
54.33333333333322
 30
0.0
 11
-486.0833333333332
 21
172.3333333333334
 31
0.0
  0
LINE
  5
123
  8
0
  6
CONTINUOUS
 62
     7
 10
-695.5833333333333
 20
173.3333333333333
 30
0.0
 11
-695.5833333333333
 21
53.33333333333329
 31
0.0
  0
LINE
  5
124
  8
0
  6
CONTINUOUS
 62
     9
 10
-697.5833333333333
 20
54.33333333333323
 30
0.0
 11
-697.5833333333333
 21
172.3333333333333
 31
0.0
  0
LINE
  5
125
  8
0
  6
CONTINUOUS
 62
     7
 10
-697.5833333333333
 20
173.3333333333333
 30
0.0
 11
-695.5833333333333
 21
173.3333333333333
 31
0.0
  0
LINE
  5
126
  8
0
  6
CONTINUOUS
 62
     7
 10
-695.5833333333333
 20
53.33333333333329
 30
0.0
 11
-697.5833333333333
 21
53.33333333333329
 31
0.0
  0
LINE
  5
127
  8
0
  6
CONTINUOUS
 62
     7
 10
-720.5833333333331
 20
54.33333333333322
 30
0.0
 11
-720.5833333333331
 21
172.3333333333334
 31
0.0
  0
LINE
  5
128
  8
0
  6
CONTINUOUS
 62
     7
 10
-695.5833333333333
 20
53.32333333333328
 30
0.0
 11
-695.5833333333333
 21
53.33333333333329
 31
0.0
  0
LINE
  5
129
  8
0
  6
CONTINUOUS
 62
     7
 10
-511.0833333333331
 20
173.3433333333333
 30
0.0
 11
-511.0833333333331
 21
173.3333333333333
 31
0.0
  0
LINE
  5
12A
  8
0
  6
CONTINUOUS
 62
     7
 10
-695.5833333333333
 20
173.3333333333333
 30
0.0
 11
-695.5833333333331
 21
173.3433333333333
 31
0.0
  0
LINE
  5
12B
  8
0
  6
CONTINUOUS
 62
     7
 10
-511.0833333333331
 20
53.33333333333329
 30
0.0
 11
-511.0833333333331
 21
53.32333333333328
 31
0.0
  0
ENDBLK
  8
0
  0
BLOCK
  8
0
  2
D_FRAME_VIEW_1776
 70
     0
 10
0.0
 20
0.0
 30
0.0
  0
LINE
  5
130
  8
0
  6
CONTINUOUS
 62
     7
 10
-456.455521775187
 20
166.3333333333333
 30
0.0
 11
-456.5167124455008
 21
166.7597870157371
 31
0.0
  0
LINE
  5
131
  8
0
  6
CONTINUOUS
 62
     7
 10
-456.5166666666664
 20
54.33333333333321
 30
0.0
 11
-456.5166666666664
 21
53.33333333333329
 31
0.0
  0
LINE
  5
132
  8
0
  6
CONTINUOUS
 62
     7
 10
-456.5166666666664
 20
53.32333333333327
 30
0.0
 11
-456.5166666666664
 21
52.32333333333322
 31
0.0
  0
LINE
  5
133
  8
0
  6
CONTINUOUS
 62
     7
 10
-456.5166666666664
 20
172.3333333333334
 30
0.0
 11
-456.5166666666664
 21
173.3333333333333
 31
0.0
  0
LINE
  5
134
  8
0
  6
CONTINUOUS
 62
     7
 10
-456.5166666666664
 20
173.3333333333333
 30
0.0
 11
-456.5166666666664
 21
173.3433333333333
 31
0.0
  0
LINE
  5
135
  8
0
  6
CONTINUOUS
 62
     7
 10
-456.5166666666664
 20
173.3433333333333
 30
0.0
 11
-456.5166666666664
 21
174.3433333333333
 31
0.0
  0
LINE
  5
136
  8
0
  6
CONTINUOUS
 62
     7
 10
-456.5166666666664
 20
173.3433333333333
 30
0.0
 11
-456.5166666666664
 21
174.3433333333333
 31
0.0
  0
LINE
  5
137
  8
0
  6
CONTINUOUS
 62
     7
 10
-456.5166666666664
 20
174.3433333333333
 30
0.0
 11
-456.5166666666664
 21
198.3333333333333
 31
0.0
  0
LINE
  5
138
  8
0
  6
CONTINUOUS
 62
     7
 10
-456.5166666666664
 20
53.32333333333328
 30
0.0
 11
-456.5166666666664
 21
52.32333333333322
 31
0.0
  0
LINE
  5
139
  8
0
  6
CONTINUOUS
 62
     7
 10
-456.5166666666664
 20
52.32333333333322
 30
0.0
 11
-456.5166666666664
 21
28.33333333333329
 31
0.0
  0
LINE
  5
13A
  8
0
  6
CONTINUOUS
 62
     7
 10
-456.5166666666664
 20
53.33333333333329
 30
0.0
 11
-456.5166666666664
 21
54.33333333333323
 31
0.0
  0
LINE
  5
13B
  8
0
  6
CONTINUOUS
 62
     7
 10
-456.5166666666664
 20
54.33333333333323
 30
0.0
 11
-456.5166666666664
 21
172.3333333333333
 31
0.0
  0
LINE
  5
13C
  8
0
  6
CONTINUOUS
 62
     7
 10
-456.5166666666664
 20
172.3333333333333
 30
0.0
 11
-456.5166666666664
 21
173.3333333333333
 31
0.0
  0
LINE
  5
13D
  8
0
  6
CONTINUOUS
 62
     7
 10
-431.5166666666665
 20
77.34226475370001
 30
0.0
 11
-431.5166666666665
 21
77.3322583746024
 31
0.0
  0
ARC
  5
13E
  8
0
  6
CONTINUOUS
 62
     7
 10
-432.0166666666665
 20
91.33333333333324
 30
0.0
 40
14.01
 50
272.0452515821975
 51
357.9547484178025
  0
LINE
  5
13F
  8
0
  6
CONTINUOUS
 62
     7
 10
-418.0155917079356
 20
90.83333333333324
 30
0.0
 11
-418.0255980870332
 21
90.83333333333324
 31
0.0
  0
ARC
  5
140
  8
0
  6
CONTINUOUS
 62
     7
 10
-432.0166666666665
 20
91.33333333333324
 30
0.0
 40
14.0
 50
272.0467130976727
 51
357.9532869023273
  0
LINE
  5
141
  8
0
  6
CONTINUOUS
 62
     7
 10
-431.5166666666665
 20
105.3344082920641
 30
0.0
 11
-431.5166666666664
 21
105.3244019129665
 31
0.0
  0
ARC
  5
142
  8
0
  6
CONTINUOUS
 62
     7
 10
-432.0166666666664
 20
91.33333333333329
 30
0.0
 40
14.0
 50
2.04671309767258
 51
87.95328690232742
  0
LINE
  5
143
  8
0
  6
CONTINUOUS
 62
     7
 10
-418.0255980870332
 20
91.83333333333329
 30
0.0
 11
-418.0155917079356
 21
91.83333333333329
 31
0.0
  0
ARC
  5
144
  8
0
  6
CONTINUOUS
 62
     7
 10
-432.0166666666664
 20
91.33333333333329
 30
0.0
 40
14.00999999999997
 50
2.045251582197516
 51
87.95474841780253
  0
LINE
  5
145
  8
0
  6
CONTINUOUS
 62
     7
 10
-432.5166666666664
 20
77.33225837460245
 30
0.0
 11
-432.5166666666665
 21
77.34226475370006
 31
0.0
  0
ARC
  5
146
  8
0
  6
CONTINUOUS
 62
     7
 10
-432.0166666666664
 20
91.33333333333329
 30
0.0
 40
14.00000000000002
 50
92.04671309767241
 51
267.9532869023274
  0
LINE
  5
147
  8
0
  6
CONTINUOUS
 62
     7
 10
-432.5166666666665
 20
105.3244019129665
 30
0.0
 11
-432.5166666666664
 21
105.3344082920641
 31
0.0
  0
ARC
  5
148
  8
0
  6
CONTINUOUS
 62
     7
 10
-432.0166666666664
 20
91.33333333333329
 30
0.0
 40
14.01
 50
92.04525158219752
 51
267.9547484178025
  0
LINE
  5
149
  8
0
  6
CONTINUOUS
 62
     7
 10
-432.5166666666664
 20
121.3322583746024
 30
0.0
 11
-432.5166666666665
 21
121.3422647537001
 31
0.0
  0
ARC
  5
14A
  8
0
  6
CONTINUOUS
 62
     7
 10
-432.0166666666664
 20
135.3333333333333
 30
0.0
 40
14.00000000000001
 50
92.04671309767241
 51
267.9532869023274
  0
LINE
  5
14B
  8
0
  6
CONTINUOUS
 62
     7
 10
-432.5166666666664
 20
149.3244019129665
 30
0.0
 11
-432.5166666666664
 21
149.3344082920641
 31
0.0
  0
ARC
  5
14C
  8
0
  6
CONTINUOUS
 62
     7
 10
-432.0166666666664
 20
135.3333333333333
 30
0.0
 40
14.01
 50
92.04525158219754
 51
267.9547484178025
  0
LINE
  5
14D
  8
0
  6
CONTINUOUS
 62
     7
 10
-418.0155917079356
 20
134.8333333333333
 30
0.0
 11
-418.0255980870332
 21
134.8333333333333
 31
0.0
  0
ARC
  5
14E
  8
0
  6
CONTINUOUS
 62
     7
 10
-432.0166666666664
 20
135.3333333333333
 30
0.0
 40
14.0
 50
272.0467130976725
 51
357.9532869023273
  0
LINE
  5
14F
  8
0
  6
CONTINUOUS
 62
     7
 10
-431.5166666666665
 20
121.3422647537001
 30
0.0
 11
-431.5166666666665
 21
121.3322583746024
 31
0.0
  0
ARC
  5
150
  8
0
  6
CONTINUOUS
 62
     7
 10
-432.0166666666664
 20
135.3333333333333
 30
0.0
 40
14.01
 50
272.0452515821975
 51
357.9547484178025
  0
LINE
  5
151
  8
0
  6
CONTINUOUS
 62
     7
 10
-418.0255980870332
 20
135.8333333333333
 30
0.0
 11
-418.0155917079356
 21
135.8333333333333
 31
0.0
  0
ARC
  5
152
  8
0
  6
CONTINUOUS
 62
     7
 10
-432.0166666666665
 20
135.3333333333333
 30
0.0
 40
14.01000000000003
 50
2.045251582197475
 51
87.95474841780256
  0
LINE
  5
153
  8
0
  6
CONTINUOUS
 62
     7
 10
-431.5166666666665
 20
149.3344082920642
 30
0.0
 11
-431.5166666666665
 21
149.3244019129666
 31
0.0
  0
ARC
  5
154
  8
0
  6
CONTINUOUS
 62
     7
 10
-432.0166666666665
 20
135.3333333333333
 30
0.0
 40
13.99999999999998
 50
2.046713097672637
 51
87.95328690232748
  0
LINE
  5
155
  8
0
  6
CONTINUOUS
 62
     7
 10
-454.4166666666665
 20
173.3333333333333
 30
0.0
 11
-454.5166666666664
 21
173.3333333333333
 31
0.0
  0
ENDBLK
  8
0
  0
BLOCK
  8
0
  2
D_FRAME_VIEW_1850
 70
     0
 10
0.0
 20
0.0
 30
0.0
  0
LINE
  5
15A
  8
0
  6
CONTINUOUS
 62
     7
 10
-526.4067083085504
 20
3.183361585018082
 30
0.0
 11
-526.8333333333331
 21
3.122188441853812
 31
0.0
  0
LINE
  5
15B
  8
0
  6
CONTINUOUS
 62
     7
 10
-678.8333333333331
 20
3.122188441853819
 30
0.0
 11
-678.4068796509292
 21
3.183379112167668
 31
0.0
  0
LINE
  5
15C
  8
0
  6
CONTINUOUS
 62
     7
 10
-720.5833333333331
 20
3.183333333333291
 30
0.0
 11
-486.0833333333332
 21
3.183333333333291
 31
0.0
  0
LINE
  5
15D
  8
0
  6
CONTINUOUS
 62
     7
 10
-617.3244019129664
 20
-21.81666666666671
 30
0.0
 11
-617.3344082920639
 21
-21.81666666666671
 31
0.0
  0
ARC
  5
15E
  8
0
  6
CONTINUOUS
 62
     7
 10
-603.3333333333331
 20
-21.31666666666671
 30
0.0
 40
14.00999999999997
 50
182.0452515821975
 51
267.9547484178025
  0
LINE
  5
15F
  8
0
  6
CONTINUOUS
 62
     7
 10
-603.8333333333333
 20
-35.31774162539755
 30
0.0
 11
-603.8333333333331
 21
-35.30773524629993
 31
0.0
  0
ARC
  5
160
  8
0
  6
CONTINUOUS
 62
     7
 10
-603.3333333333331
 20
-21.31666666666671
 30
0.0
 40
14.0
 50
182.0467130976726
 51
267.9532869023274
  0
LINE
  5
161
  8
0
  6
CONTINUOUS
 62
     7
 10
-589.3422647536999
 20
-20.81666666666671
 30
0.0
 11
-589.3322583746024
 21
-20.81666666666671
 31
0.0
  0
ARC
  5
162
  8
0
  6
CONTINUOUS
 62
     7
 10
-603.3333333333331
 20
-21.31666666666671
 30
0.0
 40
14.00999999999997
 50
2.045251582197502
 51
177.9547484178024
  0
LINE
  5
163
  8
0
  6
CONTINUOUS
 62
     7
 10
-617.3344082920639
 20
-20.81666666666671
 30
0.0
 11
-617.3244019129664
 21
-20.81666666666671
 31
0.0
  0
ARC
  5
164
  8
0
  6
CONTINUOUS
 62
     7
 10
-603.3333333333331
 20
-21.31666666666671
 30
0.0
 40
13.99999999999995
 50
2.046713097672523
 51
177.9532869023274
  0
ARC
  5
165
  8
0
  6
CONTINUOUS
 62
     7
 10
-647.3333333333331
 20
-21.31666666666672
 30
0.0
 40
14.00999999999999
 50
272.0452515821975
 51
357.9547484178025
  0
LINE
  5
166
  8
0
  6
CONTINUOUS
 62
     7
 10
-633.3322583746024
 20
-21.81666666666671
 30
0.0
 11
-633.3422647537
 21
-21.81666666666671
 31
0.0
  0
ARC
  5
167
  8
0
  6
CONTINUOUS
 62
     7
 10
-647.3333333333331
 20
-21.31666666666672
 30
0.0
 40
14.00000000000006
 50
272.0467130976727
 51
357.9532869023273
  0
LINE
  5
168
  8
0
  6
CONTINUOUS
 62
     7
 10
-646.8333333333331
 20
-35.30773524629993
 30
0.0
 11
-646.8333333333331
 21
-35.31774162539755
 31
0.0
  0
LINE
  5
169
  8
0
  6
CONTINUOUS
 62
     7
 10
-647.8333333333331
 20
-35.31774162539756
 30
0.0
 11
-647.8333333333331
 21
-35.30773524629993
 31
0.0
  0
ARC
  5
16A
  8
0
  6
CONTINUOUS
 62
     7
 10
-647.3333333333331
 20
-21.31666666666672
 30
0.0
 40
14.0
 50
182.0467130976725
 51
267.9532869023274
  0
LINE
  5
16B
  8
0
  6
CONTINUOUS
 62
     7
 10
-661.3244019129663
 20
-21.81666666666671
 30
0.0
 11
-661.334408292064
 21
-21.81666666666671
 31
0.0
  0
ARC
  5
16C
  8
0
  6
CONTINUOUS
 62
     7
 10
-647.3333333333331
 20
-21.31666666666672
 30
0.0
 40
14.00999999999997
 50
182.0452515821975
 51
267.9547484178025
  0
LINE
  5
16D
  8
0
  6
CONTINUOUS
 62
     7
 10
-633.3422647537
 20
-20.8166666666667
 30
0.0
 11
-633.3322583746022
 21
-20.8166666666667
 31
0.0
  0
ARC
  5
16E
  8
0
  6
CONTINUOUS
 62
     7
 10
-647.3333333333331
 20
-21.31666666666671
 30
0.0
 40
14.01000000000008
 50
2.045251582197531
 51
177.9547484178024
  0
LINE
  5
16F
  8
0
  6
CONTINUOUS
 62
     7
 10
-661.334408292064
 20
-20.8166666666667
 30
0.0
 11
-661.3244019129663
 21
-20.8166666666667
 31
0.0
  0
ARC
  5
170
  8
0
  6
CONTINUOUS
 62
     7
 10
-647.3333333333331
 20
-21.31666666666671
 30
0.0
 40
13.99999999999995
 50
2.046713097672523
 51
177.9532869023274
  0
LINE
  5
171
  8
0
  6
CONTINUOUS
 62
     7
 10
-545.3422647537
 20
-20.8166666666667
 30
0.0
 11
-545.3322583746022
 21
-20.8166666666667
 31
0.0
  0
ARC
  5
172
  8
0
  6
CONTINUOUS
 62
     7
 10
-559.3333333333331
 20
-21.31666666666671
 30
0.0
 40
14.00999999999997
 50
2.045251582197531
 51
177.9547484178025
  0
LINE
  5
173
  8
0
  6
CONTINUOUS
 62
     7
 10
-573.334408292064
 20
-20.8166666666667
 30
0.0
 11
-573.3244019129664
 21
-20.8166666666667
 31
0.0
  0
ARC
  5
174
  8
0
  6
CONTINUOUS
 62
     7
 10
-559.3333333333331
 20
-21.31666666666671
 30
0.0
 40
14.00000000000006
 50
2.046713097672523
 51
177.9532869023274
  0
LINE
  5
175
  8
0
  6
CONTINUOUS
 62
     7
 10
-545.3322583746022
 20
-21.81666666666671
 30
0.0
 11
-545.3422647537
 21
-21.81666666666671
 31
0.0
  0
ARC
  5
176
  8
0
  6
CONTINUOUS
 62
     7
 10
-559.3333333333331
 20
-21.31666666666672
 30
0.0
 40
13.99999999999995
 50
272.0467130976725
 51
357.9532869023273
  0
LINE
  5
177
  8
0
  6
CONTINUOUS
 62
     7
 10
-558.8333333333331
 20
-35.30773524629993
 30
0.0
 11
-558.8333333333331
 21
-35.31774162539756
 31
0.0
  0
ARC
  5
178
  8
0
  6
CONTINUOUS
 62
     7
 10
-559.3333333333331
 20
-21.31666666666672
 30
0.0
 40
14.00999999999999
 50
272.0452515821975
 51
357.9547484178025
  0
LINE
  5
179
  8
0
  6
CONTINUOUS
 62
     7
 10
-573.3244019129664
 20
-21.81666666666671
 30
0.0
 11
-573.3344082920639
 21
-21.81666666666671
 31
0.0
  0
ARC
  5
17A
  8
0
  6
CONTINUOUS
 62
     7
 10
-559.3333333333331
 20
-21.31666666666672
 30
0.0
 40
14.00999999999997
 50
182.0452515821975
 51
267.9547484178026
  0
LINE
  5
17B
  8
0
  6
CONTINUOUS
 62
     7
 10
-559.8333333333331
 20
-35.31774162539755
 30
0.0
 11
-559.8333333333331
 21
-35.30773524629993
 31
0.0
  0
LINE
  5
17C
  8
0
  6
CONTINUOUS
 62
     7
 10
-602.8333333333331
 20
-35.30773524629993
 30
0.0
 11
-602.8333333333333
 21
-35.31774162539755
 31
0.0
  0
ARC
  5
17D
  8
0
  6
CONTINUOUS
 62
     7
 10
-603.3333333333331
 20
-21.31666666666671
 30
0.0
 40
14.01
 50
272.0452515821975
 51
357.9547484178025
  0
LINE
  5
17E
  8
0
  6
CONTINUOUS
 62
     7
 10
-589.3322583746024
 20
-21.81666666666671
 30
0.0
 11
-589.3422647537
 21
-21.81666666666671
 31
0.0
  0
ARC
  5
17F
  8
0
  6
CONTINUOUS
 62
     7
 10
-603.3333333333331
 20
-21.31666666666671
 30
0.0
 40
13.99999999999995
 50
272.0467130976727
 51
357.9532869023273
  0
ARC
  5
180
  8
0
  6
CONTINUOUS
 62
     7
 10
-559.3333333333331
 20
-21.31666666666672
 30
0.0
 40
13.99999999999999
 50
182.0467130976726
 51
267.9532869023274
  0
ENDBLK
  8
0
  0
ENDSEC
  0
SECTION
  2
ENTITIES
  0
INSERT
  5
12C
  8
0
  6
CONTINUOUS
 62
     7
  2
D_FRAME_VIEW_1330
 10
0.0
 20
0.0
 30
0.0
  0
INSERT
  5
156
  8
0
  6
CONTINUOUS
 62
     7
  2
D_FRAME_VIEW_1776
 10
0.0
 20
0.0
 30
0.0
  0
INSERT
  5
181
  8
0
  6
CONTINUOUS
 62
     7
  2
D_FRAME_VIEW_1850
 10
0.0
 20
0.0
 30
0.0
  0
LINE
  5
182
  8
0
  6
CONTINUOUS
 62
     7
 10
-453.5166666666664
 20
173.3333333333333
 30
0.0
 11
-456.5166666666664
 21
173.3333333333333
 31
0.0
  0
LINE
  5
183
  8
0
  6
CONTINUOUS
 62
     7
 10
-697.5933333333331
 20
-45.81666666666671
 30
0.0
 11
-699.5933333333331
 21
-45.81666666666671
 31
0.0
  0
LINE
  5
184
  8
0
  6
CONTINUOUS
 62
     7
 10
-695.5733333333332
 20
0.0833333333332313
 30
0.0
 11
-695.5733333333332
 21
0.1833333333332897
 31
0.0
  0
LINE
  5
185
  8
0
  6
CONTINUOUS
 62
     7
 10
-405.5166666666665
 20
173.3333333333333
 30
0.0
 11
-405.5166666666665
 21
53.33333333333329
 31
0.0
  0
LINE
  5
186
  8
0
  6
CONTINUOUS
 62
     7
 10
-453.5166666666664
 20
175.3333333333333
 30
0.0
 11
-407.5166666666665
 21
175.3333333333333
 31
0.0
  0
LINE
  5
187
  8
0
  6
CONTINUOUS
 62
     7
 10
-453.5166666666664
 20
173.3433333333333
 30
0.0
 11
-453.5166666666664
 21
198.3333333333333
 31
0.0
  0
LINE
  5
188
  8
0
  6
CONTINUOUS
 62
     7
 10
-511.0833333333331
 20
-47.81666666666671
 30
0.0
 11
-695.5833333333333
 21
-47.81666666666671
 31
0.0
  0
LINE
  5
189
  8
0
  6
CONTINUOUS
 62
     7
 10
-720.5833333333331
 20
3.183333333333291
 30
0.0
 11
-720.5833333333331
 21
0.1833333333332897
 31
0.0
  0
LINE
  5
18A
  8
0
  6
CONTINUOUS
 62
     7
 10
-511.0833333333331
 20
-45.81666666666671
 30
0.0
 11
-511.0833333333331
 21
-47.81666666666671
 31
0.0
  0
LINE
  5
18B
  8
0
  6
CONTINUOUS
 62
     7
 10
-695.5833333333333
 20
-45.81666666666671
 30
0.0
 11
-697.5933333333331
 21
-45.81666666666671
 31
0.0
  0
LINE
  5
18C
  8
0
  6
CONTINUOUS
 62
     7
 10
-507.0733333333332
 20
-45.81666666666671
 30
0.0
 11
-509.0733333333332
 21
-45.81666666666671
 31
0.0
  0
LINE
  5
18D
  8
0
  6
CONTINUOUS
 62
     7
 10
-511.0833333333331
 20
-45.81666666666671
 30
0.0
 11
-509.0733333333332
 21
-45.81666666666671
 31
0.0
  0
LINE
  5
18E
  8
0
  6
CONTINUOUS
 62
     7
 10
-697.5833333333333
 20
0.0833333333332869
 30
0.0
 11
-697.5833333333333
 21
0.1833333333332897
 31
0.0
  0
LINE
  5
18F
  8
0
  6
CONTINUOUS
 62
     7
 10
-509.0733333333332
 20
0.0833333333332869
 30
0.0
 11
-507.0733333333332
 21
0.0833333333332869
 31
0.0
  0
LINE
  5
190
  8
0
  6
CONTINUOUS
 62
     7
 10
-695.5833333333333
 20
-47.81666666666671
 30
0.0
 11
-695.5833333333333
 21
-45.81666666666671
 31
0.0
  0
ARC
  5
191
  8
0
  6
CONTINUOUS
 62
     7
 10
-407.5166666666665
 20
53.33333333333329
 30
0.0
 40
2.000000000000002
 50
270.0
 51
0.0
  0
ARC
  5
192
  8
0
  6
CONTINUOUS
 62
     7
 10
-407.5166666666665
 20
173.3333333333333
 30
0.0
 40
2.000000000000002
 50
0.0
 51
90.0
  0
LINE
  5
193
  8
0
  6
CONTINUOUS
 62
     7
 10
-453.5166666666664
 20
53.33333333333329
 30
0.0
 11
-453.5166666666664
 21
173.3333333333333
 31
0.0
  0
LINE
  5
194
  8
0
  6
CONTINUOUS
 62
     7
 10
-453.5166666666664
 20
53.32333333333328
 30
0.0
 11
-453.5166666666664
 21
28.33333333333329
 31
0.0
  0
LINE
  5
195
  8
0
  6
CONTINUOUS
 62
     7
 10
-456.5166666666664
 20
198.3333333333333
 30
0.0
 11
-453.5166666666664
 21
198.3333333333333
 31
0.0
  0
LINE
  5
196
  8
0
  6
CONTINUOUS
 62
     7
 10
-407.5166666666665
 20
51.33333333333329
 30
0.0
 11
-453.5166666666664
 21
51.33333333333329
 31
0.0
  0
LINE
  5
197
  8
0
  6
CONTINUOUS
 62
     7
 10
-453.4166666666665
 20
53.33333333333329
 30
0.0
 11
-456.5166666666664
 21
53.33333333333329
 31
0.0
  0
LINE
  5
198
  8
0
  6
CONTINUOUS
 62
     7
 10
-695.5733333333332
 20
0.0833333333332313
 30
0.0
 11
-697.5933333333331
 21
0.0833333333332869
 31
0.0
  0
LINE
  5
199
  8
0
  6
CONTINUOUS
 62
     7
 10
-511.0933333333332
 20
0.0833333333332869
 30
0.0
 11
-509.0733333333332
 21
0.0833333333332869
 31
0.0
  0
LINE
  5
19A
  8
0
  6
CONTINUOUS
 62
     7
 10
-699.5933333333331
 20
0.0833333333332869
 30
0.0
 11
-697.5933333333331
 21
0.0833333333332869
 31
0.0
  0
LINE
  5
19B
  8
0
  6
CONTINUOUS
 62
     7
 10
-453.4166666666665
 20
173.3333333333333
 30
0.0
 11
-453.4166666666665
 21
175.3333333333333
 31
0.0
  0
ARC
  5
19C
  8
0
  6
CONTINUOUS
 62
     7
 10
-695.5833333333333
 20
-45.81666666666671
 30
0.0
 40
2.000000000000002
 50
180.0
 51
270.0
  0
LINE
  5
19D
  8
0
  6
CONTINUOUS
 62
     7
 10
-720.5833333333331
 20
0.1833333333332897
 30
0.0
 11
-486.0833333333332
 21
0.1833333333332897
 31
0.0
  0
LINE
  5
19E
  8
0
  6
CONTINUOUS
 62
     7
 10
-456.5166666666664
 20
28.33333333333329
 30
0.0
 11
-453.5166666666664
 21
28.33333333333329
 31
0.0
  0
LINE
  5
19F
  8
0
  6
CONTINUOUS
 62
     7
 10
-453.4166666666665
 20
51.33333333333329
 30
0.0
 11
-453.4166666666665
 21
53.33333333333329
 31
0.0
  0
ARC
  5
1A0
  8
0
  6
CONTINUOUS
 62
     7
 10
-511.0833333333332
 20
-45.81666666666671
 30
0.0
 40
2.000000000000002
 50
270.0
 51
359.9999999999996
  0
LINE
  5
1A1
  8
0
  6
CONTINUOUS
 62
     7
 10
-486.0833333333332
 20
3.183333333333291
 30
0.0
 11
-486.0833333333332
 21
0.1833333333332897
 31
0.0
  0
LINE
  5
1A2
  8
0
  6
CONTINUOUS
 62
     7
 10
-695.5833333333333
 20
0.0833333333333007
 30
0.0
 11
-695.5833333333333
 21
0.1833333333332203
 31
0.0
  0
LINE
  5
1A3
  8
0
  6
CONTINUOUS
 62
     7
 10
-511.0833333333331
 20
0.0833333333332869
 30
0.0
 11
-511.0833333333331
 21
0.1833333333332203
 31
0.0
  0
LINE
  5
1A4
  8
0
  6
CONTINUOUS
 62
     7
 10
-509.0833333333331
 20
0.0833333333333007
 30
0.0
 11
-509.0833333333331
 21
0.1833333333332897
 31
0.0
  0
LINE
  5
1A5
  8
0
  6
CONTINUOUS
 62
     7
 10
-511.0933333333332
 20
0.0833333333332869
 30
0.0
 11
-511.0933333333332
 21
0.1833333333332897
 31
0.0
  0
LINE
  5
1A6
  8
0
  6
CONTINUOUS
 62
     7
 10
-507.0733333333332
 20
0.1833333333332897
 30
0.0
 11
-507.0733333333332
 21
-45.81666666666671
 31
0.0
  0
LINE
  5
1A7
  8
0
  6
CONTINUOUS
 62
     7
 10
-699.5933333333331
 20
-45.81666666666671
 30
0.0
 11
-699.5933333333331
 21
0.1833333333332923
 31
0.0
  0
LINE
  5
1A8
  8
0
  6
CENTER
 62
     1
 10
-448.0166666666664
 20
135.3333333333333
 30
0.0
 11
-416.0166666666664
 21
135.3333333333333
 31
0.0
  0
LINE
  5
1AA
  8
0
  6
CENTER
 62
     1
 10
-553.3333333333331
 20
83.33333333333329
 30
0.0
 11
-543.3333333333331
 21
83.33333333333329
 31
0.0
  0
LINE
  5
1AB
  8
0
  6
CENTER
 62
     1
 10
-548.3333333333331
 20
138.3333333333333
 30
0.0
 11
-548.3333333333331
 21
148.3333333333333
 31
0.0
  0
LINE
  5
1AC
  8
0
  6
CENTER
 62
     1
 10
-658.3333333333333
 20
138.3333333333333
 30
0.0
 11
-658.3333333333333
 21
148.3333333333333
 31
0.0
  0
LINE
  5
1AD
  8
0
  6
CENTER
 62
     1
 10
-553.3333333333331
 20
143.3333333333333
 30
0.0
 11
-543.3333333333331
 21
143.3333333333333
 31
0.0
  0
LINE
  5
1AE
  8
0
  6
CENTER
 62
     1
 10
-448.0166666666664
 20
91.33333333333329
 30
0.0
 11
-416.0166666666664
 21
91.33333333333329
 31
0.0
  0
LINE
  5
1AF
  8
0
  6
CENTER
 62
     1
 10
-607.3333333333331
 20
145.3333333333333
 30
0.0
 11
-599.3333333333331
 21
145.3333333333333
 31
0.0
  0
LINE
  5
1B0
  8
0
  6
CENTER
 62
     1
 10
-658.3333333333333
 20
78.33333333333329
 30
0.0
 11
-658.3333333333333
 21
88.33333333333329
 31
0.0
  0
LINE
  5
1B1
  8
0
  6
CENTER
 62
     1
 10
-663.3333333333333
 20
83.33333333333329
 30
0.0
 11
-653.3333333333331
 21
83.33333333333329
 31
0.0
  0
LINE
  5
1B2
  8
0
  6
CENTER
 62
     1
 10
-603.3333333333331
 20
141.3333333333333
 30
0.0
 11
-603.3333333333331
 21
149.3333333333333
 31
0.0
  0
LINE
  5
1B3
  8
0
  6
CENTER
 62
     1
 10
-548.3333333333331
 20
78.33333333333329
 30
0.0
 11
-548.3333333333331
 21
88.33333333333329
 31
0.0
  0
LINE
  5
1B4
  8
0
  6
CENTER
 62
     1
 10
-663.3333333333333
 20
143.3333333333333
 30
0.0
 11
-653.3333333333331
 21
143.3333333333333
 31
0.0
  0
LINE
  5
1B5
  8
0
  6
CENTER
 62
     1
 10
-432.0166666666664
 20
75.33333333333327
 30
0.0
 11
-432.0166666666664
 21
152.3333333333333
 31
0.0
  0
LINE
  5
1B6
  8
0
  6
CENTER
 62
     1
 10
-663.3333333333331
 20
-21.31666666666671
 30
0.0
 11
-543.3333333333333
 21
-21.31666666666671
 31
0.0
  0
LINE
  5
1B7
  8
0
  6
CENTER
 62
     1
 10
-686.0333333333331
 20
165.8333333333333
 30
0.0
 11
-672.6333333333332
 21
165.8333333333333
 31
0.0
  0
LINE
  5
1B8
  8
0
  6
CENTER
 62
     1
 10
-527.3333333333331
 20
54.13333333333325
 30
0.0
 11
-527.3333333333331
 21
67.53333333333333
 31
0.0
  0
LINE
  5
1B9
  8
0
  6
CENTER
 62
     1
 10
-456.4166666666665
 20
113.3333333333333
 30
0.0
 11
-406.5166666666665
 21
113.3333333333333
 31
0.0
  0
LINE
  5
1BA
  8
0
  6
CENTER
 62
     1
 10
-652.9833333333332
 20
155.0833333333333
 30
0.0
 11
-645.6833333333332
 21
155.0833333333333
 31
0.0
  0
LINE
  5
1BB
  8
0
  6
CENTER
 62
     1
 10
-649.3333333333331
 20
151.4333333333333
 30
0.0
 11
-649.3333333333331
 21
158.7333333333333
 31
0.0
  0
LINE
  5
1BC
  8
0
  6
CENTER
 62
     1
 10
-606.9833333333332
 20
155.0833333333333
 30
0.0
 11
-599.6833333333332
 21
155.0833333333333
 31
0.0
  0
LINE
  5
1BD
  8
0
  6
CENTER
 62
     1
 10
-560.983333333333
 20
155.0833333333333
 30
0.0
 11
-553.6833333333332
 21
155.0833333333333
 31
0.0
  0
LINE
  5
1BE
  8
0
  6
CENTER
 62
     1
 10
-557.3333333333331
 20
151.4333333333334
 30
0.0
 11
-557.3333333333331
 21
158.7333333333332
 31
0.0
  0
LINE
  5
1BF
  8
0
  6
CENTER
 62
     1
 10
-606.9833333333332
 20
71.58333333333327
 30
0.0
 11
-599.6833333333332
 21
71.58333333333327
 31
0.0
  0
LINE
  5
1C0
  8
0
  6
CENTER
 62
     1
 10
-652.9833333333332
 20
71.58333333333327
 30
0.0
 11
-645.6833333333332
 21
71.58333333333327
 31
0.0
  0
LINE
  5
1C1
  8
0
  6
CENTER
 62
     1
 10
-649.3333333333331
 20
67.93333333333324
 30
0.0
 11
-649.3333333333331
 21
75.23333333333332
 31
0.0
  0
LINE
  5
1C2
  8
0
  6
CENTER
 62
     1
 10
-679.3333333333331
 20
54.13333333333337
 30
0.0
 11
-679.3333333333331
 21
67.53333333333322
 31
0.0
  0
LINE
  5
1C3
  8
0
  6
CENTER
 62
     1
 10
-534.0333333333332
 20
60.83333333333329
 30
0.0
 11
-520.6333333333332
 21
60.83333333333329
 31
0.0
  0
LINE
  5
1C4
  8
0
  6
CENTER
 62
     1
 10
-534.0333333333332
 20
165.8333333333333
 30
0.0
 11
-520.6333333333332
 21
165.8333333333333
 31
0.0
  0
LINE
  5
1C5
  8
0
  6
CENTER
 62
     1
 10
-557.3333333333331
 20
67.93333333333334
 30
0.0
 11
-557.3333333333331
 21
75.2333333333332
 31
0.0
  0
LINE
  5
1C6
  8
0
  6
CENTER
 62
     1
 10
-527.3333333333331
 20
159.1333333333332
 30
0.0
 11
-527.3333333333331
 21
172.5333333333333
 31
0.0
  0
LINE
  5
1C7
  8
0
  6
CENTER
 62
    10
 10
-603.3333333333331
 20
26.33333333333329
 30
0.0
 11
-603.3333333333331
 21
200.3333333333333
 31
0.0
  0
LINE
  5
1C8
  8
0
  6
CENTER
 62
     1
 10
-679.3333333333331
 20
159.1333333333334
 30
0.0
 11
-679.3333333333331
 21
172.5333333333332
 31
0.0
  0
LINE
  5
1C9
  8
0
  6
CENTER
 62
    10
 10
-722.5833333333331
 20
113.3333333333333
 30
0.0
 11
-484.0833333333332
 21
113.3333333333333
 31
0.0
  0
LINE
  5
1CA
  8
0
  6
CENTER
 62
     1
 10
-560.983333333333
 20
71.58333333333327
 30
0.0
 11
-553.6833333333332
 21
71.58333333333327
 31
0.0
  0
LINE
  5
1CB
  8
0
  6
CENTER
 62
     1
 10
-686.0333333333331
 20
60.83333333333329
 30
0.0
 11
-672.6333333333332
 21
60.83333333333329
 31
0.0
  0
LINE
  5
1CC
  8
0
  6
CENTER
 62
     1
 10
-559.3333333333331
 20
-37.32666666666668
 30
0.0
 11
-559.3333333333331
 21
-5.306666666666737
 31
0.0
  0
LINE
  5
1CD
  8
0
  6
CENTER
 62
     1
 10
-603.3333333333331
 20
-37.31666666666665
 30
0.0
 11
-603.3333333333331
 21
-5.316666666666761
 31
0.0
  0
LINE
  5
1CE
  8
0
  6
CENTER
 62
     1
 10
-647.3333333333331
 20
-37.31666666666665
 30
0.0
 11
-647.3333333333331
 21
-5.316666666666761
 31
0.0
  0
TEXT
  5
1CF
  8
0
  6
CONTINUOUS
 62
     7
 10
-585.3144668834144
 20
-69.21212121212125
 30
0.0
 40
5.0
  1
ＯＦ－３ＮＦＸ３４－１
  0
ENDSEC
  0
EOF
