  0
SECTION
  2
HEADER
  9
$ACADVER
  1
AC1004
  9
$INSBASE
 10
0.0
 20
0.0
  9
$EXTMIN
 10
52.8824578674998
 20
58.67045454545455
  9
$EXTMAX
 10
172.7907066517
 20
268.7396274993
  9
$LIMMIN
 10
0.0
 20
0.0
  9
$LIMMAX
 10
12.0
 20
9.0
  9
$ORTHOMODE
 70
     0
  9
$REGENMODE
 70
     1
  9
$FILLMODE
 70
     1
  9
$QTEXTMODE
 70
     0
  9
$DRAGMODE
 70
     2
  9
$LTSCALE
 40
1.0
  9
$OSMODE
 70
    37
  9
$ATTMODE
 70
     1
  9
$TEXTSIZE
 40
0.2
  9
$TRACEWID
 40
0.05
  9
$TEXTSTYLE
  7
STANDARD
  9
$CLAYER
  8
0
  9
$CELTYPE
  6
BYLAYER
  9
$CECOLOR
 62
   256
  9
$DIMSCALE
 40
1.0
  9
$DIMASZ
 40
3.0
  9
$DIMEXO
 40
0.0625
  9
$DIMDLI
 40
0.38
  9
$DIMRND
 40
0.0
  9
$DIMDLE
 40
0.0
  9
$DIMEXE
 40
1.5
  9
$DIMTP
 40
0.0
  9
$DIMTM
 40
0.0
  9
$DIMTXT
 40
3.0
  9
$DIMCEN
 40
0.09
  9
$DIMTSZ
 40
0.0
  9
$DIMTOL
 70
     0
  9
$DIMLIM
 70
     0
  9
$DIMTIH
 70
     1
  9
$DIMTOH
 70
     1
  9
$DIMSE1
 70
     0
  9
$DIMSE2
 70
     0
  9
$DIMTAD
 70
     1
  9
$DIMZIN
 70
     0
  9
$DIMBLK
  1

  9
$DIMASO
 70
     1
  9
$DIMSHO
 70
     1
  9
$DIMPOST
  1

  9
$DIMAPOST
  1

  9
$DIMALT
 70
     0
  9
$DIMALTD
 70
     2
  9
$DIMALTF
 40
25.4
  9
$DIMLFAC
 40
1.0
  9
$DIMTOFL
 70
     0
  9
$DIMTVP
 40
0.0
  9
$DIMTIX
 70
     0
  9
$DIMSOXD
 70
     0
  9
$DIMSAH
 70
     0
  9
$DIMBLK1
  1

  9
$DIMBLK2
  1

  9
$LUNITS
 70
     2
  9
$LUPREC
 70
     4
  9
$SKETCHINC
 40
0.1
  9
$FILLETRAD
 40
0.5
  9
$AUNITS
 70
     0
  9
$AUPREC
 70
     0
  9
$MENU
  1
.
  9
$ELEVATION
 40
0.0
  9
$THICKNESS
 40
0.0
  9
$LIMCHECK
 70
     0
  9
$CHAMFERA
 40
0.0
  9
$CHAMFERB
 40
0.0
  9
$SKPOLY
 70
     0
  9
$TDCREATE
 40
2459935.536451377
  9
$TDUPDATE
 40
2459935.536451748
  9
$TDINDWG
 40
0.0000000116
  9
$TDUSRTIMER
 40
0.0000000116
  9
$USRTIMER
 70
     1
  9
$ANGBASE
 50
0.0
  9
$ANGDIR
 70
     0
  9
$PDMODE
 70
     0
  9
$PDSIZE
 40
0.0
  9
$PLINEWID
 40
0.0
  9
$COORDS
 70
     1
  9
$SPLFRAME
 70
     0
  9
$SPLINETYPE
 70
     6
  9
$SPLINESEGS
 70
     8
  9
$ATTDIA
 70
     0
  9
$ATTREQ
 70
     1
  9
$SURFTAB1
 70
     6
  9
$SURFTAB2
 70
     6
  9
$SURFTYPE
 70
     6
  9
$SURFU
 70
     6
  9
$SURFV
 70
     6
  9
$UCSNAME
  2

  9
$UCSORG
 10
0.0
 20
0.0
 30
0.0
  9
$UCSXDIR
 10
1.0
 20
0.0
 30
0.0
  9
$UCSYDIR
 10
0.0
 20
1.0
 30
0.0
  9
$USERI1
 70
     0
  9
$USERI2
 70
     0
  9
$USERI3
 70
     0
  9
$USERI4
 70
     0
  9
$USERI5
 70
     0
  9
$USERR1
 40
0.0
  9
$USERR2
 40
0.0
  9
$USERR3
 40
0.0
  9
$USERR4
 40
0.0
  9
$USERR5
 40
0.0
  9
$WORLDVIEW
 70
     1
  0
ENDSEC
  0
SECTION
  2
TABLES
  0
TABLE
  2
LTYPE
 70
     2
  0
LTYPE
  2
CONTINUOUS
 70
     0
  3
Solid line
 72
    65
 73
     0
 40
0.0
  0
LTYPE
  2
CENTER
 70
     0
  3

 72
    65
 73
     0
 40
0.0
  0
ENDTAB
  0
TABLE
  2
LAYER
 70
     2
  0
LAYER
  2
0
 70
     0
 62
     7
  6
CONTINUOUS
  0
LAYER
  2
1
 70
     0
 62
     7
  6
CONTINUOUS
  0
ENDTAB
  0
TABLE
  2
STYLE
 70
     2
  0
STYLE
  2
STANDARD
 70
     0
 40
0.0
 41
1.0
 50
0.0
 71
     0
 42
0.2
  3
txt
  4

  0
STYLE
  2
ＭＳ_ゴシック
 70
     0
 40
0.0
 41
1.0
 50
0.0
 71
     0
 42
0.2
  3
ＭＳ ゴシック.shx
  4

  0
ENDTAB
  0
TABLE
  2
VIEW
 70
     0
  0
ENDTAB
  0
ENDSEC
  0
SECTION
  2
BLOCKS
  0
ENDSEC
  0
SECTION
  2
ENTITIES
  0
TEXT
  8
0
  6
CONTINUOUS
 62
     7
 10
104.0077185194448
 20
58.32842003251219
 40
3.0
  1
OF-55PN
  0
ARC
  8
1
  6
CONTINUOUS
 62
     7
 10
85.39772970589986
 20
101.102860023
 40
0.5000000000000004
 50
0.0
 51
87.0
  0
LINE
  8
1
  6
CONTINUOUS
 62
     7
 10
85.42389768419989
 20
123.7379196098
 11
82.69772970599986
 21
123.5950472001
  0
LINE
  8
1
  6
CONTINUOUS
 62
     7
 10
85.89772970590003
 20
96.23723437720008
 11
85.89772970590003
 21
97.10286002300009
  0
ARC
  8
1
  6
CONTINUOUS
 62
     7
 10
85.3977297059998
 20
108.2372343772
 40
0.5000000000000004
 50
273.0000000000001
 51
0.0
  0
LINE
  8
1
  6
CONTINUOUS
 62
     7
 10
85.89772970599974
 20
120.2372343772
 11
85.89772970599974
 21
121.102860023
  0
LINE
  8
1
  6
CONTINUOUS
 62
     7
 10
85.89772970599974
 20
141.1028600229999
 11
85.89772970599974
 21
140.2372343772
  0
ARC
  8
1
  6
CONTINUOUS
 62
     7
 10
85.3977297059998
 20
117.102860023
 40
0.5000000000000004
 50
0.0
 51
87.0
  0
LINE
  8
1
  6
CONTINUOUS
 62
     7
 10
85.42389768399983
 20
97.60217479039999
 11
82.69772970589995
 21
97.74504720009999
  0
LINE
  8
1
  6
CONTINUOUS
 62
     7
 10
85.42389768419989
 20
117.6021747904
 11
82.69772970599986
 21
117.7450472001
  0
ARC
  8
1
  6
CONTINUOUS
 62
     7
 10
85.3977297059998
 20
141.1028600229999
 40
0.5000000000000004
 50
0.0
 51
87.0
  0
ARC
  8
1
  6
CONTINUOUS
 62
     7
 10
85.3977297059998
 20
112.2372343772
 40
0.5000000000000004
 50
273.0000000000001
 51
0.0
  0
LINE
  8
1
  6
CONTINUOUS
 62
     7
 10
82.69772970599986
 20
145.7450472001
 11
82.69772970599986
 21
147.5950472001
  0
LINE
  8
1
  6
CONTINUOUS
 62
     7
 10
85.42389768419989
 20
147.7379196098001
 11
82.69772970599986
 21
147.5950472001001
  0
LINE
  8
1
  6
CONTINUOUS
 62
     7
 10
82.69772970599986
 20
121.7450472001
 11
82.69772970599986
 21
123.5950472001
  0
LINE
  8
1
  6
CONTINUOUS
 62
     7
 10
85.42389768419989
 20
145.6021747904
 11
82.69772970599986
 21
145.7450472001001
  0
ARC
  8
1
  6
CONTINUOUS
 62
     7
 10
85.39772970589986
 20
96.23723437720008
 40
0.5000000000000004
 50
273.0000000000001
 51
0.0
  0
ARC
  8
1
  6
CONTINUOUS
 62
     7
 10
85.3977297059998
 20
105.102860023
 40
0.5000000000000004
 50
0.0
 51
87.0
  0
ARC
  8
1
  6
CONTINUOUS
 62
     7
 10
85.3977297059998
 20
113.102860023
 40
0.5000000000000004
 50
0.0
 51
87.0
  0
ARC
  8
1
  6
CONTINUOUS
 62
     7
 10
85.3977297059998
 20
121.102860023
 40
0.5000000000000004
 50
0.0
 51
87.0
  0
LINE
  8
1
  6
CONTINUOUS
 62
     7
 10
82.69772970599986
 20
141.7450472001
 11
82.69772970599986
 21
143.5950472001
  0
LINE
  8
1
  6
CONTINUOUS
 62
     7
 10
85.42389768419989
 20
105.6021747904
 11
82.69772970599986
 21
105.7450472001
  0
ARC
  8
1
  6
CONTINUOUS
 62
     7
 10
85.3977297059998
 20
148.2372343772
 40
0.5000000000000004
 50
273.0000000000001
 51
0.0
  0
LINE
  8
1
  6
CONTINUOUS
 62
     7
 10
85.89772970599974
 20
149.102860023
 11
85.89772970599974
 21
148.2372343772
  0
LINE
  8
1
  6
CONTINUOUS
 62
     7
 10
85.42389768419989
 20
111.7379196098
 11
82.69772970599986
 21
111.5950472001
  0
LINE
  8
1
  6
CONTINUOUS
 62
     7
 10
85.42389768419989
 20
149.6021747904
 11
82.69772970599986
 21
149.7450472001001
  0
ARC
  8
1
  6
CONTINUOUS
 62
     7
 10
85.3977297059998
 20
149.102860023
 40
0.5000000000000004
 50
0.0
 51
87.0
  0
LINE
  8
1
  6
CONTINUOUS
 62
     7
 10
85.89772970599974
 20
108.2372343772
 11
85.89772970599974
 21
109.102860023
  0
LINE
  8
1
  6
CONTINUOUS
 62
     7
 10
85.89772970599974
 20
117.102860023
 11
85.89772970599974
 21
116.2372343772
  0
LINE
  8
1
  6
CONTINUOUS
 62
     7
 10
85.42389768419989
 20
119.7379196098
 11
82.69772970599986
 21
119.5950472001
  0
ARC
  8
1
  6
CONTINUOUS
 62
     7
 10
85.3977297059998
 20
145.1028600229999
 40
0.5000000000000004
 50
0.0
 51
87.0
  0
ARC
  8
1
  6
CONTINUOUS
 62
     7
 10
85.3977297059998
 20
104.2372343772
 40
0.5000000000000004
 50
273.0000000000001
 51
0.0
  0
LINE
  8
1
  6
CONTINUOUS
 62
     7
 10
85.42389768399983
 20
101.6021747904
 11
82.69772970589995
 21
101.7450472001
  0
LINE
  8
1
  6
CONTINUOUS
 62
     7
 10
82.69772970599986
 20
109.7450472001
 11
82.69772970599986
 21
111.5950472001
  0
LINE
  8
1
  6
CONTINUOUS
 62
     7
 10
82.69772970599986
 20
113.7450472001
 11
82.69772970599986
 21
115.5950472001
  0
LINE
  8
1
  6
CONTINUOUS
 62
     7
 10
85.42389768399983
 20
95.73791960980002
 11
82.69772970589995
 21
95.59504720010001
  0
LINE
  8
1
  6
CONTINUOUS
 62
     7
 10
85.42389768419989
 20
113.6021747904
 11
82.69772970599986
 21
113.7450472001
  0
LINE
  8
1
  6
CONTINUOUS
 62
     7
 10
85.89772970599974
 20
113.102860023
 11
85.89772970599974
 21
112.2372343772
  0
ARC
  8
1
  6
CONTINUOUS
 62
     7
 10
85.3977297059998
 20
120.2372343772
 40
0.5000000000000004
 50
273.0000000000001
 51
0.0
  0
LINE
  8
1
  6
CONTINUOUS
 62
     7
 10
85.42389768419989
 20
141.6021747904
 11
82.69772970599986
 21
141.7450472001001
  0
LINE
  8
1
  6
CONTINUOUS
 62
     7
 10
85.42389768419989
 20
143.7379196098001
 11
82.69772970599986
 21
143.5950472001001
  0
LINE
  8
1
  6
CONTINUOUS
 62
     7
 10
85.89772970599974
 20
144.2372343772
 11
85.89772970599974
 21
145.1028600229999
  0
ARC
  8
1
  6
CONTINUOUS
 62
     7
 10
85.3977297059998
 20
144.2372343772
 40
0.5000000000000004
 50
273.0000000000001
 51
0.0
  0
LINE
  8
1
  6
CONTINUOUS
 62
     7
 10
82.69772970589995
 20
149.7450472001
 11
82.69772970589995
 21
151.5950472001
  0
LINE
  8
1
  6
CONTINUOUS
 62
     7
 10
82.69772970609979
 20
149.7450472001
 11
103.9587826570998
 21
150.4537489651
  0
LINE
  8
1
  6
CONTINUOUS
 62
     7
 10
82.69772970599986
 20
105.7450472001
 11
82.69772970599986
 21
107.5950472001
  0
LINE
  8
1
  6
CONTINUOUS
 62
     7
 10
103.9587826570998
 20
148.3037489651
 11
82.69772970619992
 21
147.5950472001
  0
LINE
  8
1
  6
CONTINUOUS
 62
     7
 10
103.9587826570998
 20
146.4537489651001
 11
82.69772970619992
 21
145.7450472001001
  0
ARC
  8
1
  6
CONTINUOUS
 62
     7
 10
85.3977297059998
 20
109.102860023
 40
0.5000000000000004
 50
0.0
 51
87.0
  0
LINE
  8
1
  6
CONTINUOUS
 62
     7
 10
85.42389768419989
 20
107.7379196098
 11
82.69772970599986
 21
107.5950472001
  0
LINE
  8
1
  6
CONTINUOUS
 62
     7
 10
82.69772970589995
 20
97.74504720009999
 11
82.69772970589995
 21
99.59504720010001
  0
LINE
  8
1
  6
CONTINUOUS
 62
     7
 10
85.89772970599974
 20
105.102860023
 11
85.89772970599974
 21
104.2372343772
  0
LINE
  8
1
  6
CONTINUOUS
 62
     7
 10
85.89772970590003
 20
101.102860023
 11
85.89772970590003
 21
100.2372343772001
  0
LINE
  8
1
  6
CONTINUOUS
 62
     7
 10
82.69772970589995
 20
101.7450472001
 11
82.69772970589995
 21
103.5950472001
  0
ARC
  8
1
  6
CONTINUOUS
 62
     7
 10
85.39772970589986
 20
100.2372343772001
 40
0.5000000000000004
 50
273.0000000000001
 51
0.0
  0
LINE
  8
1
  6
CONTINUOUS
 62
     7
 10
85.42389768419989
 20
109.6021747904
 11
82.69772970599986
 21
109.7450472001
  0
LINE
  8
1
  6
CONTINUOUS
 62
     7
 10
82.69772970599986
 20
117.7450472001
 11
82.69772970599986
 21
119.5950472001
  0
ARC
  8
1
  6
CONTINUOUS
 62
     7
 10
85.39772970589986
 20
93.10286002300002
 40
0.5000000000000004
 50
0.0
 51
87.0
  0
LINE
  8
1
  6
CONTINUOUS
 62
     7
 10
85.42389768419989
 20
121.6021747904
 11
82.69772970599986
 21
121.7450472001
  0
LINE
  8
1
  6
CONTINUOUS
 62
     7
 10
85.42389768419989
 20
103.7379196098
 11
82.69772970599986
 21
103.5950472001
  0
ARC
  8
1
  6
CONTINUOUS
 62
     7
 10
85.39772970589986
 20
97.10286002300003
 40
0.5000000000000004
 50
0.0
 51
87.0
  0
LINE
  8
1
  6
CONTINUOUS
 62
     7
 10
85.42389768419989
 20
115.7379196098
 11
82.69772970599986
 21
115.5950472001
  0
ARC
  8
1
  6
CONTINUOUS
 62
     7
 10
85.3977297059998
 20
124.2372343772
 40
0.5000000000000004
 50
273.0000000000001
 51
0.0
  0
LINE
  8
1
  6
CONTINUOUS
 62
     7
 10
85.42389768399983
 20
99.73791960980002
 11
82.69772970589995
 21
99.59504720010001
  0
ARC
  8
1
  6
CONTINUOUS
 62
     7
 10
85.3977297059998
 20
116.2372343772
 40
0.5000000000000004
 50
273.0000000000001
 51
0.0
  0
ARC
  8
1
  6
CONTINUOUS
 62
     7
 10
80.1977297059
 20
138.9922567843
 40
1.000000000000001
 50
90.0
 51
180.0
  0
ARC
  8
1
  6
CONTINUOUS
 62
     7
 10
103.6977297058998
 20
121.9922567843
 40
3.000000000000003
 50
0.0
 51
90.0
  0
ARC
  8
1
  6
CONTINUOUS
 62
     7
 10
145.1977297058999
 20
138.9922567843
 40
1.000000000000001
 50
0.0
 51
90.0
  0
LINE
  8
1
  6
CONTINUOUS
 62
     7
 10
70.69772970589993
 20
139.9922567843
 11
154.6977297059
 21
139.9922567843
  0
ARC
  8
1
  6
CONTINUOUS
 62
     7
 10
70.69772970589993
 20
138.9922567843
 40
1.000000000000001
 50
90.0
 51
180.0
  0
ARC
  8
1
  6
CONTINUOUS
 62
     7
 10
80.1977297059
 20
125.9922567843
 40
1.000000000000001
 50
180.0
 51
270.0
  0
LINE
  8
1
  6
CONTINUOUS
 62
     7
 10
79.19772970589989
 20
138.9922567843
 11
79.19772970589989
 21
125.9922567843
  0
ARC
  8
1
  6
CONTINUOUS
 62
     7
 10
82.1977297059
 20
124.4922567843001
 40
0.5000000000000004
 50
90.0
 51
180.0
  0
LINE
  8
1
  6
CONTINUOUS
 62
     7
 10
103.6977297058998
 20
124.9922567843
 11
80.1977297059
 21
124.9922567843
  0
ARC
  8
1
  6
CONTINUOUS
 62
     7
 10
107.6977297058999
 20
169.4013221749001
 40
1.000000000000001
 50
180.0
 51
270.0
  0
LINE
  8
1
  6
CONTINUOUS
 62
     7
 10
81.19772970589989
 20
79.99225678430003
 11
55.69772970590003
 21
79.99225678430003
  0
ARC
  8
1
  6
CONTINUOUS
 62
     7
 10
81.19772970589989
 20
80.49225678430003
 40
0.5000000000000004
 50
270.0
 51
0.0
  0
LINE
  8
1
  6
CONTINUOUS
 62
     7
 10
69.69772970589982
 20
138.9922567843
 11
69.69772970589982
 21
93.99225678430001
  0
ARC
  8
1
  6
CONTINUOUS
 62
     7
 10
113.6977297058999
 20
159.4013221749001
 40
5.000000000000004
 50
270.0
 51
0.0
  0
LINE
  8
1
  6
CONTINUOUS
 62
     7
 10
169.6977297058999
 20
79.99225678430003
 11
169.6977297058999
 21
84.99225678430003
  0
LINE
  8
1
  6
CONTINUOUS
 62
     7
 10
111.4477297059
 20
263.4013221749
 11
111.4477297059
 21
259.4013221749
  0
ARC
  8
1
  6
CONTINUOUS
 62
     7
 10
113.6977297058999
 20
263.4013221749
 40
5.000000000000004
 50
0.0
 51
90.0
  0
LINE
  8
1
  6
CONTINUOUS
 62
     7
 10
160.6977297059
 20
84.99225678430003
 11
155.6977297058999
 21
93.99225678430004
  0
ARC
  8
1
  6
CONTINUOUS
 62
     7
 10
111.6977297058999
 20
263.4013221749
 40
5.000000000000004
 50
90.0
 51
180.0
  0
LINE
  8
1
  6
CONTINUOUS
 62
     7
 10
64.69772970589993
 20
212.6513221749
 11
60.69772970589992
 21
212.6513221749
  0
LINE
  8
1
  6
CONTINUOUS
 62
     7
 10
169.6977297058999
 20
212.4013221749
 11
169.6977297058999
 21
210.4013221749
  0
ARC
  8
1
  6
CONTINUOUS
 62
     7
 10
60.69772970589992
 20
212.4013221749
 40
5.000000000000004
 50
90.0
 51
180.0
  0
LINE
  8
1
  6
CONTINUOUS
 62
     7
 10
55.69772970590003
 20
210.4013221749
 11
55.69772970590003
 21
212.4013221749
  0
ARC
  8
1
  6
CONTINUOUS
 62
     7
 10
112.6977297059
 20
159.4013221749001
 40
1.249999999999973
 50
180.0
 51
0.0
  0
LINE
  8
1
  6
CONTINUOUS
 62
     7
 10
113.9477297058999
 20
159.4013221749001
 11
113.9477297058999
 21
163.4013221749001
  0
ARC
  8
1
  6
CONTINUOUS
 62
     7
 10
164.6977297059
 20
211.4013221749
 40
1.249999999999973
 50
270.0
 51
90.0
  0
ARC
  8
1
  6
CONTINUOUS
 62
     7
 10
117.6977297058999
 20
169.4013221749001
 40
1.000000000000001
 50
270.0
 51
0.0
  0
LINE
  8
1
  6
CONTINUOUS
 62
     7
 10
107.6977297058999
 20
254.4013221749001
 11
117.6977297058999
 21
254.4013221749001
  0
ARC
  8
1
  6
CONTINUOUS
 62
     7
 10
144.1977297058998
 20
80.49225678430003
 40
0.5000000000000004
 50
180.0
 51
270.0
  0
LINE
  8
1
  6
CONTINUOUS
 62
     7
 10
155.6977297058999
 20
216.4013221749
 11
155.6977297058999
 21
206.4013221749
  0
LINE
  8
1
  6
CONTINUOUS
 62
     7
 10
64.69772970589993
 20
84.99225678430003
 11
69.69772970589982
 21
93.99225678430004
  0
LINE
  8
1
  6
CONTINUOUS
 62
     7
 10
113.9477297058999
 20
259.4013221749
 11
113.9477297058999
 21
263.4013221749
  0
LINE
  8
1
  6
CONTINUOUS
 62
     7
 10
111.4477297059
 20
163.4013221749001
 11
111.4477297059
 21
159.4013221749001
  0
LINE
  8
1
  6
CONTINUOUS
 62
     7
 10
143.6977297058999
 20
124.4922567843001
 11
143.6977297058999
 21
80.49225678430005
  0
ARC
  8
1
  6
CONTINUOUS
 62
     7
 10
154.6977297059
 20
206.4013221749
 40
1.000000000000001
 50
270.0
 51
0.0
  0
ARC
  8
1
  6
CONTINUOUS
 62
     7
 10
107.6977297058999
 20
253.4013221749
 40
1.000000000000001
 50
90.0
 51
180.0
  0
LINE
  8
1
  6
CONTINUOUS
 62
     7
 10
69.69772970589982
 20
206.4013221749
 11
69.69772970589982
 21
216.4013221749
  0
ARC
  8
1
  6
CONTINUOUS
 62
     7
 10
70.69772970589993
 20
206.4013221749
 40
1.000000000000001
 50
180.0
 51
270.0
  0
LINE
  8
1
  6
CONTINUOUS
 62
     7
 10
76.80901281599995
 20
217.4013221749
 11
60.69772970589992
 21
217.4013221749
  0
ARC
  8
1
  6
CONTINUOUS
 62
     7
 10
76.80901281599995
 20
220.4013221749
 40
3.000000000000003
 50
270.0
 51
345.9219613962
  0
LINE
  8
1
  6
CONTINUOUS
 62
     7
 10
76.80901281599995
 20
205.4013221749
 11
60.69772970589992
 21
205.4013221749
  0
LINE
  8
1
  6
CONTINUOUS
 62
     7
 10
106.6977297059
 20
247.2900390648
 11
106.6977297059
 21
263.4013221749001
  0
LINE
  8
1
  6
CONTINUOUS
 62
     7
 10
113.6977297058999
 20
154.4013221749001
 11
111.6977297058999
 21
154.4013221749001
  0
ARC
  8
1
  6
CONTINUOUS
 62
     7
 10
121.6977297058999
 20
121.9922567843
 40
3.000000000000003
 50
90.0
 51
180.0
  0
LINE
  8
1
  6
CONTINUOUS
 62
     7
 10
144.1977297058998
 20
79.99225678430003
 11
169.6977297058999
 21
79.99225678430003
  0
ARC
  8
1
  6
CONTINUOUS
 62
     7
 10
112.6977297059
 20
211.4013221749
 40
34.00000000000003
 50
104.0780386038
 51
165.9219613962
  0
ARC
  8
1
  6
CONTINUOUS
 62
     7
 10
145.1977297058999
 20
125.9922567843
 40
1.000000000000001
 50
270.0
 51
0.0
  0
LINE
  8
1
  6
CONTINUOUS
 62
     7
 10
146.1977297058998
 20
138.9922567843
 11
146.1977297058998
 21
125.9922567843
  0
ARC
  8
1
  6
CONTINUOUS
 62
     7
 10
164.6977297059
 20
210.4013221749
 40
5.000000000000004
 50
270.0
 51
0.0
  0
ARC
  8
1
  6
CONTINUOUS
 62
     7
 10
60.69772970589992
 20
210.4013221749
 40
5.000000000000004
 50
180.0
 51
270.0
  0
LINE
  8
1
  6
CONTINUOUS
 62
     7
 10
164.6977297059
 20
212.6513221749
 11
160.6977297059
 21
212.6513221749
  0
LINE
  8
1
  6
CONTINUOUS
 62
     7
 10
121.6977297058999
 20
124.9922567843
 11
145.1977297058999
 21
124.9922567843
  0
LINE
  8
1
  6
CONTINUOUS
 62
     7
 10
55.69772970590003
 20
84.99225678430003
 11
64.69772970589993
 21
84.99225678430003
  0
ARC
  8
1
  6
CONTINUOUS
 62
     7
 10
143.1977297058999
 20
124.4922567843001
 40
0.5000000000000004
 50
0.0
 51
90.0
  0
LINE
  8
1
  6
CONTINUOUS
 62
     7
 10
160.6977297059
 20
210.1513221749
 11
164.6977297059
 21
210.1513221749
  0
ARC
  8
1
  6
CONTINUOUS
 62
     7
 10
112.6977297059
 20
263.4013221749
 40
1.249999999999973
 50
0.0
 51
180.0
  0
LINE
  8
1
  6
CONTINUOUS
 62
     7
 10
117.6977297058999
 20
168.4013221749001
 11
107.6977297058999
 21
168.4013221749001
  0
LINE
  8
1
  6
CONTINUOUS
 62
     7
 10
55.69772970590003
 20
79.99225678430003
 11
55.69772970590003
 21
84.99225678430003
  0
LINE
  8
1
  6
CONTINUOUS
 62
     7
 10
81.69772970589983
 20
124.4922567843001
 11
81.69772970589983
 21
80.49225678430005
  0
LINE
  8
1
  6
CONTINUOUS
 62
     7
 10
139.4977297056998
 20
152.14413143
 11
112.6977297059
 21
152.14413143
  0
ARC
  8
1
  6
CONTINUOUS
 62
     7
 10
154.6977297059
 20
138.9922567843
 40
1.000000000000001
 50
0.0
 51
90.0
  0
ARC
  8
1
  6
CONTINUOUS
 62
     7
 10
164.6977297059
 20
212.4013221749
 40
5.000000000000004
 50
0.0
 51
90.0
  0
ARC
  8
1
  6
CONTINUOUS
 62
     7
 10
60.69772970589992
 20
211.4013221749
 40
1.249999999999973
 50
90.0
 51
270.0
  0
ARC
  8
1
  6
CONTINUOUS
 62
     7
 10
154.6977297059
 20
216.4013221749
 40
1.000000000000001
 50
0.0
 51
90.0
  0
ARC
  8
1
  6
CONTINUOUS
 62
     7
 10
117.6977297058999
 20
253.4013221749
 40
1.000000000000001
 50
0.0
 51
90.0
  0
LINE
  8
1
  6
CONTINUOUS
 62
     7
 10
155.6977297058999
 20
138.9922567843
 11
155.6977297058999
 21
93.99225678430001
  0
LINE
  8
1
  6
CONTINUOUS
 62
     7
 10
169.6977297058999
 20
84.99225678430003
 11
160.6977297059
 21
84.99225678430003
  0
ARC
  8
1
  6
CONTINUOUS
 62
     7
 10
111.6977297058999
 20
159.4013221749001
 40
5.000000000000004
 50
180.0
 51
270.0
  0
LINE
  8
1
  6
CONTINUOUS
 62
     7
 10
60.69772970589992
 20
210.1513221749
 11
64.69772970589993
 21
210.1513221749
  0
ARC
  8
1
  6
CONTINUOUS
 62
     7
 10
70.69772970589993
 20
216.4013221749
 40
1.000000000000001
 50
90.0
 51
180.0
  0
ARC
  8
1
  6
CONTINUOUS
 62
     7
 10
76.80901281599995
 20
202.4013221749
 40
3.000000000000003
 50
14.0780386038
 51
90.0
  0
ARC
  8
1
  6
CONTINUOUS
 62
     7
 10
112.6977297059
 20
211.4013221749
 40
34.00000000000003
 50
194.0780386038
 51
255.9219613962
  0
LINE
  8
1
  6
CONTINUOUS
 62
     7
 10
118.6977297059
 20
175.5126052851
 11
118.6977297059
 21
159.4013221749
  0
LINE
  8
1
  6
CENTER
 62
     3
 10
172.7907066517
 20
211.4013221749
 11
52.8824578674998
 21
211.4013221749
  0
LINE
  8
1
  6
CONTINUOUS
 62
     7
 10
106.6977297059
 20
84.99225678430003
 11
112.6977297059
 21
84.99225678430003
  0
LINE
  8
1
  6
CONTINUOUS
 62
     7
 10
118.6977297059
 20
247.2900390648
 11
118.6977297059
 21
263.4013221749001
  0
ARC
  8
1
  6
CONTINUOUS
 62
     7
 10
112.6977297059
 20
211.4013221749
 40
34.00000000000003
 50
284.0780386038
 51
345.9219613962
  0
LINE
  8
1
  6
CONTINUOUS
 62
     7
 10
106.6977297059
 20
259.4013221749
 11
118.6977297059
 21
259.4013221749
  0
ARC
  8
1
  6
CONTINUOUS
 62
     7
 10
112.6977297059
 20
211.4013221749
 40
34.00000000000003
 50
14.0780386038
 51
75.92196139619999
  0
LINE
  8
1
  6
CONTINUOUS
 62
     7
 10
118.6977297059
 20
139.9922567843
 11
118.6977297059
 21
79.9922567843
  0
ARC
  8
1
  6
CONTINUOUS
 62
     7
 10
103.6977297058998
 20
247.2900390648
 40
3.000000000000003
 50
284.0780386038
 51
0.0
  0
LINE
  8
1
  6
CONTINUOUS
 62
     7
 10
106.6977297059
 20
79.99225678430003
 11
118.6977297059
 21
79.99225678430003
  0
LINE
  8
1
  6
CONTINUOUS
 62
     7
 10
106.6977297059
 20
175.5126052851
 11
106.6977297059
 21
159.4013221749
  0
LINE
  8
1
  6
CONTINUOUS
 62
     7
 10
112.6977297059
 20
93.99225678430004
 11
106.6977297059
 21
93.99225678430004
  0
LINE
  8
1
  6
CONTINUOUS
 62
     7
 10
64.69772970589993
 20
205.4013221749
 11
64.69772970589993
 21
217.4013221749
  0
ARC
  8
1
  6
CONTINUOUS
 62
     7
 10
121.6977297058999
 20
247.2900390648
 40
3.000000000000003
 50
180.0
 51
255.9219613962
  0
LINE
  8
1
  6
CONTINUOUS
 62
     7
 10
112.6977297059
 20
93.99225678430004
 11
118.6977297059
 21
93.99225678430004
  0
LINE
  8
1
  6
CONTINUOUS
 62
     7
 10
148.5864465956999
 20
217.4013221749
 11
164.6977297059
 21
217.4013221749
  0
LINE
  8
1
  6
CONTINUOUS
 62
     7
 10
118.6977297059
 20
84.99225678430003
 11
112.6977297059
 21
84.99225678430003
  0
LINE
  8
1
  6
CONTINUOUS
 62
     7
 10
106.6977297059
 20
163.4013221749001
 11
118.6977297059
 21
163.4013221749001
  0
LINE
  8
1
  6
CONTINUOUS
 62
     7
 10
111.6977297058999
 20
268.4013221749001
 11
113.6977297058999
 21
268.4013221749001
  0
LINE
  8
1
  6
CENTER
 62
     3
 10
112.6977297059
 20
79.67975278270004
 11
112.6977297059
 21
154.6822455765
  0
LINE
  8
1
  6
CONTINUOUS
 62
     7
 10
160.6977297059
 20
217.4013221749
 11
160.6977297059
 21
205.4013221749
  0
LINE
  8
1
  6
CONTINUOUS
 62
     7
 10
148.5864465956999
 20
205.4013221749
 11
164.6977297059
 21
205.4013221749
  0
ARC
  8
1
  6
CONTINUOUS
 62
     7
 10
148.5864465956999
 20
202.4013221749
 40
3.000000000000003
 50
90.0
 51
165.9219613962
  0
LINE
  8
1
  6
CONTINUOUS
 62
     7
 10
106.6977297059
 20
139.9922567843
 11
106.6977297059
 21
79.9922567843
  0
ARC
  8
1
  6
CONTINUOUS
 62
     7
 10
148.5864465956999
 20
220.4013221749
 40
3.000000000000003
 50
194.0780386038
 51
270.0
  0
LINE
  8
1
  6
CONTINUOUS
 62
     7
 10
82.69772970589995
 20
93.74504720010005
 11
82.69772970589995
 21
95.59504720010004
  0
ARC
  8
1
  6
CONTINUOUS
 62
     7
 10
103.6977297058998
 20
175.5126052851
 40
3.000000000000003
 50
0.0
 51
75.92196139619999
  0
LINE
  8
1
  6
CONTINUOUS
 62
     7
 10
85.42389768399983
 20
93.60217479040003
 11
82.69772970589995
 21
93.74504720010005
  0
LINE
  8
1
  6
CONTINUOUS
 62
     7
 10
85.89772970590003
 20
93.10286002300002
 11
85.89772970590003
 21
92.23723437720002
  0
ARC
  8
1
  6
CONTINUOUS
 62
     7
 10
121.6977297058999
 20
175.5126052851
 40
3.000000000000003
 50
104.0780386038
 51
180.0
  0
LINE
  8
1
  6
CENTER
 62
     3
 10
112.6977297059
 20
151.7450472001
 11
112.6977297059
 21
268.7396274993
  0
LINE
  8
1
  6
CONTINUOUS
 62
     7
 10
127.6977297058999
 20
209.4013221749
 11
124.9977297058999
 21
209.4013221749
  0
LINE
  8
1
  6
CONTINUOUS
 62
     7
 10
85.89772970590003
 20
92.14457158910002
 11
106.6977297059
 21
92.14743262290004
  0
ARC
  8
1
  6
CONTINUOUS
 62
     7
 10
124.9977297058999
 20
207.4013221749
 40
2.000000000000002
 50
90.0
 51
180.0
  0
LINE
  8
1
  6
CONTINUOUS
 62
     7
 10
118.6977297059
 20
92.14908321930001
 11
139.5063912360999
 21
92.1519454445
  0
LINE
  8
1
  6
CONTINUOUS
 62
     7
 10
120.6977297059
 20
92.15238497970005
 11
120.6977297059
 21
124.820683909
  0
LINE
  8
1
  6
CONTINUOUS
 62
     7
 10
120.6977297059
 20
120.6493585883
 11
118.6977297059
 21
120.6490834889
  0
ARC
  8
1
  6
CONTINUOUS
 62
     7
 10
118.6977297059
 20
207.4013221749
 40
2.000000000000002
 50
0.0
 51
90.0
  0
ARC
  8
1
  6
CONTINUOUS
 62
     7
 10
112.6977297059
 20
211.4013221749
 40
30.00000000000002
 50
289.0
 51
71.0
  0
ARC
  8
1
  6
CONTINUOUS
 62
     7
 10
127.6977297058999
 20
214.4013221749
 40
1.000000000000001
 50
270.0
 51
323.1301023542
  0
LINE
  8
1
  6
CONTINUOUS
 62
     7
 10
104.6977297059
 20
215.4013221749
 11
104.6977297059
 21
234.5583945287
  0
ARC
  8
1
  6
CONTINUOUS
 62
     7
 10
127.6977297058999
 20
208.4013221749
 40
1.000000000000001
 50
36.8698976458
 51
90.0
  0
LINE
  8
1
  6
CONTINUOUS
 62
     7
 10
120.6977297059
 20
234.5583945287001
 11
122.4647743395999
 21
239.7668794429001
  0
ARC
  8
1
  6
CONTINUOUS
 62
     7
 10
139.9977297060999
 20
92.05928203260002
 40
0.5000000000000004
 50
92.99999999999999
 51
169.3198124759
  0
ARC
  8
1
  6
CONTINUOUS
 62
     7
 10
124.9977297058999
 20
230.2417043366
 40
2.000000000000002
 50
56.8613684587
 51
180.0
  0
LINE
  8
1
  6
CONTINUOUS
 62
     7
 10
119.1967903416
 20
123.6491521629
 11
120.6977297059
 21
123.6493586167
  0
LINE
  8
1
  6
CONTINUOUS
 62
     7
 10
122.9977297058999
 20
205.4013221749
 11
120.6977297059
 21
205.4013221749
  0
LINE
  8
1
  6
CONTINUOUS
 62
     7
 10
106.6977297059
 20
213.4013221749
 11
118.6977297059
 21
213.4013221749
  0
ARC
  8
1
  6
CONTINUOUS
 62
     7
 10
124.9977297058999
 20
215.4013221749
 40
2.000000000000002
 50
180.0
 51
270.0
  0
LINE
  8
1
  6
CONTINUOUS
 62
     7
 10
122.9977297058999
 20
215.4013221749
 11
122.9977297058999
 21
230.2417043366
  0
ARC
  8
1
  6
CONTINUOUS
 62
     7
 10
100.3977297059
 20
215.4013221749
 40
2.000000000000002
 50
270.0
 51
0.0
  0
LINE
  8
1
  6
CONTINUOUS
 62
     7
 10
102.3977297059
 20
215.4013221749
 11
102.3977297059
 21
230.2417043366
  0
LINE
  8
1
  6
CONTINUOUS
 62
     7
 10
118.6977297059
 20
209.4013221749
 11
106.6977297059
 21
209.4013221749
  0
ARC
  8
1
  6
CONTINUOUS
 62
     7
 10
100.3977297059
 20
192.5609400132
 40
2.000000000000002
 50
236.8613684587
 51
0.0
  0
LINE
  8
1
  6
CONTINUOUS
 62
     7
 10
120.6977297059
 20
196.4013221749
 11
122.9977297058999
 21
196.4013221749
  0
ARC
  8
1
  6
CONTINUOUS
 62
     7
 10
85.39772970589986
 20
152.2372343772
 40
0.5000000000000004
 50
273.0000000000001
 51
349.2685532228
  0
LINE
  8
1
  6
CONTINUOUS
 62
     7
 10
104.6977297059
 20
152.14413143
 11
104.6977297059
 21
139.9922567843
  0
LINE
  8
1
  6
CONTINUOUS
 62
     7
 10
120.6977297059
 20
226.4013221749
 11
122.9977297058999
 21
226.4013221749
  0
LINE
  8
1
  6
CONTINUOUS
 62
     7
 10
120.6977297059
 20
188.2442498211001
 11
122.4647743395999
 21
183.0357649069
  0
CIRCLE
  8
1
  6
CONTINUOUS
 62
     7
 10
93.69772970589985
 20
211.4013221749
 40
1.749999999999974
  0
LINE
  8
1
  6
CONTINUOUS
 62
     7
 10
102.3977297059
 20
217.4013221749
 11
104.6977297059
 21
217.4013221749
  0
ARC
  8
1
  6
CONTINUOUS
 62
     7
 10
100.3977297059
 20
207.4013221749
 40
2.000000000000002
 50
0.0
 51
90.0
  0
LINE
  8
1
  6
CONTINUOUS
 62
     7
 10
104.6977297059
 20
207.4013221749
 11
104.6977297059
 21
188.2442498211
  0
LINE
  8
1
  6
CONTINUOUS
 62
     7
 10
120.6977297059
 20
139.9922567843
 11
120.6977297059
 21
152.1523849797
  0
LINE
  8
1
  6
CONTINUOUS
 62
     7
 10
120.6977297059
 20
215.4013221749
 11
120.6977297059
 21
234.5583945287
  0
LINE
  8
1
  6
CONTINUOUS
 62
     7
 10
106.6977297059
 20
120.6474328925
 11
104.6977297059
 21
120.6471577931
  0
LINE
  8
1
  6
CONTINUOUS
 62
     7
 10
104.6977297059
 20
124.820683909
 11
104.6977297059
 21
92.14413143
  0
LINE
  8
1
  6
CONTINUOUS
 62
     7
 10
122.9977297058999
 20
217.4013221749
 11
120.6977297059
 21
217.4013221749
  0
LINE
  8
1
  6
CONTINUOUS
 62
     7
 10
120.6977297059
 20
207.4013221749
 11
120.6977297059
 21
188.2442498211
  0
LINE
  8
1
  6
CONTINUOUS
 62
     7
 10
139.9715617278998
 20
92.55859680000003
 11
142.6977297060998
 21
92.70146920970004
  0
LINE
  8
1
  6
CONTINUOUS
 62
     7
 10
102.3977297059
 20
205.4013221749
 11
104.6977297059
 21
205.4013221749
  0
LINE
  8
1
  6
CONTINUOUS
 62
     7
 10
104.6977297059
 20
123.6471578215
 11
106.1998525354999
 21
123.647364438
  0
LINE
  8
1
  6
CONTINUOUS
 62
     7
 10
85.88898507859999
 20
152.14413143
 11
112.6977297059
 21
152.14413143
  0
LINE
  8
1
  6
CONTINUOUS
 62
     7
 10
104.6977297059
 20
188.2442498211001
 11
102.9306850721998
 21
183.0357649069
  0
LINE
  8
1
  6
CONTINUOUS
 62
     7
 10
97.69772970589985
 20
213.4013221749
 11
100.3977297059
 21
213.4013221749
  0
ARC
  8
1
  6
CONTINUOUS
 62
     7
 10
97.69772970589985
 20
214.4013221749
 40
1.000000000000001
 50
216.8698976458
 51
270.0
  0
LINE
  8
1
  6
CONTINUOUS
 62
     7
 10
97.69772970589985
 20
209.4013221749
 11
100.3977297059
 21
209.4013221749
  0
ARC
  8
1
  6
CONTINUOUS
 62
     7
 10
124.9977297058999
 20
192.5609400132
 40
2.000000000000002
 50
180.0
 51
303.1386315413
  0
ARC
  8
1
  6
CONTINUOUS
 62
     7
 10
100.3977297059
 20
230.2417043366
 40
2.000000000000002
 50
0.0
 51
123.1386315413
  0
LINE
  8
1
  6
CONTINUOUS
 62
     7
 10
104.6977297059
 20
234.5583945287001
 11
102.9306850721998
 21
239.7668794429001
  0
LINE
  8
1
  6
CONTINUOUS
 62
     7
 10
102.3977297059
 20
207.4013221749
 11
102.3977297059
 21
192.5609400132
  0
ARC
  8
1
  6
CONTINUOUS
 62
     7
 10
97.69772970589985
 20
208.4013221749
 40
1.000000000000001
 50
90.0
 51
143.1301023542
  0
LINE
  8
1
  6
CONTINUOUS
 62
     7
 10
132.19299686
 20
92.15093948930006
 11
142.6977297059
 21
92.70146920970006
  0
LINE
  8
1
  6
CONTINUOUS
 62
     7
 10
122.9977297058999
 20
207.4013221749
 11
122.9977297058999
 21
192.5609400132
  0
LINE
  8
1
  6
CONTINUOUS
 62
     7
 10
104.6977297059
 20
226.4013221749
 11
102.3977297059
 21
226.4013221749
  0
ARC
  8
1
  6
CONTINUOUS
 62
     7
 10
106.6977297059
 20
215.4013221749
 40
2.000000000000002
 50
180.0
 51
270.0
  0
LINE
  8
1
  6
CONTINUOUS
 62
     7
 10
104.6977297059
 20
196.4013221749
 11
102.3977297059
 21
196.4013221749
  0
ARC
  8
1
  6
CONTINUOUS
 62
     7
 10
118.6977297059
 20
215.4013221749
 40
2.000000000000002
 50
270.0
 51
0.0
  0
LINE
  8
1
  6
CONTINUOUS
 62
     7
 10
127.6977297058999
 20
213.4013221749
 11
124.9977297058999
 21
213.4013221749
  0
CIRCLE
  8
1
  6
CONTINUOUS
 62
     7
 10
131.6977297058999
 20
211.4013221749
 40
1.749999999999974
  0
LINE
  8
1
  6
CONTINUOUS
 62
     7
 10
103.9587826570998
 20
102.4537489651
 11
82.69772970619992
 21
101.7450472001
  0
LINE
  8
1
  6
CONTINUOUS
 62
     7
 10
103.9587826570998
 20
106.4537489651
 11
103.9587826570998
 21
104.3037489651001
  0
LINE
  8
1
  6
CONTINUOUS
 62
     7
 10
139.4977297058999
 20
151.1936563868
 11
139.4977297058999
 21
152.0592820326001
  0
LINE
  8
1
  6
CONTINUOUS
 62
     7
 10
103.9587826570998
 20
110.4537489651
 11
103.9587826570998
 21
108.3037489652001
  0
LINE
  8
1
  6
CONTINUOUS
 62
     7
 10
103.9587826570998
 20
94.45374896510003
 11
82.69772970589995
 21
93.74504720010002
  0
LINE
  8
1
  6
CONTINUOUS
 62
     7
 10
102.9306850721998
 20
116.2694790456
 11
102.9306850721998
 21
114.4194790456
  0
ARC
  8
1
  6
CONTINUOUS
 62
     7
 10
139.9977297058998
 20
151.1936563868
 40
0.5000000000000004
 50
180.0
 51
266.9999999999999
  0
LINE
  8
1
  6
CONTINUOUS
 62
     7
 10
82.69772970599986
 20
143.5950472001001
 11
103.9587826570998
 21
144.3037489651
  0
ARC
  8
1
  6
CONTINUOUS
 62
     7
 10
139.9977297058998
 20
144.0592820326001
 40
0.5000000000000004
 50
92.99999999999999
 51
180.0
  0
LINE
  8
1
  6
CONTINUOUS
 62
     7
 10
139.4977297058999
 20
143.1936563868
 11
139.4977297058999
 21
144.0592820326001
  0
LINE
  8
1
  6
CONTINUOUS
 62
     7
 10
139.9715617277999
 20
146.6943416194001
 11
142.6977297059
 21
146.5514692097001
  0
LINE
  8
1
  6
CONTINUOUS
 62
     7
 10
102.9306850721998
 20
96.2694790456001
 11
102.9306850721998
 21
94.41947904560003
  0
LINE
  8
1
  6
CONTINUOUS
 62
     7
 10
102.9306850721998
 20
108.2694790457
 11
102.9306850721998
 21
106.4194790456001
  0
LINE
  8
1
  6
CONTINUOUS
 62
     7
 10
102.9306850721998
 20
148.2694790456
 11
102.9306850721998
 21
146.4194790456001
  0
LINE
  8
1
  6
CONTINUOUS
 62
     7
 10
103.9587826570998
 20
118.4537489651
 11
103.9587826570998
 21
116.3037489651
  0
LINE
  8
1
  6
CONTINUOUS
 62
     7
 10
102.9306850721998
 20
104.2694790456
 11
102.9306850721998
 21
102.4194790457
  0
LINE
  8
1
  6
CONTINUOUS
 62
     7
 10
103.9587826570998
 20
98.45374896510003
 11
82.69772970619992
 21
97.74504720009999
  0
LINE
  8
1
  6
CONTINUOUS
 62
     7
 10
102.9306850721998
 20
100.2694790456
 11
102.9306850721998
 21
98.4194790457
  0
LINE
  8
1
  6
CONTINUOUS
 62
     7
 10
103.9587826570998
 20
94.45374896510003
 11
103.9587826570998
 21
92.30374896510001
  0
LINE
  8
1
  6
CONTINUOUS
 62
     7
 10
139.9715617277999
 20
144.5585968
 11
142.6977297059
 21
144.7014692097
  0
LINE
  8
1
  6
CONTINUOUS
 62
     7
 10
82.69772970619992
 20
123.5950472001
 11
103.9587826570998
 21
124.3037489651
  0
LINE
  8
1
  6
CONTINUOUS
 62
     7
 10
103.9587826570998
 20
150.4537489651001
 11
103.9587826570998
 21
148.3037489651
  0
ARC
  8
1
  6
CONTINUOUS
 62
     7
 10
139.9977297058998
 20
147.1936563868
 40
0.5000000000000004
 50
180.0
 51
266.9999999999999
  0
ARC
  8
1
  6
CONTINUOUS
 62
     7
 10
139.9977297058998
 20
143.1936563868
 40
0.5000000000000004
 50
180.0
 51
266.9999999999999
  0
LINE
  8
1
  6
CONTINUOUS
 62
     7
 10
103.9587826570998
 20
102.4537489651
 11
103.9587826570998
 21
100.3037489651
  0
LINE
  8
1
  6
CONTINUOUS
 62
     7
 10
103.9587826570998
 20
122.4537489651
 11
82.69772970619992
 21
121.7450472001001
  0
LINE
  8
1
  6
CONTINUOUS
 62
     7
 10
103.9587826570998
 20
114.4537489651
 11
103.9587826570998
 21
112.3037489651
  0
LINE
  8
1
  6
CONTINUOUS
 62
     7
 10
103.9587826570998
 20
98.45374896510003
 11
103.9587826570998
 21
96.3037489651
  0
LINE
  8
1
  6
CONTINUOUS
 62
     7
 10
82.69772970589995
 20
95.59504720010001
 11
103.9587826570998
 21
96.3037489651
  0
LINE
  8
1
  6
CONTINUOUS
 62
     7
 10
142.6977297059
 20
146.5514692097001
 11
142.6977297059
 21
144.7014692097
  0
LINE
  8
1
  6
CONTINUOUS
 62
     7
 10
139.9715617275998
 20
140.5585968
 11
142.6977297056999
 21
140.7014692097
  0
ARC
  8
1
  6
CONTINUOUS
 62
     7
 10
139.9977297056998
 20
140.0592820326001
 40
0.5000000000000004
 50
92.99999999999999
 51
180.0
  0
LINE
  8
1
  6
CONTINUOUS
 62
     7
 10
142.6977297056999
 20
122.5514692097
 11
142.6977297056999
 21
120.7014692097
  0
LINE
  8
1
  6
CONTINUOUS
 62
     7
 10
102.9306850721998
 20
144.2694790456
 11
102.9306850721998
 21
142.4194790456001
  0
LINE
  8
1
  6
CONTINUOUS
 62
     7
 10
139.9715617275998
 20
120.5585968
 11
142.6977297056999
 21
120.7014692097
  0
LINE
  8
1
  6
CONTINUOUS
 62
     7
 10
102.9306850721998
 20
120.2694790456
 11
102.9306850721998
 21
118.4194790456
  0
LINE
  8
1
  6
CONTINUOUS
 62
     7
 10
103.9587826570998
 20
142.4537489651001
 11
82.69772970619992
 21
141.7450472001001
  0
LINE
  8
1
  6
CONTINUOUS
 62
     7
 10
103.9587826570998
 20
110.4537489651
 11
82.6977297064
 21
109.7450472001001
  0
LINE
  8
1
  6
CONTINUOUS
 62
     7
 10
139.9715617277999
 20
148.5585968
 11
142.6977297059
 21
148.7014692097
  0
ARC
  8
1
  6
CONTINUOUS
 62
     7
 10
139.9977297056998
 20
120.0592820326001
 40
0.5000000000000004
 50
92.99999999999999
 51
180.0
  0
LINE
  8
1
  6
CONTINUOUS
 62
     7
 10
102.9306850721998
 20
110.4194790456001
 11
103.9587826570998
 21
110.4537489651
  0
LINE
  8
1
  6
CONTINUOUS
 62
     7
 10
139.9715617275998
 20
118.6943416194
 11
142.6977297056999
 21
118.5514692097001
  0
LINE
  8
1
  6
CONTINUOUS
 62
     7
 10
103.9587826570998
 20
122.4537489651
 11
103.9587826570998
 21
120.3037489651
  0
LINE
  8
1
  6
CONTINUOUS
 62
     7
 10
102.9306850721998
 20
112.2694790456
 11
102.9306850721998
 21
110.4194790456
  0
LINE
  8
1
  6
CONTINUOUS
 62
     7
 10
102.9306850721998
 20
124.2694790456
 11
102.9306850721998
 21
122.4194790456
  0
LINE
  8
1
  6
CONTINUOUS
 62
     7
 10
139.9715617277999
 20
150.6943416194001
 11
142.6977297059
 21
150.5514692097001
  0
LINE
  8
1
  6
CONTINUOUS
 62
     7
 10
82.69772970599986
 20
119.5950472001
 11
103.9587826570998
 21
120.3037489651
  0
LINE
  8
1
  6
CONTINUOUS
 62
     7
 10
139.9715617277999
 20
142.6943416194001
 11
142.6977297059
 21
142.5514692097001
  0
ARC
  8
1
  6
CONTINUOUS
 62
     7
 10
139.9977297058998
 20
148.0592820326001
 40
0.5000000000000004
 50
92.99999999999999
 51
180.0
  0
LINE
  8
1
  6
CONTINUOUS
 62
     7
 10
82.69772970599986
 20
103.5950472001
 11
103.9587826570998
 21
104.3037489651001
  0
LINE
  8
1
  6
CONTINUOUS
 62
     7
 10
82.69772970619992
 20
99.59504720010001
 11
103.9587826570998
 21
100.3037489651
  0
LINE
  8
1
  6
CONTINUOUS
 62
     7
 10
103.9587826570998
 20
106.4537489651
 11
82.6977297064
 21
105.7450472001001
  0
LINE
  8
1
  6
CONTINUOUS
 62
     7
 10
142.6977297059
 20
142.5514692097001
 11
142.6977297059
 21
140.7014692097
  0
LINE
  8
1
  6
CONTINUOUS
 62
     7
 10
103.9587826570998
 20
146.4537489651001
 11
103.9587826570998
 21
144.3037489651
  0
LINE
  8
1
  6
CONTINUOUS
 62
     7
 10
139.4977297058999
 20
148.0592820326001
 11
139.4977297058999
 21
147.1936563868
  0
LINE
  8
1
  6
CONTINUOUS
 62
     7
 10
142.6977297056999
 20
118.5514692097
 11
142.6977297056999
 21
116.7014692097
  0
LINE
  8
1
  6
CONTINUOUS
 62
     7
 10
139.4977297056998
 20
119.1936563868
 11
139.4977297056998
 21
120.0592820326
  0
LINE
  8
1
  6
CONTINUOUS
 62
     7
 10
82.69772970619992
 20
107.5950472001
 11
103.9587826570998
 21
108.3037489652001
  0
LINE
  8
1
  6
CONTINUOUS
 62
     7
 10
82.69772970589995
 20
115.5950472001
 11
103.9587826570998
 21
116.3037489651
  0
LINE
  8
1
  6
CONTINUOUS
 62
     7
 10
82.69772970599986
 20
111.5950472001
 11
103.9587826570998
 21
112.3037489651
  0
LINE
  8
1
  6
CONTINUOUS
 62
     7
 10
103.9587826570998
 20
114.4537489651
 11
82.69772970599986
 21
113.7450472001001
  0
LINE
  8
1
  6
CONTINUOUS
 62
     7
 10
142.6977297059
 20
150.5514692097001
 11
142.6977297059
 21
148.7014692097
  0
LINE
  8
1
  6
CONTINUOUS
 62
     7
 10
103.9587826570998
 20
118.4537489651
 11
82.69772970619992
 21
117.7450472001001
  0
LINE
  8
1
  6
CONTINUOUS
 62
     7
 10
103.9587826570998
 20
142.4537489651001
 11
103.9587826570998
 21
140.3037489651
  0
ARC
  8
1
  6
CONTINUOUS
 62
     7
 10
139.9977297056998
 20
100.0592820326
 40
0.5000000000000004
 50
92.99999999999999
 51
180.0
  0
ARC
  8
1
  6
CONTINUOUS
 62
     7
 10
139.9977297056998
 20
112.0592820326
 40
0.5000000000000004
 50
92.99999999999999
 51
180.0
  0
LINE
  8
1
  6
CONTINUOUS
 62
     7
 10
139.4977297056998
 20
100.0592820326
 11
139.4977297056998
 21
99.19365638680009
  0
LINE
  8
1
  6
CONTINUOUS
 62
     7
 10
139.9715617275998
 20
110.6943416194
 11
142.6977297056999
 21
110.5514692097001
  0
ARC
  8
1
  6
CONTINUOUS
 62
     7
 10
139.9977297056998
 20
95.19365638680007
 40
0.5000000000000004
 50
180.0
 51
266.9999999999999
  0
LINE
  8
1
  6
CONTINUOUS
 62
     7
 10
142.6977297059
 20
94.5514692097
 11
142.6977297059
 21
92.70146920970001
  0
LINE
  8
1
  6
CONTINUOUS
 62
     7
 10
139.4977297056998
 20
107.1936563868
 11
139.4977297056998
 21
108.0592820326
  0
LINE
  8
1
  6
CONTINUOUS
 62
     7
 10
139.9715617275998
 20
94.69434161940002
 11
142.6977297056999
 21
94.5514692097
  0
LINE
  8
1
  6
CONTINUOUS
 62
     7
 10
142.6977297056999
 20
94.5514692097
 11
121.4366767546999
 21
93.84276744470002
  0
LINE
  8
1
  6
CONTINUOUS
 62
     7
 10
121.4366767546999
 20
95.99276744470006
 11
142.6977297055998
 21
96.70146920970005
  0
LINE
  8
1
  6
CONTINUOUS
 62
     7
 10
139.4977297056998
 20
115.1936563868
 11
139.4977297056998
 21
116.0592820326
  0
ARC
  8
1
  6
CONTINUOUS
 62
     7
 10
139.9977297056998
 20
119.1936563868
 40
0.5000000000000004
 50
180.0
 51
266.9999999999999
  0
LINE
  8
1
  6
CONTINUOUS
 62
     7
 10
139.9715617275998
 20
106.6943416194
 11
142.6977297056999
 21
106.5514692097001
  0
ARC
  8
1
  6
CONTINUOUS
 62
     7
 10
139.9977297056998
 20
96.05928203260002
 40
0.5000000000000004
 50
92.99999999999999
 51
180.0
  0
LINE
  8
1
  6
CONTINUOUS
 62
     7
 10
139.9715617275998
 20
112.5585968
 11
142.6977297056999
 21
112.7014692097
  0
LINE
  8
1
  6
CONTINUOUS
 62
     7
 10
142.6977297056999
 20
114.5514692097
 11
142.6977297056999
 21
112.7014692097
  0
LINE
  8
1
  6
CONTINUOUS
 62
     7
 10
142.6977297056999
 20
106.5514692097
 11
142.6977297056999
 21
104.7014692097
  0
LINE
  8
1
  6
CONTINUOUS
 62
     7
 10
139.9715617275998
 20
108.5585968
 11
142.6977297056999
 21
108.7014692097
  0
ARC
  8
1
  6
CONTINUOUS
 62
     7
 10
139.9977297056998
 20
99.19365638680009
 40
0.5000000000000004
 50
180.0
 51
266.9999999999999
  0
LINE
  8
1
  6
CONTINUOUS
 62
     7
 10
142.6977297056999
 20
100.7014692097
 11
121.4366767546999
 21
99.99276744470001
  0
LINE
  8
1
  6
CONTINUOUS
 62
     7
 10
139.4977297056998
 20
124.0592820326001
 11
139.4977297056998
 21
123.1936563868
  0
LINE
  8
1
  6
CONTINUOUS
 62
     7
 10
139.4977297056998
 20
112.0592820326
 11
139.4977297056998
 21
111.1936563868
  0
LINE
  8
1
  6
CONTINUOUS
 62
     7
 10
139.9715617275998
 20
100.5585968000001
 11
142.6977297056999
 21
100.7014692097001
  0
LINE
  8
1
  6
CONTINUOUS
 62
     7
 10
139.9715617275998
 20
114.6943416194
 11
142.6977297056999
 21
114.5514692097001
  0
LINE
  8
1
  6
CONTINUOUS
 62
     7
 10
121.4366767546999
 20
105.8427674447001
 11
142.6977297056999
 21
106.5514692097001
  0
LINE
  8
1
  6
CONTINUOUS
 62
     7
 10
121.4366767546999
 20
109.8427674447001
 11
142.6977297056999
 21
110.5514692097001
  0
LINE
  8
1
  6
CONTINUOUS
 62
     7
 10
121.4366767546999
 20
113.8427674447001
 11
142.6977297054
 21
114.5514692097001
  0
ARC
  8
1
  6
CONTINUOUS
 62
     7
 10
139.9977297056998
 20
108.0592820326
 40
0.5000000000000004
 50
92.99999999999999
 51
180.0
  0
LINE
  8
1
  6
CONTINUOUS
 62
     7
 10
121.4366767546999
 20
117.8427674447
 11
142.6977297055998
 21
118.5514692097
  0
LINE
  8
1
  6
CONTINUOUS
 62
     7
 10
142.6977297055998
 20
120.7014692097
 11
121.4366767546999
 21
119.9927674447
  0
LINE
  8
1
  6
CONTINUOUS
 62
     7
 10
139.9715617275998
 20
124.5585968
 11
142.6977297056999
 21
124.7014692097
  0
ARC
  8
1
  6
CONTINUOUS
 62
     7
 10
139.9977297056998
 20
115.1936563868
 40
0.5000000000000004
 50
180.0
 51
266.9999999999999
  0
LINE
  8
1
  6
CONTINUOUS
 62
     7
 10
139.9715617275998
 20
116.5585968
 11
142.6977297056999
 21
116.7014692097
  0
ARC
  8
1
  6
CONTINUOUS
 62
     7
 10
139.9977297056998
 20
116.0592820326001
 40
0.5000000000000004
 50
92.99999999999999
 51
180.0
  0
LINE
  8
1
  6
CONTINUOUS
 62
     7
 10
121.4366767546999
 20
121.8427674447
 11
142.6977297055998
 21
122.5514692097
  0
LINE
  8
1
  6
CONTINUOUS
 62
     7
 10
142.6977297056999
 20
140.7014692097
 11
121.4366767546999
 21
139.9927674446001
  0
LINE
  8
1
  6
CONTINUOUS
 62
     7
 10
139.4977297056998
 20
103.1936563868
 11
139.4977297056998
 21
104.0592820326
  0
LINE
  8
1
  6
CONTINUOUS
 62
     7
 10
121.4366767546999
 20
97.84276744470007
 11
142.6977297055998
 21
98.55146920970006
  0
LINE
  8
1
  6
CONTINUOUS
 62
     7
 10
142.6977297055998
 20
112.7014692097
 11
121.4366767546999
 21
111.9927674447
  0
LINE
  8
1
  6
CONTINUOUS
 62
     7
 10
121.4366767546999
 20
141.8427674446001
 11
142.6977297055998
 21
142.5514692097001
  0
LINE
  8
1
  6
CONTINUOUS
 62
     7
 10
142.6977297055998
 20
144.7014692097
 11
121.4366767546999
 21
143.9927674446001
  0
ARC
  8
1
  6
CONTINUOUS
 62
     7
 10
139.9977297056998
 20
111.1936563868
 40
0.5000000000000004
 50
180.0
 51
266.9999999999999
  0
LINE
  8
1
  6
CONTINUOUS
 62
     7
 10
139.9715617275998
 20
98.69434161940002
 11
142.6977297056999
 21
98.5514692097
  0
LINE
  8
1
  6
CONTINUOUS
 62
     7
 10
121.4366767546999
 20
145.8427674446001
 11
142.6977297055998
 21
146.5514692097001
  0
LINE
  8
1
  6
CONTINUOUS
 62
     7
 10
139.9715617275998
 20
122.6943416194
 11
142.6977297056999
 21
122.5514692097001
  0
LINE
  8
1
  6
CONTINUOUS
 62
     7
 10
142.6977297059
 20
148.7014692097
 11
121.4366767546999
 21
147.9927674447
  0
LINE
  8
1
  6
CONTINUOUS
 62
     7
 10
121.4366767546999
 20
149.8427674447
 11
142.6977297059
 21
150.5514692097
  0
LINE
  8
1
  6
CONTINUOUS
 62
     7
 10
142.6977297056999
 20
116.7014692097
 11
121.4366767546999
 21
115.9927674447
  0
LINE
  8
1
  6
CONTINUOUS
 62
     7
 10
142.6977297056999
 20
124.7014692097
 11
121.4366767546999
 21
123.9927674446
  0
ARC
  8
1
  6
CONTINUOUS
 62
     7
 10
139.9977297056998
 20
124.0592820326001
 40
0.5000000000000004
 50
92.99999999999999
 51
180.0
  0
LINE
  8
1
  6
CONTINUOUS
 62
     7
 10
139.9715617275998
 20
96.55859680000009
 11
142.6977297056999
 21
96.70146920970005
  0
LINE
  8
1
  6
CONTINUOUS
 62
     7
 10
142.6977297056999
 20
98.5514692097
 11
142.6977297056999
 21
96.7014692097
  0
LINE
  8
1
  6
CONTINUOUS
 62
     7
 10
121.4366767546999
 20
101.8427674447001
 11
142.6977297055998
 21
102.5514692097001
  0
LINE
  8
1
  6
CONTINUOUS
 62
     7
 10
142.6977297059
 20
104.7014692097
 11
121.4366767546999
 21
103.9927674447
  0
ARC
  8
1
  6
CONTINUOUS
 62
     7
 10
139.9977297056998
 20
107.1936563868
 40
0.5000000000000004
 50
180.0
 51
266.9999999999999
  0
LINE
  8
1
  6
CONTINUOUS
 62
     7
 10
139.4977297056998
 20
95.19365638680007
 11
139.4977297056998
 21
96.05928203260002
  0
LINE
  8
1
  6
CONTINUOUS
 62
     7
 10
142.6977297056999
 20
108.7014692097
 11
121.4366767546999
 21
107.9927674447
  0
ARC
  8
1
  6
CONTINUOUS
 62
     7
 10
139.9977297056998
 20
103.1936563868
 40
0.5000000000000004
 50
180.0
 51
266.9999999999999
  0
ARC
  8
1
  6
CONTINUOUS
 62
     7
 10
139.9977297056998
 20
123.1936563868
 40
0.5000000000000004
 50
180.0
 51
266.9999999999999
  0
LINE
  8
1
  6
CONTINUOUS
 62
     7
 10
142.6977297056999
 20
110.5514692097
 11
142.6977297056999
 21
108.7014692097
  0
LINE
  8
1
  6
CONTINUOUS
 62
     7
 10
139.9715617275998
 20
104.5585968
 11
142.6977297056999
 21
104.7014692097
  0
ARC
  8
1
  6
CONTINUOUS
 62
     7
 10
139.9977297056998
 20
104.0592820326
 40
0.5000000000000004
 50
92.99999999999999
 51
180.0
  0
LINE
  8
1
  6
CONTINUOUS
 62
     7
 10
142.6977297056999
 20
102.5514692097
 11
142.6977297056999
 21
100.7014692097
  0
LINE
  8
1
  6
CONTINUOUS
 62
     7
 10
139.9715617275998
 20
102.6943416194
 11
142.6977297056999
 21
102.5514692097001
  0
LINE
  8
1
  6
CONTINUOUS
 62
     7
 10
121.4366767546999
 20
141.8427674446001
 11
121.4366767546999
 21
143.9927674446001
  0
LINE
  8
1
  6
CONTINUOUS
 62
     7
 10
121.4366767546999
 20
101.8427674447001
 11
121.4366767546999
 21
103.9927674447001
  0
LINE
  8
1
  6
CONTINUOUS
 62
     7
 10
122.4647743395999
 20
148.0270373642001
 11
122.4647743395999
 21
149.8770373642001
  0
LINE
  8
1
  6
CONTINUOUS
 62
     7
 10
121.4366767546999
 20
97.84276744470007
 11
121.4366767546999
 21
99.99276744470006
  0
LINE
  8
1
  6
CONTINUOUS
 62
     7
 10
122.4647743395999
 20
104.0270373642
 11
122.4647743395999
 21
105.8770373642
  0
LINE
  8
1
  6
CONTINUOUS
 62
     7
 10
122.4647743395999
 20
96.02703736420001
 11
122.4647743395999
 21
97.87703736419998
  0
LINE
  8
1
  6
CONTINUOUS
 62
     7
 10
121.4366767546999
 20
149.8427674447
 11
121.4366767546999
 21
151.9927674447
  0
LINE
  8
1
  6
CONTINUOUS
 62
     7
 10
121.4366767546999
 20
105.8427674447001
 11
121.4366767546999
 21
107.9927674447
  0
LINE
  8
1
  6
CONTINUOUS
 62
     7
 10
121.4366767546999
 20
113.8427674447001
 11
121.4366767546999
 21
115.9927674447
  0
LINE
  8
1
  6
CONTINUOUS
 62
     7
 10
121.4366767546999
 20
121.8427674447
 11
121.4366767546999
 21
123.9927674446
  0
LINE
  8
1
  6
CONTINUOUS
 62
     7
 10
94.61401723089979
 20
139.9922567843
 11
103.9587826570998
 21
140.3037489651
  0
LINE
  8
1
  6
CONTINUOUS
 62
     7
 10
93.17488095059988
 20
152.14413143
 11
82.69772970589995
 21
151.5950472001
  0
LINE
  8
1
  6
CONTINUOUS
 62
     7
 10
125.9775963159
 20
152.14413143
 11
121.4366767546999
 21
151.9927674447
  0
ARC
  8
1
  6
CONTINUOUS
 62
     7
 10
85.39772970589986
 20
92.23723437720002
 40
0.5000000000000004
 50
349.3197462866
 51
0.0
  0
LINE
  8
1
  6
CONTINUOUS
 62
     7
 10
121.4366767546999
 20
93.84276744470007
 11
121.4366767546999
 21
95.99276744470006
  0
LINE
  8
1
  6
CONTINUOUS
 62
     7
 10
122.4647743395999
 20
116.0270373642
 11
122.4647743395999
 21
117.8770373642
  0
LINE
  8
1
  6
CONTINUOUS
 62
     7
 10
102.9306850721998
 20
92.26947904560004
 11
102.9306850721998
 21
92.14691446700002
  0
LINE
  8
1
  6
CONTINUOUS
 62
     7
 10
122.4647743395999
 20
124.0270373641
 11
122.4647743395999
 21
124.9922567843
  0
LINE
  8
1
  6
CONTINUOUS
 62
     7
 10
122.4647743395999
 20
120.0270373642
 11
122.4647743395999
 21
121.8770373642
  0
LINE
  8
1
  6
CONTINUOUS
 62
     7
 10
122.4647743395999
 20
140.0270373641
 11
122.4647743395999
 21
141.8770373641001
  0
LINE
  8
1
  6
CONTINUOUS
 62
     7
 10
85.89772970599974
 20
124.9922567843
 11
85.89772970599974
 21
124.2372343772
  0
LINE
  8
1
  6
CONTINUOUS
 62
     7
 10
142.6977297059
 20
124.9922567843
 11
142.6977297056999
 21
124.7014692097
  0
LINE
  8
1
  6
CONTINUOUS
 62
     7
 10
102.9306850721998
 20
152.14413143
 11
102.9306850721998
 21
150.4194790456
  0
LINE
  8
1
  6
CONTINUOUS
 62
     7
 10
99.23851199489997
 20
92.14640660970005
 11
103.9587826570998
 21
92.30374896510007
  0
LINE
  8
1
  6
CONTINUOUS
 62
     7
 10
102.9306850721998
 20
140.2694790456
 11
102.9306850721998
 21
139.9922567843001
  0
LINE
  8
1
  6
CONTINUOUS
 62
     7
 10
103.9587826570998
 20
124.9922567843
 11
103.9587826570998
 21
124.3037489651
  0
LINE
  8
1
  6
CONTINUOUS
 62
     7
 10
122.4647743395999
 20
92.14960137520004
 11
122.4647743395999
 21
93.87703736420002
  0
ARC
  8
1
  6
CONTINUOUS
 62
     7
 10
85.3977297059998
 20
140.2372343772
 40
0.5000000000000004
 50
330.6623638893
 51
0.0
  0
LINE
  8
1
  6
CONTINUOUS
 62
     7
 10
121.4366767546999
 20
145.8427674446001
 11
121.4366767546999
 21
147.9927674447
  0
LINE
  8
1
  6
CONTINUOUS
 62
     7
 10
122.4647743395999
 20
100.0270373642
 11
122.4647743395999
 21
101.8770373642
  0
LINE
  8
1
  6
CONTINUOUS
 62
     7
 10
121.4366767546999
 20
117.8427674447
 11
121.4366767546999
 21
119.9927674447
  0
LINE
  8
1
  6
CONTINUOUS
 62
     7
 10
122.4647743395999
 20
112.0270373642
 11
122.4647743395999
 21
113.8770373642
  0
LINE
  8
1
  6
CONTINUOUS
 62
     7
 10
122.4647743395999
 20
144.0270373641
 11
122.4647743395999
 21
145.8770373641
  0
LINE
  8
1
  6
CONTINUOUS
 62
     7
 10
121.4366767546999
 20
109.8427674447001
 11
121.4366767546999
 21
111.9927674447
  0
LINE
  8
1
  6
CONTINUOUS
 62
     7
 10
122.4647743395999
 20
108.0270373642
 11
122.4647743395999
 21
109.8770373642
  0
ARC
  8
1
  6
CONTINUOUS
 62
     7
 10
93.69772970589985
 20
211.4013221749
 40
4.000000000000004
 50
228.7694228451
 51
323.1301023542
  0
ARC
  8
1
  6
CONTINUOUS
 62
     7
 10
90.07272970589986
 20
207.264974148
 40
1.500000000000001
 50
48.7694228451
 51
192.8469498521
  0
ARC
  8
1
  6
CONTINUOUS
 62
     7
 10
112.6977297059
 20
211.4013221749
 40
27.29999999999999
 50
70.9743011107
 51
109.0256988893
  0
ARC
  8
1
  6
CONTINUOUS
 62
     7
 10
112.6977297059
 20
159.4013221749001
 40
1.249999999999973
 50
180.0
 51
0.0
  0
ARC
  8
1
  6
CONTINUOUS
 62
     7
 10
106.6977297059
 20
207.4013221749
 40
2.000000000000002
 50
90.0
 51
180.0
  0
ARC
  8
1
  6
CONTINUOUS
 62
     7
 10
112.6977297059
 20
211.4013221749
 40
24.49999999999996
 50
10.3605113754
 51
56.8613684587
  0
ARC
  8
1
  6
CONTINUOUS
 62
     7
 10
131.6977297058999
 20
211.4013221749
 40
4.000000000000004
 50
216.8698976458
 51
311.2305771549
  0
ARC
  8
1
  6
CONTINUOUS
 62
     7
 10
131.6977297058999
 20
211.4013221749
 40
4.000000000000004
 50
48.7694228451
 51
143.1301023542
  0
ARC
  8
1
  6
CONTINUOUS
 62
     7
 10
93.69772970589985
 20
211.4013221749
 40
4.000000000000004
 50
36.8698976458
 51
131.2305771549
  0
ARC
  8
1
  6
CONTINUOUS
 62
     7
 10
135.3227297058999
 20
207.264974148
 40
1.500000000000001
 50
347.1530501479
 51
131.2305771549
  0
LINE
  8
1
  6
CONTINUOUS
 62
     7
 10
104.6977297059
 20
234.5583945287001
 11
120.6977297059
 21
234.5583945287001
  0
ARC
  8
1
  6
CONTINUOUS
 62
     7
 10
112.6977297059
 20
211.4013221749
 40
24.49999999999996
 50
123.1386315413
 51
169.6394886246
  0
ARC
  8
1
  6
CONTINUOUS
 62
     7
 10
112.6977297059
 20
211.4013221749
 40
24.49999999999996
 50
190.3605113754
 51
236.8613684587
  0
LINE
  8
1
  6
CONTINUOUS
 62
     7
 10
120.6977297059
 20
188.2442498211001
 11
104.6977297059
 21
188.2442498211001
  0
ARC
  8
1
  6
CONTINUOUS
 62
     7
 10
90.07272970589986
 20
215.5376702019
 40
1.500000000000001
 50
167.1530501479
 51
311.2305771549
  0
ARC
  8
1
  6
CONTINUOUS
 62
     7
 10
60.69772970589992
 20
211.4013221749
 40
1.249999999999973
 50
90.0
 51
270.0
  0
ARC
  8
1
  6
CONTINUOUS
 62
     7
 10
135.3227297058999
 20
215.5376702019
 40
1.500000000000001
 50
228.7694228451
 51
12.84694985200002
  0
ARC
  8
1
  6
CONTINUOUS
 62
     7
 10
112.6977297059
 20
211.4013221749
 40
24.49999999999996
 50
303.1386315413
 51
349.6394886246
  0
ARC
  8
1
  6
CONTINUOUS
 62
     7
 10
112.6977297059
 20
211.4013221749
 40
30.00000000000002
 50
109.0
 51
251.0
  0
ARC
  8
1
  6
CONTINUOUS
 62
     7
 10
164.6977297059
 20
211.4013221749
 40
1.249999999999973
 50
270.0
 51
90.0
  0
ARC
  8
1
  6
CONTINUOUS
 62
     7
 10
112.6977297059
 20
211.4013221749
 40
27.29999999999999
 50
250.9743011107
 51
289.0256988893
  0
ENDSEC
  0
EOF
