  0
SECTION
  2
HEADER
  9
$ACADVER
  1
AC1006
  9
$DWGCODEPAGE
  3
ansi_932
  9
$INSBASE
 10
0.0
 20
0.0
 30
0.0
  9
$EXTMIN
 10
701.9999999999999
 20
85.34090909090912
  9
$EXTMAX
 10
927.0
 20
268.0
  9
$LIMMIN
 10
0.0
 20
0.0
  9
$LIMMAX
 10
12.0
 20
9.0
  9
$ORTHOMODE
 70
     0
  9
$REGENMODE
 70
     1
  9
$FILLMODE
 70
     1
  9
$QTEXTMODE
 70
     0
  9
$MIRRTEXT
 70
     1
  9
$DRAGMODE
 70
     2
  9
$LTSCALE
 40
1.0
  9
$OSMODE
 70
    37
  9
$ATTMODE
 70
     1
  9
$TEXTSIZE
 40
0.2
  9
$TRACEWID
 40
0.05
  9
$TEXTSTYLE
  7
STANDARD
  9
$CLAYER
  8
0
  9
$CELTYPE
  6
BYLAYER
  9
$CECOLOR
 62
   256
  9
$DIMSCALE
 40
1.0
  9
$DIMASZ
 40
3.0
  9
$DIMEXO
 40
0.0625
  9
$DIMDLI
 40
0.38
  9
$DIMRND
 40
0.0
  9
$DIMDLE
 40
0.0
  9
$DIMEXE
 40
1.5
  9
$DIMTP
 40
0.0
  9
$DIMTM
 40
0.0
  9
$DIMTXT
 40
3.0
  9
$DIMCEN
 40
0.09
  9
$DIMTSZ
 40
0.0
  9
$DIMTOL
 70
     0
  9
$DIMLIM
 70
     0
  9
$DIMTIH
 70
     1
  9
$DIMTOH
 70
     1
  9
$DIMSE1
 70
     0
  9
$DIMSE2
 70
     0
  9
$DIMTAD
 70
     1
  9
$DIMZIN
 70
     0
  9
$DIMBLK
  1

  9
$DIMASO
 70
     1
  9
$DIMSHO
 70
     1
  9
$DIMPOST
  1

  9
$DIMAPOST
  1

  9
$DIMALT
 70
     0
  9
$DIMALTD
 70
     2
  9
$DIMALTF
 40
25.4
  9
$DIMLFAC
 40
1.0
  9
$DIMTOFL
 70
     0
  9
$DIMTVP
 40
0.0
  9
$DIMTIX
 70
     0
  9
$DIMSOXD
 70
     0
  9
$DIMSAH
 70
     0
  9
$DIMBLK1
  1

  9
$DIMBLK2
  1

  9
$LUNITS
 70
     2
  9
$LUPREC
 70
     4
  9
$SKETCHINC
 40
0.1
  9
$FILLETRAD
 40
0.5
  9
$AUNITS
 70
     0
  9
$AUPREC
 70
     0
  9
$MENU
  1
.
  9
$ELEVATION
 40
0.0
  9
$THICKNESS
 40
0.0
  9
$LIMCHECK
 70
     0
  9
$CHAMFERA
 40
0.0
  9
$CHAMFERB
 40
0.0
  9
$SKPOLY
 70
     0
  9
$TDCREATE
 40
2460367.56245787
  9
$TDUPDATE
 40
2460367.562458275
  9
$TDINDWG
 40
0.0000000116
  9
$TDUSRTIMER
 40
0.0000000116
  9
$USRTIMER
 70
     1
  9
$ANGBASE
 50
0.0
  9
$ANGDIR
 70
     0
  9
$PDMODE
 70
     0
  9
$PDSIZE
 40
0.0
  9
$PLINEWID
 40
0.0
  9
$COORDS
 70
     1
  9
$SPLFRAME
 70
     0
  9
$SPLINETYPE
 70
     6
  9
$SPLINESEGS
 70
     8
  9
$ATTDIA
 70
     0
  9
$ATTREQ
 70
     1
  9
$HANDLING
 70
     1
  9
$HANDSEED
  5
120
  9
$SURFTAB1
 70
     6
  9
$SURFTAB2
 70
     6
  9
$SURFTYPE
 70
     6
  9
$SURFU
 70
     6
  9
$SURFV
 70
     6
  9
$UCSNAME
  2

  9
$UCSORG
 10
0.0
 20
0.0
 30
0.0
  9
$UCSXDIR
 10
1.0
 20
0.0
 30
0.0
  9
$UCSYDIR
 10
0.0
 20
1.0
 30
0.0
  9
$USERI1
 70
     0
  9
$USERI2
 70
     0
  9
$USERI3
 70
     0
  9
$USERI4
 70
     0
  9
$USERI5
 70
     0
  9
$USERR1
 40
0.0
  9
$USERR2
 40
0.0
  9
$USERR3
 40
0.0
  9
$USERR4
 40
0.0
  9
$USERR5
 40
0.0
  9
$WORLDVIEW
 70
     1
  0
ENDSEC
  0
SECTION
  2
TABLES
  0
TABLE
  2
VPORT
 70
     1
  0
VPORT
  2
*ACTIVE
 70
     0
 10
0.0
 20
0.0
 11
1.0
 21
1.0
 12
814.5
 22
176.6704545454546
 13
0.0
 23
0.0
 14
0.5
 24
0.5
 15
0.5
 25
0.5
 16
0.0
 26
0.0
 36
1.0
 17
0.0
 27
0.0
 37
0.0
 40
182.6590909090909
 41
1.6
 42
50.0
 43
0.0
 44
0.0
 50
0.0
 51
0.0
 71
     0
 72
   100
 73
     1
 74
     3
 75
     0
 76
     0
 77
     0
 78
     0
  0
ENDTAB
  0
TABLE
  2
LTYPE
 70
     2
  0
LTYPE
  2
CONTINUOUS
 70
     0
  3
Solid line
 72
    65
 73
     0
 40
0.0
  0
LTYPE
  2
CENTER
 70
     0
  3

 72
    65
 73
     0
 40
0.0
  0
ENDTAB
  0
TABLE
  2
LAYER
 70
     2
  0
LAYER
  2
0
 70
     0
 62
     7
  6
CONTINUOUS
  0
LAYER
  2
1
 70
     0
 62
     7
  6
CONTINUOUS
  0
ENDTAB
  0
TABLE
  2
STYLE
 70
     2
  0
STYLE
  2
STANDARD
 70
     0
 40
0.0
 41
1.0
 50
0.0
 71
     0
 42
0.2
  3
txt
  4

  0
STYLE
  2
ＭＳ_ゴシック
 70
     0
 40
0.0
 41
1.0
 50
0.0
 71
     0
 42
0.2
  3
ＭＳ ゴシック.shx
  4

  0
ENDTAB
  0
TABLE
  2
VIEW
 70
     0
  0
ENDTAB
  0
TABLE
  2
UCS
 70
     0
  0
ENDTAB
  0
ENDSEC
  0
SECTION
  2
BLOCKS
  0
BLOCK
  8
0
  2
D_FRAME_VIEW_3341
 70
     0
 10
0.0
 20
0.0
 30
0.0
  0
LINE
  5
71
  8
1
  6
CONTINUOUS
 62
     7
 10
709.4999999999999
 20
257.4
 30
0.0
 11
709.4999999999999
 21
259.0
 31
0.0
  0
LINE
  5
72
  8
1
  6
CONTINUOUS
 62
     7
 10
731.4999999999999
 20
259.0
 30
0.0
 11
731.4999999999999
 21
257.4
 31
0.0
  0
CIRCLE
  5
73
  8
1
  6
CONTINUOUS
 62
     7
 10
719.1999999999998
 20
238.8
 30
0.0
 40
11.00000000000001
  0
ARC
  5
74
  8
1
  6
CONTINUOUS
 62
     7
 10
719.1999999999998
 20
238.8
 30
0.0
 40
13.69999999999999
 50
90.0
 51
270.0
  0
ARC
  5
75
  8
1
  6
CONTINUOUS
 62
     7
 10
732.8998999999998
 20
243.3001
 30
0.0
 40
0.4998999999999976
 50
90.00000000000011
 51
180.0000000000004
  0
ARC
  5
76
  8
1
  6
CONTINUOUS
 62
     7
 10
732.8998999999998
 20
234.2999
 30
0.0
 40
0.4998999999999976
 50
180.0
 51
270.0000000000003
  0
LINE
  5
77
  8
1
  6
CONTINUOUS
 62
     7
 10
732.3999999999999
 20
234.2999
 30
0.0
 11
732.3999999999999
 21
243.3001
 31
0.0
  0
LINE
  5
78
  8
1
  6
CONTINUOUS
 62
     7
 10
732.8999999999999
 20
233.8
 30
0.0
 11
734.4999999999999
 21
233.8
 31
0.0
  0
LINE
  5
79
  8
1
  6
CONTINUOUS
 62
     7
 10
732.8999999999999
 20
218.2000000000002
 30
0.0
 11
734.4999999999999
 21
218.2000000000002
 31
0.0
  0
LINE
  5
7A
  8
1
  6
CONTINUOUS
 62
     7
 10
734.4999999999999
 20
181.0
 30
0.0
 11
732.8999999999999
 21
181.0
 31
0.0
  0
LINE
  5
7B
  8
1
  6
CONTINUOUS
 62
     7
 10
734.4999999999999
 20
215.8
 30
0.0
 11
732.8999999999999
 21
215.8
 31
0.0
  0
ARC
  5
7C
  8
1
  6
CONTINUOUS
 62
     7
 10
732.8999999999999
 20
257.4
 30
0.0
 40
1.600000000000046
 50
0.0
 51
90.0
  0
ENDBLK
  8
0
  0
BLOCK
  8
0
  2
D_FRAME_VIEW_3403
 70
     0
 10
0.0
 20
0.0
 30
0.0
  0
LINE
  5
81
  8
1
  6
CONTINUOUS
 62
     7
 10
791.5
 20
142.9
 30
0.0
 11
791.5
 21
144.5
 31
0.0
  0
LINE
  5
82
  8
1
  6
CONTINUOUS
 62
     7
 10
853.2
 20
144.5
 30
0.0
 11
853.2
 21
142.9
 31
0.0
  0
LINE
  5
83
  8
1
  6
CONTINUOUS
 62
     7
 10
912.5
 20
144.5
 30
0.0
 11
912.5
 21
142.9
 31
0.0
  0
LINE
  5
84
  8
1
  6
CONTINUOUS
 62
     7
 10
850.8000000000001
 20
142.9
 30
0.0
 11
850.8000000000001
 21
144.5
 31
0.0
  0
ARC
  5
85
  8
1
  6
CONTINUOUS
 62
     7
 10
790.4999999999999
 20
142.9
 30
0.0
 40
1.59999999999999
 50
90.0
 51
180.0
  0
ARC
  5
86
  8
1
  6
CONTINUOUS
 62
     7
 10
852.0
 20
125.75
 30
0.0
 40
2.250000000000085
 50
180.0
 51
359.9999999999998
  0
LINE
  5
87
  8
1
  6
CONTINUOUS
 62
     7
 10
854.25
 20
125.75
 30
0.0
 11
854.25
 21
135.25
 31
0.0
  0
ARC
  5
88
  8
1
  6
CONTINUOUS
 62
     7
 10
852.0
 20
135.25
 30
0.0
 40
2.250000000000085
 50
0.0
 51
180.0
  0
LINE
  5
89
  8
1
  6
CONTINUOUS
 62
     7
 10
849.7499999999999
 20
135.25
 30
0.0
 11
849.7499999999999
 21
125.75
 31
0.0
  0
ARC
  5
8A
  8
1
  6
CONTINUOUS
 62
     7
 10
911.5000000000001
 20
133.3
 30
0.0
 40
0.9999999999998899
 50
0.0
 51
180.0000000000016
  0
LINE
  5
8B
  8
1
  6
CONTINUOUS
 62
     7
 10
910.5
 20
133.3
 30
0.0
 11
910.5
 21
127.3
 31
0.0
  0
ARC
  5
8C
  8
1
  6
CONTINUOUS
 62
     7
 10
911.5000000000001
 20
127.3
 30
0.0
 40
1.000000000000112
 50
180.0
 51
0.0
  0
LINE
  5
8D
  8
1
  6
CONTINUOUS
 62
     7
 10
912.5
 20
127.3
 30
0.0
 11
912.5
 21
133.3
 31
0.0
  0
ARC
  5
8E
  8
1
  6
CONTINUOUS
 62
     7
 10
920.9999999999999
 20
135.25
 30
0.0
 40
2.250000000000085
 50
0.0000000000000221
 51
180.0
  0
LINE
  5
8F
  8
1
  6
CONTINUOUS
 62
     7
 10
918.75
 20
135.25
 30
0.0
 11
918.75
 21
125.75
 31
0.0
  0
ARC
  5
90
  8
1
  6
CONTINUOUS
 62
     7
 10
920.9999999999999
 20
125.75
 30
0.0
 40
2.249999999999863
 50
180.0
 51
0.0
  0
LINE
  5
91
  8
1
  6
CONTINUOUS
 62
     7
 10
923.25
 20
125.75
 30
0.0
 11
923.25
 21
135.25
 31
0.0
  0
LINE
  5
92
  8
1
  6
CONTINUOUS
 62
     7
 10
777.0
 20
122.5
 30
0.0
 11
777.0
 21
138.5
 31
0.0
  0
ARC
  5
93
  8
1
  6
CONTINUOUS
 62
     7
 10
779.9999999999999
 20
138.5
 30
0.0
 40
2.999999999999975
 50
90.0
 51
180.0
  0
LINE
  5
94
  8
1
  6
CONTINUOUS
 62
     7
 10
797.0
 20
141.5
 30
0.0
 11
790.5000000000001
 21
141.5
 31
0.0
  0
LINE
  5
95
  8
1
  6
CONTINUOUS
 62
     7
 10
788.9
 20
141.5
 30
0.0
 11
779.9999999999999
 21
141.5
 31
0.0
  0
ARC
  5
96
  8
1
  6
CONTINUOUS
 62
     7
 10
797.0
 20
142.5
 30
0.0
 40
0.9999999999998899
 50
270.0000000000004
 51
0.0
  0
ARC
  5
97
  8
1
  6
CONTINUOUS
 62
     7
 10
906.9999999999999
 20
142.5
 30
0.0
 40
1.000000000000001
 50
180.0
 51
270.0
  0
LINE
  5
98
  8
1
  6
CONTINUOUS
 62
     7
 10
924.0
 20
141.5
 30
0.0
 11
906.9999999999999
 21
141.5
 31
0.0
  0
ARC
  5
99
  8
1
  6
CONTINUOUS
 62
     7
 10
924.0
 20
138.5
 30
0.0
 40
2.999999999999892
 50
0.0
 51
90.0
  0
LINE
  5
9A
  8
1
  6
CONTINUOUS
 62
     7
 10
926.9999999999999
 20
122.5
 30
0.0
 11
926.9999999999999
 21
138.5
 31
0.0
  0
ARC
  5
9B
  8
1
  6
CONTINUOUS
 62
     7
 10
924.0
 20
122.5
 30
0.0
 40
2.999999999999989
 50
270.0
 51
0.0
  0
LINE
  5
9C
  8
1
  6
CONTINUOUS
 62
     7
 10
924.0
 20
119.5
 30
0.0
 11
790.5000000000001
 21
119.5
 31
0.0
  0
LINE
  5
9D
  8
1
  6
CONTINUOUS
 62
     7
 10
788.9
 20
119.5
 30
0.0
 11
779.9999999999999
 21
119.5
 31
0.0
  0
ARC
  5
9E
  8
1
  6
CONTINUOUS
 62
     7
 10
779.9999999999999
 20
122.5
 30
0.0
 40
2.999999999999892
 50
180.0
 51
270.0
  0
ARC
  5
9F
  8
1
  6
CONTINUOUS
 62
     7
 10
783.0
 20
125.75
 30
0.0
 40
2.250000000000085
 50
180.0
 51
0.0
  0
LINE
  5
A0
  8
1
  6
CONTINUOUS
 62
     7
 10
785.2499999999999
 20
125.75
 30
0.0
 11
785.2499999999999
 21
135.25
 31
0.0
  0
ARC
  5
A1
  8
1
  6
CONTINUOUS
 62
     7
 10
783.0
 20
135.25
 30
0.0
 40
2.249999999999863
 50
0.0
 51
180.0
  0
LINE
  5
A2
  8
1
  6
CONTINUOUS
 62
     7
 10
780.7499999999999
 20
135.25
 30
0.0
 11
780.7499999999999
 21
125.75
 31
0.0
  0
ARC
  5
A3
  8
1
  6
CONTINUOUS
 62
     7
 10
789.8999999999999
 20
133.3
 30
0.0
 40
1.000000000000112
 50
0.0
 51
53.13010235415528
  0
ARC
  5
A4
  8
1
  6
CONTINUOUS
 62
     7
 10
789.8999999999999
 20
127.3
 30
0.0
 40
1.000000000000089
 50
306.8698976458447
 51
0.0
  0
LINE
  5
A5
  8
1
  6
CONTINUOUS
 62
     7
 10
790.9
 20
127.3
 30
0.0
 11
790.9
 21
133.3
 31
0.0
  0
LINE
  5
A6
  8
1
  6
CONTINUOUS
 62
     7
 10
906.0
 20
142.5
 30
0.0
 11
906.0
 21
142.9
 31
0.0
  0
LINE
  5
A7
  8
1
  6
CONTINUOUS
 62
     7
 10
797.9999999999999
 20
142.5
 30
0.0
 11
797.9999999999999
 21
142.9
 31
0.0
  0
LINE
  5
A8
  8
1
  6
CONTINUOUS
 62
     7
 10
788.9
 20
115.5
 30
0.0
 11
790.5000000000001
 21
115.5
 31
0.0
  0
ENDBLK
  8
0
  0
BLOCK
  8
0
  2
D_FRAME_VIEW_3094
 70
     0
 10
0.0
 20
0.0
 30
0.0
  0
CIRCLE
  5
C7
  8
1
  6
CONTINUOUS
 62
   132
 10
820.4999999999999
 20
217.0
 30
0.0
 40
2.000000000000002
  0
CIRCLE
  5
C8
  8
1
  6
CONTINUOUS
 62
   132
 10
883.5
 20
217.0
 30
0.0
 40
2.000000000000002
  0
ARC
  5
C9
  8
1
  6
CONTINUOUS
 62
     7
 10
795.5
 20
255.0
 30
0.0
 40
2.499999999999947
 50
270.0
 51
0.0
  0
ARC
  5
CA
  8
1
  6
CONTINUOUS
 62
     7
 10
908.5
 20
255.5000000000001
 30
0.0
 40
2.500000000000058
 50
180.0
 51
270.0
  0
LINE
  5
CB
  8
1
  6
CONTINUOUS
 62
     7
 10
908.5
 20
253.0
 30
0.0
 11
910.0
 21
253.0
 31
0.0
  0
ARC
  5
CC
  8
1
  6
CONTINUOUS
 62
     7
 10
910.0
 20
250.5000000000001
 30
0.0
 40
2.499999999999947
 50
0.0
 51
90.0
  0
LINE
  5
CD
  8
1
  6
CONTINUOUS
 62
     7
 10
912.5
 20
250.5000000000001
 30
0.0
 11
912.5
 21
218.2000000000002
 31
0.0
  0
LINE
  5
CE
  8
1
  6
CONTINUOUS
 62
     7
 10
912.5
 20
218.2000000000002
 30
0.0
 11
911.7949747468305
 21
217.4949747468307
 31
0.0
  0
ARC
  5
CF
  8
1
  6
CONTINUOUS
 62
     7
 10
912.289949493661
 20
217.0000000000001
 30
0.0
 40
0.7000000000000133
 50
135.0
 51
225.0
  0
LINE
  5
D0
  8
1
  6
CONTINUOUS
 62
     7
 10
911.7949747468305
 20
216.5050252531695
 30
0.0
 11
912.5
 21
215.8
 31
0.0
  0
LINE
  5
D1
  8
1
  6
CONTINUOUS
 62
     7
 10
912.5
 20
215.8
 30
0.0
 11
912.5
 21
186.0
 31
0.0
  0
ARC
  5
D2
  8
1
  6
CONTINUOUS
 62
     7
 10
907.5000000000001
 20
186.0
 30
0.0
 40
5.000000000000004
 50
270.0
 51
0.0
  0
LINE
  5
D3
  8
1
  6
CONTINUOUS
 62
     7
 10
907.5000000000001
 20
181.0
 30
0.0
 11
853.2
 21
181.0
 31
0.0
  0
LINE
  5
D4
  8
1
  6
CONTINUOUS
 62
     7
 10
850.8000000000001
 20
181.0
 30
0.0
 11
796.4999999999999
 21
181.0
 31
0.0
  0
ARC
  5
D5
  8
1
  6
CONTINUOUS
 62
     7
 10
796.4999999999999
 20
186.0
 30
0.0
 40
4.999999999999893
 50
180.0
 51
270.0
  0
LINE
  5
D6
  8
1
  6
CONTINUOUS
 62
     7
 10
791.5
 20
186.0
 30
0.0
 11
791.5
 21
215.8
 31
0.0
  0
LINE
  5
D7
  8
1
  6
CONTINUOUS
 62
     7
 10
791.5
 20
215.8
 30
0.0
 11
792.2050252531694
 21
216.5050252531695
 31
0.0
  0
ARC
  5
D8
  8
1
  6
CONTINUOUS
 62
     7
 10
791.7100505063389
 20
217.0000000000001
 30
0.0
 40
0.7000000000000133
 50
315.0
 51
45.0
  0
LINE
  5
D9
  8
1
  6
CONTINUOUS
 62
     7
 10
792.2050252531694
 20
217.4949747468307
 30
0.0
 11
791.5
 21
218.2000000000002
 31
0.0
  0
LINE
  5
DA
  8
1
  6
CONTINUOUS
 62
     7
 10
791.5
 20
218.2000000000002
 30
0.0
 11
791.5
 21
224.1
 31
0.0
  0
ARC
  5
DB
  8
1
  6
CONTINUOUS
 62
     7
 10
790.5000000000001
 20
224.1
 30
0.0
 40
1.000000000000001
 50
0.0
 51
90.0000000000004
  0
ARC
  5
DC
  8
1
  6
CONTINUOUS
 62
     7
 10
790.5000999999999
 20
234.2999
 30
0.0
 40
0.4999000000001086
 50
270.0
 51
0.0000000000003979
  0
LINE
  5
DD
  8
1
  6
CONTINUOUS
 62
     7
 10
791.0
 20
243.3001
 30
0.0
 11
791.0
 21
234.2999000000001
 31
0.0
  0
ARC
  5
DE
  8
1
  6
CONTINUOUS
 62
     7
 10
790.5000999999999
 20
243.3001
 30
0.0
 40
0.4998999999999976
 50
0.0
 51
90.0
  0
CIRCLE
  5
DF
  8
1
  6
CONTINUOUS
 62
     7
 10
815.8434393919996
 20
196.125
 30
0.0
 40
1.749999999999918
  0
CIRCLE
  5
E0
  8
1
  6
CONTINUOUS
 62
     7
 10
888.1565606080003
 20
237.875
 30
0.0
 40
1.749999999999918
  0
CIRCLE
  5
E1
  8
1
  6
CONTINUOUS
 62
     7
 10
799.5
 20
194.75
 30
0.0
 40
2.499999999999947
  0
CIRCLE
  5
E2
  8
1
  6
CONTINUOUS
 62
     7
 10
904.5
 20
239.25
 30
0.0
 40
2.499999999999947
  0
ARC
  5
E3
  8
1
  6
CONTINUOUS
 62
     7
 10
852.0
 20
217.0
 30
0.0
 40
54.77028147948771
 50
333.423541676854
 51
339.032306599439
  0
ARC
  5
E4
  8
1
  6
CONTINUOUS
 62
     7
 10
901.3970800704049
 20
188.5177075972103
 30
0.0
 40
4.000000000000004
 50
95.93972371058791
 51
27.44917160932397
  0
ARC
  5
E5
  8
1
  6
CONTINUOUS
 62
     7
 10
852.0
 20
217.0
 30
0.0
 40
59.27028147948776
 50
333.2922275774706
 51
339.0323065994391
  0
ARC
  5
E6
  8
1
  6
CONTINUOUS
 62
     7
 10
905.2445322201331
 20
196.5957776757064
 30
0.0
 40
2.250000000000106
 50
339.032306599439
 51
159.032306599439
  0
CIRCLE
  5
E7
  8
1
  6
CONTINUOUS
 62
     7
 10
820.4999999999999
 20
217.0
 30
0.0
 40
1.75000000000014
  0
CIRCLE
  5
E8
  8
1
  6
CONTINUOUS
 62
     7
 10
883.5
 20
217.0
 30
0.0
 40
1.749999999999918
  0
ARC
  5
E9
  8
1
  6
CONTINUOUS
 62
     7
 10
819.0
 20
229.0
 30
0.0
 40
1.000000000000001
 50
90.0
 51
180.0000000000001
  0
LINE
  5
EA
  8
1
  6
CONTINUOUS
 62
     7
 10
817.9999999999999
 20
229.0
 30
0.0
 11
817.9999999999999
 21
224.5
 31
0.0
  0
ARC
  5
EB
  8
1
  6
CONTINUOUS
 62
     7
 10
820.4999999999999
 20
224.5
 30
0.0
 40
2.500000000000002
 50
180.0
 51
269.9999999999998
  0
ARC
  5
EC
  8
1
  6
CONTINUOUS
 62
     7
 10
820.4999999999999
 20
217.0
 30
0.0
 40
5.000000000000004
 50
36.86989764584405
 51
90.0
  0
LINE
  5
ED
  8
1
  6
CONTINUOUS
 62
     7
 10
824.4999999999999
 20
220.0
 30
0.0
 11
824.4999999999999
 21
214.0
 31
0.0
  0
ARC
  5
EE
  8
1
  6
CONTINUOUS
 62
     7
 10
820.4999999999999
 20
217.0
 30
0.0
 40
5.000000000000004
 50
270.0
 51
323.130102354156
  0
ARC
  5
EF
  8
1
  6
CONTINUOUS
 62
     7
 10
820.4999999999999
 20
209.5
 30
0.0
 40
2.499999999999947
 50
90.0
 51
180.0000000000001
  0
LINE
  5
F0
  8
1
  6
CONTINUOUS
 62
     7
 10
817.9999999999999
 20
209.5
 30
0.0
 11
817.9999999999999
 21
205.0
 31
0.0
  0
ARC
  5
F1
  8
1
  6
CONTINUOUS
 62
     7
 10
819.0
 20
205.0
 30
0.0
 40
1.000000000000112
 50
180.0
 51
270.0000000000004
  0
LINE
  5
F2
  8
1
  6
CONTINUOUS
 62
     7
 10
819.0
 20
204.0
 30
0.0
 11
884.9999999999999
 21
204.0
 31
0.0
  0
ARC
  5
F3
  8
1
  6
CONTINUOUS
 62
     7
 10
884.9999999999999
 20
205.0
 30
0.0
 40
1.000000000000001
 50
270.0
 51
0.0000000000001137
  0
LINE
  5
F4
  8
1
  6
CONTINUOUS
 62
     7
 10
886.0
 20
205.0
 30
0.0
 11
886.0
 21
209.5
 31
0.0
  0
ARC
  5
F5
  8
1
  6
CONTINUOUS
 62
     7
 10
883.5
 20
209.5
 30
0.0
 40
2.500000000000002
 50
0.0000000000000568
 51
90.0
  0
ARC
  5
F6
  8
1
  6
CONTINUOUS
 62
     7
 10
883.5
 20
217.0
 30
0.0
 40
4.999999999999977
 50
216.869897645844
 51
270.0
  0
LINE
  5
F7
  8
1
  6
CONTINUOUS
 62
     7
 10
879.5
 20
214.0
 30
0.0
 11
879.5
 21
220.0
 31
0.0
  0
ARC
  5
F8
  8
1
  6
CONTINUOUS
 62
     7
 10
883.5
 20
217.0
 30
0.0
 40
5.000000000000004
 50
90.00000000000011
 51
143.1301023541558
  0
ARC
  5
F9
  8
1
  6
CONTINUOUS
 62
     7
 10
883.5
 20
224.5
 30
0.0
 40
2.499999999999947
 50
269.9999999999998
 51
0.0000000000000568
  0
LINE
  5
FA
  8
1
  6
CONTINUOUS
 62
     7
 10
886.0
 20
224.5
 30
0.0
 11
886.0
 21
229.0
 31
0.0
  0
ARC
  5
FB
  8
1
  6
CONTINUOUS
 62
     7
 10
884.9999999999999
 20
229.0
 30
0.0
 40
1.000000000000112
 50
0.0000000000002982
 51
90.0000000000008
  0
LINE
  5
FC
  8
1
  6
CONTINUOUS
 62
     7
 10
884.9999999999999
 20
230.0
 30
0.0
 11
819.0
 21
230.0
 31
0.0
  0
ARC
  5
FD
  8
1
  6
CONTINUOUS
 62
     7
 10
852.0
 20
217.0
 30
0.0
 40
54.77028147948771
 50
153.4235416768541
 51
159.032306599439
  0
ARC
  5
FE
  8
1
  6
CONTINUOUS
 62
     7
 10
802.602919929595
 20
245.4822924027897
 30
0.0
 40
4.000000000000004
 50
275.9397237105879
 51
207.4491716093239
  0
ARC
  5
FF
  8
1
  6
CONTINUOUS
 62
     7
 10
852.0
 20
217.0
 30
0.0
 40
59.27028147948776
 50
153.2922275774706
 51
159.0323065994391
  0
ARC
  5
100
  8
1
  6
CONTINUOUS
 62
     7
 10
798.7554677798668
 20
237.4042223242936
 30
0.0
 40
2.250000000000116
 50
159.0323065994391
 51
339.0323065994392
  0
ARC
  5
101
  8
1
  6
CONTINUOUS
 62
     7
 10
817.0
 20
250.9
 30
0.0
 40
2.499999999999947
 50
0.000000000000159
 51
179.9999999999998
  0
LINE
  5
102
  8
1
  6
CONTINUOUS
 62
     7
 10
814.4999999999999
 20
250.9000000000001
 30
0.0
 11
814.4999999999999
 21
245.9
 31
0.0
  0
ARC
  5
103
  8
1
  6
CONTINUOUS
 62
     7
 10
817.0
 20
245.9
 30
0.0
 40
2.500000000000169
 50
180.0
 51
359.9999999999993
  0
LINE
  5
104
  8
1
  6
CONTINUOUS
 62
     7
 10
819.5
 20
245.9
 30
0.0
 11
819.5
 21
250.9000000000001
 31
0.0
  0
ARC
  5
105
  8
1
  6
CONTINUOUS
 62
     7
 10
886.9999999999999
 20
245.9
 30
0.0
 40
2.499999999999947
 50
180.0
 51
359.9999999999993
  0
LINE
  5
106
  8
1
  6
CONTINUOUS
 62
     7
 10
889.5
 20
245.9
 30
0.0
 11
889.5
 21
250.9000000000001
 31
0.0
  0
ARC
  5
107
  8
1
  6
CONTINUOUS
 62
     7
 10
886.9999999999999
 20
250.9
 30
0.0
 40
2.500000000000169
 50
0.000000000000159
 51
180.0
  0
LINE
  5
108
  8
1
  6
CONTINUOUS
 62
     7
 10
884.4999999999999
 20
250.9
 30
0.0
 11
884.4999999999999
 21
245.9
 31
0.0
  0
CIRCLE
  5
109
  8
1
  6
CONTINUOUS
 62
     7
 10
815.9999999999999
 20
217.0
 30
0.0
 40
1.75000000000014
  0
CIRCLE
  5
10A
  8
1
  6
CONTINUOUS
 62
     7
 10
888.0
 20
217.0
 30
0.0
 40
1.749999999999918
  0
CIRCLE
  5
10B
  8
1
  6
CONTINUOUS
 62
     7
 10
893.7499999999999
 20
217.0
 30
0.0
 40
2.250000000000085
  0
CIRCLE
  5
10C
  8
1
  6
CONTINUOUS
 62
     7
 10
810.25
 20
217.0
 30
0.0
 40
2.249999999999863
  0
LINE
  5
10D
  8
1
  6
CONTINUOUS
 62
     7
 10
853.2
 20
181.0
 30
0.0
 11
852.7071067811866
 21
181.4928932188135
 31
0.0
  0
ARC
  5
10E
  8
1
  6
CONTINUOUS
 62
     7
 10
852.0
 20
180.7857864376269
 30
0.0
 40
1.000000000000055
 50
45.0000000000045
 51
135.0
  0
LINE
  5
10F
  8
1
  6
CONTINUOUS
 62
     7
 10
851.2928932188133
 20
181.4928932188134
 30
0.0
 11
850.8000000000001
 21
181.0
 31
0.0
  0
LINE
  5
110
  8
1
  6
CONTINUOUS
 62
     7
 10
788.9
 20
233.8
 30
0.0
 11
790.4999999999999
 21
233.8
 31
0.0
  0
LINE
  5
111
  8
1
  6
CONTINUOUS
 62
     7
 10
790.4999999999999
 20
225.1
 30
0.0
 11
788.9
 21
225.1
 31
0.0
  0
LINE
  5
112
  8
1
  6
CONTINUOUS
 62
     7
 10
790.4999999999999
 20
243.8
 30
0.0
 11
788.9
 21
243.8
 31
0.0
  0
LINE
  5
113
  8
1
  6
CONTINUOUS
 62
     7
 10
926.9999999999999
 20
259.0
 30
0.0
 11
926.9999999999999
 21
257.4
 31
0.0
  0
LINE
  5
114
  8
1
  6
CONTINUOUS
 62
     7
 10
777.0
 20
257.4
 30
0.0
 11
777.0
 21
259.0
 31
0.0
  0
ENDBLK
  8
0
  0
ENDSEC
  0
SECTION
  2
ENTITIES
  0
INSERT
  5
7D
  8
1
  6
CONTINUOUS
 62
     7
  2
D_FRAME_VIEW_3341
 10
0.0
 20
0.0
 30
0.0
  0
INSERT
  5
A9
  8
1
  6
CONTINUOUS
 62
     7
  2
D_FRAME_VIEW_3403
 10
0.0
 20
0.0
 30
0.0
  0
LINE
  5
AA
  8
1
  6
CENTER
 62
     1
 10
852.0
 20
268.0
 30
0.0
 11
852.0
 21
184.0
 31
0.0
  0
LINE
  5
AC
  8
1
  6
CENTER
 62
     1
 10
701.9999999999999
 20
217.0000000000001
 30
0.0
 11
736.4999999999999
 21
217.0000000000001
 31
0.0
  0
LINE
  5
AD
  8
1
  6
CONTINUOUS
 62
     7
 10
709.4999999999999
 20
257.4
 30
0.0
 11
732.8999999999999
 21
257.4
 31
0.0
  0
LINE
  5
AE
  8
1
  6
CONTINUOUS
 62
     7
 10
790.5000000000001
 20
142.9
 30
0.0
 11
912.5
 21
142.9
 31
0.0
  0
LINE
  5
AF
  8
1
  6
CONTINUOUS
 62
     7
 10
734.4999999999999
 20
181.0
 30
0.0
 11
734.4999999999999
 21
257.4
 31
0.0
  0
LINE
  5
B0
  8
1
  6
CONTINUOUS
 62
     7
 10
732.8999999999999
 20
252.5000000000001
 30
0.0
 11
732.8999999999999
 21
257.4
 31
0.0
  0
LINE
  5
B1
  8
1
  6
CONTINUOUS
 62
     7
 10
788.9
 20
142.9
 30
0.0
 11
788.9
 21
115.5
 31
0.0
  0
LINE
  5
B2
  8
1
  6
CONTINUOUS
 62
     7
 10
790.5000000000001
 20
142.9
 30
0.0
 11
790.5000000000001
 21
115.5
 31
0.0
  0
LINE
  5
B3
  8
1
  6
CONTINUOUS
 62
     7
 10
709.4999999999999
 20
259.0
 30
0.0
 11
732.8999999999999
 21
259.0
 31
0.0
  0
LINE
  5
B4
  8
1
  6
CONTINUOUS
 62
     7
 10
912.5
 20
144.5
 30
0.0
 11
790.4999999999999
 21
144.5
 31
0.0
  0
LINE
  5
B5
  8
1
  6
CONTINUOUS
 62
     7
 10
926.9999999999999
 20
257.4
 30
0.0
 11
906.0
 21
257.4
 31
0.0
  0
LINE
  5
B6
  8
1
  6
CONTINUOUS
 62
     7
 10
732.8999999999999
 20
243.8
 30
0.0
 11
732.8999999999999
 21
233.8
 31
0.0
  0
LINE
  5
B7
  8
1
  6
CONTINUOUS
 62
     7
 10
732.8998999999998
 20
243.8
 30
0.0
 11
734.4999999999999
 21
243.8
 31
0.0
  0
LINE
  5
B8
  8
1
  6
CONTINUOUS
 62
     7
 10
732.8999999999999
 20
225.1
 30
0.0
 11
732.8999999999999
 21
181.0
 31
0.0
  0
LINE
  5
B9
  8
1
  6
CONTINUOUS
 62
     7
 10
797.9999999999999
 20
257.4
 30
0.0
 11
777.0
 21
257.4
 31
0.0
  0
LINE
  5
BA
  8
1
  6
CONTINUOUS
 62
     7
 10
788.9
 20
225.1
 30
0.0
 11
788.9
 21
252.5
 31
0.0
  0
LINE
  5
BB
  8
1
  6
CONTINUOUS
 62
     7
 10
797.9999999999999
 20
255.0
 30
0.0
 11
797.9999999999999
 21
259.0
 31
0.0
  0
LINE
  5
BC
  8
1
  6
CONTINUOUS
 62
     7
 10
788.9
 20
252.5
 30
0.0
 11
795.5
 21
252.5
 31
0.0
  0
LINE
  5
BD
  8
1
  6
CONTINUOUS
 62
     7
 10
906.0
 20
259.0
 30
0.0
 11
906.0
 21
255.5000000000001
 31
0.0
  0
LINE
  5
BE
  8
1
  6
CONTINUOUS
 62
     7
 10
777.0
 20
259.0
 30
0.0
 11
926.9999999999998
 21
259.0
 31
0.0
  0
LINE
  5
BF
  8
1
  6
CONTINUOUS
 62
     7
 10
719.1999999999998
 20
252.5
 30
0.0
 11
734.4999999999999
 21
252.5
 31
0.0
  0
LINE
  5
C0
  8
1
  6
CONTINUOUS
 62
     7
 10
734.4999999999999
 20
225.1
 30
0.0
 11
719.1999999999998
 21
225.1
 31
0.0
  0
LINE
  5
C1
  8
1
  6
CONTINUOUS
 62
     7
 10
790.5000000000001
 20
233.8
 30
0.0
 11
790.5000000000001
 21
243.8
 31
0.0
  0
LINE
  5
C2
  8
1
  6
CENTER
 62
     1
 10
912.0
 20
217.0
 30
0.0
 11
794.4999999999999
 21
217.0
 31
0.0
  0
LINE
  5
C3
  8
1
  6
CENTER
 62
     1
 10
852.0
 20
120.5
 30
0.0
 11
852.0
 21
140.5
 31
0.0
  0
INSERT
  5
115
  8
1
  6
CONTINUOUS
 62
     7
  2
D_FRAME_VIEW_3094
 10
0.0
 20
0.0
 30
0.0
  0
TEXT
  5
116
  8
1
  6
CONTINUOUS
 62
     7
 10
888.5199824934349
 20
84.65684006502441
 30
0.0
 40
6.0
  1
OF-KAG1
  0
ENDSEC
  0
EOF
