  0
SECTION
  2
HEADER
  9
$ACADVER
  1
AC1006
  9
$DWGCODEPAGE
  3
ansi_932
  9
$INSBASE
 10
0.0
 20
0.0
 30
0.0
  9
$EXTMIN
 10
702.5000000000001
 20
99.34090909090914
  9
$EXTMAX
 10
918.5000000000002
 20
282.0
  9
$LIMMIN
 10
0.0
 20
0.0
  9
$LIMMAX
 10
12.0
 20
9.0
  9
$ORTHOMODE
 70
     0
  9
$REGENMODE
 70
     1
  9
$FILLMODE
 70
     1
  9
$QTEXTMODE
 70
     0
  9
$MIRRTEXT
 70
     1
  9
$DRAGMODE
 70
     2
  9
$LTSCALE
 40
1.0
  9
$OSMODE
 70
    37
  9
$ATTMODE
 70
     1
  9
$TEXTSIZE
 40
0.2
  9
$TRACEWID
 40
0.05
  9
$TEXTSTYLE
  7
STANDARD
  9
$CLAYER
  8
0
  9
$CELTYPE
  6
BYLAYER
  9
$CECOLOR
 62
   256
  9
$DIMSCALE
 40
1.0
  9
$DIMASZ
 40
3.0
  9
$DIMEXO
 40
0.0625
  9
$DIMDLI
 40
0.38
  9
$DIMRND
 40
0.0
  9
$DIMDLE
 40
0.0
  9
$DIMEXE
 40
1.5
  9
$DIMTP
 40
0.0
  9
$DIMTM
 40
0.0
  9
$DIMTXT
 40
3.0
  9
$DIMCEN
 40
0.09
  9
$DIMTSZ
 40
0.0
  9
$DIMTOL
 70
     0
  9
$DIMLIM
 70
     0
  9
$DIMTIH
 70
     1
  9
$DIMTOH
 70
     1
  9
$DIMSE1
 70
     0
  9
$DIMSE2
 70
     0
  9
$DIMTAD
 70
     1
  9
$DIMZIN
 70
     0
  9
$DIMBLK
  1

  9
$DIMASO
 70
     1
  9
$DIMSHO
 70
     1
  9
$DIMPOST
  1

  9
$DIMAPOST
  1

  9
$DIMALT
 70
     0
  9
$DIMALTD
 70
     2
  9
$DIMALTF
 40
25.4
  9
$DIMLFAC
 40
1.0
  9
$DIMTOFL
 70
     0
  9
$DIMTVP
 40
0.0
  9
$DIMTIX
 70
     0
  9
$DIMSOXD
 70
     0
  9
$DIMSAH
 70
     0
  9
$DIMBLK1
  1

  9
$DIMBLK2
  1

  9
$LUNITS
 70
     2
  9
$LUPREC
 70
     4
  9
$SKETCHINC
 40
0.1
  9
$FILLETRAD
 40
0.5
  9
$AUNITS
 70
     0
  9
$AUPREC
 70
     0
  9
$MENU
  1
.
  9
$ELEVATION
 40
0.0
  9
$THICKNESS
 40
0.0
  9
$LIMCHECK
 70
     0
  9
$CHAMFERA
 40
0.0
  9
$CHAMFERB
 40
0.0
  9
$SKPOLY
 70
     0
  9
$TDCREATE
 40
2460367.562987315
  9
$TDUPDATE
 40
2460367.562987546
  9
$TDINDWG
 40
0.0000000116
  9
$TDUSRTIMER
 40
0.0000000116
  9
$USRTIMER
 70
     1
  9
$ANGBASE
 50
0.0
  9
$ANGDIR
 70
     0
  9
$PDMODE
 70
     0
  9
$PDSIZE
 40
0.0
  9
$PLINEWID
 40
0.0
  9
$COORDS
 70
     1
  9
$SPLFRAME
 70
     0
  9
$SPLINETYPE
 70
     6
  9
$SPLINESEGS
 70
     8
  9
$ATTDIA
 70
     0
  9
$ATTREQ
 70
     1
  9
$HANDLING
 70
     1
  9
$HANDSEED
  5
16D
  9
$SURFTAB1
 70
     6
  9
$SURFTAB2
 70
     6
  9
$SURFTYPE
 70
     6
  9
$SURFU
 70
     6
  9
$SURFV
 70
     6
  9
$UCSNAME
  2

  9
$UCSORG
 10
0.0
 20
0.0
 30
0.0
  9
$UCSXDIR
 10
1.0
 20
0.0
 30
0.0
  9
$UCSYDIR
 10
0.0
 20
1.0
 30
0.0
  9
$USERI1
 70
     0
  9
$USERI2
 70
     0
  9
$USERI3
 70
     0
  9
$USERI4
 70
     0
  9
$USERI5
 70
     0
  9
$USERR1
 40
0.0
  9
$USERR2
 40
0.0
  9
$USERR3
 40
0.0
  9
$USERR4
 40
0.0
  9
$USERR5
 40
0.0
  9
$WORLDVIEW
 70
     1
  0
ENDSEC
  0
SECTION
  2
TABLES
  0
TABLE
  2
VPORT
 70
     1
  0
VPORT
  2
*ACTIVE
 70
     0
 10
0.0
 20
0.0
 11
1.0
 21
1.0
 12
810.5000000000002
 22
190.6704545454546
 13
0.0
 23
0.0
 14
0.5
 24
0.5
 15
0.5
 25
0.5
 16
0.0
 26
0.0
 36
1.0
 17
0.0
 27
0.0
 37
0.0
 40
182.6590909090909
 41
1.6
 42
50.0
 43
0.0
 44
0.0
 50
0.0
 51
0.0
 71
     0
 72
   100
 73
     1
 74
     3
 75
     0
 76
     0
 77
     0
 78
     0
  0
ENDTAB
  0
TABLE
  2
LTYPE
 70
     2
  0
LTYPE
  2
CONTINUOUS
 70
     0
  3
Solid line
 72
    65
 73
     0
 40
0.0
  0
LTYPE
  2
CENTER
 70
     0
  3

 72
    65
 73
     0
 40
0.0
  0
ENDTAB
  0
TABLE
  2
LAYER
 70
     2
  0
LAYER
  2
0
 70
     0
 62
     7
  6
CONTINUOUS
  0
LAYER
  2
1
 70
     0
 62
     7
  6
CONTINUOUS
  0
ENDTAB
  0
TABLE
  2
STYLE
 70
     2
  0
STYLE
  2
STANDARD
 70
     0
 40
0.0
 41
1.0
 50
0.0
 71
     0
 42
0.2
  3
txt
  4

  0
STYLE
  2
ＭＳ_ゴシック
 70
     0
 40
0.0
 41
1.0
 50
0.0
 71
     0
 42
0.2
  3
ＭＳ ゴシック.shx
  4

  0
ENDTAB
  0
TABLE
  2
VIEW
 70
     0
  0
ENDTAB
  0
TABLE
  2
UCS
 70
     0
  0
ENDTAB
  0
ENDSEC
  0
SECTION
  2
BLOCKS
  0
BLOCK
  8
0
  2
D_FRAME_VIEW_3715
 70
     0
 10
0.0
 20
0.0
 30
0.0
  0
LINE
  5
71
  8
1
  6
CONTINUOUS
 62
     7
 10
842.7928932188138
 20
153.9000000000001
 30
0.0
 11
842.3000000000003
 21
153.9
 31
0.0
  0
LINE
  5
72
  8
1
  6
CONTINUOUS
 62
     7
 10
842.3000000000003
 20
153.9
 30
0.0
 11
842.3000000000003
 21
155.5
 31
0.0
  0
LINE
  5
73
  8
1
  6
CONTINUOUS
 62
     7
 10
842.7928932188138
 20
155.5000000000001
 30
0.0
 11
842.3000000000003
 21
155.5
 31
0.0
  0
LINE
  5
74
  8
1
  6
CONTINUOUS
 62
     7
 10
899.0000000000002
 20
153.9
 30
0.0
 11
844.7000000000002
 21
153.9
 31
0.0
  0
LINE
  5
75
  8
1
  6
CONTINUOUS
 62
     7
 10
844.7000000000002
 20
155.5
 30
0.0
 11
844.7000000000002
 21
153.9
 31
0.0
  0
LINE
  5
76
  8
1
  6
CONTINUOUS
 62
     7
 10
899.0000000000002
 20
155.5
 30
0.0
 11
844.7000000000002
 21
155.5
 31
0.0
  0
LINE
  5
77
  8
1
  6
CONTINUOUS
 62
     7
 10
842.3000000000003
 20
155.5
 30
0.0
 11
788.0000000000002
 21
155.5
 31
0.0
  0
LINE
  5
78
  8
1
  6
CONTINUOUS
 62
     7
 10
842.3000000000003
 20
153.9
 30
0.0
 11
788.0000000000002
 21
153.9
 31
0.0
  0
LINE
  5
79
  8
1
  6
CONTINUOUS
 62
     7
 10
844.7000000000002
 20
153.9
 30
0.0
 11
844.2071067811867
 21
153.9000000000001
 31
0.0
  0
LINE
  5
7A
  8
1
  6
CONTINUOUS
 62
     7
 10
844.7000000000002
 20
155.5
 30
0.0
 11
844.2071067811867
 21
155.5000000000001
 31
0.0
  0
LINE
  5
7B
  8
1
  6
CONTINUOUS
 62
     7
 10
788.0000000000002
 20
153.9
 30
0.0
 11
783.0000000000001
 21
153.9
 31
0.0
  0
LINE
  5
7C
  8
1
  6
CONTINUOUS
 62
     7
 10
783.0000000000001
 20
153.9
 30
0.0
 11
783.0000000000001
 21
155.5
 31
0.0
  0
LINE
  5
7D
  8
1
  6
CONTINUOUS
 62
     7
 10
783.0000000000001
 20
155.5
 30
0.0
 11
788.0000000000002
 21
155.5
 31
0.0
  0
LINE
  5
7E
  8
1
  6
CONTINUOUS
 62
     7
 10
904.0000000000001
 20
155.5
 30
0.0
 11
904.0000000000001
 21
153.9
 31
0.0
  0
LINE
  5
7F
  8
1
  6
CONTINUOUS
 62
     7
 10
904.0000000000001
 20
153.9
 30
0.0
 11
899.0000000000002
 21
153.9
 31
0.0
  0
LINE
  5
80
  8
1
  6
CONTINUOUS
 62
     7
 10
899.0000000000002
 20
155.5
 30
0.0
 11
904.0000000000001
 21
155.5
 31
0.0
  0
LINE
  5
81
  8
1
  6
CONTINUOUS
 62
     7
 10
842.7928932188136
 20
153.9
 30
0.0
 11
844.2071067811867
 21
153.9
 31
0.0
  0
LINE
  5
82
  8
1
  6
CONTINUOUS
 62
     7
 10
842.7928932188136
 20
155.5
 30
0.0
 11
844.2071067811867
 21
155.5
 31
0.0
  0
LINE
  5
83
  8
1
  6
CONTINUOUS
 62
     7
 10
782.0
 20
153.9
 30
0.0
 11
783.0000000000001
 21
153.9
 31
0.0
  0
LINE
  5
84
  8
1
  6
CONTINUOUS
 62
     7
 10
783.0000000000001
 20
155.5
 30
0.0
 11
782.0
 21
155.5
 31
0.0
  0
LINE
  5
85
  8
1
  6
CONTINUOUS
 62
     7
 10
780.4000000000002
 20
153.9
 30
0.0
 11
780.4000000000002
 21
140.2
 31
0.0
  0
ARC
  5
86
  8
1
  6
CONTINUOUS
 62
     7
 10
782.0
 20
153.9
 30
0.0
 40
1.59999999999999
 50
90.0
 51
180.0
  0
LINE
  5
87
  8
1
  6
CONTINUOUS
 62
     7
 10
782.0
 20
153.9
 30
0.0
 11
782.0
 21
140.2
 31
0.0
  0
LINE
  5
88
  8
1
  6
CONTINUOUS
 62
     7
 10
780.4000000000002
 20
140.2
 30
0.0
 11
780.4000000000002
 21
126.5
 31
0.0
  0
LINE
  5
89
  8
1
  6
CONTINUOUS
 62
     7
 10
782.0
 20
140.2
 30
0.0
 11
782.0
 21
126.5
 31
0.0
  0
ARC
  5
8A
  8
1
  6
CONTINUOUS
 62
     7
 10
877.5000000000001
 20
136.3
 30
0.0
 40
8.999999999999897
 50
0.0
 51
90.0
  0
LINE
  5
8B
  8
1
  6
CONTINUOUS
 62
     7
 10
877.5000000000001
 20
145.3
 30
0.0
 11
809.5000000000001
 21
145.3
 31
0.0
  0
ARC
  5
8C
  8
1
  6
CONTINUOUS
 62
     7
 10
809.5000000000001
 20
136.3
 30
0.0
 40
9.000000000000007
 50
90.0
 51
180.0
  0
LINE
  5
8D
  8
1
  6
CONTINUOUS
 62
     7
 10
800.5000000000002
 20
136.3
 30
0.0
 11
800.5000000000002
 21
133.5
 31
0.0
  0
ARC
  5
8E
  8
1
  6
CONTINUOUS
 62
     7
 10
797.5000000000001
 20
133.5
 30
0.0
 40
2.999999999999989
 50
269.9999999999999
 51
0.0
  0
LINE
  5
8F
  8
1
  6
CONTINUOUS
 62
     7
 10
797.5000000000001
 20
130.5
 30
0.0
 11
782.0
 21
130.5
 31
0.0
  0
LINE
  5
90
  8
1
  6
CONTINUOUS
 62
     7
 10
780.4000000000002
 20
130.5
 30
0.0
 11
771.5000000000001
 21
130.5
 31
0.0
  0
ARC
  5
91
  8
1
  6
CONTINUOUS
 62
     7
 10
771.5000000000001
 20
133.5
 30
0.0
 40
2.999999999999892
 50
180.0
 51
270.0
  0
LINE
  5
92
  8
1
  6
CONTINUOUS
 62
     7
 10
768.5000000000001
 20
133.5
 30
0.0
 11
768.5000000000001
 21
149.5
 31
0.0
  0
ARC
  5
93
  8
1
  6
CONTINUOUS
 62
     7
 10
771.5000000000001
 20
149.5
 30
0.0
 40
2.999999999999975
 50
90.0
 51
180.0
  0
LINE
  5
94
  8
1
  6
CONTINUOUS
 62
     7
 10
788.5000000000002
 20
152.5
 30
0.0
 11
782.0
 21
152.5
 31
0.0
  0
LINE
  5
95
  8
1
  6
CONTINUOUS
 62
     7
 10
780.4000000000002
 20
152.5
 30
0.0
 11
771.5000000000001
 21
152.5
 31
0.0
  0
ARC
  5
96
  8
1
  6
CONTINUOUS
 62
     7
 10
788.5000000000002
 20
153.5
 30
0.0
 40
0.9999999999998899
 50
270.0000000000004
 51
0.0
  0
ARC
  5
97
  8
1
  6
CONTINUOUS
 62
     7
 10
898.5000000000001
 20
153.5
 30
0.0
 40
1.000000000000001
 50
180.0
 51
270.0
  0
LINE
  5
98
  8
1
  6
CONTINUOUS
 62
     7
 10
915.5000000000002
 20
152.5
 30
0.0
 11
898.5000000000001
 21
152.5
 31
0.0
  0
ARC
  5
99
  8
1
  6
CONTINUOUS
 62
     7
 10
915.5000000000002
 20
149.5
 30
0.0
 40
2.999999999999892
 50
0.0
 51
90.0
  0
LINE
  5
9A
  8
1
  6
CONTINUOUS
 62
     7
 10
918.5000000000001
 20
133.5
 30
0.0
 11
918.5000000000001
 21
149.5
 31
0.0
  0
ARC
  5
9B
  8
1
  6
CONTINUOUS
 62
     7
 10
915.5000000000002
 20
133.5
 30
0.0
 40
2.999999999999989
 50
270.0
 51
0.0
  0
LINE
  5
9C
  8
1
  6
CONTINUOUS
 62
     7
 10
915.5000000000002
 20
130.5
 30
0.0
 11
889.5000000000001
 21
130.5
 31
0.0
  0
ARC
  5
9D
  8
1
  6
CONTINUOUS
 62
     7
 10
889.5000000000001
 20
133.5
 30
0.0
 40
3.000000000000114
 50
180.0
 51
270.0
  0
LINE
  5
9E
  8
1
  6
CONTINUOUS
 62
     7
 10
886.5
 20
133.5
 30
0.0
 11
886.5
 21
136.3
 31
0.0
  0
ARC
  5
9F
  8
1
  6
CONTINUOUS
 62
     7
 10
903.0000000000002
 20
144.3
 30
0.0
 40
0.9999999999998899
 50
0.0
 51
180.0000000000016
  0
LINE
  5
A0
  8
1
  6
CONTINUOUS
 62
     7
 10
902.0000000000001
 20
144.3
 30
0.0
 11
902.0000000000001
 21
138.3
 31
0.0
  0
ARC
  5
A1
  8
1
  6
CONTINUOUS
 62
     7
 10
903.0000000000002
 20
138.3
 30
0.0
 40
1.000000000000112
 50
180.0
 51
0.0
  0
LINE
  5
A2
  8
1
  6
CONTINUOUS
 62
     7
 10
904.0000000000001
 20
138.3
 30
0.0
 11
904.0000000000001
 21
144.3
 31
0.0
  0
ARC
  5
A3
  8
1
  6
CONTINUOUS
 62
     7
 10
912.5000000000001
 20
146.25
 30
0.0
 40
2.250000000000085
 50
0.0000000000000221
 51
180.0
  0
LINE
  5
A4
  8
1
  6
CONTINUOUS
 62
     7
 10
910.2500000000002
 20
146.25
 30
0.0
 11
910.2500000000002
 21
136.75
 31
0.0
  0
ARC
  5
A5
  8
1
  6
CONTINUOUS
 62
     7
 10
912.5000000000001
 20
136.75
 30
0.0
 40
2.249999999999863
 50
180.0
 51
0.0
  0
LINE
  5
A6
  8
1
  6
CONTINUOUS
 62
     7
 10
914.7500000000001
 20
136.75
 30
0.0
 11
914.7500000000001
 21
146.25
 31
0.0
  0
ARC
  5
A7
  8
1
  6
CONTINUOUS
 62
     7
 10
774.5000000000002
 20
136.75
 30
0.0
 40
2.250000000000085
 50
180.0
 51
0.0
  0
LINE
  5
A8
  8
1
  6
CONTINUOUS
 62
     7
 10
776.75
 20
136.75
 30
0.0
 11
776.75
 21
146.25
 31
0.0
  0
ARC
  5
A9
  8
1
  6
CONTINUOUS
 62
     7
 10
774.5000000000002
 20
146.25
 30
0.0
 40
2.249999999999863
 50
0.0
 51
180.0
  0
LINE
  5
AA
  8
1
  6
CONTINUOUS
 62
     7
 10
772.2500000000001
 20
146.25
 30
0.0
 11
772.2500000000001
 21
136.75
 31
0.0
  0
ARC
  5
AB
  8
1
  6
CONTINUOUS
 62
     7
 10
781.4000000000001
 20
144.3
 30
0.0
 40
1.000000000000112
 50
0.0
 51
53.13010235415528
  0
ARC
  5
AC
  8
1
  6
CONTINUOUS
 62
     7
 10
781.4000000000001
 20
138.3
 30
0.0
 40
0.9999999999999564
 50
306.8698976458447
 51
0.0
  0
LINE
  5
AD
  8
1
  6
CONTINUOUS
 62
     7
 10
782.4000000000002
 20
138.3
 30
0.0
 11
782.4000000000002
 21
144.3
 31
0.0
  0
LINE
  5
AE
  8
1
  6
CONTINUOUS
 62
     7
 10
897.5000000000001
 20
153.5
 30
0.0
 11
897.5000000000001
 21
153.9
 31
0.0
  0
LINE
  5
AF
  8
1
  6
CONTINUOUS
 62
     7
 10
789.5000000000001
 20
153.5
 30
0.0
 11
789.5000000000001
 21
153.9
 31
0.0
  0
LINE
  5
B0
  8
1
  6
CONTINUOUS
 62
     7
 10
780.4000000000002
 20
126.5
 30
0.0
 11
782.0
 21
126.5
 31
0.0
  0
ENDBLK
  8
0
  0
BLOCK
  8
0
  2
D_FRAME_VIEW_3651
 70
     0
 10
0.0
 20
0.0
 30
0.0
  0
LINE
  5
B5
  8
1
  6
CONTINUOUS
 62
     7
 10
710.0
 20
271.4
 30
0.0
 11
710.0
 21
273.0
 31
0.0
  0
LINE
  5
B6
  8
1
  6
CONTINUOUS
 62
     7
 10
710.0
 20
273.0
 30
0.0
 11
713.0000000000001
 21
273.0
 31
0.0
  0
LINE
  5
B7
  8
1
  6
CONTINUOUS
 62
     7
 10
713.0000000000001
 20
271.4
 30
0.0
 11
710.0
 21
271.4
 31
0.0
  0
LINE
  5
B8
  8
1
  6
CONTINUOUS
 62
     7
 10
713.0000000000001
 20
273.0
 30
0.0
 11
729.0000000000001
 21
273.0
 31
0.0
  0
LINE
  5
B9
  8
1
  6
CONTINUOUS
 62
     7
 10
713.0000000000001
 20
271.4
 30
0.0
 11
729.0000000000001
 21
271.4
 31
0.0
  0
LINE
  5
BA
  8
1
  6
CONTINUOUS
 62
     7
 10
729.0000000000001
 20
273.0
 30
0.0
 11
732.0
 21
273.0
 31
0.0
  0
LINE
  5
BB
  8
1
  6
CONTINUOUS
 62
     7
 10
732.0
 20
273.0
 30
0.0
 11
732.0
 21
271.4
 31
0.0
  0
LINE
  5
BC
  8
1
  6
CONTINUOUS
 62
     7
 10
732.0
 20
271.4
 30
0.0
 11
729.0000000000001
 21
271.4
 31
0.0
  0
CIRCLE
  5
BD
  8
1
  6
CONTINUOUS
 62
     7
 10
719.7
 20
252.8
 30
0.0
 40
11.00000000000001
  0
LINE
  5
BE
  8
1
  6
CONTINUOUS
 62
     7
 10
733.4000000000001
 20
239.1
 30
0.0
 11
719.7
 21
239.1
 31
0.0
  0
ARC
  5
BF
  8
1
  6
CONTINUOUS
 62
     7
 10
719.7
 20
252.8
 30
0.0
 40
13.69999999999999
 50
90.0
 51
270.0
  0
LINE
  5
C0
  8
1
  6
CONTINUOUS
 62
     7
 10
719.7
 20
266.5
 30
0.0
 11
733.4000000000001
 21
266.5
 31
0.0
  0
ARC
  5
C1
  8
1
  6
CONTINUOUS
 62
     7
 10
733.3999
 20
257.3001
 30
0.0
 40
0.4998999999998865
 50
90.00000000000011
 51
180.0000000000004
  0
LINE
  5
C2
  8
1
  6
CONTINUOUS
 62
     7
 10
733.4000000000001
 20
247.8
 30
0.0
 11
733.3999
 21
247.8
 31
0.0
  0
LINE
  5
C3
  8
1
  6
CONTINUOUS
 62
     7
 10
733.3999
 20
257.8
 30
0.0
 11
733.4000000000001
 21
257.8
 31
0.0
  0
LINE
  5
C4
  8
1
  6
CONTINUOUS
 62
     7
 10
732.9000000000001
 20
248.2999
 30
0.0
 11
732.9000000000001
 21
257.3001
 31
0.0
  0
ARC
  5
C5
  8
1
  6
CONTINUOUS
 62
     7
 10
733.3999
 20
248.2999
 30
0.0
 40
0.4998999999999976
 50
180.0
 51
270.0000000000003
  0
LINE
  5
C6
  8
1
  6
CONTINUOUS
 62
     7
 10
735.0000000000001
 20
247.8
 30
0.0
 11
735.0000000000001
 21
239.1
 31
0.0
  0
LINE
  5
C7
  8
1
  6
CONTINUOUS
 62
     7
 10
735.0000000000001
 20
239.1
 30
0.0
 11
733.4000000000001
 21
239.1
 31
0.0
  0
LINE
  5
C8
  8
1
  6
CONTINUOUS
 62
     7
 10
733.4000000000001
 20
247.8
 30
0.0
 11
735.0000000000001
 21
247.8
 31
0.0
  0
LINE
  5
C9
  8
1
  6
CONTINUOUS
 62
     7
 10
733.4000000000001
 20
266.5
 30
0.0
 11
735.0000000000001
 21
266.5
 31
0.0
  0
LINE
  5
CA
  8
1
  6
CONTINUOUS
 62
     7
 10
735.0000000000001
 20
266.5
 30
0.0
 11
735.0000000000001
 21
257.8
 31
0.0
  0
LINE
  5
CB
  8
1
  6
CONTINUOUS
 62
     7
 10
735.0000000000001
 20
257.8
 30
0.0
 11
733.4000000000001
 21
257.8
 31
0.0
  0
LINE
  5
CC
  8
1
  6
CONTINUOUS
 62
     7
 10
733.4000000000001
 20
239.1
 30
0.0
 11
733.4000000000001
 21
238.1
 31
0.0
  0
LINE
  5
CD
  8
1
  6
CONTINUOUS
 62
     7
 10
735.0000000000001
 20
238.1
 30
0.0
 11
735.0000000000001
 21
239.1
 31
0.0
  0
LINE
  5
CE
  8
1
  6
CONTINUOUS
 62
     7
 10
733.4000000000001
 20
257.8
 30
0.0
 11
733.4000000000001
 21
257.3001
 31
0.0
  0
LINE
  5
CF
  8
1
  6
CONTINUOUS
 62
     7
 10
735.0000000000001
 20
257.3001
 30
0.0
 11
735.0000000000001
 21
257.8
 31
0.0
  0
LINE
  5
D0
  8
1
  6
CONTINUOUS
 62
     7
 10
733.4000000000001
 20
248.2999
 30
0.0
 11
733.4000000000001
 21
247.8
 31
0.0
  0
LINE
  5
D1
  8
1
  6
CONTINUOUS
 62
     7
 10
735.0000000000001
 20
247.8
 30
0.0
 11
735.0000000000001
 21
248.2999000000001
 31
0.0
  0
LINE
  5
D2
  8
1
  6
CONTINUOUS
 62
     7
 10
733.4000000000001
 20
257.3001
 30
0.0
 11
733.4000000000001
 21
248.2999
 31
0.0
  0
LINE
  5
D3
  8
1
  6
CONTINUOUS
 62
     7
 10
735.0000000000001
 20
257.3001
 30
0.0
 11
735.0000000000001
 21
248.2999
 31
0.0
  0
LINE
  5
D4
  8
1
  6
CONTINUOUS
 62
     7
 10
735.0000000000001
 20
195.0
 30
0.0
 11
733.4000000000001
 21
195.0
 31
0.0
  0
LINE
  5
D5
  8
1
  6
CONTINUOUS
 62
     7
 10
733.4000000000001
 20
195.0
 30
0.0
 11
733.4000000000001
 21
200.0
 31
0.0
  0
LINE
  5
D6
  8
1
  6
CONTINUOUS
 62
     7
 10
735.0000000000001
 20
200.0
 30
0.0
 11
735.0000000000001
 21
195.0
 31
0.0
  0
LINE
  5
D7
  8
1
  6
CONTINUOUS
 62
     7
 10
735.0000000000001
 20
229.8000000000001
 30
0.0
 11
733.4000000000001
 21
229.8000000000001
 31
0.0
  0
LINE
  5
D8
  8
1
  6
CONTINUOUS
 62
     7
 10
733.4000000000001
 20
229.8000000000001
 30
0.0
 11
733.4000000000001
 21
230.5050252531695
 31
0.0
  0
LINE
  5
D9
  8
1
  6
CONTINUOUS
 62
     7
 10
735.0000000000001
 20
229.8000000000001
 30
0.0
 11
735.0000000000001
 21
230.5050252531695
 31
0.0
  0
LINE
  5
DA
  8
1
  6
CONTINUOUS
 62
     7
 10
733.4000000000001
 20
232.2000000000002
 30
0.0
 11
735.0000000000001
 21
232.2000000000002
 31
0.0
  0
LINE
  5
DB
  8
1
  6
CONTINUOUS
 62
     7
 10
733.4000000000001
 20
232.2000000000002
 30
0.0
 11
733.4000000000001
 21
238.1
 31
0.0
  0
LINE
  5
DC
  8
1
  6
CONTINUOUS
 62
     7
 10
735.0000000000001
 20
232.2000000000002
 30
0.0
 11
735.0000000000001
 21
238.1
 31
0.0
  0
LINE
  5
DD
  8
1
  6
CONTINUOUS
 62
     7
 10
733.4000000000001
 20
231.4949747468307
 30
0.0
 11
733.4000000000001
 21
232.2000000000002
 31
0.0
  0
LINE
  5
DE
  8
1
  6
CONTINUOUS
 62
     7
 10
735.0000000000001
 20
231.4949747468307
 30
0.0
 11
735.0000000000001
 21
232.2000000000002
 31
0.0
  0
LINE
  5
DF
  8
1
  6
CONTINUOUS
 62
     7
 10
733.4000000000001
 20
200.0
 30
0.0
 11
733.4000000000001
 21
229.8000000000001
 31
0.0
  0
LINE
  5
E0
  8
1
  6
CONTINUOUS
 62
     7
 10
735.0000000000001
 20
200.0
 30
0.0
 11
735.0000000000001
 21
229.8000000000001
 31
0.0
  0
LINE
  5
E1
  8
1
  6
CONTINUOUS
 62
     7
 10
733.4000000000001
 20
231.4949747468307
 30
0.0
 11
733.4000000000001
 21
230.5050252531695
 31
0.0
  0
LINE
  5
E2
  8
1
  6
CONTINUOUS
 62
     7
 10
735.0000000000001
 20
231.4949747468307
 30
0.0
 11
735.0000000000001
 21
230.5050252531695
 31
0.0
  0
LINE
  5
E3
  8
1
  6
CONTINUOUS
 62
     7
 10
733.4000000000001
 20
269.0
 30
0.0
 11
733.4000000000001
 21
266.5000000000001
 31
0.0
  0
LINE
  5
E4
  8
1
  6
CONTINUOUS
 62
     7
 10
735.0000000000001
 20
266.5000000000001
 30
0.0
 11
735.0000000000001
 21
269.0
 31
0.0
  0
LINE
  5
E5
  8
1
  6
CONTINUOUS
 62
     7
 10
733.0000000000001
 20
273.0
 30
0.0
 11
732.0
 21
273.0
 31
0.0
  0
LINE
  5
E6
  8
1
  6
CONTINUOUS
 62
     7
 10
732.0
 20
271.4
 30
0.0
 11
733.0000000000001
 21
271.4
 31
0.0
  0
ARC
  5
E7
  8
1
  6
CONTINUOUS
 62
     7
 10
733.4000000000001
 20
271.4
 30
0.0
 40
1.600000000000046
 50
0.0
 51
90.0
  0
LINE
  5
E8
  8
1
  6
CONTINUOUS
 62
     7
 10
733.4000000000001
 20
269.0
 30
0.0
 11
733.4000000000001
 21
271.4
 31
0.0
  0
LINE
  5
E9
  8
1
  6
CONTINUOUS
 62
     7
 10
735.0000000000001
 20
269.0
 30
0.0
 11
735.0000000000001
 21
271.4
 31
0.0
  0
LINE
  5
EA
  8
1
  6
CONTINUOUS
 62
     7
 10
733.0000000000001
 20
273.0
 30
0.0
 11
733.4000000000001
 21
273.0
 31
0.0
  0
LINE
  5
EB
  8
1
  6
CONTINUOUS
 62
     7
 10
733.0000000000001
 20
271.4
 30
0.0
 11
733.4000000000001
 21
271.4
 31
0.0
  0
ENDBLK
  8
0
  0
BLOCK
  8
0
  2
D_FRAME_VIEW_3406
 70
     0
 10
0.0
 20
0.0
 30
0.0
  0
CIRCLE
  5
F3
  8
1
  6
CONTINUOUS
 62
   132
 10
790.0
 20
231.0
 30
0.0
 40
2.000000000000002
  0
CIRCLE
  5
F4
  8
1
  6
CONTINUOUS
 62
   132
 10
897.0000000000002
 20
231.0
 30
0.0
 40
1.99999999999978
  0
LINE
  5
F5
  8
1
  6
CONTINUOUS
 62
     7
 10
782.0
 20
266.5
 30
0.0
 11
787.0000000000001
 21
266.5000000000001
 31
0.0
  0
ARC
  5
F6
  8
1
  6
CONTINUOUS
 62
     7
 10
787.0000000000001
 20
269.0
 30
0.0
 40
2.499999999999947
 50
270.0
 51
0.0
  0
LINE
  5
F7
  8
1
  6
CONTINUOUS
 62
     7
 10
789.5000000000001
 20
269.0
 30
0.0
 11
789.5000000000001
 21
271.4
 31
0.0
  0
LINE
  5
F8
  8
1
  6
CONTINUOUS
 62
     7
 10
897.5000000000001
 20
271.4
 30
0.0
 11
897.5000000000001
 21
269.5000000000001
 31
0.0
  0
ARC
  5
F9
  8
1
  6
CONTINUOUS
 62
     7
 10
900.0000000000001
 20
269.5000000000001
 30
0.0
 40
2.500000000000058
 50
180.0
 51
270.0
  0
LINE
  5
FA
  8
1
  6
CONTINUOUS
 62
     7
 10
900.0000000000001
 20
267.0
 30
0.0
 11
901.5000000000002
 21
267.0
 31
0.0
  0
ARC
  5
FB
  8
1
  6
CONTINUOUS
 62
     7
 10
901.5000000000002
 20
264.5000000000001
 30
0.0
 40
2.499999999999947
 50
0.0
 51
90.0
  0
LINE
  5
FC
  8
1
  6
CONTINUOUS
 62
     7
 10
904.0000000000001
 20
264.5000000000001
 30
0.0
 11
904.0000000000001
 21
232.2000000000002
 31
0.0
  0
LINE
  5
FD
  8
1
  6
CONTINUOUS
 62
     7
 10
904.0000000000001
 20
232.2000000000002
 30
0.0
 11
903.2949747468306
 21
231.4949747468307
 31
0.0
  0
ARC
  5
FE
  8
1
  6
CONTINUOUS
 62
     7
 10
903.7899494936612
 20
231.0000000000001
 30
0.0
 40
0.7000000000000133
 50
135.0
 51
225.0
  0
LINE
  5
FF
  8
1
  6
CONTINUOUS
 62
     7
 10
903.2949747468306
 20
230.5050252531695
 30
0.0
 11
904.0000000000001
 21
229.8
 31
0.0
  0
LINE
  5
100
  8
1
  6
CONTINUOUS
 62
     7
 10
904.0000000000001
 20
229.8
 30
0.0
 11
904.0000000000001
 21
200.0
 31
0.0
  0
ARC
  5
101
  8
1
  6
CONTINUOUS
 62
     7
 10
899.0000000000002
 20
200.0
 30
0.0
 40
5.000000000000004
 50
270.0
 51
0.0
  0
LINE
  5
102
  8
1
  6
CONTINUOUS
 62
     7
 10
899.0000000000002
 20
195.0
 30
0.0
 11
844.7000000000002
 21
195.0
 31
0.0
  0
LINE
  5
103
  8
1
  6
CONTINUOUS
 62
     7
 10
844.7000000000002
 20
195.0
 30
0.0
 11
844.2071067811867
 21
195.4928932188135
 31
0.0
  0
ARC
  5
104
  8
1
  6
CONTINUOUS
 62
     7
 10
843.5000000000001
 20
194.7857864376269
 30
0.0
 40
1.000000000000055
 50
45.0000000000045
 51
135.0
  0
LINE
  5
105
  8
1
  6
CONTINUOUS
 62
     7
 10
842.3000000000003
 20
195.0
 30
0.0
 11
788.0000000000002
 21
195.0
 31
0.0
  0
ARC
  5
106
  8
1
  6
CONTINUOUS
 62
     7
 10
788.0000000000002
 20
200.0
 30
0.0
 40
5.000000000000115
 50
180.0
 51
270.0
  0
LINE
  5
107
  8
1
  6
CONTINUOUS
 62
     7
 10
783.0000000000001
 20
200.0
 30
0.0
 11
783.0000000000001
 21
229.8000000000001
 31
0.0
  0
LINE
  5
108
  8
1
  6
CONTINUOUS
 62
     7
 10
783.0000000000001
 20
229.8000000000001
 30
0.0
 11
783.7050252531697
 21
230.5050252531695
 31
0.0
  0
ARC
  5
109
  8
1
  6
CONTINUOUS
 62
     7
 10
783.210050506339
 20
231.0000000000001
 30
0.0
 40
0.7000000000000133
 50
315.0
 51
45.0
  0
LINE
  5
10A
  8
1
  6
CONTINUOUS
 62
     7
 10
783.7050252531697
 20
231.4949747468307
 30
0.0
 11
783.0000000000001
 21
232.2000000000002
 31
0.0
  0
LINE
  5
10B
  8
1
  6
CONTINUOUS
 62
     7
 10
783.0000000000001
 20
232.2000000000002
 30
0.0
 11
783.0000000000001
 21
238.1
 31
0.0
  0
ARC
  5
10C
  8
1
  6
CONTINUOUS
 62
     7
 10
782.0
 20
238.1
 30
0.0
 40
1.000000000000001
 50
0.0
 51
90.0000000000004
  0
ARC
  5
10D
  8
1
  6
CONTINUOUS
 62
     7
 10
782.0001000000001
 20
248.2999
 30
0.0
 40
0.4999000000001086
 50
270.0
 51
0.0000000000003979
  0
LINE
  5
10E
  8
1
  6
CONTINUOUS
 62
     7
 10
782.5000000000002
 20
257.3001
 30
0.0
 11
782.5000000000002
 21
248.2999
 31
0.0
  0
ARC
  5
10F
  8
1
  6
CONTINUOUS
 62
     7
 10
782.0001000000001
 20
257.3001
 30
0.0
 40
0.4998999999999976
 50
0.0
 51
90.0
  0
CIRCLE
  5
110
  8
1
  6
CONTINUOUS
 62
     7
 10
791.0000000000001
 20
208.75
 30
0.0
 40
2.499999999999947
  0
CIRCLE
  5
111
  8
1
  6
CONTINUOUS
 62
     7
 10
896.0000000000001
 20
253.25
 30
0.0
 40
2.499999999999947
  0
ARC
  5
112
  8
1
  6
CONTINUOUS
 62
     7
 10
843.5000000000001
 20
231.0
 30
0.0
 40
54.77028147948771
 50
333.423541676854
 51
339.032306599439
  0
ARC
  5
113
  8
1
  6
CONTINUOUS
 62
     7
 10
892.897080070405
 20
202.5177075972103
 30
0.0
 40
4.000000000000004
 50
95.93972371058791
 51
27.44917160932397
  0
ARC
  5
114
  8
1
  6
CONTINUOUS
 62
     7
 10
843.5000000000001
 20
231.0
 30
0.0
 40
59.27028147948776
 50
333.2922275774706
 51
339.0323065994391
  0
ARC
  5
115
  8
1
  6
CONTINUOUS
 62
     7
 10
896.7445322201332
 20
210.5957776757064
 30
0.0
 40
2.250000000000106
 50
339.032306599439
 51
159.032306599439
  0
CIRCLE
  5
116
  8
1
  6
CONTINUOUS
 62
     7
 10
790.0
 20
231.0
 30
0.0
 40
1.75000000000014
  0
CIRCLE
  5
117
  8
1
  6
CONTINUOUS
 62
     7
 10
897.0000000000002
 20
231.0
 30
0.0
 40
1.749999999999918
  0
ARC
  5
118
  8
1
  6
CONTINUOUS
 62
     7
 10
789.0000000000001
 20
243.0000000000001
 30
0.0
 40
1.000000000000001
 50
90.0
 51
180.0000000000001
  0
LINE
  5
119
  8
1
  6
CONTINUOUS
 62
     7
 10
788.0
 20
243.0000000000001
 30
0.0
 11
788.0
 21
238.4833147735479
 31
0.0
  0
ARC
  5
11A
  8
1
  6
CONTINUOUS
 62
     7
 10
790.5000000000002
 20
238.4833147735479
 30
0.0
 40
2.49999999999999
 50
180.0
 51
266.1774462707256
  0
ARC
  5
11B
  8
1
  6
CONTINUOUS
 62
     7
 10
790.0
 20
231.0
 30
0.0
 40
5.000000000000021
 50
36.86989764584376
 51
86.17744627072553
  0
LINE
  5
11C
  8
1
  6
CONTINUOUS
 62
     7
 10
794.0
 20
234.0
 30
0.0
 11
794.0
 21
228.0000000000001
 31
0.0
  0
ARC
  5
11D
  8
1
  6
CONTINUOUS
 62
     7
 10
790.0
 20
231.0
 30
0.0
 40
4.999999999999988
 50
273.8225537292744
 51
323.1301023541562
  0
ARC
  5
11E
  8
1
  6
CONTINUOUS
 62
     7
 10
790.5000000000002
 20
223.5166852264522
 30
0.0
 40
2.500000000000169
 50
93.82255372927443
 51
180.0
  0
LINE
  5
11F
  8
1
  6
CONTINUOUS
 62
     7
 10
788.0
 20
223.5166852264522
 30
0.0
 11
788.0
 21
219.0000000000001
 31
0.0
  0
ARC
  5
120
  8
1
  6
CONTINUOUS
 62
     7
 10
789.0000000000001
 20
219.0000000000001
 30
0.0
 40
1.000000000000112
 50
180.0
 51
270.0000000000004
  0
LINE
  5
121
  8
1
  6
CONTINUOUS
 62
     7
 10
789.0000000000001
 20
218.0
 30
0.0
 11
898.0000000000001
 21
218.0000000000001
 31
0.0
  0
ARC
  5
122
  8
1
  6
CONTINUOUS
 62
     7
 10
898.0000000000001
 20
219.0000000000001
 30
0.0
 40
1.000000000000001
 50
269.9999999999992
 51
359.9999999999997
  0
LINE
  5
123
  8
1
  6
CONTINUOUS
 62
     7
 10
899.0
 20
219.0
 30
0.0
 11
899.0
 21
223.5166852264522
 31
0.0
  0
ARC
  5
124
  8
1
  6
CONTINUOUS
 62
     7
 10
896.5
 20
223.5166852264522
 30
0.0
 40
2.500000000000017
 50
0.0
 51
86.17744627072574
  0
ARC
  5
125
  8
1
  6
CONTINUOUS
 62
     7
 10
897.0
 20
231.0
 30
0.0
 40
4.99999999999998
 50
216.869897645844
 51
266.1774462707259
  0
LINE
  5
126
  8
1
  6
CONTINUOUS
 62
     7
 10
893.0000000000002
 20
228.0
 30
0.0
 11
893.0000000000002
 21
234.0
 31
0.0
  0
ARC
  5
127
  8
1
  6
CONTINUOUS
 62
     7
 10
897.0
 20
231.0
 30
0.0
 40
4.999999999999827
 50
93.8225537292742
 51
143.1301023541558
  0
ARC
  5
128
  8
1
  6
CONTINUOUS
 62
     7
 10
896.5
 20
238.4833147735479
 30
0.0
 40
2.499999999999947
 50
273.8225537292741
 51
0.0
  0
LINE
  5
129
  8
1
  6
CONTINUOUS
 62
     7
 10
899.0
 20
238.4833147735479
 30
0.0
 11
899.0
 21
243.0000000000001
 31
0.0
  0
ARC
  5
12A
  8
1
  6
CONTINUOUS
 62
     7
 10
898.0000000000001
 20
243.0000000000001
 30
0.0
 40
0.9999999999998899
 50
0.0000000000002982
 51
90.0
  0
LINE
  5
12B
  8
1
  6
CONTINUOUS
 62
     7
 10
898.0000000000001
 20
244.0000000000001
 30
0.0
 11
789.0000000000001
 21
244.0000000000001
 31
0.0
  0
ARC
  5
12C
  8
1
  6
CONTINUOUS
 62
     7
 10
843.5000000000001
 20
231.0
 30
0.0
 40
54.77028147948771
 50
153.4235416768541
 51
159.032306599439
  0
ARC
  5
12D
  8
1
  6
CONTINUOUS
 62
     7
 10
794.1029199295953
 20
259.4822924027898
 30
0.0
 40
4.000000000000004
 50
275.9397237105879
 51
207.4491716093239
  0
ARC
  5
12E
  8
1
  6
CONTINUOUS
 62
     7
 10
843.5000000000001
 20
231.0
 30
0.0
 40
59.27028147948776
 50
153.2922275774706
 51
159.0323065994391
  0
ARC
  5
12F
  8
1
  6
CONTINUOUS
 62
     7
 10
790.255467779867
 20
251.4042223242936
 30
0.0
 40
2.250000000000116
 50
159.0323065994391
 51
339.0323065994392
  0
ARC
  5
130
  8
1
  6
CONTINUOUS
 62
     7
 10
808.5000000000002
 20
264.9
 30
0.0
 40
2.499999999999947
 50
0.000000000000159
 51
179.9999999999998
  0
LINE
  5
131
  8
1
  6
CONTINUOUS
 62
     7
 10
806.0
 20
264.9000000000001
 30
0.0
 11
806.0
 21
259.9
 31
0.0
  0
ARC
  5
132
  8
1
  6
CONTINUOUS
 62
     7
 10
808.5000000000002
 20
259.9
 30
0.0
 40
2.500000000000169
 50
180.0
 51
359.9999999999993
  0
LINE
  5
133
  8
1
  6
CONTINUOUS
 62
     7
 10
811.0000000000001
 20
259.9
 30
0.0
 11
811.0000000000001
 21
264.9
 31
0.0
  0
ARC
  5
134
  8
1
  6
CONTINUOUS
 62
     7
 10
878.5
 20
259.9
 30
0.0
 40
2.499999999999947
 50
180.0
 51
359.9999999999993
  0
LINE
  5
135
  8
1
  6
CONTINUOUS
 62
     7
 10
881.0000000000002
 20
259.9
 30
0.0
 11
881.0000000000002
 21
264.9
 31
0.0
  0
ARC
  5
136
  8
1
  6
CONTINUOUS
 62
     7
 10
878.5
 20
264.9
 30
0.0
 40
2.500000000000169
 50
0.000000000000159
 51
180.0
  0
LINE
  5
137
  8
1
  6
CONTINUOUS
 62
     7
 10
876.0000000000001
 20
264.9
 30
0.0
 11
876.0000000000001
 21
259.9
 31
0.0
  0
CIRCLE
  5
138
  8
1
  6
CONTINUOUS
 62
     7
 10
889.5000000000001
 20
259.9
 30
0.0
 40
2.499999999999947
  0
CIRCLE
  5
139
  8
1
  6
CONTINUOUS
 62
     7
 10
843.5000000000001
 20
259.9
 30
0.0
 40
2.499999999999947
  0
ARC
  5
13A
  8
1
  6
CONTINUOUS
 62
     7
 10
854.5
 20
264.9
 30
0.0
 40
2.500000000000169
 50
0.0
 51
179.9999999999999
  0
LINE
  5
13B
  8
1
  6
CONTINUOUS
 62
     7
 10
852.0000000000001
 20
264.9
 30
0.0
 11
852.0000000000001
 21
259.9
 31
0.0
  0
ARC
  5
13C
  8
1
  6
CONTINUOUS
 62
     7
 10
854.5
 20
259.9
 30
0.0
 40
2.499999999999947
 50
180.0
 51
0.0
  0
LINE
  5
13D
  8
1
  6
CONTINUOUS
 62
     7
 10
857.0000000000002
 20
259.9
 30
0.0
 11
857.0000000000002
 21
264.9
 31
0.0
  0
ARC
  5
13E
  8
1
  6
CONTINUOUS
 62
     7
 10
832.5000000000002
 20
259.9
 30
0.0
 40
2.500000000000169
 50
180.0
 51
0.0
  0
LINE
  5
13F
  8
1
  6
CONTINUOUS
 62
     7
 10
835.0000000000001
 20
259.9
 30
0.0
 11
835.0000000000001
 21
264.9
 31
0.0
  0
ARC
  5
140
  8
1
  6
CONTINUOUS
 62
     7
 10
832.5000000000002
 20
264.9
 30
0.0
 40
2.499999999999947
 50
0.0
 51
179.9999999999999
  0
LINE
  5
141
  8
1
  6
CONTINUOUS
 62
     7
 10
830.0
 20
264.9
 30
0.0
 11
830.0
 21
259.9
 31
0.0
  0
LINE
  5
142
  8
1
  6
CONTINUOUS
 62
     7
 10
842.7928932188138
 20
195.4928932188134
 30
0.0
 11
842.3000000000003
 21
195.0
 31
0.0
  0
LINE
  5
143
  8
1
  6
CONTINUOUS
 62
     7
 10
782.0
 20
239.1
 30
0.0
 11
780.4000000000002
 21
239.1
 31
0.0
  0
LINE
  5
144
  8
1
  6
CONTINUOUS
 62
     7
 10
780.4000000000002
 20
239.1
 30
0.0
 11
780.4000000000002
 21
247.8
 31
0.0
  0
LINE
  5
145
  8
1
  6
CONTINUOUS
 62
     7
 10
780.4000000000002
 20
247.8
 30
0.0
 11
782.0
 21
247.8
 31
0.0
  0
LINE
  5
146
  8
1
  6
CONTINUOUS
 62
     7
 10
780.4000000000002
 20
257.8
 30
0.0
 11
780.4000000000002
 21
266.4999999999999
 31
0.0
  0
LINE
  5
147
  8
1
  6
CONTINUOUS
 62
     7
 10
780.4000000000002
 20
266.5
 30
0.0
 11
782.0
 21
266.5
 31
0.0
  0
LINE
  5
148
  8
1
  6
CONTINUOUS
 62
     7
 10
782.0
 20
257.8
 30
0.0
 11
780.4000000000002
 21
257.8
 31
0.0
  0
LINE
  5
149
  8
1
  6
CONTINUOUS
 62
     7
 10
789.5000000000001
 20
273.0
 30
0.0
 11
897.5000000000001
 21
273.0
 31
0.0
  0
LINE
  5
14A
  8
1
  6
CONTINUOUS
 62
     7
 10
789.5000000000001
 20
271.4
 30
0.0
 11
789.5000000000001
 21
273.0
 31
0.0
  0
LINE
  5
14B
  8
1
  6
CONTINUOUS
 62
     7
 10
897.5000000000001
 20
273.0
 30
0.0
 11
897.5000000000001
 21
271.4
 31
0.0
  0
LINE
  5
14C
  8
1
  6
CONTINUOUS
 62
     7
 10
782.0
 20
247.8
 30
0.0
 11
782.0
 21
248.2999
 31
0.0
  0
LINE
  5
14D
  8
1
  6
CONTINUOUS
 62
     7
 10
780.4000000000002
 20
248.2999
 30
0.0
 11
780.4000000000002
 21
247.8
 31
0.0
  0
LINE
  5
14E
  8
1
  6
CONTINUOUS
 62
     7
 10
782.0
 20
257.3001
 30
0.0
 11
782.0
 21
257.8
 31
0.0
  0
LINE
  5
14F
  8
1
  6
CONTINUOUS
 62
     7
 10
780.4000000000002
 20
257.8
 30
0.0
 11
780.4000000000002
 21
257.3001
 31
0.0
  0
LINE
  5
150
  8
1
  6
CONTINUOUS
 62
     7
 10
789.5000000000001
 20
273.0
 30
0.0
 11
788.5000000000002
 21
273.0
 31
0.0
  0
LINE
  5
151
  8
1
  6
CONTINUOUS
 62
     7
 10
788.5000000000002
 20
271.4
 30
0.0
 11
789.5000000000001
 21
271.4
 31
0.0
  0
LINE
  5
152
  8
1
  6
CONTINUOUS
 62
     7
 10
898.5000000000001
 20
273.0
 30
0.0
 11
897.5000000000001
 21
273.0
 31
0.0
  0
LINE
  5
153
  8
1
  6
CONTINUOUS
 62
     7
 10
897.5000000000001
 20
271.4
 30
0.0
 11
898.5000000000001
 21
271.4
 31
0.0
  0
LINE
  5
154
  8
1
  6
CONTINUOUS
 62
     7
 10
782.0
 20
248.2999
 30
0.0
 11
782.0
 21
257.3001
 31
0.0
  0
LINE
  5
155
  8
1
  6
CONTINUOUS
 62
     7
 10
780.4000000000002
 20
248.2999
 30
0.0
 11
780.4000000000002
 21
257.3001
 31
0.0
  0
LINE
  5
156
  8
1
  6
CONTINUOUS
 62
     7
 10
771.5000000000001
 20
273.0
 30
0.0
 11
788.5000000000002
 21
273.0
 31
0.0
  0
LINE
  5
157
  8
1
  6
CONTINUOUS
 62
     7
 10
788.5000000000002
 20
271.4
 30
0.0
 11
771.5000000000001
 21
271.4
 31
0.0
  0
LINE
  5
158
  8
1
  6
CONTINUOUS
 62
     7
 10
768.5000000000001
 20
271.4
 30
0.0
 11
768.5000000000001
 21
273.0
 31
0.0
  0
LINE
  5
159
  8
1
  6
CONTINUOUS
 62
     7
 10
768.5000000000001
 20
273.0
 30
0.0
 11
771.5000000000001
 21
273.0
 31
0.0
  0
LINE
  5
15A
  8
1
  6
CONTINUOUS
 62
     7
 10
771.5000000000001
 20
271.4
 30
0.0
 11
768.5000000000001
 21
271.4
 31
0.0
  0
LINE
  5
15B
  8
1
  6
CONTINUOUS
 62
     7
 10
918.5000000000001
 20
273.0
 30
0.0
 11
918.5000000000001
 21
271.4
 31
0.0
  0
LINE
  5
15C
  8
1
  6
CONTINUOUS
 62
     7
 10
915.5000000000002
 20
273.0
 30
0.0
 11
918.5000000000001
 21
273.0
 31
0.0
  0
LINE
  5
15D
  8
1
  6
CONTINUOUS
 62
     7
 10
918.5000000000001
 20
271.4
 30
0.0
 11
915.5000000000002
 21
271.4
 31
0.0
  0
LINE
  5
15E
  8
1
  6
CONTINUOUS
 62
     7
 10
898.5000000000001
 20
273.0
 30
0.0
 11
915.5000000000002
 21
273.0
 31
0.0
  0
LINE
  5
15F
  8
1
  6
CONTINUOUS
 62
     7
 10
915.5000000000002
 20
271.4
 30
0.0
 11
898.5000000000001
 21
271.4
 31
0.0
  0
ENDBLK
  8
0
  0
ENDSEC
  0
SECTION
  2
ENTITIES
  0
INSERT
  5
B1
  8
1
  6
CONTINUOUS
 62
     7
  2
D_FRAME_VIEW_3715
 10
0.0
 20
0.0
 30
0.0
  0
INSERT
  5
EC
  8
1
  6
CONTINUOUS
 62
     7
  2
D_FRAME_VIEW_3651
 10
0.0
 20
0.0
 30
0.0
  0
LINE
  5
ED
  8
1
  6
CENTER
 62
     1
 10
737.0000000000001
 20
231.0000000000001
 30
0.0
 11
702.5000000000001
 21
231.0000000000001
 31
0.0
  0
LINE
  5
EF
  8
1
  6
CENTER
 62
     1
 10
843.5000000000001
 20
198.0
 30
0.0
 11
843.5000000000001
 21
282.0
 31
0.0
  0
INSERT
  5
160
  8
1
  6
CONTINUOUS
 62
     7
  2
D_FRAME_VIEW_3406
 10
0.0
 20
0.0
 30
0.0
  0
LINE
  5
161
  8
1
  6
CENTER
 62
     1
 10
843.5000000000001
 20
131.5
 30
0.0
 11
843.5000000000001
 21
151.5
 31
0.0
  0
LINE
  5
162
  8
1
  6
CENTER
 62
     1
 10
786.0000000000002
 20
231.0
 30
0.0
 11
903.5000000000002
 21
231.0
 31
0.0
  0
TEXT
  5
163
  8
1
  6
CONTINUOUS
 62
     7
 10
873.5290734025261
 20
98.65684006502443
 30
0.0
 40
6.0
  1
OF-KAG2
  0
ENDSEC
  0
EOF
