  0
SECTION
  2
HEADER
  9
$ACADVER
  1
AC1006
  9
$DWGCODEPAGE
  3
ansi_932
  9
$INSBASE
 10
0.0
 20
0.0
 30
0.0
  9
$EXTMIN
 10
424.9999999999996
 20
87.78409090909093
  9
$EXTMAX
 10
748.0
 20
304.0
  9
$LIMMIN
 10
0.0
 20
0.0
  9
$LIMMAX
 10
12.0
 20
9.0
  9
$ORTHOMODE
 70
     0
  9
$REGENMODE
 70
     1
  9
$FILLMODE
 70
     1
  9
$QTEXTMODE
 70
     0
  9
$MIRRTEXT
 70
     1
  9
$DRAGMODE
 70
     2
  9
$LTSCALE
 40
1.0
  9
$OSMODE
 70
    37
  9
$ATTMODE
 70
     1
  9
$TEXTSIZE
 40
0.2
  9
$TRACEWID
 40
0.05
  9
$TEXTSTYLE
  7
STANDARD
  9
$CLAYER
  8
0
  9
$CELTYPE
  6
BYLAYER
  9
$CECOLOR
 62
   256
  9
$DIMSCALE
 40
1.0
  9
$DIMASZ
 40
3.0
  9
$DIMEXO
 40
0.0625
  9
$DIMDLI
 40
0.38
  9
$DIMRND
 40
0.0
  9
$DIMDLE
 40
0.0
  9
$DIMEXE
 40
1.5
  9
$DIMTP
 40
0.0
  9
$DIMTM
 40
0.0
  9
$DIMTXT
 40
3.0
  9
$DIMCEN
 40
0.09
  9
$DIMTSZ
 40
0.0
  9
$DIMTOL
 70
     0
  9
$DIMLIM
 70
     0
  9
$DIMTIH
 70
     1
  9
$DIMTOH
 70
     1
  9
$DIMSE1
 70
     0
  9
$DIMSE2
 70
     0
  9
$DIMTAD
 70
     1
  9
$DIMZIN
 70
     0
  9
$DIMBLK
  1

  9
$DIMASO
 70
     1
  9
$DIMSHO
 70
     1
  9
$DIMPOST
  1

  9
$DIMAPOST
  1

  9
$DIMALT
 70
     0
  9
$DIMALTD
 70
     2
  9
$DIMALTF
 40
25.4
  9
$DIMLFAC
 40
1.0
  9
$DIMTOFL
 70
     0
  9
$DIMTVP
 40
0.0
  9
$DIMTIX
 70
     0
  9
$DIMSOXD
 70
     0
  9
$DIMSAH
 70
     0
  9
$DIMBLK1
  1

  9
$DIMBLK2
  1

  9
$LUNITS
 70
     2
  9
$LUPREC
 70
     4
  9
$SKETCHINC
 40
0.1
  9
$FILLETRAD
 40
0.5
  9
$AUNITS
 70
     0
  9
$AUPREC
 70
     0
  9
$MENU
  1
.
  9
$ELEVATION
 40
0.0
  9
$THICKNESS
 40
0.0
  9
$LIMCHECK
 70
     0
  9
$CHAMFERA
 40
0.0
  9
$CHAMFERB
 40
0.0
  9
$SKPOLY
 70
     0
  9
$TDCREATE
 40
2460571.611323796
  9
$TDUPDATE
 40
2460571.611324074
  9
$TDINDWG
 40
0.0000000116
  9
$TDUSRTIMER
 40
0.0000000116
  9
$USRTIMER
 70
     1
  9
$ANGBASE
 50
0.0
  9
$ANGDIR
 70
     0
  9
$PDMODE
 70
     0
  9
$PDSIZE
 40
0.0
  9
$PLINEWID
 40
0.0
  9
$COORDS
 70
     1
  9
$SPLFRAME
 70
     0
  9
$SPLINETYPE
 70
     6
  9
$SPLINESEGS
 70
     8
  9
$ATTDIA
 70
     0
  9
$ATTREQ
 70
     1
  9
$HANDLING
 70
     1
  9
$HANDSEED
  5
1AD
  9
$SURFTAB1
 70
     6
  9
$SURFTAB2
 70
     6
  9
$SURFTYPE
 70
     6
  9
$SURFU
 70
     6
  9
$SURFV
 70
     6
  9
$UCSNAME
  2

  9
$UCSORG
 10
0.0
 20
0.0
 30
0.0
  9
$UCSXDIR
 10
1.0
 20
0.0
 30
0.0
  9
$UCSYDIR
 10
0.0
 20
1.0
 30
0.0
  9
$USERI1
 70
     0
  9
$USERI2
 70
     0
  9
$USERI3
 70
     0
  9
$USERI4
 70
     0
  9
$USERI5
 70
     0
  9
$USERR1
 40
0.0
  9
$USERR2
 40
0.0
  9
$USERR3
 40
0.0
  9
$USERR4
 40
0.0
  9
$USERR5
 40
0.0
  9
$WORLDVIEW
 70
     1
  0
ENDSEC
  0
SECTION
  2
TABLES
  0
TABLE
  2
VPORT
 70
     1
  0
VPORT
  2
*ACTIVE
 70
     0
 10
0.0
 20
0.0
 11
1.0
 21
1.0
 12
586.4999999999998
 22
195.8920454545455
 13
0.0
 23
0.0
 14
0.5
 24
0.5
 15
0.5
 25
0.5
 16
0.0
 26
0.0
 36
1.0
 17
0.0
 27
0.0
 37
0.0
 40
216.2159090909091
 41
1.6
 42
50.0
 43
0.0
 44
0.0
 50
0.0
 51
0.0
 71
     0
 72
   100
 73
     1
 74
     3
 75
     0
 76
     0
 77
     0
 78
     0
  0
ENDTAB
  0
TABLE
  2
LTYPE
 70
     2
  0
LTYPE
  2
CONTINUOUS
 70
     0
  3
Solid line
 72
    65
 73
     0
 40
0.0
  0
LTYPE
  2
CENTER
 70
     0
  3

 72
    65
 73
     0
 40
0.0
  0
ENDTAB
  0
TABLE
  2
LAYER
 70
     2
  0
LAYER
  2
0
 70
     0
 62
     7
  6
CONTINUOUS
  0
LAYER
  2
1
 70
     0
 62
     7
  6
CONTINUOUS
  0
ENDTAB
  0
TABLE
  2
STYLE
 70
     2
  0
STYLE
  2
STANDARD
 70
     0
 40
0.0
 41
1.0
 50
0.0
 71
     0
 42
0.2
  3
txt
  4

  0
STYLE
  2
ＭＳ_ゴシック
 70
     0
 40
0.0
 41
1.0
 50
0.0
 71
     0
 42
0.2
  3
ＭＳ ゴシック.shx
  4

  0
ENDTAB
  0
TABLE
  2
VIEW
 70
     0
  0
ENDTAB
  0
TABLE
  2
UCS
 70
     0
  0
ENDTAB
  0
ENDSEC
  0
SECTION
  2
BLOCKS
  0
BLOCK
  8
0
  2
D_FRAME_VIEW_2454
 70
     0
 10
0.0
 20
0.0
 30
0.0
  0
CIRCLE
  5
75
  8
1
  6
CONTINUOUS
 62
   132
 10
616.4999999999992
 20
200.7499999999999
 30
0.0
 40
2.000000000000002
  0
CIRCLE
  5
76
  8
1
  6
CONTINUOUS
 62
   132
 10
463.4999999999991
 20
200.7499999999999
 30
0.0
 40
2.000000000000002
  0
CIRCLE
  5
77
  8
1
  6
CONTINUOUS
 62
     7
 10
623.9999999999991
 20
154.75
 30
0.0
 40
3.500000000000003
  0
CIRCLE
  5
78
  8
1
  6
CONTINUOUS
 62
     7
 10
617.9999999999991
 20
176.75
 30
0.0
 40
3.500000000000003
  0
ARC
  5
79
  8
1
  6
CONTINUOUS
 62
     7
 10
455.9999999999991
 20
165.75
 30
0.0
 40
1.000000000000031
 50
279.9999999999987
 51
80.00000000000148
  0
LINE
  5
7A
  8
1
  6
CONTINUOUS
 62
     7
 10
456.1736481776661
 20
166.7348077530122
 30
0.0
 11
448.499999999999
 21
168.0878789671992
 31
0.0
  0
LINE
  5
7B
  8
1
  6
CONTINUOUS
 62
     7
 10
448.499999999999
 20
168.0878789671992
 30
0.0
 11
448.499999999999
 21
175.5499999999999
 31
0.0
  0
LINE
  5
7C
  8
1
  6
CONTINUOUS
 62
     7
 10
448.499999999999
 20
175.5499999999999
 30
0.0
 11
448.9928932188125
 21
176.0428932188134
 31
0.0
  0
ARC
  5
7D
  8
1
  6
CONTINUOUS
 62
     7
 10
448.285786437626
 20
176.75
 30
0.0
 40
0.9999999999999989
 50
315.0
 51
45.0
  0
LINE
  5
7E
  8
1
  6
CONTINUOUS
 62
     7
 10
448.9928932188126
 20
177.4571067811865
 30
0.0
 11
448.499999999999
 21
177.9500000000001
 31
0.0
  0
LINE
  5
7F
  8
1
  6
CONTINUOUS
 62
     7
 10
448.499999999999
 20
177.9500000000001
 30
0.0
 11
448.499999999999
 21
208.3499999999998
 31
0.0
  0
ARC
  5
80
  8
1
  6
CONTINUOUS
 62
     7
 10
447.999999999999
 20
208.3499999999998
 30
0.0
 40
0.5000000000000004
 50
359.9999999999968
 51
90.0000000000191
  0
LINE
  5
81
  8
1
  6
CONTINUOUS
 62
     7
 10
448.0000000000004
 20
217.55
 30
0.0
 11
448.5000000000004
 21
217.55
 31
0.0
  0
ARC
  5
82
  8
1
  6
CONTINUOUS
 62
     7
 10
448.5000000000004
 20
218.05
 30
0.0
 40
0.5000000000000004
 50
270.0
 51
0.0
  0
LINE
  5
83
  8
1
  6
CONTINUOUS
 62
     7
 10
449.0000000000004
 20
218.05
 30
0.0
 11
449.0000000000004
 21
227.05
 31
0.0
  0
ARC
  5
84
  8
1
  6
CONTINUOUS
 62
     7
 10
448.5000000000004
 20
227.05
 30
0.0
 40
0.5000000000000004
 50
0.0
 51
90.0
  0
LINE
  5
85
  8
1
  6
CONTINUOUS
 62
     7
 10
448.0000000000004
 20
227.55
 30
0.0
 11
448.5000000000004
 21
227.55
 31
0.0
  0
LINE
  5
86
  8
1
  6
CONTINUOUS
 62
     7
 10
448.0000000000004
 20
236.25
 30
0.0
 11
452.499999999999
 21
236.25
 31
0.0
  0
ARC
  5
87
  8
1
  6
CONTINUOUS
 62
     7
 10
452.499999999999
 20
238.75
 30
0.0
 40
2.500000000000002
 50
269.9999999999997
 51
0.0
  0
LINE
  5
88
  8
1
  6
CONTINUOUS
 62
     7
 10
454.999999999999
 20
238.75
 30
0.0
 11
454.999999999999
 21
241.1499999999999
 31
0.0
  0
ARC
  5
89
  8
1
  6
CONTINUOUS
 62
     7
 10
484.9999999999991
 20
241.1499999999999
 30
0.0
 40
1.000000000000001
 50
179.9999999999984
 51
270.0
  0
LINE
  5
8A
  8
1
  6
CONTINUOUS
 62
     7
 10
484.9999999999991
 20
240.1499999999999
 30
0.0
 11
594.9999999999992
 21
240.1499999999999
 31
0.0
  0
ARC
  5
8B
  8
1
  6
CONTINUOUS
 62
     7
 10
594.9999999999991
 20
241.1499999999999
 30
0.0
 40
1.000000000000001
 50
270.0000000000032
 51
0.0000000000015916
  0
LINE
  5
8C
  8
1
  6
CONTINUOUS
 62
     7
 10
624.9999999999989
 20
241.1499999999999
 30
0.0
 11
624.9999999999989
 21
238.75
 31
0.0
  0
ARC
  5
8D
  8
1
  6
CONTINUOUS
 62
     7
 10
627.4999999999989
 20
238.75
 30
0.0
 40
2.500000000000002
 50
180.0
 51
270.0
  0
LINE
  5
8E
  8
1
  6
CONTINUOUS
 62
     7
 10
627.4999999999989
 20
236.25
 30
0.0
 11
631.9999999999977
 21
236.25
 31
0.0
  0
LINE
  5
8F
  8
1
  6
CONTINUOUS
 62
     7
 10
631.9999999999978
 20
227.55
 30
0.0
 11
631.499999999998
 21
227.55
 31
0.0
  0
ARC
  5
90
  8
1
  6
CONTINUOUS
 62
     7
 10
631.4999999999978
 20
227.05
 30
0.0
 40
0.5000000000000004
 50
90.0
 51
180.0
  0
LINE
  5
91
  8
1
  6
CONTINUOUS
 62
     7
 10
630.9999999999977
 20
218.05
 30
0.0
 11
630.9999999999977
 21
227.05
 31
0.0
  0
ARC
  5
92
  8
1
  6
CONTINUOUS
 62
     7
 10
631.4999999999978
 20
218.05
 30
0.0
 40
0.5000000000000004
 50
180.0
 51
270.0
  0
LINE
  5
93
  8
1
  6
CONTINUOUS
 62
     7
 10
631.9999999999978
 20
217.55
 30
0.0
 11
631.499999999998
 21
217.55
 31
0.0
  0
ARC
  5
94
  8
1
  6
CONTINUOUS
 62
     7
 10
631.9999999999987
 20
208.3499999999998
 30
0.0
 40
0.5000000000000004
 50
89.99999999993639
 51
179.9999999999984
  0
LINE
  5
95
  8
1
  6
CONTINUOUS
 62
     7
 10
631.4999999999989
 20
208.3499999999998
 30
0.0
 11
631.4999999999989
 21
177.9499999999998
 31
0.0
  0
LINE
  5
96
  8
1
  6
CONTINUOUS
 62
     7
 10
631.4999999999989
 20
177.9499999999998
 30
0.0
 11
631.0071067811855
 21
177.4571067811865
 31
0.0
  0
ARC
  5
97
  8
1
  6
CONTINUOUS
 62
     7
 10
631.7142135623723
 20
176.75
 30
0.0
 40
0.9999999999999984
 50
135.0
 51
225.0
  0
LINE
  5
98
  8
1
  6
CONTINUOUS
 62
     7
 10
631.0071067811856
 20
176.0428932188134
 30
0.0
 11
631.4999999999989
 21
175.5500000000002
 31
0.0
  0
LINE
  5
99
  8
1
  6
CONTINUOUS
 62
     7
 10
631.4999999999989
 20
175.5500000000002
 30
0.0
 11
631.4999999999989
 21
168.0878789671991
 31
0.0
  0
LINE
  5
9A
  8
1
  6
CONTINUOUS
 62
     7
 10
631.4999999999989
 20
168.0878789671991
 30
0.0
 11
623.8263518223322
 21
166.7348077530122
 31
0.0
  0
ARC
  5
9B
  8
1
  6
CONTINUOUS
 62
     7
 10
623.9999999999991
 20
165.75
 30
0.0
 40
1.000000000000031
 50
99.99999999999852
 51
260.0000000000014
  0
LINE
  5
9C
  8
1
  6
CONTINUOUS
 62
     7
 10
623.8263518223323
 20
164.7651922469878
 30
0.0
 11
631.499999999999
 21
163.4121210328008
 31
0.0
  0
LINE
  5
9D
  8
1
  6
CONTINUOUS
 62
     7
 10
631.4999999999989
 20
163.4121210328008
 30
0.0
 11
631.4999999999989
 21
122.25
 31
0.0
  0
ARC
  5
9E
  8
1
  6
CONTINUOUS
 62
     7
 10
626.499999999999
 20
122.2500000000001
 30
0.0
 40
4.999999999999977
 50
270.0
 51
359.9999999999997
  0
LINE
  5
9F
  8
1
  6
CONTINUOUS
 62
     7
 10
626.499999999999
 20
117.2500000000001
 30
0.0
 11
619.4999999999992
 21
117.2500000000001
 31
0.0
  0
LINE
  5
A0
  8
1
  6
CONTINUOUS
 62
     7
 10
618.4999999999992
 20
118.2500000000001
 30
0.0
 11
619.4999999999992
 21
117.2500000000001
 31
0.0
  0
LINE
  5
A1
  8
1
  6
CONTINUOUS
 62
     7
 10
618.4999999999992
 20
118.2500000000001
 30
0.0
 11
618.4999999999992
 21
130.25
 31
0.0
  0
ARC
  5
A2
  8
1
  6
CONTINUOUS
 62
     7
 10
615.9999999999991
 20
130.25
 30
0.0
 40
2.500000000000002
 50
0.0
 51
180.0
  0
LINE
  5
A3
  8
1
  6
CONTINUOUS
 62
     7
 10
613.4999999999991
 20
130.25
 30
0.0
 11
613.4999999999991
 21
118.2500000000001
 31
0.0
  0
LINE
  5
A4
  8
1
  6
CONTINUOUS
 62
     7
 10
612.4999999999991
 20
117.2500000000001
 30
0.0
 11
613.4999999999991
 21
118.2500000000001
 31
0.0
  0
LINE
  5
A5
  8
1
  6
CONTINUOUS
 62
     7
 10
612.4999999999991
 20
117.2500000000001
 30
0.0
 11
541.1999999999991
 21
117.2500000000001
 31
0.0
  0
LINE
  5
A6
  8
1
  6
CONTINUOUS
 62
     7
 10
541.199999999999
 20
117.2500000000001
 30
0.0
 11
540.7071067811855
 21
117.7428932188136
 31
0.0
  0
ARC
  5
A7
  8
1
  6
CONTINUOUS
 62
     7
 10
539.999999999999
 20
117.0357864376269
 30
0.0
 40
1.000000000000004
 50
45.000000000009
 51
135.0
  0
LINE
  5
A8
  8
1
  6
CONTINUOUS
 62
     7
 10
539.2928932188124
 20
117.7428932188135
 30
0.0
 11
538.7999999999992
 21
117.2500000000001
 31
0.0
  0
LINE
  5
A9
  8
1
  6
CONTINUOUS
 62
     7
 10
538.7999999999992
 20
117.2500000000001
 30
0.0
 11
467.4999999999993
 21
117.2500000000001
 31
0.0
  0
LINE
  5
AA
  8
1
  6
CONTINUOUS
 62
     7
 10
466.4999999999991
 20
118.2500000000001
 30
0.0
 11
467.4999999999994
 21
117.2500000000001
 31
0.0
  0
LINE
  5
AB
  8
1
  6
CONTINUOUS
 62
     7
 10
466.4999999999991
 20
118.2500000000001
 30
0.0
 11
466.4999999999991
 21
130.25
 31
0.0
  0
ARC
  5
AC
  8
1
  6
CONTINUOUS
 62
     7
 10
463.9999999999991
 20
130.25
 30
0.0
 40
2.500000000000002
 50
0.0
 51
180.0
  0
LINE
  5
AD
  8
1
  6
CONTINUOUS
 62
     7
 10
461.4999999999991
 20
130.25
 30
0.0
 11
461.4999999999991
 21
118.2500000000001
 31
0.0
  0
LINE
  5
AE
  8
1
  6
CONTINUOUS
 62
     7
 10
460.4999999999993
 20
117.2500000000001
 30
0.0
 11
461.4999999999991
 21
118.2500000000001
 31
0.0
  0
LINE
  5
AF
  8
1
  6
CONTINUOUS
 62
     7
 10
460.4999999999993
 20
117.2500000000001
 30
0.0
 11
453.499999999999
 21
117.2500000000001
 31
0.0
  0
ARC
  5
B0
  8
1
  6
CONTINUOUS
 62
     7
 10
453.499999999999
 20
122.2500000000001
 30
0.0
 40
4.99999999999997
 50
180.0
 51
270.0000000000002
  0
LINE
  5
B1
  8
1
  6
CONTINUOUS
 62
     7
 10
448.499999999999
 20
122.2500000000001
 30
0.0
 11
448.499999999999
 21
163.4121210328007
 31
0.0
  0
LINE
  5
B2
  8
1
  6
CONTINUOUS
 62
     7
 10
448.499999999999
 20
163.4121210328007
 30
0.0
 11
456.173648177666
 21
164.7651922469878
 31
0.0
  0
CIRCLE
  5
B3
  8
1
  6
CONTINUOUS
 62
     7
 10
463.4999999999991
 20
200.7499999999999
 30
0.0
 40
1.750000000000002
  0
CIRCLE
  5
B4
  8
1
  6
CONTINUOUS
 62
     7
 10
616.4999999999992
 20
200.7499999999999
 30
0.0
 40
1.749999999999974
  0
CIRCLE
  5
B5
  8
1
  6
CONTINUOUS
 62
     7
 10
458.9999999999992
 20
200.7499999999999
 30
0.0
 40
1.799999999999996
  0
CIRCLE
  5
B6
  8
1
  6
CONTINUOUS
 62
     7
 10
620.9999999999993
 20
200.7499999999999
 30
0.0
 40
1.799999999999968
  0
CIRCLE
  5
B7
  8
1
  6
CONTINUOUS
 62
     7
 10
516.9999999999991
 20
229.7499999999999
 30
0.0
 40
2.499999999999999
  0
CIRCLE
  5
B8
  8
1
  6
CONTINUOUS
 62
     7
 10
562.9999999999992
 20
229.7499999999999
 30
0.0
 40
2.499999999999995
  0
CIRCLE
  5
B9
  8
1
  6
CONTINUOUS
 62
     7
 10
470.9999999999991
 20
229.7499999999999
 30
0.0
 40
2.500000000000002
  0
CIRCLE
  5
BA
  8
1
  6
CONTINUOUS
 62
     7
 10
608.9999999999993
 20
229.7499999999999
 30
0.0
 40
2.500000000000002
  0
ARC
  5
BB
  8
1
  6
CONTINUOUS
 62
     7
 10
615.9999999999991
 20
229.2499999999999
 30
0.0
 40
2.500000000000002
 50
180.0
 51
0.0000000000001705
  0
LINE
  5
BC
  8
1
  6
CONTINUOUS
 62
     7
 10
618.4999999999992
 20
229.2499999999999
 30
0.0
 11
618.4999999999992
 21
230.8130682287831
 31
0.0
  0
ARC
  5
BD
  8
1
  6
CONTINUOUS
 62
     7
 10
615.9999999999991
 20
234.2499999999999
 30
0.0
 40
4.250000000000014
 50
306.0318790724706
 51
233.9681209275296
  0
LINE
  5
BE
  8
1
  6
CONTINUOUS
 62
     7
 10
613.4999999999991
 20
230.8130682287831
 30
0.0
 11
613.4999999999991
 21
229.2499999999999
 31
0.0
  0
ARC
  5
BF
  8
1
  6
CONTINUOUS
 62
     7
 10
463.9999999999991
 20
229.2499999999999
 30
0.0
 40
2.500000000000002
 50
180.0
 51
0.0000000000003411
  0
LINE
  5
C0
  8
1
  6
CONTINUOUS
 62
     7
 10
466.4999999999991
 20
229.2499999999999
 30
0.0
 11
466.4999999999991
 21
230.8130682287831
 31
0.0
  0
ARC
  5
C1
  8
1
  6
CONTINUOUS
 62
     7
 10
463.9999999999991
 20
234.2499999999999
 30
0.0
 40
4.250000000000014
 50
306.0318790724706
 51
233.9681209275293
  0
LINE
  5
C2
  8
1
  6
CONTINUOUS
 62
     7
 10
461.4999999999991
 20
230.8130682287831
 30
0.0
 11
461.4999999999991
 21
229.2499999999999
 31
0.0
  0
ARC
  5
C3
  8
1
  6
CONTINUOUS
 62
     7
 10
463.4999999999991
 20
200.75
 30
0.0
 40
5.000000000000004
 50
36.86989764584399
 51
90.0
  0
LINE
  5
C4
  8
1
  6
CONTINUOUS
 62
     7
 10
467.4999999999991
 20
203.75
 30
0.0
 11
467.4999999999991
 21
197.75
 31
0.0
  0
ARC
  5
C5
  8
1
  6
CONTINUOUS
 62
     7
 10
463.4999999999991
 20
200.75
 30
0.0
 40
5.000000000000004
 50
270.0
 51
323.1301023541557
  0
ARC
  5
C6
  8
1
  6
CONTINUOUS
 62
     7
 10
463.4999999999991
 20
193.75
 30
0.0
 40
2.000000000000002
 50
90.0
 51
179.9999999999997
  0
LINE
  5
C7
  8
1
  6
CONTINUOUS
 62
     7
 10
461.4999999999991
 20
193.75
 30
0.0
 11
461.4999999999991
 21
188.75
 31
0.0
  0
ARC
  5
C8
  8
1
  6
CONTINUOUS
 62
     7
 10
462.4999999999991
 20
188.75
 30
0.0
 40
1.000000000000001
 50
180.0
 51
269.9999999999992
  0
LINE
  5
C9
  8
1
  6
CONTINUOUS
 62
     7
 10
462.4999999999991
 20
187.75
 30
0.0
 11
617.4999999999991
 21
187.75
 31
0.0
  0
ARC
  5
CA
  8
1
  6
CONTINUOUS
 62
     7
 10
617.4999999999991
 20
188.75
 30
0.0
 40
1.000000000000001
 50
269.9999999999984
 51
0.0
  0
LINE
  5
CB
  8
1
  6
CONTINUOUS
 62
     7
 10
618.4999999999991
 20
188.75
 30
0.0
 11
618.4999999999991
 21
193.75
 31
0.0
  0
ARC
  5
CC
  8
1
  6
CONTINUOUS
 62
     7
 10
616.4999999999991
 20
193.75
 30
0.0
 40
2.000000000000002
 50
0.0000000000002982
 51
90.0
  0
ARC
  5
CD
  8
1
  6
CONTINUOUS
 62
     7
 10
616.4999999999991
 20
200.75
 30
0.0
 40
5.000000000000004
 50
216.869897645844
 51
270.0
  0
LINE
  5
CE
  8
1
  6
CONTINUOUS
 62
     7
 10
612.499999999999
 20
197.7499999999999
 30
0.0
 11
612.499999999999
 21
203.7499999999999
 31
0.0
  0
ARC
  5
CF
  8
1
  6
CONTINUOUS
 62
     7
 10
616.4999999999991
 20
200.75
 30
0.0
 40
5.000000000000007
 50
90.0
 51
143.1301023541562
  0
ARC
  5
D0
  8
1
  6
CONTINUOUS
 62
     7
 10
616.4999999999991
 20
207.75
 30
0.0
 40
2.000000000000002
 50
270.0
 51
359.9999999999997
  0
LINE
  5
D1
  8
1
  6
CONTINUOUS
 62
     7
 10
618.4999999999991
 20
207.75
 30
0.0
 11
618.4999999999991
 21
212.75
 31
0.0
  0
ARC
  5
D2
  8
1
  6
CONTINUOUS
 62
     7
 10
617.4999999999991
 20
212.75
 30
0.0
 40
1.000000000000001
 50
0.0
 51
90.0
  0
LINE
  5
D3
  8
1
  6
CONTINUOUS
 62
     7
 10
617.4999999999991
 20
213.75
 30
0.0
 11
462.4999999999991
 21
213.75
 31
0.0
  0
ARC
  5
D4
  8
1
  6
CONTINUOUS
 62
     7
 10
462.4999999999991
 20
212.75
 30
0.0
 40
1.000000000000001
 50
90.0
 51
180.0
  0
LINE
  5
D5
  8
1
  6
CONTINUOUS
 62
     7
 10
461.4999999999991
 20
212.75
 30
0.0
 11
461.4999999999991
 21
207.75
 31
0.0
  0
ARC
  5
D6
  8
1
  6
CONTINUOUS
 62
     7
 10
463.4999999999991
 20
207.75
 30
0.0
 40
2.000000000000002
 50
180.0
 51
270.0
  0
ARC
  5
D7
  8
1
  6
CONTINUOUS
 62
     7
 10
465.9999999999991
 20
165.75
 30
0.0
 40
1.000000000000001
 50
90.0
 51
269.9999999999995
  0
LINE
  5
D8
  8
1
  6
CONTINUOUS
 62
     7
 10
465.9999999999991
 20
164.7499999999999
 30
0.0
 11
613.999999999999
 21
164.7499999999999
 31
0.0
  0
ARC
  5
D9
  8
1
  6
CONTINUOUS
 62
     7
 10
613.9999999999991
 20
165.75
 30
0.0
 40
1.000000000000001
 50
270.0
 51
89.99999999999682
  0
LINE
  5
DA
  8
1
  6
CONTINUOUS
 62
     7
 10
613.9999999999991
 20
166.75
 30
0.0
 11
465.9999999999991
 21
166.75
 31
0.0
  0
CIRCLE
  5
DB
  8
1
  6
CONTINUOUS
 62
     7
 10
461.9999999999992
 20
176.75
 30
0.0
 40
3.500000000000003
  0
CIRCLE
  5
DC
  8
1
  6
CONTINUOUS
 62
     7
 10
455.9999999999991
 20
154.75
 30
0.0
 40
3.500000000000003
  0
CIRCLE
  5
DD
  8
1
  6
CONTINUOUS
 62
     7
 10
470.9999999999992
 20
146.25
 30
0.0
 40
2.500000000000002
  0
CIRCLE
  5
DE
  8
1
  6
CONTINUOUS
 62
     7
 10
516.9999999999991
 20
146.25
 30
0.0
 40
2.500000000000002
  0
CIRCLE
  5
DF
  8
1
  6
CONTINUOUS
 62
     7
 10
562.9999999999992
 20
146.25
 30
0.0
 40
2.499999999999995
  0
CIRCLE
  5
E0
  8
1
  6
CONTINUOUS
 62
     7
 10
608.9999999999991
 20
146.25
 30
0.0
 40
2.500000000000002
  0
LINE
  5
E1
  8
1
  6
CONTINUOUS
 62
     7
 10
454.999999999999
 20
241.1499999999999
 30
0.0
 11
454.999999999999
 21
242.7499999999999
 31
0.0
  0
LINE
  5
E2
  8
1
  6
CONTINUOUS
 62
     7
 10
454.9999999999997
 20
242.7499999999999
 30
0.0
 11
483.9999999999991
 21
242.7499999999999
 31
0.0
  0
LINE
  5
E3
  8
1
  6
CONTINUOUS
 62
     7
 10
483.9999999999991
 20
241.1499999999999
 30
0.0
 11
483.9999999999991
 21
242.7499999999999
 31
0.0
  0
LINE
  5
E4
  8
1
  6
CONTINUOUS
 62
     7
 10
595.9999999999991
 20
242.7499999999999
 30
0.0
 11
625.0000000000003
 21
242.7499999999999
 31
0.0
  0
LINE
  5
E5
  8
1
  6
CONTINUOUS
 62
     7
 10
625.0000000000003
 20
242.7499999999999
 30
0.0
 11
624.9999999999989
 21
241.1499999999999
 31
0.0
  0
LINE
  5
E6
  8
1
  6
CONTINUOUS
 62
     7
 10
595.9999999999991
 20
242.7499999999999
 30
0.0
 11
595.9999999999991
 21
241.1499999999999
 31
0.0
  0
LINE
  5
E7
  8
1
  6
CONTINUOUS
 62
     7
 10
446.4000000000004
 20
227.55
 30
0.0
 11
446.4000000000004
 21
236.2499999999999
 31
0.0
  0
LINE
  5
E8
  8
1
  6
CONTINUOUS
 62
     7
 10
446.4000000000004
 20
236.2499999999999
 30
0.0
 11
448.0000000000004
 21
236.25
 31
0.0
  0
LINE
  5
E9
  8
1
  6
CONTINUOUS
 62
     7
 10
448.0000000000004
 20
227.55
 30
0.0
 11
446.4000000000004
 21
227.55
 31
0.0
  0
LINE
  5
EA
  8
1
  6
CONTINUOUS
 62
     7
 10
631.9999999999977
 20
236.25
 30
0.0
 11
633.5999999999979
 21
236.25
 31
0.0
  0
LINE
  5
EB
  8
1
  6
CONTINUOUS
 62
     7
 10
633.5999999999979
 20
236.2499999999999
 30
0.0
 11
633.5999999999979
 21
227.55
 31
0.0
  0
LINE
  5
EC
  8
1
  6
CONTINUOUS
 62
     7
 10
633.5999999999979
 20
227.55
 30
0.0
 11
631.9999999999977
 21
227.55
 31
0.0
  0
LINE
  5
ED
  8
1
  6
CONTINUOUS
 62
     7
 10
446.4000000000004
 20
208.85
 30
0.0
 11
446.4000000000004
 21
217.55
 31
0.0
  0
LINE
  5
EE
  8
1
  6
CONTINUOUS
 62
     7
 10
446.4000000000004
 20
217.55
 30
0.0
 11
448.0000000000004
 21
217.55
 31
0.0
  0
LINE
  5
EF
  8
1
  6
CONTINUOUS
 62
     7
 10
447.9999999999988
 20
208.8499999999998
 30
0.0
 11
446.4000000000004
 21
208.8499999999998
 31
0.0
  0
LINE
  5
F0
  8
1
  6
CONTINUOUS
 62
     7
 10
633.5999999999979
 20
217.55
 30
0.0
 11
633.5999999999979
 21
208.85
 31
0.0
  0
LINE
  5
F1
  8
1
  6
CONTINUOUS
 62
     7
 10
631.9999999999978
 20
217.55
 30
0.0
 11
633.599999999998
 21
217.55
 31
0.0
  0
LINE
  5
F2
  8
1
  6
CONTINUOUS
 62
     7
 10
633.5999999999979
 20
208.85
 30
0.0
 11
631.9999999999994
 21
208.8499999999998
 31
0.0
  0
LINE
  5
F3
  8
1
  6
CONTINUOUS
 62
     7
 10
448.0000000000004
 20
227.05
 30
0.0
 11
448.0000000000004
 21
227.55
 31
0.0
  0
LINE
  5
F4
  8
1
  6
CONTINUOUS
 62
     7
 10
446.4000000000004
 20
227.55
 30
0.0
 11
446.4000000000004
 21
227.05
 31
0.0
  0
LINE
  5
F5
  8
1
  6
CONTINUOUS
 62
     7
 10
448.0000000000004
 20
217.55
 30
0.0
 11
448.0000000000004
 21
218.05
 31
0.0
  0
LINE
  5
F6
  8
1
  6
CONTINUOUS
 62
     7
 10
446.4000000000004
 20
218.05
 30
0.0
 11
446.4000000000004
 21
217.55
 31
0.0
  0
LINE
  5
F7
  8
1
  6
CONTINUOUS
 62
     7
 10
631.9999999999978
 20
227.55
 30
0.0
 11
631.9999999999978
 21
227.05
 31
0.0
  0
LINE
  5
F8
  8
1
  6
CONTINUOUS
 62
     7
 10
633.5999999999979
 20
227.05
 30
0.0
 11
633.5999999999979
 21
227.55
 31
0.0
  0
LINE
  5
F9
  8
1
  6
CONTINUOUS
 62
     7
 10
631.9999999999978
 20
218.05
 30
0.0
 11
631.9999999999978
 21
217.55
 31
0.0
  0
LINE
  5
FA
  8
1
  6
CONTINUOUS
 62
     7
 10
633.5999999999979
 20
217.55
 30
0.0
 11
633.5999999999979
 21
218.05
 31
0.0
  0
LINE
  5
FB
  8
1
  6
CONTINUOUS
 62
     7
 10
453.9999999999992
 20
241.1499999999999
 30
0.0
 11
454.999999999999
 21
241.1499999999999
 31
0.0
  0
LINE
  5
FC
  8
1
  6
CONTINUOUS
 62
     7
 10
454.999999999999
 20
242.7499999999999
 30
0.0
 11
453.9999999999992
 21
242.7499999999999
 31
0.0
  0
LINE
  5
FD
  8
1
  6
CONTINUOUS
 62
     7
 10
624.9999999999989
 20
241.1499999999999
 30
0.0
 11
625.9999999999989
 21
241.1499999999999
 31
0.0
  0
LINE
  5
FE
  8
1
  6
CONTINUOUS
 62
     7
 10
625.9999999999989
 20
242.7499999999999
 30
0.0
 11
624.9999999999989
 21
242.7499999999999
 31
0.0
  0
LINE
  5
FF
  8
1
  6
CONTINUOUS
 62
     7
 10
631.9999999999978
 20
227.05
 30
0.0
 11
631.9999999999978
 21
218.05
 31
0.0
  0
LINE
  5
100
  8
1
  6
CONTINUOUS
 62
     7
 10
633.5999999999979
 20
227.05
 30
0.0
 11
633.5999999999979
 21
218.05
 31
0.0
  0
LINE
  5
101
  8
1
  6
CONTINUOUS
 62
     7
 10
448.0000000000004
 20
218.05
 30
0.0
 11
448.0000000000004
 21
227.05
 31
0.0
  0
LINE
  5
102
  8
1
  6
CONTINUOUS
 62
     7
 10
446.4000000000004
 20
227.05
 30
0.0
 11
446.4000000000004
 21
218.05
 31
0.0
  0
LINE
  5
103
  8
1
  6
CONTINUOUS
 62
     7
 10
655.0000000000005
 20
242.7499999999999
 30
0.0
 11
655.0000000000005
 21
241.1499999999999
 31
0.0
  0
LINE
  5
104
  8
1
  6
CONTINUOUS
 62
     7
 10
655.0000000000005
 20
241.1499999999999
 30
0.0
 11
652.0000000000007
 21
241.1499999999999
 31
0.0
  0
LINE
  5
105
  8
1
  6
CONTINUOUS
 62
     7
 10
652.0000000000006
 20
242.7499999999999
 30
0.0
 11
655.0000000000003
 21
242.7499999999999
 31
0.0
  0
LINE
  5
106
  8
1
  6
CONTINUOUS
 62
     7
 10
424.9999999999997
 20
241.1499999999999
 30
0.0
 11
424.9999999999997
 21
242.7499999999999
 31
0.0
  0
LINE
  5
107
  8
1
  6
CONTINUOUS
 62
     7
 10
427.9999999999997
 20
241.1499999999999
 30
0.0
 11
424.9999999999996
 21
241.1499999999999
 31
0.0
  0
LINE
  5
108
  8
1
  6
CONTINUOUS
 62
     7
 10
424.9999999999996
 20
242.7499999999999
 30
0.0
 11
427.9999999999997
 21
242.7499999999999
 31
0.0
  0
LINE
  5
109
  8
1
  6
CONTINUOUS
 62
     7
 10
427.9999999999997
 20
241.1499999999999
 30
0.0
 11
453.9999999999992
 21
241.1499999999999
 31
0.0
  0
LINE
  5
10A
  8
1
  6
CONTINUOUS
 62
     7
 10
427.9999999999997
 20
242.7499999999999
 30
0.0
 11
453.9999999999992
 21
242.7499999999999
 31
0.0
  0
LINE
  5
10B
  8
1
  6
CONTINUOUS
 62
     7
 10
625.9999999999989
 20
241.1499999999999
 30
0.0
 11
652.0000000000006
 21
241.1499999999999
 31
0.0
  0
LINE
  5
10C
  8
1
  6
CONTINUOUS
 62
     7
 10
625.9999999999989
 20
242.7499999999999
 30
0.0
 11
652.0000000000006
 21
242.7499999999999
 31
0.0
  0
ENDBLK
  8
0
  0
BLOCK
  8
0
  2
D_FRAME_VIEW_2759
 70
     0
 10
0.0
 20
0.0
 30
0.0
  0
LINE
  5
111
  8
1
  6
CONTINUOUS
 62
     7
 10
721.9999999999999
 20
241.1499999999999
 30
0.0
 11
721.9999999999999
 21
242.7499999999999
 31
0.0
  0
LINE
  5
112
  8
1
  6
CONTINUOUS
 62
     7
 10
721.9999999999999
 20
242.7499999999999
 30
0.0
 11
724.9999999999999
 21
242.7499999999999
 31
0.0
  0
LINE
  5
113
  8
1
  6
CONTINUOUS
 62
     7
 10
724.9999999999999
 20
241.1499999999999
 30
0.0
 11
721.9999999999999
 21
241.1499999999999
 31
0.0
  0
LINE
  5
114
  8
1
  6
CONTINUOUS
 62
     7
 10
741.0
 20
242.7499999999999
 30
0.0
 11
744.0
 21
242.7499999999999
 31
0.0
  0
LINE
  5
115
  8
1
  6
CONTINUOUS
 62
     7
 10
743.9999999999999
 20
242.7499999999999
 30
0.0
 11
743.9999999999999
 21
241.1499999999999
 31
0.0
  0
LINE
  5
116
  8
1
  6
CONTINUOUS
 62
     7
 10
743.9999999999999
 20
241.1499999999999
 30
0.0
 11
741.0
 21
241.1499999999999
 31
0.0
  0
LINE
  5
117
  8
1
  6
CONTINUOUS
 62
     7
 10
724.9999999999999
 20
241.1499999999999
 30
0.0
 11
741.0
 21
241.1499999999999
 31
0.0
  0
LINE
  5
118
  8
1
  6
CONTINUOUS
 62
     7
 10
724.9999999999999
 20
242.7499999999999
 30
0.0
 11
741.0
 21
242.7499999999999
 31
0.0
  0
LINE
  5
119
  8
1
  6
CONTINUOUS
 62
     7
 10
719.0000000000001
 20
208.8499999999998
 30
0.0
 11
719.0
 21
217.55
 31
0.0
  0
LINE
  5
11A
  8
1
  6
CONTINUOUS
 62
     7
 10
719.0
 20
217.55
 30
0.0
 11
720.6
 21
217.55
 31
0.0
  0
LINE
  5
11B
  8
1
  6
CONTINUOUS
 62
     7
 10
720.6
 20
208.8499999999998
 30
0.0
 11
719.0000000000001
 21
208.8499999999998
 31
0.0
  0
LINE
  5
11C
  8
1
  6
CONTINUOUS
 62
     7
 10
719.0
 20
227.55
 30
0.0
 11
719.0
 21
236.25
 31
0.0
  0
LINE
  5
11D
  8
1
  6
CONTINUOUS
 62
     7
 10
720.6
 20
227.55
 30
0.0
 11
719.0
 21
227.55
 31
0.0
  0
LINE
  5
11E
  8
1
  6
CONTINUOUS
 62
     7
 10
719.0
 20
236.25
 30
0.0
 11
720.6
 21
236.25
 31
0.0
  0
LINE
  5
11F
  8
1
  6
CONTINUOUS
 62
     7
 10
734.3000000000001
 20
208.85
 30
0.0
 11
720.6
 21
208.85
 31
0.0
  0
CIRCLE
  5
120
  8
1
  6
CONTINUOUS
 62
     7
 10
734.3000000000001
 20
222.55
 30
0.0
 40
11.00000000000001
  0
ARC
  5
121
  8
1
  6
CONTINUOUS
 62
     7
 10
720.6
 20
227.05
 30
0.0
 40
0.5000000000000004
 50
0.0
 51
90.0
  0
ARC
  5
122
  8
1
  6
CONTINUOUS
 62
     7
 10
720.6
 20
218.05
 30
0.0
 40
0.500000000000056
 50
270.0
 51
0.0
  0
LINE
  5
123
  8
1
  6
CONTINUOUS
 62
     7
 10
720.6
 20
236.2499999999999
 30
0.0
 11
734.3000000000001
 21
236.2499999999999
 31
0.0
  0
LINE
  5
124
  8
1
  6
CONTINUOUS
 62
     7
 10
721.1
 20
227.05
 30
0.0
 11
721.1
 21
218.05
 31
0.0
  0
ARC
  5
125
  8
1
  6
CONTINUOUS
 62
     7
 10
734.3000000000001
 20
222.55
 30
0.0
 40
13.69999999999999
 50
270.0
 51
90.0
  0
LINE
  5
126
  8
1
  6
CONTINUOUS
 62
     7
 10
720.6
 20
208.3499999999998
 30
0.0
 11
720.6
 21
208.8499999999998
 31
0.0
  0
LINE
  5
127
  8
1
  6
CONTINUOUS
 62
     7
 10
719.0
 20
208.8499999999998
 30
0.0
 11
719.0
 21
208.3499999999998
 31
0.0
  0
LINE
  5
128
  8
1
  6
CONTINUOUS
 62
     7
 10
719.0
 20
177.9499999999998
 30
0.0
 11
720.6
 21
177.9499999999998
 31
0.0
  0
LINE
  5
129
  8
1
  6
CONTINUOUS
 62
     7
 10
720.6
 20
177.9499999999998
 30
0.0
 11
720.6
 21
177.4571067811865
 31
0.0
  0
LINE
  5
12A
  8
1
  6
CONTINUOUS
 62
     7
 10
719.0
 20
177.9499999999998
 30
0.0
 11
719.0
 21
177.4571067811865
 31
0.0
  0
LINE
  5
12B
  8
1
  6
CONTINUOUS
 62
     7
 10
719.0
 20
168.0878789671991
 30
0.0
 11
720.6
 21
168.0878789671992
 31
0.0
  0
LINE
  5
12C
  8
1
  6
CONTINUOUS
 62
     7
 10
720.6
 20
168.0878789671992
 30
0.0
 11
720.6
 21
166.7348077530122
 31
0.0
  0
LINE
  5
12D
  8
1
  6
CONTINUOUS
 62
     7
 10
719.0
 20
168.0878789671991
 30
0.0
 11
719.0
 21
166.7348077530122
 31
0.0
  0
LINE
  5
12E
  8
1
  6
CONTINUOUS
 62
     7
 10
720.6
 20
175.5500000000002
 30
0.0
 11
719.0
 21
175.5500000000002
 31
0.0
  0
LINE
  5
12F
  8
1
  6
CONTINUOUS
 62
     7
 10
720.6
 20
175.5500000000002
 30
0.0
 11
720.6
 21
168.0878789671992
 31
0.0
  0
LINE
  5
130
  8
1
  6
CONTINUOUS
 62
     7
 10
719.0
 20
175.5500000000002
 30
0.0
 11
719.0
 21
168.0878789671991
 31
0.0
  0
LINE
  5
131
  8
1
  6
CONTINUOUS
 62
     7
 10
720.6
 20
208.3499999999998
 30
0.0
 11
720.6
 21
177.9499999999998
 31
0.0
  0
LINE
  5
132
  8
1
  6
CONTINUOUS
 62
     7
 10
719.0
 20
208.3499999999998
 30
0.0
 11
719.0
 21
177.9499999999998
 31
0.0
  0
LINE
  5
133
  8
1
  6
CONTINUOUS
 62
     7
 10
720.6
 20
163.4121210328008
 30
0.0
 11
719.0
 21
163.4121210328008
 31
0.0
  0
LINE
  5
134
  8
1
  6
CONTINUOUS
 62
     7
 10
720.6
 20
164.7651922469878
 30
0.0
 11
720.6
 21
163.4121210328008
 31
0.0
  0
LINE
  5
135
  8
1
  6
CONTINUOUS
 62
     7
 10
719.0
 20
164.7651922469878
 30
0.0
 11
719.0
 21
163.4121210328008
 31
0.0
  0
LINE
  5
136
  8
1
  6
CONTINUOUS
 62
     7
 10
720.6
 20
163.4121210328008
 30
0.0
 11
720.6
 21
122.25
 31
0.0
  0
LINE
  5
137
  8
1
  6
CONTINUOUS
 62
     7
 10
719.0
 20
163.4121210328008
 30
0.0
 11
719.0
 21
122.25
 31
0.0
  0
LINE
  5
138
  8
1
  6
CONTINUOUS
 62
     7
 10
720.6
 20
176.0428932188134
 30
0.0
 11
720.6
 21
175.5500000000002
 31
0.0
  0
LINE
  5
139
  8
1
  6
CONTINUOUS
 62
     7
 10
719.0
 20
176.0428932188134
 30
0.0
 11
719.0
 21
175.5500000000002
 31
0.0
  0
LINE
  5
13A
  8
1
  6
CONTINUOUS
 62
     7
 10
719.0
 20
117.2500000000001
 30
0.0
 11
720.6
 21
117.2500000000001
 31
0.0
  0
LINE
  5
13B
  8
1
  6
CONTINUOUS
 62
     7
 10
720.6
 20
122.25
 30
0.0
 11
720.6
 21
117.2500000000001
 31
0.0
  0
LINE
  5
13C
  8
1
  6
CONTINUOUS
 62
     7
 10
719.0
 20
122.25
 30
0.0
 11
719.0
 21
117.2500000000001
 31
0.0
  0
LINE
  5
13D
  8
1
  6
CONTINUOUS
 62
     7
 10
720.6
 20
227.05
 30
0.0
 11
720.6
 21
227.55
 31
0.0
  0
LINE
  5
13E
  8
1
  6
CONTINUOUS
 62
     7
 10
719.0
 20
227.55
 30
0.0
 11
719.0
 21
227.05
 31
0.0
  0
LINE
  5
13F
  8
1
  6
CONTINUOUS
 62
     7
 10
720.6
 20
217.55
 30
0.0
 11
720.6
 21
218.05
 31
0.0
  0
LINE
  5
140
  8
1
  6
CONTINUOUS
 62
     7
 10
719.0
 20
218.05
 30
0.0
 11
719.0
 21
217.55
 31
0.0
  0
LINE
  5
141
  8
1
  6
CONTINUOUS
 62
     7
 10
720.6000000000001
 20
176.0428932188134
 30
0.0
 11
720.6
 21
177.4571067811865
 31
0.0
  0
LINE
  5
142
  8
1
  6
CONTINUOUS
 62
     7
 10
719.0000000000001
 20
176.0428932188134
 30
0.0
 11
719.0
 21
177.4571067811865
 31
0.0
  0
LINE
  5
143
  8
1
  6
CONTINUOUS
 62
     7
 10
720.6
 20
227.05
 30
0.0
 11
720.6
 21
218.05
 31
0.0
  0
LINE
  5
144
  8
1
  6
CONTINUOUS
 62
     7
 10
719.0
 20
218.05
 30
0.0
 11
719.0
 21
227.05
 31
0.0
  0
LINE
  5
145
  8
1
  6
CONTINUOUS
 62
     7
 10
720.6
 20
236.25
 30
0.0
 11
720.6
 21
238.75
 31
0.0
  0
LINE
  5
146
  8
1
  6
CONTINUOUS
 62
     7
 10
719.0
 20
238.75
 30
0.0
 11
719.0
 21
236.25
 31
0.0
  0
LINE
  5
147
  8
1
  6
CONTINUOUS
 62
     7
 10
720.9999999999999
 20
241.1499999999999
 30
0.0
 11
721.9999999999999
 21
241.1499999999999
 31
0.0
  0
LINE
  5
148
  8
1
  6
CONTINUOUS
 62
     7
 10
721.9999999999999
 20
242.7499999999999
 30
0.0
 11
720.9999999999999
 21
242.7499999999999
 31
0.0
  0
ARC
  5
149
  8
1
  6
CONTINUOUS
 62
     7
 10
720.6
 20
241.1499999999999
 30
0.0
 40
1.59999999999999
 50
89.9999999999999
 51
180.0
  0
LINE
  5
14A
  8
1
  6
CONTINUOUS
 62
     7
 10
720.6
 20
241.15
 30
0.0
 11
720.6
 21
238.75
 31
0.0
  0
LINE
  5
14B
  8
1
  6
CONTINUOUS
 62
     7
 10
719.0
 20
241.1499999999999
 30
0.0
 11
719.0
 21
238.75
 31
0.0
  0
LINE
  5
14C
  8
1
  6
CONTINUOUS
 62
     7
 10
720.6
 20
241.15
 30
0.0
 11
720.9999999999999
 21
241.1499999999999
 31
0.0
  0
LINE
  5
14D
  8
1
  6
CONTINUOUS
 62
     7
 10
720.6
 20
242.7499999999999
 30
0.0
 11
720.9999999999999
 21
242.7499999999999
 31
0.0
  0
LINE
  5
14E
  8
1
  6
CONTINUOUS
 62
     7
 10
720.6000000000001
 20
164.7651922469877
 30
0.0
 11
720.6
 21
166.7348077530122
 31
0.0
  0
LINE
  5
14F
  8
1
  6
CONTINUOUS
 62
     7
 10
719.0000000000002
 20
164.7651922469877
 30
0.0
 11
719.0
 21
166.7348077530122
 31
0.0
  0
ENDBLK
  8
0
  0
BLOCK
  8
0
  2
D_FRAME_VIEW_2837
 70
     0
 10
0.0
 20
0.0
 30
0.0
  0
ARC
  5
155
  8
1
  6
CONTINUOUS
 62
     7
 10
652.0000000000005
 20
296.9999999999999
 30
0.0
 40
3.000000000000003
 50
0.0000000000006626
 51
90.00000000000054
  0
LINE
  5
156
  8
1
  6
CONTINUOUS
 62
     7
 10
655.0000000000005
 20
280.9999999999999
 30
0.0
 11
655.0000000000005
 21
296.9999999999999
 31
0.0
  0
ARC
  5
157
  8
1
  6
CONTINUOUS
 62
     7
 10
652.0000000000005
 20
280.9999999999999
 30
0.0
 40
3.000000000000003
 50
270.0000000000037
 51
0.0000000000001137
  0
LINE
  5
158
  8
1
  6
CONTINUOUS
 62
     7
 10
625.9999999999989
 20
277.9999999999999
 30
0.0
 11
652.0000000000007
 21
277.9999999999999
 31
0.0
  0
ARC
  5
159
  8
1
  6
CONTINUOUS
 62
     7
 10
625.9999999999989
 20
276.9999999999999
 30
0.0
 40
1.000000000000001
 50
90.0
 51
179.9999999999998
  0
LINE
  5
15A
  8
1
  6
CONTINUOUS
 62
     7
 10
625.0000000000003
 20
276.6
 30
0.0
 11
625.0000000000003
 21
276.9999999999999
 31
0.0
  0
LINE
  5
15B
  8
1
  6
CONTINUOUS
 62
     7
 10
595.9999999999992
 20
278.5609110854142
 30
0.0
 11
595.9999999999992
 21
276.6
 31
0.0
  0
ARC
  5
15C
  8
1
  6
CONTINUOUS
 62
     7
 10
597.9999999999992
 20
278.5609110854142
 30
0.0
 40
2.000000000000016
 50
123.0557311508538
 51
180.0
  0
ARC
  5
15D
  8
1
  6
CONTINUOUS
 62
     7
 10
585.9999999999992
 20
297.0
 30
0.0
 40
20.00000000000002
 50
303.055731150854
 51
0.0
  0
LINE
  5
15E
  8
1
  6
CONTINUOUS
 62
     7
 10
605.9999999999992
 20
297.9999999999999
 30
0.0
 11
605.9999999999992
 21
297.0
 31
0.0
  0
ARC
  5
15F
  8
1
  6
CONTINUOUS
 62
     7
 10
607.9999999999992
 20
297.9999999999999
 30
0.0
 40
2.000000000000002
 50
90.00000000000954
 51
180.0
  0
LINE
  5
160
  8
1
  6
CONTINUOUS
 62
     7
 10
652.0000000000005
 20
299.9999999999999
 30
0.0
 11
607.9999999999989
 21
299.9999999999999
 31
0.0
  0
LINE
  5
161
  8
1
  6
CONTINUOUS
 62
     7
 10
633.5999999999991
 20
292.0000000000001
 30
0.0
 11
633.5999999999991
 21
286.0
 31
0.0
  0
ARC
  5
162
  8
1
  6
CONTINUOUS
 62
     7
 10
632.5999999999991
 20
292.0000000000001
 30
0.0
 40
1.000000000000001
 50
0.0000000000079581
 51
180.0
  0
LINE
  5
163
  8
1
  6
CONTINUOUS
 62
     7
 10
646.7499999999991
 20
284.25
 30
0.0
 11
646.7499999999991
 21
293.75
 31
0.0
  0
ARC
  5
164
  8
1
  6
CONTINUOUS
 62
     7
 10
648.9999999999991
 20
284.25
 30
0.0
 40
2.249999999999974
 50
180.0
 51
0.0
  0
LINE
  5
165
  8
1
  6
CONTINUOUS
 62
     7
 10
651.2499999999991
 20
293.75
 30
0.0
 11
651.2499999999991
 21
284.25
 31
0.0
  0
ARC
  5
166
  8
1
  6
CONTINUOUS
 62
     7
 10
648.9999999999991
 20
293.75
 30
0.0
 40
2.249999999999974
 50
0.0
 51
180.0
  0
ARC
  5
167
  8
1
  6
CONTINUOUS
 62
     7
 10
632.5999999999991
 20
286.0
 30
0.0
 40
1.000000000000001
 50
180.000000000003
 51
359.9999999999998
  0
LINE
  5
168
  8
1
  6
CONTINUOUS
 62
     7
 10
631.5999999999991
 20
286.0
 30
0.0
 11
631.5999999999991
 21
292.0000000000001
 31
0.0
  0
LINE
  5
169
  8
1
  6
CONTINUOUS
 62
     7
 10
433.2499999999991
 20
293.75
 30
0.0
 11
433.2499999999991
 21
284.25
 31
0.0
  0
ARC
  5
16A
  8
1
  6
CONTINUOUS
 62
     7
 10
430.9999999999991
 20
293.75
 30
0.0
 40
2.249999999999974
 50
0.0
 51
180.0
  0
LINE
  5
16B
  8
1
  6
CONTINUOUS
 62
     7
 10
428.7499999999992
 20
284.25
 30
0.0
 11
428.7499999999992
 21
293.75
 31
0.0
  0
ARC
  5
16C
  8
1
  6
CONTINUOUS
 62
     7
 10
430.9999999999991
 20
284.25
 30
0.0
 40
2.249999999999974
 50
180.0
 51
0.0
  0
LINE
  5
16D
  8
1
  6
CONTINUOUS
 62
     7
 10
448.3999999999991
 20
292.0000000000001
 30
0.0
 11
448.3999999999991
 21
286.0
 31
0.0
  0
ARC
  5
16E
  8
1
  6
CONTINUOUS
 62
     7
 10
447.3999999999991
 20
292.0000000000001
 30
0.0
 40
1.000000000000001
 50
0.0000000000078444
 51
179.9999999999999
  0
LINE
  5
16F
  8
1
  6
CONTINUOUS
 62
     7
 10
454.9999999999998
 20
276.9999999999999
 30
0.0
 11
454.9999999999998
 21
276.6
 31
0.0
  0
ARC
  5
170
  8
1
  6
CONTINUOUS
 62
     7
 10
453.999999999999
 20
276.9999999999999
 30
0.0
 40
1.000000000000001
 50
359.9999999999998
 51
89.99999999998806
  0
LINE
  5
171
  8
1
  6
CONTINUOUS
 62
     7
 10
427.9999999999997
 20
277.9999999999999
 30
0.0
 11
453.9999999999993
 21
277.9999999999999
 31
0.0
  0
ARC
  5
172
  8
1
  6
CONTINUOUS
 62
     7
 10
427.9999999999997
 20
280.9999999999999
 30
0.0
 40
3.000000000000003
 50
180.0000000000007
 51
270.0000000000005
  0
LINE
  5
173
  8
1
  6
CONTINUOUS
 62
     7
 10
424.9999999999997
 20
296.9999999999999
 30
0.0
 11
424.9999999999997
 21
280.9999999999998
 31
0.0
  0
ARC
  5
174
  8
1
  6
CONTINUOUS
 62
     7
 10
427.9999999999997
 20
296.9999999999999
 30
0.0
 40
3.000000000000003
 50
90.00000000003075
 51
180.0000000000002
  0
LINE
  5
175
  8
1
  6
CONTINUOUS
 62
     7
 10
471.9999999999978
 20
299.9999999999999
 30
0.0
 11
427.9999999999981
 21
299.9999999999999
 31
0.0
  0
ARC
  5
176
  8
1
  6
CONTINUOUS
 62
     7
 10
471.9999999999991
 20
297.9999999999999
 30
0.0
 40
2.000000000000002
 50
0.0
 51
90.00000000003661
  0
LINE
  5
177
  8
1
  6
CONTINUOUS
 62
     7
 10
473.9999999999991
 20
297.9999999999999
 30
0.0
 11
473.9999999999991
 21
297.0
 31
0.0
  0
ARC
  5
178
  8
1
  6
CONTINUOUS
 62
     7
 10
493.9999999999991
 20
297.0
 30
0.0
 40
20.00000000000002
 50
180.0
 51
236.944268849146
  0
ARC
  5
179
  8
1
  6
CONTINUOUS
 62
     7
 10
481.9999999999991
 20
278.5609110854142
 30
0.0
 40
2.000000000000002
 50
359.9999999999999
 51
56.94426884914621
  0
LINE
  5
17A
  8
1
  6
CONTINUOUS
 62
     7
 10
483.9999999999991
 20
278.5609110854142
 30
0.0
 11
483.9999999999991
 21
276.6
 31
0.0
  0
ARC
  5
17B
  8
1
  6
CONTINUOUS
 62
     7
 10
447.3999999999991
 20
286.0
 30
0.0
 40
1.000000000000001
 50
179.9999999999968
 51
0.0
  0
LINE
  5
17C
  8
1
  6
CONTINUOUS
 62
     7
 10
446.3999999999991
 20
286.0
 30
0.0
 11
446.3999999999991
 21
292.0000000000001
 31
0.0
  0
LINE
  5
17D
  8
1
  6
CONTINUOUS
 62
     7
 10
454.9999999999991
 20
275.0
 30
0.0
 11
454.9999999999991
 21
276.6
 31
0.0
  0
LINE
  5
17E
  8
1
  6
CONTINUOUS
 62
     7
 10
483.9999999999991
 20
274.9999999999999
 30
0.0
 11
454.9999999999991
 21
275.0
 31
0.0
  0
LINE
  5
17F
  8
1
  6
CONTINUOUS
 62
     7
 10
483.9999999999991
 20
275.0
 30
0.0
 11
483.9999999999991
 21
276.6
 31
0.0
  0
LINE
  5
180
  8
1
  6
CONTINUOUS
 62
     7
 10
624.9999999999989
 20
276.6
 30
0.0
 11
624.9999999999989
 21
275.0
 31
0.0
  0
LINE
  5
181
  8
1
  6
CONTINUOUS
 62
     7
 10
624.9999999999989
 20
275.0
 30
0.0
 11
595.9999999999992
 21
275.0
 31
0.0
  0
LINE
  5
182
  8
1
  6
CONTINUOUS
 62
     7
 10
595.9999999999992
 20
276.6
 30
0.0
 11
595.9999999999992
 21
275.0
 31
0.0
  0
LINE
  5
183
  8
1
  6
CONTINUOUS
 62
     7
 10
483.9999999999991
 20
275.0
 30
0.0
 11
484.9999999999991
 21
275.0
 31
0.0
  0
LINE
  5
184
  8
1
  6
CONTINUOUS
 62
     7
 10
484.9999999999991
 20
276.6
 30
0.0
 11
483.9999999999991
 21
276.6
 31
0.0
  0
LINE
  5
185
  8
1
  6
CONTINUOUS
 62
     7
 10
594.9999999999992
 20
275.0
 30
0.0
 11
595.9999999999992
 21
275.0
 31
0.0
  0
LINE
  5
186
  8
1
  6
CONTINUOUS
 62
     7
 10
595.9999999999992
 20
276.6
 30
0.0
 11
594.9999999999992
 21
276.6
 31
0.0
  0
LINE
  5
187
  8
1
  6
CONTINUOUS
 62
     7
 10
484.9999999999991
 20
274.9999999999999
 30
0.0
 11
594.9999999999992
 21
274.9999999999999
 31
0.0
  0
LINE
  5
188
  8
1
  6
CONTINUOUS
 62
     7
 10
484.9999999999991
 20
276.6
 30
0.0
 11
594.9999999999992
 21
276.6
 31
0.0
  0
LINE
  5
189
  8
1
  6
CONTINUOUS
 62
     7
 10
624.9999999999989
 20
275.0
 30
0.0
 11
627.499999999999
 21
275.0
 31
0.0
  0
LINE
  5
18A
  8
1
  6
CONTINUOUS
 62
     7
 10
627.499999999999
 20
276.6
 30
0.0
 11
624.9999999999989
 21
276.6
 31
0.0
  0
LINE
  5
18B
  8
1
  6
CONTINUOUS
 62
     7
 10
452.499999999999
 20
275.0
 30
0.0
 11
454.9999999999991
 21
275.0
 31
0.0
  0
LINE
  5
18C
  8
1
  6
CONTINUOUS
 62
     7
 10
454.9999999999991
 20
276.6
 30
0.0
 11
452.499999999999
 21
276.6
 31
0.0
  0
LINE
  5
18D
  8
1
  6
CONTINUOUS
 62
     7
 10
631.9999999999978
 20
276.6
 30
0.0
 11
631.9999999999978
 21
277.9999999999999
 31
0.0
  0
LINE
  5
18E
  8
1
  6
CONTINUOUS
 62
     7
 10
631.9999999999978
 20
285.200000000001
 30
0.0
 11
631.9999999999978
 21
290.3
 31
0.0
  0
LINE
  5
18F
  8
1
  6
CONTINUOUS
 62
     7
 10
633.5999999999979
 20
276.6
 30
0.0
 11
633.5999999999979
 21
277.9999999999999
 31
0.0
  0
ARC
  5
190
  8
1
  6
CONTINUOUS
 62
     7
 10
631.9999999999978
 20
276.6
 30
0.0
 40
1.59999999999999
 50
269.9999999999995
 51
0.0
  0
LINE
  5
191
  8
1
  6
CONTINUOUS
 62
     7
 10
627.499999999999
 20
275.0
 30
0.0
 11
631.9999999999978
 21
275.0
 31
0.0
  0
LINE
  5
192
  8
1
  6
CONTINUOUS
 62
     7
 10
627.499999999999
 20
276.6
 30
0.0
 11
631.9999999999978
 21
276.6
 31
0.0
  0
LINE
  5
193
  8
1
  6
CONTINUOUS
 62
     7
 10
447.9999999999993
 20
276.6
 30
0.0
 11
447.9999999999994
 21
277.9999999999999
 31
0.0
  0
LINE
  5
194
  8
1
  6
CONTINUOUS
 62
     7
 10
448.0000000000004
 20
285.200000000001
 30
0.0
 11
448.0000000000004
 21
290.3
 31
0.0
  0
ARC
  5
195
  8
1
  6
CONTINUOUS
 62
     7
 10
448.0000000000004
 20
276.6
 30
0.0
 40
1.59999999999999
 50
180.0
 51
270.0
  0
LINE
  5
196
  8
1
  6
CONTINUOUS
 62
     7
 10
446.4000000000004
 20
276.6
 30
0.0
 11
446.4000000000004
 21
277.9999999999999
 31
0.0
  0
LINE
  5
197
  8
1
  6
CONTINUOUS
 62
     7
 10
448.0000000000004
 20
275.0
 30
0.0
 11
452.499999999999
 21
275.0
 31
0.0
  0
LINE
  5
198
  8
1
  6
CONTINUOUS
 62
     7
 10
447.9999999999993
 20
276.6
 30
0.0
 11
452.499999999999
 21
276.6
 31
0.0
  0
LINE
  5
199
  8
1
  6
CONTINUOUS
 62
     7
 10
448.0000000000004
 20
290.3
 30
0.0
 11
448.0000000000004
 21
292.799999999999
 31
0.0
  0
LINE
  5
19A
  8
1
  6
CONTINUOUS
 62
     7
 10
448.0000000000004
 20
299.9999999999999
 30
0.0
 11
448.0000000000004
 21
304.0
 31
0.0
  0
LINE
  5
19B
  8
1
  6
CONTINUOUS
 62
     7
 10
446.4000000000004
 20
299.9999999999999
 30
0.0
 11
446.4000000000004
 21
304.0
 31
0.0
  0
LINE
  5
19C
  8
1
  6
CONTINUOUS
 62
     7
 10
633.5999999999979
 20
299.9999999999999
 30
0.0
 11
633.5999999999979
 21
304.0
 31
0.0
  0
LINE
  5
19D
  8
1
  6
CONTINUOUS
 62
     7
 10
631.9999999999978
 20
290.3
 30
0.0
 11
631.9999999999978
 21
292.799999999999
 31
0.0
  0
LINE
  5
19E
  8
1
  6
CONTINUOUS
 62
     7
 10
631.9999999999978
 20
299.9999999999999
 30
0.0
 11
631.9999999999978
 21
304.0
 31
0.0
  0
LINE
  5
19F
  8
1
  6
CONTINUOUS
 62
     7
 10
448.0000000000004
 20
304.0
 30
0.0
 11
446.4000000000004
 21
304.0
 31
0.0
  0
LINE
  5
1A0
  8
1
  6
CONTINUOUS
 62
     7
 10
633.5999999999979
 20
304.0
 30
0.0
 11
631.9999999999978
 21
304.0
 31
0.0
  0
ENDBLK
  8
0
  0
ENDSEC
  0
SECTION
  2
ENTITIES
  0
TEXT
  5
70
  8
1
  6
CONTINUOUS
 62
     7
 10
614.0355914718019
 20
87.21403338752035
 30
0.0
 40
5.0
  1
OF-KAG3
  0
LINE
  5
71
  8
1
  6
CENTER
 62
     1
 10
540.0
 20
298.9999999999999
 30
0.0
 11
540.0
 21
268.4999999999999
 31
0.0
  0
LINE
  5
73
  8
1
  6
CENTER
 62
     1
 10
539.9999999999989
 20
108.0
 30
0.0
 11
539.9999999999989
 21
249.0
 31
0.0
  0
INSERT
  5
10D
  8
1
  6
CONTINUOUS
 62
     7
  2
D_FRAME_VIEW_2454
 10
0.0
 20
0.0
 30
0.0
  0
INSERT
  5
150
  8
1
  6
CONTINUOUS
 62
     7
  2
D_FRAME_VIEW_2759
 10
0.0
 20
0.0
 30
0.0
  0
LINE
  5
151
  8
1
  6
CENTER
 62
     1
 10
619.4999999999991
 20
200.75
 30
0.0
 11
460.4999999999991
 21
200.75
 31
0.0
  0
INSERT
  5
1A1
  8
1
  6
CONTINUOUS
 62
     7
  2
D_FRAME_VIEW_2837
 10
0.0
 20
0.0
 30
0.0
  0
LINE
  5
1A2
  8
1
  6
CENTER
 62
     1
 10
721.3000000000001
 20
222.55
 30
0.0
 11
747.3000000000001
 21
222.55
 31
0.0
  0
LINE
  5
1A3
  8
1
  6
CENTER
 62
     1
 10
734.3000000000001
 20
209.55
 30
0.0
 11
734.3000000000001
 21
235.55
 31
0.0
  0
ENDSEC
  0
EOF
