  0
SECTION
  2
HEADER
  9
$ACADVER
  1
AC1006
  9
$DWGCODEPAGE
  3
ansi_932
  9
$INSBASE
 10
0.0
 20
0.0
 30
0.0
  9
$EXTMIN
 10
506.2499999999998
 20
164.3977491559335
  9
$EXTMAX
 10
578.0
 20
196.25
  9
$LIMMIN
 10
0.0
 20
0.0
  9
$LIMMAX
 10
12.0
 20
9.0
  9
$ORTHOMODE
 70
     0
  9
$REGENMODE
 70
     1
  9
$FILLMODE
 70
     1
  9
$QTEXTMODE
 70
     0
  9
$MIRRTEXT
 70
     1
  9
$DRAGMODE
 70
     2
  9
$LTSCALE
 40
1.0
  9
$OSMODE
 70
    37
  9
$ATTMODE
 70
     1
  9
$TEXTSIZE
 40
0.2
  9
$TRACEWID
 40
0.05
  9
$TEXTSTYLE
  7
STANDARD
  9
$CLAYER
  8
0
  9
$CELTYPE
  6
BYLAYER
  9
$CECOLOR
 62
   256
  9
$DIMSCALE
 40
1.0
  9
$DIMASZ
 40
3.0
  9
$DIMEXO
 40
0.0625
  9
$DIMDLI
 40
0.38
  9
$DIMRND
 40
0.0
  9
$DIMDLE
 40
0.0
  9
$DIMEXE
 40
1.5
  9
$DIMTP
 40
0.0
  9
$DIMTM
 40
0.0
  9
$DIMTXT
 40
3.0
  9
$DIMCEN
 40
0.09
  9
$DIMTSZ
 40
0.0
  9
$DIMTOL
 70
     0
  9
$DIMLIM
 70
     0
  9
$DIMTIH
 70
     1
  9
$DIMTOH
 70
     1
  9
$DIMSE1
 70
     0
  9
$DIMSE2
 70
     0
  9
$DIMTAD
 70
     1
  9
$DIMZIN
 70
     0
  9
$DIMBLK
  1

  9
$DIMASO
 70
     1
  9
$DIMSHO
 70
     1
  9
$DIMPOST
  1

  9
$DIMAPOST
  1

  9
$DIMALT
 70
     0
  9
$DIMALTD
 70
     2
  9
$DIMALTF
 40
25.4
  9
$DIMLFAC
 40
1.0
  9
$DIMTOFL
 70
     0
  9
$DIMTVP
 40
0.0
  9
$DIMTIX
 70
     0
  9
$DIMSOXD
 70
     0
  9
$DIMSAH
 70
     0
  9
$DIMBLK1
  1

  9
$DIMBLK2
  1

  9
$LUNITS
 70
     2
  9
$LUPREC
 70
     4
  9
$SKETCHINC
 40
0.1
  9
$FILLETRAD
 40
0.5
  9
$AUNITS
 70
     0
  9
$AUPREC
 70
     0
  9
$MENU
  1
.
  9
$ELEVATION
 40
0.0
  9
$THICKNESS
 40
0.0
  9
$LIMCHECK
 70
     0
  9
$CHAMFERA
 40
0.0
  9
$CHAMFERB
 40
0.0
  9
$SKPOLY
 70
     0
  9
$TDCREATE
 40
2460445.458307396
  9
$TDUPDATE
 40
2460445.458307627
  9
$TDINDWG
 40
0.0000000116
  9
$TDUSRTIMER
 40
0.0000000116
  9
$USRTIMER
 70
     1
  9
$ANGBASE
 50
0.0
  9
$ANGDIR
 70
     0
  9
$PDMODE
 70
     0
  9
$PDSIZE
 40
0.0
  9
$PLINEWID
 40
0.0
  9
$COORDS
 70
     1
  9
$SPLFRAME
 70
     0
  9
$SPLINETYPE
 70
     6
  9
$SPLINESEGS
 70
     8
  9
$ATTDIA
 70
     0
  9
$ATTREQ
 70
     1
  9
$HANDLING
 70
     1
  9
$HANDSEED
  5
A5
  9
$SURFTAB1
 70
     6
  9
$SURFTAB2
 70
     6
  9
$SURFTYPE
 70
     6
  9
$SURFU
 70
     6
  9
$SURFV
 70
     6
  9
$UCSNAME
  2

  9
$UCSORG
 10
0.0
 20
0.0
 30
0.0
  9
$UCSXDIR
 10
1.0
 20
0.0
 30
0.0
  9
$UCSYDIR
 10
0.0
 20
1.0
 30
0.0
  9
$USERI1
 70
     0
  9
$USERI2
 70
     0
  9
$USERI3
 70
     0
  9
$USERI4
 70
     0
  9
$USERI5
 70
     0
  9
$USERR1
 40
0.0
  9
$USERR2
 40
0.0
  9
$USERR3
 40
0.0
  9
$USERR4
 40
0.0
  9
$USERR5
 40
0.0
  9
$WORLDVIEW
 70
     1
  0
ENDSEC
  0
SECTION
  2
TABLES
  0
TABLE
  2
VPORT
 70
     1
  0
VPORT
  2
*ACTIVE
 70
     0
 10
0.0
 20
0.0
 11
1.0
 21
1.0
 12
542.1249999999999
 22
180.3238745779667
 13
0.0
 23
0.0
 14
0.5
 24
0.5
 15
0.5
 25
0.5
 16
0.0
 26
0.0
 36
1.0
 17
0.0
 27
0.0
 37
0.0
 40
31.85225084406653
 41
1.6
 42
50.0
 43
0.0
 44
0.0
 50
0.0
 51
0.0
 71
     0
 72
   100
 73
     1
 74
     3
 75
     0
 76
     0
 77
     0
 78
     0
  0
ENDTAB
  0
TABLE
  2
LTYPE
 70
     2
  0
LTYPE
  2
CONTINUOUS
 70
     0
  3
Solid line
 72
    65
 73
     0
 40
0.0
  0
LTYPE
  2
CENTER
 70
     0
  3

 72
    65
 73
     0
 40
0.0
  0
ENDTAB
  0
TABLE
  2
LAYER
 70
     1
  0
LAYER
  2
0
 70
     0
 62
     7
  6
CONTINUOUS
  0
ENDTAB
  0
TABLE
  2
STYLE
 70
     2
  0
STYLE
  2
STANDARD
 70
     0
 40
0.0
 41
1.0
 50
0.0
 71
     0
 42
0.2
  3
txt
  4

  0
STYLE
  2
ＭＳ_ゴシック
 70
     0
 40
0.0
 41
1.0
 50
0.0
 71
     0
 42
0.2
  3
ＭＳ ゴシック.shx
  4

  0
ENDTAB
  0
TABLE
  2
VIEW
 70
     0
  0
ENDTAB
  0
TABLE
  2
UCS
 70
     0
  0
ENDTAB
  0
ENDSEC
  0
SECTION
  2
BLOCKS
  0
ENDSEC
  0
SECTION
  2
ENTITIES
  0
LINE
  5
6F
  8
0
  6
CONTINUOUS
 62
     7
 10
572.9999999999997
 20
188.1
 30
0.0
 11
540.2
 21
188.1
 31
0.0
  0
LINE
  5
70
  8
0
  6
CENTER
 62
     1
 10
534.9999999999999
 20
190.0
 30
0.0
 11
578.0
 21
190.0
 31
0.0
  0
LINE
  5
72
  8
0
  6
CENTER
 62
     1
 10
506.2499999999998
 20
190.0
 30
0.0
 11
518.7499999999999
 21
190.0
 31
0.0
  0
LINE
  5
73
  8
0
  6
CENTER
 62
     1
 10
514.0
 20
189.0
 30
0.0
 11
514.0
 21
194.0
 31
0.0
  0
LINE
  5
74
  8
0
  6
CENTER
 62
     1
 10
512.5
 20
196.25
 30
0.0
 11
512.5
 21
183.75
 31
0.0
  0
CIRCLE
  5
75
  8
0
  6
CONTINUOUS
 62
     7
 10
512.5
 20
190.0
 30
0.0
 40
4.0
  0
LINE
  5
76
  8
0
  6
CENTER
 62
     1
 10
511.5000000000003
 20
191.5
 30
0.0
 11
516.5
 21
191.5
 31
0.0
  0
CIRCLE
  5
77
  8
0
  6
CONTINUOUS
 62
     7
 10
514.0
 20
191.5
 30
0.0
 40
0.5
  0
LINE
  5
78
  8
0
  6
CONTINUOUS
 62
     7
 10
509.7499999999999
 20
189.45
 30
0.0
 11
511.4999999999997
 21
189.45
 31
0.0
  0
ARC
  5
79
  8
0
  6
CONTINUOUS
 62
     7
 10
511.4999999999998
 20
188.9499999999999
 30
0.0
 40
0.5000000000000837
 50
0.0000000000095497
 51
90.00000000001273
  0
LINE
  5
7A
  8
0
  6
CONTINUOUS
 62
     7
 10
512.0
 20
188.95
 30
0.0
 11
511.9999999999999
 21
188.0
 31
0.0
  0
LINE
  5
7B
  8
0
  6
CONTINUOUS
 62
     7
 10
511.9999999999999
 20
188.0
 30
0.0
 11
512.9999999999999
 21
188.0
 31
0.0
  0
LINE
  5
7C
  8
0
  6
CONTINUOUS
 62
     7
 10
512.9999999999999
 20
188.0
 30
0.0
 11
512.9999999999999
 21
188.95
 31
0.0
  0
ARC
  5
7D
  8
0
  6
CONTINUOUS
 62
     7
 10
513.4999999999998
 20
188.9500000000001
 30
0.0
 40
0.4999999999998339
 50
90.00000000001273
 51
180.0000000000159
  0
LINE
  5
7E
  8
0
  6
CONTINUOUS
 62
     7
 10
513.4999999999997
 20
189.45
 30
0.0
 11
515.25
 21
189.45
 31
0.0
  0
LINE
  5
7F
  8
0
  6
CONTINUOUS
 62
     7
 10
515.25
 20
189.45
 30
0.0
 11
515.2499999999999
 21
190.55
 31
0.0
  0
LINE
  5
80
  8
0
  6
CONTINUOUS
 62
     7
 10
515.2499999999999
 20
190.55
 30
0.0
 11
513.4999999999998
 21
190.55
 31
0.0
  0
ARC
  5
81
  8
0
  6
CONTINUOUS
 62
     7
 10
513.4999999999999
 20
191.05
 30
0.0
 40
0.4999999999999727
 50
179.9999999999968
 51
269.9999999999872
  0
LINE
  5
82
  8
0
  6
CONTINUOUS
 62
     7
 10
512.9999999999999
 20
191.05
 30
0.0
 11
512.9999999999998
 21
192.0
 31
0.0
  0
LINE
  5
83
  8
0
  6
CONTINUOUS
 62
     7
 10
512.9999999999998
 20
192.0
 30
0.0
 11
512.0
 21
192.0
 31
0.0
  0
LINE
  5
84
  8
0
  6
CONTINUOUS
 62
     7
 10
512.0
 20
192.0
 30
0.0
 11
512.0
 21
191.05
 31
0.0
  0
ARC
  5
85
  8
0
  6
CONTINUOUS
 62
     7
 10
511.4999999999998
 20
191.0500000000002
 30
0.0
 40
0.500000000000167
 50
269.9999999999872
 51
359.999999999984
  0
LINE
  5
86
  8
0
  6
CONTINUOUS
 62
     7
 10
511.4999999999997
 20
190.55
 30
0.0
 11
509.7499999999999
 21
190.55
 31
0.0
  0
LINE
  5
87
  8
0
  6
CONTINUOUS
 62
     7
 10
509.7499999999999
 20
190.55
 30
0.0
 11
509.7499999999999
 21
189.45
 31
0.0
  0
LINE
  5
88
  8
0
  6
CONTINUOUS
 62
     7
 10
540.2
 20
191.9
 30
0.0
 11
540.2
 21
188.1
 31
0.0
  0
LINE
  5
89
  8
0
  6
CONTINUOUS
 62
     4
 10
572.9999999999998
 20
191.9
 30
0.0
 11
572.9999999999997
 21
188.1
 31
0.0
  0
LINE
  5
8A
  8
0
  6
CONTINUOUS
 62
     4
 10
511.15
 20
190.55
 30
0.0
 11
511.15
 21
189.45
 31
0.0
  0
LINE
  5
8B
  8
0
  6
CONTINUOUS
 62
     4
 10
513.8499999999999
 20
190.55
 30
0.0
 11
513.8499999999999
 21
189.45
 31
0.0
  0
LINE
  5
8C
  8
0
  6
CONTINUOUS
 62
     7
 10
573.4999999999998
 20
191.4
 30
0.0
 11
573.4999999999995
 21
188.6
 31
0.0
  0
TEXT
  5
8D
  8
0
  6
CONTINUOUS
 62
     7
 10
527.7481555583341
 20
164.0557146429911
 30
0.0
 40
3.0
  1
OF-M4-38R
  0
LINE
  5
8E
  8
0
  6
CONTINUOUS
 62
     7
 10
574.4999999999997
 20
188.6
 30
0.0
 11
573.4999999999999
 21
188.6
 31
0.0
  0
LINE
  5
8F
  8
0
  6
CONTINUOUS
 62
     7
 10
537.5
 20
186.0
 30
0.0
 11
537.4999999999999
 21
194.0
 31
0.0
  0
LINE
  5
90
  8
0
  6
CONTINUOUS
 62
     7
 10
538.1
 20
186.0
 30
0.0
 11
537.5
 21
186.0
 31
0.0
  0
ARC
  5
91
  8
0
  6
CONTINUOUS
 62
     7
 10
574.4999999999999
 20
189.6
 30
0.0
 40
1.000000000000001
 50
269.9999999999872
 51
0.0
  0
LINE
  5
92
  8
0
  6
CONTINUOUS
 62
     7
 10
538.1
 20
194.0
 30
0.0
 11
540.1999999999999
 21
191.9
 31
0.0
  0
LINE
  5
93
  8
0
  6
CONTINUOUS
 62
     7
 10
573.4999999999999
 20
188.6
 30
0.0
 11
572.9999999999998
 21
188.1
 31
0.0
  0
LINE
  5
94
  8
0
  6
CONTINUOUS
 62
     7
 10
575.5
 20
190.4
 30
0.0
 11
575.4999999999999
 21
189.6
 31
0.0
  0
LINE
  5
95
  8
0
  6
CONTINUOUS
 62
     7
 10
572.9999999999998
 20
191.9
 30
0.0
 11
573.4999999999998
 21
191.4
 31
0.0
  0
LINE
  5
96
  8
0
  6
CONTINUOUS
 62
     7
 10
573.4999999999998
 20
191.4
 30
0.0
 11
574.4999999999998
 21
191.4
 31
0.0
  0
ARC
  5
97
  8
0
  6
CONTINUOUS
 62
     7
 10
574.5
 20
190.4
 30
0.0
 40
1.000000000000001
 50
0.0
 51
90.00000000001273
  0
LINE
  5
98
  8
0
  6
CONTINUOUS
 62
     7
 10
540.2
 20
188.1
 30
0.0
 11
538.1
 21
186.0
 31
0.0
  0
LINE
  5
99
  8
0
  6
CONTINUOUS
 62
     7
 10
538.1
 20
194.0
 30
0.0
 11
538.1
 21
186.0
 31
0.0
  0
LINE
  5
9A
  8
0
  6
CONTINUOUS
 62
     7
 10
540.1999999999999
 20
191.9
 30
0.0
 11
572.9999999999998
 21
191.9
 31
0.0
  0
LINE
  5
9B
  8
0
  6
CONTINUOUS
 62
     4
 10
572.9999999999998
 20
191.66
 30
0.0
 11
540.2
 21
191.66
 31
0.0
  0
LINE
  5
9C
  8
0
  6
CONTINUOUS
 62
     4
 10
572.9999999999997
 20
188.34
 30
0.0
 11
540.2
 21
188.34
 31
0.0
  0
LINE
  5
9D
  8
0
  6
CONTINUOUS
 62
     7
 10
537.4999999999999
 20
194.0
 30
0.0
 11
538.1
 21
194.0
 31
0.0
  0
ENDSEC
  0
EOF
