  0
SECTION
  2
HEADER
  9
$ACADVER
  1
AC1006
  9
$DWGCODEPAGE
  3
ansi_932
  9
$INSBASE
 10
0.0
 20
0.0
 30
0.0
  9
$EXTMIN
 10
-295.5
 20
-347.0227272727273
  9
$EXTMAX
 10
-44.74999999999991
 20
-97.0
  9
$LIMMIN
 10
0.0
 20
0.0
  9
$LIMMAX
 10
12.0
 20
9.0
  9
$ORTHOMODE
 70
     0
  9
$REGENMODE
 70
     1
  9
$FILLMODE
 70
     1
  9
$QTEXTMODE
 70
     0
  9
$MIRRTEXT
 70
     1
  9
$DRAGMODE
 70
     2
  9
$LTSCALE
 40
1.0
  9
$OSMODE
 70
    37
  9
$ATTMODE
 70
     1
  9
$TEXTSIZE
 40
0.2
  9
$TRACEWID
 40
0.05
  9
$TEXTSTYLE
  7
STANDARD
  9
$CLAYER
  8
0
  9
$CELTYPE
  6
BYLAYER
  9
$CECOLOR
 62
   256
  9
$DIMSCALE
 40
1.0
  9
$DIMASZ
 40
3.0
  9
$DIMEXO
 40
0.0625
  9
$DIMDLI
 40
0.38
  9
$DIMRND
 40
0.0
  9
$DIMDLE
 40
0.0
  9
$DIMEXE
 40
1.5
  9
$DIMTP
 40
0.0
  9
$DIMTM
 40
0.0
  9
$DIMTXT
 40
3.0
  9
$DIMCEN
 40
0.09
  9
$DIMTSZ
 40
0.0
  9
$DIMTOL
 70
     0
  9
$DIMLIM
 70
     0
  9
$DIMTIH
 70
     1
  9
$DIMTOH
 70
     1
  9
$DIMSE1
 70
     0
  9
$DIMSE2
 70
     0
  9
$DIMTAD
 70
     1
  9
$DIMZIN
 70
     0
  9
$DIMBLK
  1

  9
$DIMASO
 70
     1
  9
$DIMSHO
 70
     1
  9
$DIMPOST
  1

  9
$DIMAPOST
  1

  9
$DIMALT
 70
     0
  9
$DIMALTD
 70
     2
  9
$DIMALTF
 40
25.4
  9
$DIMLFAC
 40
1.0
  9
$DIMTOFL
 70
     0
  9
$DIMTVP
 40
0.0
  9
$DIMTIX
 70
     0
  9
$DIMSOXD
 70
     0
  9
$DIMSAH
 70
     0
  9
$DIMBLK1
  1

  9
$DIMBLK2
  1

  9
$LUNITS
 70
     2
  9
$LUPREC
 70
     4
  9
$SKETCHINC
 40
0.1
  9
$FILLETRAD
 40
0.5
  9
$AUNITS
 70
     0
  9
$AUPREC
 70
     0
  9
$MENU
  1
.
  9
$ELEVATION
 40
0.0
  9
$THICKNESS
 40
0.0
  9
$LIMCHECK
 70
     0
  9
$CHAMFERA
 40
0.0
  9
$CHAMFERB
 40
0.0
  9
$SKPOLY
 70
     0
  9
$TDCREATE
 40
2460426.576091378
  9
$TDUPDATE
 40
2460426.576091562
  9
$TDINDWG
 40
0.0000000116
  9
$TDUSRTIMER
 40
0.0000000116
  9
$USRTIMER
 70
     1
  9
$ANGBASE
 50
0.0
  9
$ANGDIR
 70
     0
  9
$PDMODE
 70
     0
  9
$PDSIZE
 40
0.0
  9
$PLINEWID
 40
0.0
  9
$COORDS
 70
     1
  9
$SPLFRAME
 70
     0
  9
$SPLINETYPE
 70
     6
  9
$SPLINESEGS
 70
     8
  9
$ATTDIA
 70
     0
  9
$ATTREQ
 70
     1
  9
$HANDLING
 70
     1
  9
$HANDSEED
  5
1BA
  9
$SURFTAB1
 70
     6
  9
$SURFTAB2
 70
     6
  9
$SURFTYPE
 70
     6
  9
$SURFU
 70
     6
  9
$SURFV
 70
     6
  9
$UCSNAME
  2

  9
$UCSORG
 10
0.0
 20
0.0
 30
0.0
  9
$UCSXDIR
 10
1.0
 20
0.0
 30
0.0
  9
$UCSYDIR
 10
0.0
 20
1.0
 30
0.0
  9
$USERI1
 70
     0
  9
$USERI2
 70
     0
  9
$USERI3
 70
     0
  9
$USERI4
 70
     0
  9
$USERI5
 70
     0
  9
$USERR1
 40
0.0
  9
$USERR2
 40
0.0
  9
$USERR3
 40
0.0
  9
$USERR4
 40
0.0
  9
$USERR5
 40
0.0
  9
$WORLDVIEW
 70
     1
  0
ENDSEC
  0
SECTION
  2
TABLES
  0
TABLE
  2
VPORT
 70
     1
  0
VPORT
  2
*ACTIVE
 70
     0
 10
0.0
 20
0.0
 11
1.0
 21
1.0
 12
-170.1249999999999
 22
-222.0113636363637
 13
0.0
 23
0.0
 14
0.5
 24
0.5
 15
0.5
 25
0.5
 16
0.0
 26
0.0
 36
1.0
 17
0.0
 27
0.0
 37
0.0
 40
250.0227272727273
 41
1.6
 42
50.0
 43
0.0
 44
0.0
 50
0.0
 51
0.0
 71
     0
 72
   100
 73
     1
 74
     3
 75
     0
 76
     0
 77
     0
 78
     0
  0
ENDTAB
  0
TABLE
  2
LTYPE
 70
     2
  0
LTYPE
  2
CONTINUOUS
 70
     0
  3
Solid line
 72
    65
 73
     0
 40
0.0
  0
LTYPE
  2
CENTER
 70
     0
  3

 72
    65
 73
     0
 40
0.0
  0
ENDTAB
  0
TABLE
  2
LAYER
 70
     2
  0
LAYER
  2
0
 70
     0
 62
     7
  6
CONTINUOUS
  0
LAYER
  2
1
 70
     0
 62
     7
  6
CONTINUOUS
  0
ENDTAB
  0
TABLE
  2
STYLE
 70
     2
  0
STYLE
  2
STANDARD
 70
     0
 40
0.0
 41
1.0
 50
0.0
 71
     0
 42
0.2
  3
txt
  4

  0
STYLE
  2
ＭＳ_ゴシック
 70
     0
 40
0.0
 41
1.0
 50
0.0
 71
     0
 42
0.2
  3
ＭＳ ゴシック.shx
  4

  0
ENDTAB
  0
TABLE
  2
VIEW
 70
     0
  0
ENDTAB
  0
TABLE
  2
UCS
 70
     0
  0
ENDTAB
  0
ENDSEC
  0
SECTION
  2
BLOCKS
  0
BLOCK
  8
0
  2
D_FRAME_VIEW_3427
 70
     0
 10
0.0
 20
0.0
 30
0.0
  0
LINE
  5
75
  8
1
  6
CONTINUOUS
 62
     7
 10
-293.5
 20
-224.0
 30
0.0
 11
-293.5
 21
-228.0
 31
0.0
  0
LINE
  5
76
  8
1
  6
CONTINUOUS
 62
     7
 10
-273.4999999999999
 20
-224.0
 30
0.0
 11
-293.5
 21
-224.0
 31
0.0
  0
LINE
  5
77
  8
1
  6
CONTINUOUS
 62
     7
 10
-273.4999999999999
 20
-228.0
 30
0.0
 11
-273.4999999999999
 21
-224.0
 31
0.0
  0
LINE
  5
78
  8
1
  6
CONTINUOUS
 62
     7
 10
-293.5
 20
-228.0
 30
0.0
 11
-273.4999999999999
 21
-228.0
 31
0.0
  0
LINE
  5
79
  8
1
  6
CONTINUOUS
 62
     7
 10
-161.5
 20
-122.0
 30
0.0
 11
-161.5
 21
-126.0
 31
0.0
  0
LINE
  5
7A
  8
1
  6
CONTINUOUS
 62
     7
 10
-161.5
 20
-126.0
 30
0.0
 11
-141.4999999999999
 21
-126.0
 31
0.0
  0
LINE
  5
7B
  8
1
  6
CONTINUOUS
 62
     7
 10
-141.4999999999999
 20
-126.0
 30
0.0
 11
-141.4999999999999
 21
-122.0
 31
0.0
  0
LINE
  5
7C
  8
1
  6
CONTINUOUS
 62
     7
 10
-141.4999999999999
 20
-122.0
 30
0.0
 11
-161.5
 21
-122.0
 31
0.0
  0
LINE
  5
7D
  8
1
  6
CONTINUOUS
 62
     7
 10
-273.4999999999999
 20
-126.0
 30
0.0
 11
-293.5
 21
-126.0
 31
0.0
  0
LINE
  5
7E
  8
1
  6
CONTINUOUS
 62
     7
 10
-273.4999999999999
 20
-122.0
 30
0.0
 11
-273.4999999999999
 21
-126.0
 31
0.0
  0
LINE
  5
7F
  8
1
  6
CONTINUOUS
 62
     7
 10
-293.5
 20
-122.0
 30
0.0
 11
-273.4999999999999
 21
-122.0
 31
0.0
  0
LINE
  5
80
  8
1
  6
CONTINUOUS
 62
     7
 10
-293.5
 20
-126.0
 30
0.0
 11
-293.5
 21
-122.0
 31
0.0
  0
LINE
  5
81
  8
1
  6
CONTINUOUS
 62
     7
 10
-141.4999999999999
 20
-228.0
 30
0.0
 11
-161.5
 21
-228.0
 31
0.0
  0
LINE
  5
82
  8
1
  6
CONTINUOUS
 62
     7
 10
-161.5
 20
-228.0
 30
0.0
 11
-161.5
 21
-224.0
 31
0.0
  0
LINE
  5
83
  8
1
  6
CONTINUOUS
 62
     7
 10
-161.5
 20
-224.0
 30
0.0
 11
-141.4999999999999
 21
-224.0
 31
0.0
  0
LINE
  5
84
  8
1
  6
CONTINUOUS
 62
     7
 10
-141.4999999999999
 20
-224.0
 30
0.0
 11
-141.4999999999999
 21
-228.0
 31
0.0
  0
LINE
  5
85
  8
1
  6
CONTINUOUS
 62
     9
 10
-162.5
 20
-124.01
 30
0.0
 11
-162.5
 21
-225.99
 31
0.0
  0
LINE
  5
86
  8
1
  6
CONTINUOUS
 62
     7
 10
-162.5
 20
-124.01
 30
0.0
 11
-161.5
 21
-124.01
 31
0.0
  0
LINE
  5
87
  8
1
  6
CONTINUOUS
 62
     7
 10
-162.5
 20
-225.99
 30
0.0
 11
-161.5
 21
-225.99
 31
0.0
  0
LINE
  5
88
  8
1
  6
CONTINUOUS
 62
     7
 10
-141.4999999999999
 20
-224.0
 30
0.0
 11
-141.4999999999999
 21
-126.0
 31
0.0
  0
LINE
  5
89
  8
1
  6
CONTINUOUS
 62
     9
 10
-162.5
 20
-120.0
 30
0.0
 11
-162.5
 21
-123.99
 31
0.0
  0
LINE
  5
8A
  8
1
  6
CONTINUOUS
 62
     9
 10
-272.4999999999999
 20
-120.0
 30
0.0
 11
-162.4999999999999
 21
-120.0
 31
0.0
  0
LINE
  5
8B
  8
1
  6
CONTINUOUS
 62
     9
 10
-272.4999999999999
 20
-123.99
 30
0.0
 11
-272.4999999999999
 21
-120.0
 31
0.0
  0
LINE
  5
8C
  8
1
  6
CONTINUOUS
 62
     7
 10
-273.4999999999999
 20
-123.99
 30
0.0
 11
-272.4999999999999
 21
-123.99
 31
0.0
  0
LINE
  5
8D
  8
1
  6
CONTINUOUS
 62
     7
 10
-141.4999999999999
 20
-99.00000000000001
 30
0.0
 11
-293.5
 21
-99.0
 31
0.0
  0
LINE
  5
8E
  8
1
  6
CONTINUOUS
 62
     7
 10
-161.5
 20
-123.99
 30
0.0
 11
-162.5
 21
-123.99
 31
0.0
  0
LINE
  5
8F
  8
1
  6
CONTINUOUS
 62
     7
 10
-141.4999999999999
 20
-122.0
 30
0.0
 11
-141.4999999999999
 21
-99.00000000000001
 31
0.0
  0
LINE
  5
90
  8
1
  6
CONTINUOUS
 62
     7
 10
-293.5
 20
-99.0
 30
0.0
 11
-293.5
 21
-122.0
 31
0.0
  0
LINE
  5
91
  8
1
  6
CONTINUOUS
 62
     7
 10
-272.4999999999999
 20
-124.01
 30
0.0
 11
-273.4999999999999
 21
-124.01
 31
0.0
  0
LINE
  5
92
  8
1
  6
CONTINUOUS
 62
     9
 10
-272.4999999999999
 20
-225.99
 30
0.0
 11
-272.4999999999999
 21
-124.01
 31
0.0
  0
LINE
  5
93
  8
1
  6
CONTINUOUS
 62
     7
 10
-272.4999999999999
 20
-225.99
 30
0.0
 11
-273.4999999999999
 21
-225.99
 31
0.0
  0
LINE
  5
94
  8
1
  6
CONTINUOUS
 62
     7
 10
-293.5
 20
-126.0
 30
0.0
 11
-293.5
 21
-224.0
 31
0.0
  0
LINE
  5
95
  8
1
  6
CONTINUOUS
 62
     7
 10
-293.5
 20
-251.0
 30
0.0
 11
-141.4999999999999
 21
-251.0
 31
0.0
  0
LINE
  5
96
  8
1
  6
CONTINUOUS
 62
     7
 10
-273.4999999999999
 20
-226.01
 30
0.0
 11
-272.4999999999999
 21
-226.01
 31
0.0
  0
LINE
  5
97
  8
1
  6
CONTINUOUS
 62
     9
 10
-272.4999999999999
 20
-230.0
 30
0.0
 11
-272.4999999999999
 21
-226.01
 31
0.0
  0
LINE
  5
98
  8
1
  6
CONTINUOUS
 62
     9
 10
-162.5
 20
-230.0
 30
0.0
 11
-272.4999999999999
 21
-230.0
 31
0.0
  0
LINE
  5
99
  8
1
  6
CONTINUOUS
 62
     9
 10
-162.5
 20
-226.01
 30
0.0
 11
-162.5
 21
-230.0
 31
0.0
  0
LINE
  5
9A
  8
1
  6
CONTINUOUS
 62
     7
 10
-161.5
 20
-226.01
 30
0.0
 11
-162.5
 21
-226.01
 31
0.0
  0
LINE
  5
9B
  8
1
  6
CONTINUOUS
 62
     7
 10
-141.4999999999999
 20
-251.0
 30
0.0
 11
-141.4999999999999
 21
-228.0
 31
0.0
  0
LINE
  5
9C
  8
1
  6
CONTINUOUS
 62
     7
 10
-293.5
 20
-228.0
 30
0.0
 11
-293.5
 21
-251.0
 31
0.0
  0
LINE
  5
9D
  8
1
  6
CONTINUOUS
 62
     7
 10
-268.4999999999999
 20
-124.0
 30
0.0
 11
-268.4999999999999
 21
-131.0
 31
0.0
  0
LINE
  5
9E
  8
1
  6
CONTINUOUS
 62
     7
 10
-268.4999999999999
 20
-131.0
 30
0.0
 11
-268.4999999999999
 21
-219.0000000000001
 31
0.0
  0
LINE
  5
9F
  8
1
  6
CONTINUOUS
 62
     7
 10
-268.4999999999999
 20
-219.0
 30
0.0
 11
-268.4999999999999
 21
-226.0
 31
0.0
  0
LINE
  5
A0
  8
1
  6
CONTINUOUS
 62
     7
 10
-268.4999999999999
 20
-226.0
 30
0.0
 11
-272.4999999999999
 21
-230.0
 31
0.0
  0
LINE
  5
A1
  8
1
  6
CONTINUOUS
 62
     7
 10
-272.4999999999999
 20
-226.01
 30
0.0
 11
-272.4999999999999
 21
-225.99
 31
0.0
  0
LINE
  5
A2
  8
1
  6
CONTINUOUS
 62
     7
 10
-268.4999999999999
 20
-124.0
 30
0.0
 11
-272.4999999999999
 21
-120.0
 31
0.0
  0
LINE
  5
A3
  8
1
  6
CONTINUOUS
 62
     7
 10
-272.4999999999999
 20
-123.99
 30
0.0
 11
-272.4999999999999
 21
-124.01
 31
0.0
  0
LINE
  5
A4
  8
1
  6
CONTINUOUS
 62
     7
 10
-162.5
 20
-230.0
 30
0.0
 11
-166.5
 21
-226.0
 31
0.0
  0
LINE
  5
A5
  8
1
  6
CONTINUOUS
 62
     7
 10
-166.5
 20
-226.0
 30
0.0
 11
-166.5
 21
-219.0000000000001
 31
0.0
  0
LINE
  5
A6
  8
1
  6
CONTINUOUS
 62
     7
 10
-166.5
 20
-219.0
 30
0.0
 11
-166.5
 21
-131.0
 31
0.0
  0
LINE
  5
A7
  8
1
  6
CONTINUOUS
 62
     7
 10
-166.5
 20
-131.0
 30
0.0
 11
-166.5
 21
-124.0
 31
0.0
  0
LINE
  5
A8
  8
1
  6
CONTINUOUS
 62
     7
 10
-162.5
 20
-120.0
 30
0.0
 11
-166.5
 21
-124.0
 31
0.0
  0
LINE
  5
A9
  8
1
  6
CONTINUOUS
 62
     7
 10
-162.5
 20
-123.99
 30
0.0
 11
-162.5
 21
-124.01
 31
0.0
  0
LINE
  5
AA
  8
1
  6
CONTINUOUS
 62
     7
 10
-162.5
 20
-226.01
 30
0.0
 11
-162.5
 21
-225.99
 31
0.0
  0
LINE
  5
AB
  8
1
  6
CONTINUOUS
 62
     7
 10
-166.5
 20
-124.0
 30
0.0
 11
-173.5
 21
-124.0
 31
0.0
  0
LINE
  5
AC
  8
1
  6
CONTINUOUS
 62
     7
 10
-173.5
 20
-124.0
 30
0.0
 11
-261.4999999999999
 21
-124.0
 31
0.0
  0
LINE
  5
AD
  8
1
  6
CONTINUOUS
 62
     7
 10
-261.4999999999999
 20
-124.0
 30
0.0
 11
-268.4999999999999
 21
-124.0
 31
0.0
  0
LINE
  5
AE
  8
1
  6
CONTINUOUS
 62
     7
 10
-268.4999999999999
 20
-226.0
 30
0.0
 11
-261.4999999999999
 21
-226.0
 31
0.0
  0
LINE
  5
AF
  8
1
  6
CONTINUOUS
 62
     7
 10
-261.4999999999999
 20
-226.0
 30
0.0
 11
-173.4999999999999
 21
-226.0
 31
0.0
  0
LINE
  5
B0
  8
1
  6
CONTINUOUS
 62
     7
 10
-173.5
 20
-226.0
 30
0.0
 11
-166.5
 21
-226.0
 31
0.0
  0
LINE
  5
B1
  8
1
  6
CONTINUOUS
 62
     9
 10
-168.5
 20
-224.0
 30
0.0
 11
-168.5
 21
-223.8989794855664
 31
0.0
  0
LINE
  5
B2
  8
1
  6
CONTINUOUS
 62
     9
 10
-168.5
 20
-126.1010205144337
 30
0.0
 11
-168.5
 21
-126.0
 31
0.0
  0
LINE
  5
B3
  8
1
  6
CONTINUOUS
 62
     7
 10
-168.5
 20
-126.0
 30
0.0
 11
-166.5
 21
-124.0
 31
0.0
  0
LINE
  5
B4
  8
1
  6
CONTINUOUS
 62
     7
 10
-166.5
 20
-226.0
 30
0.0
 11
-168.5
 21
-224.0
 31
0.0
  0
LINE
  5
B5
  8
1
  6
CONTINUOUS
 62
     9
 10
-168.5
 20
-126.0
 30
0.0
 11
-168.6010205144336
 21
-126.0
 31
0.0
  0
LINE
  5
B6
  8
1
  6
CONTINUOUS
 62
     9
 10
-266.3989794855663
 20
-126.0
 30
0.0
 11
-266.4999999999999
 21
-126.0
 31
0.0
  0
LINE
  5
B7
  8
1
  6
CONTINUOUS
 62
     7
 10
-266.4999999999999
 20
-126.0
 30
0.0
 11
-268.4999999999999
 21
-124.0
 31
0.0
  0
LINE
  5
B8
  8
1
  6
CONTINUOUS
 62
     9
 10
-266.4999999999999
 20
-126.0
 30
0.0
 11
-266.4999999999999
 21
-126.1010205144336
 31
0.0
  0
LINE
  5
B9
  8
1
  6
CONTINUOUS
 62
     9
 10
-266.4999999999999
 20
-223.8989794855664
 30
0.0
 11
-266.4999999999999
 21
-224.0
 31
0.0
  0
LINE
  5
BA
  8
1
  6
CONTINUOUS
 62
     7
 10
-268.4999999999999
 20
-226.0
 30
0.0
 11
-266.4999999999999
 21
-224.0
 31
0.0
  0
LINE
  5
BB
  8
1
  6
CONTINUOUS
 62
     9
 10
-266.4999999999999
 20
-224.0
 30
0.0
 11
-266.3989794855663
 21
-224.0
 31
0.0
  0
LINE
  5
BC
  8
1
  6
CONTINUOUS
 62
     9
 10
-168.6010205144336
 20
-224.0
 30
0.0
 11
-168.4999999999999
 21
-224.0
 31
0.0
  0
LINE
  5
BD
  8
1
  6
CONTINUOUS
 62
     7
 10
-198.49
 20
-177.5
 30
0.0
 11
-198.51
 21
-177.5
 31
0.0
  0
LINE
  5
BE
  8
1
  6
CONTINUOUS
 62
     7
 10
-198.49
 20
-175.01
 30
0.0
 11
-198.49
 21
-177.5
 31
0.0
  0
LINE
  5
BF
  8
1
  6
CONTINUOUS
 62
     7
 10
-196.0
 20
-175.01
 30
0.0
 11
-198.49
 21
-175.01
 31
0.0
  0
LINE
  5
C0
  8
1
  6
CONTINUOUS
 62
     7
 10
-196.0
 20
-174.99
 30
0.0
 11
-196.0
 21
-175.01
 31
0.0
  0
LINE
  5
C1
  8
1
  6
CONTINUOUS
 62
     7
 10
-198.49
 20
-174.99
 30
0.0
 11
-196.0
 21
-174.99
 31
0.0
  0
LINE
  5
C2
  8
1
  6
CONTINUOUS
 62
     7
 10
-198.49
 20
-172.5
 30
0.0
 11
-198.49
 21
-174.99
 31
0.0
  0
LINE
  5
C3
  8
1
  6
CONTINUOUS
 62
     7
 10
-198.51
 20
-172.5
 30
0.0
 11
-198.49
 21
-172.5
 31
0.0
  0
LINE
  5
C4
  8
1
  6
CONTINUOUS
 62
     7
 10
-198.51
 20
-174.99
 30
0.0
 11
-198.51
 21
-172.5
 31
0.0
  0
LINE
  5
C5
  8
1
  6
CONTINUOUS
 62
     7
 10
-200.9999999999999
 20
-174.99
 30
0.0
 11
-198.51
 21
-174.99
 31
0.0
  0
LINE
  5
C6
  8
1
  6
CONTINUOUS
 62
     7
 10
-200.9999999999999
 20
-175.01
 30
0.0
 11
-200.9999999999999
 21
-174.99
 31
0.0
  0
LINE
  5
C7
  8
1
  6
CONTINUOUS
 62
     7
 10
-198.51
 20
-175.01
 30
0.0
 11
-200.9999999999999
 21
-175.01
 31
0.0
  0
LINE
  5
C8
  8
1
  6
CONTINUOUS
 62
     7
 10
-198.51
 20
-177.5
 30
0.0
 11
-198.51
 21
-175.01
 31
0.0
  0
LINE
  5
C9
  8
1
  6
CONTINUOUS
 62
     7
 10
-220.0
 20
-194.01
 30
0.0
 11
-220.0
 21
-193.99
 31
0.0
  0
LINE
  5
CA
  8
1
  6
CONTINUOUS
 62
     7
 10
-217.51
 20
-194.01
 30
0.0
 11
-220.0
 21
-194.01
 31
0.0
  0
LINE
  5
CB
  8
1
  6
CONTINUOUS
 62
     7
 10
-217.51
 20
-196.5
 30
0.0
 11
-217.51
 21
-194.01
 31
0.0
  0
LINE
  5
CC
  8
1
  6
CONTINUOUS
 62
     7
 10
-217.49
 20
-196.5
 30
0.0
 11
-217.51
 21
-196.5
 31
0.0
  0
LINE
  5
CD
  8
1
  6
CONTINUOUS
 62
     7
 10
-217.49
 20
-194.01
 30
0.0
 11
-217.49
 21
-196.5
 31
0.0
  0
LINE
  5
CE
  8
1
  6
CONTINUOUS
 62
     7
 10
-215.0
 20
-194.01
 30
0.0
 11
-217.49
 21
-194.01
 31
0.0
  0
LINE
  5
CF
  8
1
  6
CONTINUOUS
 62
     7
 10
-215.0
 20
-193.99
 30
0.0
 11
-215.0
 21
-194.01
 31
0.0
  0
LINE
  5
D0
  8
1
  6
CONTINUOUS
 62
     7
 10
-217.49
 20
-193.99
 30
0.0
 11
-215.0
 21
-193.99
 31
0.0
  0
LINE
  5
D1
  8
1
  6
CONTINUOUS
 62
     7
 10
-217.49
 20
-191.5
 30
0.0
 11
-217.49
 21
-193.99
 31
0.0
  0
LINE
  5
D2
  8
1
  6
CONTINUOUS
 62
     7
 10
-217.51
 20
-191.5
 30
0.0
 11
-217.49
 21
-191.5
 31
0.0
  0
LINE
  5
D3
  8
1
  6
CONTINUOUS
 62
     7
 10
-217.51
 20
-193.99
 30
0.0
 11
-217.51
 21
-191.5
 31
0.0
  0
LINE
  5
D4
  8
1
  6
CONTINUOUS
 62
     7
 10
-220.0
 20
-193.99
 30
0.0
 11
-217.51
 21
-193.99
 31
0.0
  0
LINE
  5
D5
  8
1
  6
CONTINUOUS
 62
     7
 10
-236.51
 20
-172.5
 30
0.0
 11
-236.49
 21
-172.5
 31
0.0
  0
LINE
  5
D6
  8
1
  6
CONTINUOUS
 62
     7
 10
-236.51
 20
-174.99
 30
0.0
 11
-236.51
 21
-172.5
 31
0.0
  0
LINE
  5
D7
  8
1
  6
CONTINUOUS
 62
     7
 10
-239.0
 20
-174.99
 30
0.0
 11
-236.51
 21
-174.99
 31
0.0
  0
LINE
  5
D8
  8
1
  6
CONTINUOUS
 62
     7
 10
-239.0
 20
-175.01
 30
0.0
 11
-239.0
 21
-174.99
 31
0.0
  0
LINE
  5
D9
  8
1
  6
CONTINUOUS
 62
     7
 10
-236.51
 20
-175.01
 30
0.0
 11
-239.0
 21
-175.01
 31
0.0
  0
LINE
  5
DA
  8
1
  6
CONTINUOUS
 62
     7
 10
-236.51
 20
-177.5
 30
0.0
 11
-236.51
 21
-175.01
 31
0.0
  0
LINE
  5
DB
  8
1
  6
CONTINUOUS
 62
     7
 10
-236.49
 20
-177.5
 30
0.0
 11
-236.51
 21
-177.5
 31
0.0
  0
LINE
  5
DC
  8
1
  6
CONTINUOUS
 62
     7
 10
-236.49
 20
-175.01
 30
0.0
 11
-236.49
 21
-177.5
 31
0.0
  0
LINE
  5
DD
  8
1
  6
CONTINUOUS
 62
     7
 10
-234.0
 20
-175.01
 30
0.0
 11
-236.49
 21
-175.01
 31
0.0
  0
LINE
  5
DE
  8
1
  6
CONTINUOUS
 62
     7
 10
-234.0
 20
-174.99
 30
0.0
 11
-234.0
 21
-175.01
 31
0.0
  0
LINE
  5
DF
  8
1
  6
CONTINUOUS
 62
     7
 10
-236.49
 20
-174.99
 30
0.0
 11
-234.0
 21
-174.99
 31
0.0
  0
LINE
  5
E0
  8
1
  6
CONTINUOUS
 62
     7
 10
-236.49
 20
-172.5
 30
0.0
 11
-236.49
 21
-174.99
 31
0.0
  0
LINE
  5
E1
  8
1
  6
CONTINUOUS
 62
     7
 10
-215.0
 20
-155.99
 30
0.0
 11
-215.0
 21
-156.01
 31
0.0
  0
LINE
  5
E2
  8
1
  6
CONTINUOUS
 62
     7
 10
-217.49
 20
-155.99
 30
0.0
 11
-215.0
 21
-155.99
 31
0.0
  0
LINE
  5
E3
  8
1
  6
CONTINUOUS
 62
     7
 10
-217.49
 20
-153.5
 30
0.0
 11
-217.49
 21
-155.99
 31
0.0
  0
LINE
  5
E4
  8
1
  6
CONTINUOUS
 62
     7
 10
-217.51
 20
-153.5
 30
0.0
 11
-217.49
 21
-153.5
 31
0.0
  0
LINE
  5
E5
  8
1
  6
CONTINUOUS
 62
     7
 10
-217.51
 20
-155.99
 30
0.0
 11
-217.51
 21
-153.5
 31
0.0
  0
LINE
  5
E6
  8
1
  6
CONTINUOUS
 62
     7
 10
-220.0
 20
-155.99
 30
0.0
 11
-217.51
 21
-155.99
 31
0.0
  0
LINE
  5
E7
  8
1
  6
CONTINUOUS
 62
     7
 10
-220.0
 20
-156.01
 30
0.0
 11
-220.0
 21
-155.99
 31
0.0
  0
LINE
  5
E8
  8
1
  6
CONTINUOUS
 62
     7
 10
-217.51
 20
-156.01
 30
0.0
 11
-220.0
 21
-156.01
 31
0.0
  0
LINE
  5
E9
  8
1
  6
CONTINUOUS
 62
     7
 10
-217.51
 20
-158.5
 30
0.0
 11
-217.51
 21
-156.01
 31
0.0
  0
LINE
  5
EA
  8
1
  6
CONTINUOUS
 62
     7
 10
-217.49
 20
-158.5
 30
0.0
 11
-217.51
 21
-158.5
 31
0.0
  0
LINE
  5
EB
  8
1
  6
CONTINUOUS
 62
     7
 10
-217.49
 20
-156.01
 30
0.0
 11
-217.49
 21
-158.5
 31
0.0
  0
LINE
  5
EC
  8
1
  6
CONTINUOUS
 62
     7
 10
-215.0
 20
-156.01
 30
0.0
 11
-217.49
 21
-156.01
 31
0.0
  0
LINE
  5
ED
  8
1
  6
CONTINUOUS
 62
     7
 10
-173.5
 20
-124.0
 30
0.0
 11
-261.4999999999999
 21
-124.0
 31
0.0
  0
LINE
  5
EE
  8
1
  6
CONTINUOUS
 62
     7
 10
-168.1
 20
-219.0
 30
0.0
 11
-168.1
 21
-131.0
 31
0.0
  0
LINE
  5
EF
  8
1
  6
CONTINUOUS
 62
     7
 10
-253.2538461538461
 20
-125.6
 30
0.0
 11
-252.4999999999999
 21
-130.5
 31
0.0
  0
ARC
  5
F0
  8
1
  6
CONTINUOUS
 62
     7
 10
-261.4999999999999
 20
-131.0
 30
0.0
 40
5.399999999999995
 50
89.99999999999991
 51
180.0
  0
LINE
  5
F1
  8
1
  6
CONTINUOUS
 62
     7
 10
-261.4999999999999
 20
-224.4
 30
0.0
 11
-193.2538461538461
 21
-224.4
 31
0.0
  0
ARC
  5
F2
  8
1
  6
CONTINUOUS
 62
     7
 10
-187.5
 20
-219.5
 30
0.0
 40
4.999999999999997
 50
0.0000000000000795
 51
179.9999999999999
  0
LINE
  5
F3
  8
1
  6
CONTINUOUS
 62
     7
 10
-181.7461538461538
 20
-224.4
 30
0.0
 11
-173.5
 21
-224.4
 31
0.0
  0
LINE
  5
F4
  8
1
  6
CONTINUOUS
 62
     7
 10
-166.5
 20
-219.0
 30
0.0
 11
-166.5
 21
-131.0
 31
0.0
  0
ARC
  5
F5
  8
1
  6
CONTINUOUS
 62
     7
 10
-173.5
 20
-131.0
 30
0.0
 40
5.399999999999995
 50
359.9999999999998
 51
90.0
  0
CIRCLE
  5
F6
  8
1
  6
CONTINUOUS
 62
     7
 10
-187.5
 20
-219.5
 30
0.0
 40
2.000000000000002
  0
ARC
  5
F7
  8
1
  6
CONTINUOUS
 62
     7
 10
-261.4999999999999
 20
-219.0
 30
0.0
 40
5.399999999999995
 50
179.9999999999995
 51
270.0
  0
LINE
  5
F8
  8
1
  6
CONTINUOUS
 62
     7
 10
-261.4999999999999
 20
-226.0
 30
0.0
 11
-173.4999999999999
 21
-226.0
 31
0.0
  0
ARC
  5
F9
  8
1
  6
CONTINUOUS
 62
     7
 10
-173.5
 20
-219.0
 30
0.0
 40
5.400000000000009
 50
269.9999999999999
 51
0.0
  0
LINE
  5
FA
  8
1
  6
CONTINUOUS
 62
     7
 10
-268.4999999999999
 20
-131.0
 30
0.0
 11
-268.4999999999999
 21
-219.0
 31
0.0
  0
ARC
  5
FB
  8
1
  6
CONTINUOUS
 62
     7
 10
-261.4999999999999
 20
-131.0
 30
0.0
 40
6.999999999999999
 50
89.99999999999994
 51
180.0
  0
LINE
  5
FC
  8
1
  6
CONTINUOUS
 62
     7
 10
-192.5
 20
-219.5
 30
0.0
 11
-193.2538461538461
 21
-224.4
 31
0.0
  0
LINE
  5
FD
  8
1
  6
CONTINUOUS
 62
     7
 10
-181.7461538461538
 20
-224.4
 30
0.0
 11
-182.5
 21
-219.5
 31
0.0
  0
CIRCLE
  5
FE
  8
1
  6
CONTINUOUS
 62
     7
 10
-247.5
 20
-130.5
 30
0.0
 40
2.000000000000002
  0
ARC
  5
FF
  8
1
  6
CONTINUOUS
 62
     7
 10
-247.5
 20
-130.5
 30
0.0
 40
4.999999999999997
 50
180.0000000000001
 51
0.0
  0
ARC
  5
100
  8
1
  6
CONTINUOUS
 62
     7
 10
-173.5
 20
-219.0
 30
0.0
 40
7.000000000000006
 50
269.9999999999999
 51
0.0
  0
LINE
  5
101
  8
1
  6
CONTINUOUS
 62
     7
 10
-242.5
 20
-130.5
 30
0.0
 11
-241.7461538461538
 21
-125.6
 31
0.0
  0
ARC
  5
102
  8
1
  6
CONTINUOUS
 62
     7
 10
-261.4999999999999
 20
-219.0
 30
0.0
 40
6.999999999999999
 50
179.9999999999996
 51
270.0
  0
ARC
  5
103
  8
1
  6
CONTINUOUS
 62
     7
 10
-173.5
 20
-131.0
 30
0.0
 40
6.999999999999992
 50
359.9999999999998
 51
90.0
  0
LINE
  5
104
  8
1
  6
CONTINUOUS
 62
     7
 10
-173.5
 20
-125.6
 30
0.0
 11
-241.7461538461538
 21
-125.6
 31
0.0
  0
LINE
  5
105
  8
1
  6
CONTINUOUS
 62
     7
 10
-253.2538461538461
 20
-125.6
 30
0.0
 11
-261.4999999999999
 21
-125.6
 31
0.0
  0
LINE
  5
106
  8
1
  6
CONTINUOUS
 62
     7
 10
-266.9
 20
-131.0
 30
0.0
 11
-266.9
 21
-219.0
 31
0.0
  0
LINE
  5
107
  8
1
  6
CONTINUOUS
 62
     7
 10
-225.95
 20
-223.8
 30
0.0
 11
-253.0499999999999
 21
-223.8
 31
0.0
  0
LINE
  5
108
  8
1
  6
CONTINUOUS
 62
     7
 10
-193.1615384615384
 20
-223.8
 30
0.0
 11
-209.05
 21
-223.8
 31
0.0
  0
LINE
  5
109
  8
1
  6
CONTINUOUS
 62
     7
 10
-168.7
 20
-183.45
 30
0.0
 11
-168.7
 21
-210.55
 31
0.0
  0
LINE
  5
10A
  8
1
  6
CONTINUOUS
 62
     7
 10
-266.3
 20
-166.55
 30
0.0
 11
-266.3
 21
-139.45
 31
0.0
  0
LINE
  5
10B
  8
1
  6
CONTINUOUS
 62
     7
 10
-241.8384615384615
 20
-126.2
 30
0.0
 11
-225.95
 21
-126.2
 31
0.0
  0
LINE
  5
10C
  8
1
  6
CONTINUOUS
 62
     7
 10
-209.05
 20
-126.2
 30
0.0
 11
-181.95
 21
-126.2
 31
0.0
  0
LINE
  5
10D
  8
1
  6
CONTINUOUS
 62
     7
 10
-168.7
 20
-139.45
 30
0.0
 11
-168.7
 21
-166.55
 31
0.0
  0
LINE
  5
10E
  8
1
  6
CONTINUOUS
 62
     7
 10
-266.3
 20
-210.55
 30
0.0
 11
-266.3
 21
-183.45
 31
0.0
  0
LINE
  5
10F
  8
1
  6
CONTINUOUS
 62
     7
 10
-174.4999999999999
 20
-223.8
 30
0.0
 11
-180.5
 21
-223.8
 31
0.0
  0
LINE
  5
110
  8
1
  6
CONTINUOUS
 62
     7
 10
-266.3
 20
-132.0
 30
0.0
 11
-266.3
 21
-138.0
 31
0.0
  0
LINE
  5
111
  8
1
  6
CONTINUOUS
 62
     7
 10
-214.5
 20
-223.8
 30
0.0
 11
-220.5
 21
-223.8
 31
0.0
  0
LINE
  5
112
  8
1
  6
CONTINUOUS
 62
     7
 10
-266.3
 20
-212.0
 30
0.0
 11
-266.3
 21
-218.0
 31
0.0
  0
LINE
  5
113
  8
1
  6
CONTINUOUS
 62
     7
 10
-266.3
 20
-172.0
 30
0.0
 11
-266.3
 21
-178.0
 31
0.0
  0
ARC
  5
114
  8
1
  6
CONTINUOUS
 62
     7
 10
-217.5
 20
-175.0
 30
0.0
 40
12.00000000000001
 50
180.0
 51
0.0
  0
ARC
  5
115
  8
1
  6
CONTINUOUS
 62
     7
 10
-217.5
 20
-175.0
 30
0.0
 40
12.00000000000001
 50
0.0
 51
180.0
  0
CIRCLE
  5
116
  8
1
  6
CONTINUOUS
 62
     7
 10
-217.5
 20
-175.0
 30
0.0
 40
5.000000000000002
  0
CIRCLE
  5
117
  8
1
  6
CONTINUOUS
 62
     7
 10
-238.7132034355964
 20
-153.7867965644035
 30
0.0
 40
10.74999999999999
  0
CIRCLE
  5
118
  8
1
  6
CONTINUOUS
 62
     7
 10
-238.7132034355964
 20
-196.2132034355965
 30
0.0
 40
13.54999999999999
  0
CIRCLE
  5
119
  8
1
  6
CONTINUOUS
 62
     7
 10
-196.2867965644036
 20
-196.2132034355964
 30
0.0
 40
10.74999999999999
  0
CIRCLE
  5
11A
  8
1
  6
CONTINUOUS
 62
     7
 10
-196.2867965644036
 20
-153.7867965644036
 30
0.0
 40
13.54999999999998
  0
CIRCLE
  5
11B
  8
1
  6
CONTINUOUS
 62
     7
 10
-217.5
 20
-207.5
 30
0.0
 40
2.999999999999997
  0
CIRCLE
  5
11C
  8
1
  6
CONTINUOUS
 62
     7
 10
-217.5
 20
-142.5
 30
0.0
 40
2.999999999999997
  0
CIRCLE
  5
11D
  8
1
  6
CONTINUOUS
 62
     7
 10
-248.5
 20
-175.0
 30
0.0
 40
2.000000000000002
  0
CIRCLE
  5
11E
  8
1
  6
CONTINUOUS
 62
     7
 10
-217.5
 20
-156.0
 30
0.0
 40
2.999999999999997
  0
CIRCLE
  5
11F
  8
1
  6
CONTINUOUS
 62
     7
 10
-236.4999999999999
 20
-175.0
 30
0.0
 40
2.999999999999996
  0
CIRCLE
  5
120
  8
1
  6
CONTINUOUS
 62
     7
 10
-217.5
 20
-194.0
 30
0.0
 40
2.999999999999997
  0
CIRCLE
  5
121
  8
1
  6
CONTINUOUS
 62
     7
 10
-198.5
 20
-175.0
 30
0.0
 40
2.999999999999996
  0
LINE
  5
122
  8
1
  6
CONTINUOUS
 62
     7
 10
-253.0499999999999
 20
-223.8
 30
0.0
 11
-253.0499999999999
 21
-224.4
 31
0.0
  0
LINE
  5
123
  8
1
  6
CONTINUOUS
 62
     7
 10
-225.95
 20
-224.4
 30
0.0
 11
-225.95
 21
-223.8
 31
0.0
  0
LINE
  5
124
  8
1
  6
CONTINUOUS
 62
     7
 10
-209.05
 20
-223.8
 30
0.0
 11
-209.05
 21
-224.4
 31
0.0
  0
LINE
  5
125
  8
1
  6
CONTINUOUS
 62
     7
 10
-168.7
 20
-210.55
 30
0.0
 11
-168.1
 21
-210.55
 31
0.0
  0
LINE
  5
126
  8
1
  6
CONTINUOUS
 62
     7
 10
-168.1
 20
-183.45
 30
0.0
 11
-168.7
 21
-183.45
 31
0.0
  0
LINE
  5
127
  8
1
  6
CONTINUOUS
 62
     7
 10
-266.3
 20
-139.45
 30
0.0
 11
-266.9
 21
-139.45
 31
0.0
  0
LINE
  5
128
  8
1
  6
CONTINUOUS
 62
     7
 10
-266.9
 20
-166.55
 30
0.0
 11
-266.3
 21
-166.55
 31
0.0
  0
LINE
  5
129
  8
1
  6
CONTINUOUS
 62
     7
 10
-225.95
 20
-126.2
 30
0.0
 11
-225.95
 21
-125.6
 31
0.0
  0
LINE
  5
12A
  8
1
  6
CONTINUOUS
 62
     7
 10
-181.95
 20
-126.2
 30
0.0
 11
-181.95
 21
-125.6
 31
0.0
  0
LINE
  5
12B
  8
1
  6
CONTINUOUS
 62
     7
 10
-209.05
 20
-125.6
 30
0.0
 11
-209.05
 21
-126.2
 31
0.0
  0
LINE
  5
12C
  8
1
  6
CONTINUOUS
 62
     7
 10
-168.7
 20
-166.55
 30
0.0
 11
-168.1
 21
-166.55
 31
0.0
  0
LINE
  5
12D
  8
1
  6
CONTINUOUS
 62
     7
 10
-168.1
 20
-139.45
 30
0.0
 11
-168.7
 21
-139.45
 31
0.0
  0
LINE
  5
12E
  8
1
  6
CONTINUOUS
 62
     7
 10
-266.3
 20
-183.45
 30
0.0
 11
-266.8999999999999
 21
-183.45
 31
0.0
  0
LINE
  5
12F
  8
1
  6
CONTINUOUS
 62
     7
 10
-266.9
 20
-210.55
 30
0.0
 11
-266.3
 21
-210.55
 31
0.0
  0
LINE
  5
130
  8
1
  6
CONTINUOUS
 62
     7
 10
-180.5
 20
-223.8000000000002
 30
0.0
 11
-180.5
 21
-224.4000000000001
 31
0.0
  0
LINE
  5
131
  8
1
  6
CONTINUOUS
 62
     7
 10
-174.4999999999999
 20
-224.4000000000001
 30
0.0
 11
-174.4999999999999
 21
-223.8000000000002
 31
0.0
  0
LINE
  5
132
  8
1
  6
CONTINUOUS
 62
     7
 10
-266.3000000000001
 20
-132.0
 30
0.0
 11
-266.9000000000001
 21
-132.0
 31
0.0
  0
LINE
  5
133
  8
1
  6
CONTINUOUS
 62
     7
 10
-266.9000000000001
 20
-138.0
 30
0.0
 11
-266.3000000000001
 21
-138.0
 31
0.0
  0
LINE
  5
134
  8
1
  6
CONTINUOUS
 62
     7
 10
-220.5
 20
-223.8000000000001
 30
0.0
 11
-220.5
 21
-224.4000000000001
 31
0.0
  0
LINE
  5
135
  8
1
  6
CONTINUOUS
 62
     7
 10
-214.5
 20
-224.4000000000001
 30
0.0
 11
-214.5
 21
-223.8000000000001
 31
0.0
  0
LINE
  5
136
  8
1
  6
CONTINUOUS
 62
     7
 10
-266.3000000000001
 20
-212.0
 30
0.0
 11
-266.9000000000001
 21
-212.0
 31
0.0
  0
LINE
  5
137
  8
1
  6
CONTINUOUS
 62
     7
 10
-266.9000000000001
 20
-218.0
 30
0.0
 11
-266.3000000000001
 21
-218.0
 31
0.0
  0
LINE
  5
138
  8
1
  6
CONTINUOUS
 62
     7
 10
-266.3000000000001
 20
-172.0
 30
0.0
 11
-266.9000000000001
 21
-172.0
 31
0.0
  0
LINE
  5
139
  8
1
  6
CONTINUOUS
 62
     7
 10
-266.9000000000001
 20
-178.0
 30
0.0
 11
-266.3000000000001
 21
-178.0
 31
0.0
  0
ENDBLK
  8
0
  0
BLOCK
  8
0
  2
D_FRAME_VIEW_3813
 70
     0
 10
0.0
 20
0.0
 30
0.0
  0
LINE
  5
140
  8
1
  6
CONTINUOUS
 62
     7
 10
-141.4999999999999
 20
-282.7500000000001
 30
0.0
 11
-141.4999999999999
 21
-279.7500000000001
 31
0.0
  0
LINE
  5
141
  8
1
  6
CONTINUOUS
 62
     7
 10
-293.5
 20
-282.7500000000001
 30
0.0
 11
-141.4999999999999
 21
-282.7500000000001
 31
0.0
  0
LINE
  5
142
  8
1
  6
CONTINUOUS
 62
     7
 10
-293.5
 20
-282.7500000000001
 30
0.0
 11
-293.5
 21
-279.7500000000001
 31
0.0
  0
LINE
  5
143
  8
1
  6
CONTINUOUS
 62
     7
 10
-293.5
 20
-279.7500000000001
 30
0.0
 11
-141.4999999999999
 21
-279.7500000000001
 31
0.0
  0
ARC
  5
144
  8
1
  6
CONTINUOUS
 62
     7
 10
-195.5
 20
-304.2000000000001
 30
0.0
 40
13.53999999999999
 50
272.1147155042265
 51
357.8852844957735
  0
LINE
  5
145
  8
1
  6
CONTINUOUS
 62
     7
 10
-195.00036900369
 20
-317.7307785758074
 30
0.0
 11
-194.9996309963099
 21
-317.7507649547968
 31
0.0
  0
LINE
  5
146
  8
1
  6
CONTINUOUS
 62
     7
 10
-181.9492350452033
 20
-304.7003690036901
 30
0.0
 11
-181.9692214241927
 21
-304.69963099631
 31
0.0
  0
ARC
  5
147
  8
1
  6
CONTINUOUS
 62
     7
 10
-239.5
 20
-304.2000000000001
 30
0.0
 40
13.54000000000002
 50
272.1147155042265
 51
357.8852844957734
  0
LINE
  5
148
  8
1
  6
CONTINUOUS
 62
     7
 10
-239.00036900369
 20
-317.7307785758074
 30
0.0
 11
-238.9996309963099
 21
-317.7507649547968
 31
0.0
  0
ARC
  5
149
  8
1
  6
CONTINUOUS
 62
     7
 10
-239.5
 20
-304.2000000000001
 30
0.0
 40
13.55999999999998
 50
272.1147155042265
 51
357.8852844957734
  0
LINE
  5
14A
  8
1
  6
CONTINUOUS
 62
     7
 10
-225.9492350452033
 20
-304.7003690036901
 30
0.0
 11
-225.9692214241927
 21
-304.69963099631
 31
0.0
  0
LINE
  5
14B
  8
1
  6
CONTINUOUS
 62
     7
 10
-239.9996309963099
 20
-317.7307785758074
 30
0.0
 11
-240.00036900369
 21
-317.7507649547968
 31
0.0
  0
ARC
  5
14C
  8
1
  6
CONTINUOUS
 62
     7
 10
-239.5
 20
-304.2000000000001
 30
0.0
 40
13.53999999999999
 50
182.1147155042266
 51
267.8852844957734
  0
LINE
  5
14D
  8
1
  6
CONTINUOUS
 62
     7
 10
-253.0507649547967
 20
-304.7003690036901
 30
0.0
 11
-253.0307785758073
 21
-304.69963099631
 31
0.0
  0
ARC
  5
14E
  8
1
  6
CONTINUOUS
 62
     7
 10
-239.5
 20
-304.2000000000001
 30
0.0
 40
13.55999999999998
 50
182.1147155042265
 51
267.8852844957735
  0
LINE
  5
14F
  8
1
  6
CONTINUOUS
 62
     7
 10
-253.0197860673631
 20
-303.7007749077492
 30
0.0
 11
-253.0617574632408
 21
-303.699225092251
 31
0.0
  0
ARC
  5
150
  8
1
  6
CONTINUOUS
 62
     7
 10
-239.5
 20
-304.2000000000001
 30
0.0
 40
13.52899999999999
 50
2.114715504226606
 51
177.8852844957735
  0
LINE
  5
151
  8
1
  6
CONTINUOUS
 62
     7
 10
-225.9382425367591
 20
-303.699225092251
 30
0.0
 11
-225.9802139326368
 21
-303.7007749077492
 31
0.0
  0
ARC
  5
152
  8
1
  6
CONTINUOUS
 62
     7
 10
-239.5
 20
-304.2000000000001
 30
0.0
 40
13.57099999999999
 50
2.114715504226751
 51
177.8852844957735
  0
LINE
  5
153
  8
1
  6
CONTINUOUS
 62
     7
 10
-269.4999999999999
 20
-325.7500000000001
 30
0.0
 11
-267.4999999999999
 21
-325.7500000000001
 31
0.0
  0
LINE
  5
154
  8
1
  6
CONTINUOUS
 62
     7
 10
-165.5
 20
-325.7500000000001
 30
0.0
 11
-167.5
 21
-325.7500000000001
 31
0.0
  0
ARC
  5
155
  8
1
  6
CONTINUOUS
 62
     7
 10
-195.5
 20
-304.2000000000001
 30
0.0
 40
13.52899999999999
 50
2.11471550422641
 51
177.8852844957734
  0
LINE
  5
156
  8
1
  6
CONTINUOUS
 62
     7
 10
-181.9802139326368
 20
-303.7007749077492
 30
0.0
 11
-181.9382425367591
 21
-303.699225092251
 31
0.0
  0
ARC
  5
157
  8
1
  6
CONTINUOUS
 62
     7
 10
-195.5
 20
-304.2000000000001
 30
0.0
 40
13.57099999999999
 50
2.11471550422659
 51
177.8852844957733
  0
LINE
  5
158
  8
1
  6
CONTINUOUS
 62
     7
 10
-209.0617574632408
 20
-303.699225092251
 30
0.0
 11
-209.0197860673631
 21
-303.7007749077492
 31
0.0
  0
LINE
  5
159
  8
1
  6
CONTINUOUS
 62
     7
 10
-195.9996309963099
 20
-317.7307785758074
 30
0.0
 11
-196.00036900369
 21
-317.7507649547968
 31
0.0
  0
ARC
  5
15A
  8
1
  6
CONTINUOUS
 62
     7
 10
-195.5
 20
-304.2000000000001
 30
0.0
 40
13.54000000000002
 50
182.1147155042266
 51
267.8852844957734
  0
LINE
  5
15B
  8
1
  6
CONTINUOUS
 62
     7
 10
-209.0507649547967
 20
-304.7003690036901
 30
0.0
 11
-209.0307785758073
 21
-304.69963099631
 31
0.0
  0
ARC
  5
15C
  8
1
  6
CONTINUOUS
 62
     7
 10
-195.5
 20
-304.2000000000001
 30
0.0
 40
13.55999999999998
 50
182.1147155042265
 51
267.8852844957735
  0
ARC
  5
15D
  8
1
  6
CONTINUOUS
 62
     7
 10
-195.5
 20
-304.2000000000001
 30
0.0
 40
13.55999999999998
 50
272.1147155042266
 51
357.8852844957735
  0
LINE
  5
15E
  8
1
  6
CONTINUOUS
 62
     7
 10
-163.5
 20
-325.7500000000001
 30
0.0
 11
-163.5
 21
-326.7500000000001
 31
0.0
  0
LINE
  5
15F
  8
1
  6
CONTINUOUS
 62
     7
 10
-269.4999999999999
 20
-325.7500000000001
 30
0.0
 11
-273.3703875774914
 21
-325.7500000000001
 31
0.0
  0
LINE
  5
160
  8
1
  6
CONTINUOUS
 62
     7
 10
-161.6296124225085
 20
-325.7500000000001
 30
0.0
 11
-165.5
 21
-325.7500000000001
 31
0.0
  0
LINE
  5
161
  8
1
  6
CONTINUOUS
 62
     7
 10
-167.5
 20
-330.7500000000001
 30
0.0
 11
-267.4999999999999
 21
-330.7500000000001
 31
0.0
  0
ARC
  5
162
  8
1
  6
CONTINUOUS
 62
     7
 10
-267.4999999999999
 20
-326.7500000000001
 30
0.0
 40
4.000000000000004
 50
180.0
 51
270.0
  0
ARC
  5
163
  8
1
  6
CONTINUOUS
 62
     7
 10
-167.5
 20
-326.7500000000001
 30
0.0
 40
4.000000000000004
 50
270.0
 51
0.0
  0
LINE
  5
164
  8
1
  6
CONTINUOUS
 62
     7
 10
-271.4999999999999
 20
-326.7500000000001
 30
0.0
 11
-271.4999999999999
 21
-325.7500000000001
 31
0.0
  0
LINE
  5
165
  8
1
  6
CONTINUOUS
 62
     7
 10
-273.3703875774914
 20
-325.7500000000001
 30
0.0
 11
-273.3755515736472
 21
-325.7500000000001
 31
0.0
  0
LINE
  5
166
  8
1
  6
CONTINUOUS
 62
     7
 10
-273.4999999999999
 20
-325.7500000000001
 30
0.0
 11
-273.4999999999999
 21
-284.7500000000001
 31
0.0
  0
LINE
  5
167
  8
1
  6
CONTINUOUS
 62
     7
 10
-273.3755515736472
 20
-325.7500000000001
 30
0.0
 11
-273.4999999999999
 21
-325.7500000000001
 31
0.0
  0
LINE
  5
168
  8
1
  6
CONTINUOUS
 62
     7
 10
-273.4999999999999
 20
-282.7500000000001
 30
0.0
 11
-273.4999999999999
 21
-284.7500000000001
 31
0.0
  0
LINE
  5
169
  8
1
  6
CONTINUOUS
 62
     7
 10
-161.5
 20
-284.7500000000001
 30
0.0
 11
-161.5
 21
-325.7500000000001
 31
0.0
  0
LINE
  5
16A
  8
1
  6
CONTINUOUS
 62
     7
 10
-161.5
 20
-325.7500000000001
 30
0.0
 11
-161.6244484263527
 21
-325.7500000000001
 31
0.0
  0
LINE
  5
16B
  8
1
  6
CONTINUOUS
 62
     7
 10
-161.5
 20
-284.7500000000001
 30
0.0
 11
-161.5
 21
-282.7500000000001
 31
0.0
  0
LINE
  5
16C
  8
1
  6
CONTINUOUS
 62
     7
 10
-161.6244484263527
 20
-325.7500000000001
 30
0.0
 11
-161.6296124225086
 21
-325.7500000000001
 31
0.0
  0
ENDBLK
  8
0
  0
BLOCK
  8
0
  2
D_FRAME_VIEW_3736
 70
     0
 10
0.0
 20
0.0
 30
0.0
  0
LINE
  5
171
  8
1
  6
CONTINUOUS
 62
     7
 10
-97.74999999999994
 20
-225.99
 30
0.0
 11
-97.74999999999994
 21
-226.01
 31
0.0
  0
LINE
  5
172
  8
1
  6
CONTINUOUS
 62
     7
 10
-97.74999999999994
 20
-226.01
 30
0.0
 11
-94.74999999999994
 21
-226.01
 31
0.0
  0
LINE
  5
173
  8
1
  6
CONTINUOUS
 62
     7
 10
-98.24999999999994
 20
-224.0
 30
0.0
 11
-98.24999999999994
 21
-228.0
 31
0.0
  0
LINE
  5
174
  8
1
  6
CONTINUOUS
 62
     7
 10
-98.24999999999994
 20
-126.0
 30
0.0
 11
-97.74999999999994
 21
-126.0
 31
0.0
  0
LINE
  5
175
  8
1
  6
CONTINUOUS
 62
     7
 10
-98.24999999999994
 20
-126.0
 30
0.0
 11
-98.24999999999994
 21
-122.0
 31
0.0
  0
LINE
  5
176
  8
1
  6
CONTINUOUS
 62
     7
 10
-98.24999999999994
 20
-122.0
 30
0.0
 11
-97.74999999999994
 21
-122.0
 31
0.0
  0
LINE
  5
177
  8
1
  6
CONTINUOUS
 62
     7
 10
-97.74999999999994
 20
-122.0
 30
0.0
 11
-97.74999999999993
 21
-99.00000000000001
 31
0.0
  0
LINE
  5
178
  8
1
  6
CONTINUOUS
 62
     7
 10
-94.74999999999994
 20
-99.00000000000001
 30
0.0
 11
-97.74999999999993
 21
-99.00000000000001
 31
0.0
  0
LINE
  5
179
  8
1
  6
CONTINUOUS
 62
     7
 10
-94.74999999999994
 20
-123.99
 30
0.0
 11
-94.74999999999994
 21
-99.00000000000001
 31
0.0
  0
LINE
  5
17A
  8
1
  6
CONTINUOUS
 62
     7
 10
-97.74999999999994
 20
-123.99
 30
0.0
 11
-94.74999999999994
 21
-123.99
 31
0.0
  0
LINE
  5
17B
  8
1
  6
CONTINUOUS
 62
     7
 10
-97.74999999999994
 20
-124.01
 30
0.0
 11
-97.74999999999994
 21
-123.99
 31
0.0
  0
LINE
  5
17C
  8
1
  6
CONTINUOUS
 62
     7
 10
-97.74999999999994
 20
-124.01
 30
0.0
 11
-94.74999999999994
 21
-124.01
 31
0.0
  0
LINE
  5
17D
  8
1
  6
CONTINUOUS
 62
     7
 10
-94.74999999999994
 20
-225.99
 30
0.0
 11
-94.74999999999994
 21
-124.01
 31
0.0
  0
LINE
  5
17E
  8
1
  6
CONTINUOUS
 62
     7
 10
-97.74999999999994
 20
-225.99
 30
0.0
 11
-94.74999999999994
 21
-225.99
 31
0.0
  0
LINE
  5
17F
  8
1
  6
CONTINUOUS
 62
     7
 10
-98.24999999999994
 20
-224.0
 30
0.0
 11
-97.74999999999993
 21
-224.0
 31
0.0
  0
LINE
  5
180
  8
1
  6
CONTINUOUS
 62
     7
 10
-94.74999999999994
 20
-251.0
 30
0.0
 11
-94.74999999999994
 21
-226.01
 31
0.0
  0
LINE
  5
181
  8
1
  6
CONTINUOUS
 62
     7
 10
-94.74999999999994
 20
-251.0
 30
0.0
 11
-97.74999999999993
 21
-251.0
 31
0.0
  0
LINE
  5
182
  8
1
  6
CONTINUOUS
 62
     7
 10
-98.24999999999994
 20
-228.0
 30
0.0
 11
-97.74999999999993
 21
-228.0
 31
0.0
  0
LINE
  5
183
  8
1
  6
CONTINUOUS
 62
     7
 10
-97.74999999999993
 20
-251.0
 30
0.0
 11
-97.74999999999993
 21
-228.0
 31
0.0
  0
LINE
  5
184
  8
1
  6
CONTINUOUS
 62
     7
 10
-97.74999999999993
 20
-224.0
 30
0.0
 11
-97.74999999999994
 21
-126.0
 31
0.0
  0
ARC
  5
185
  8
1
  6
CONTINUOUS
 62
     7
 10
-92.74999999999994
 20
-231.0
 30
0.0
 40
2.000000000000002
 50
90.0
 51
179.9999999999996
  0
ARC
  5
186
  8
1
  6
CONTINUOUS
 62
     7
 10
-92.74999999999994
 20
-119.0
 30
0.0
 40
2.000000000000002
 50
179.9999999999998
 51
270.0
  0
LINE
  5
187
  8
1
  6
CONTINUOUS
 62
     7
 10
-51.74999999999994
 20
-131.0
 30
0.0
 11
-94.74999999999994
 21
-131.0
 31
0.0
  0
LINE
  5
188
  8
1
  6
CONTINUOUS
 62
     7
 10
-51.74999999999994
 20
-125.0
 30
0.0
 11
-51.74999999999994
 21
-131.0
 31
0.0
  0
LINE
  5
189
  8
1
  6
CONTINUOUS
 62
     7
 10
-51.74999999999994
 20
-124.01
 30
0.0
 11
-51.74999999999994
 21
-125.0
 31
0.0
  0
LINE
  5
18A
  8
1
  6
CONTINUOUS
 62
     7
 10
-51.74999999999994
 20
-225.0
 30
0.0
 11
-51.74999999999994
 21
-225.99
 31
0.0
  0
LINE
  5
18B
  8
1
  6
CONTINUOUS
 62
     7
 10
-51.74999999999994
 20
-219.0
 30
0.0
 11
-94.74999999999994
 21
-219.0
 31
0.0
  0
LINE
  5
18C
  8
1
  6
CONTINUOUS
 62
     7
 10
-51.74999999999994
 20
-225.0
 30
0.0
 11
-51.74999999999994
 21
-219.0
 31
0.0
  0
LINE
  5
18D
  8
1
  6
CONTINUOUS
 62
     7
 10
-92.74999999999994
 20
-121.0
 30
0.0
 11
-51.74999999999994
 21
-121.0
 31
0.0
  0
LINE
  5
18E
  8
1
  6
CONTINUOUS
 62
     7
 10
-51.74999999999994
 20
-121.0
 30
0.0
 11
-51.74999999999994
 21
-123.99
 31
0.0
  0
LINE
  5
18F
  8
1
  6
CONTINUOUS
 62
     7
 10
-51.74999999999994
 20
-229.0
 30
0.0
 11
-92.74999999999994
 21
-229.0
 31
0.0
  0
LINE
  5
190
  8
1
  6
CONTINUOUS
 62
     7
 10
-51.74999999999994
 20
-226.01
 30
0.0
 11
-51.74999999999994
 21
-229.0
 31
0.0
  0
LINE
  5
191
  8
1
  6
CONTINUOUS
 62
     7
 10
-51.74999999999994
 20
-123.99
 30
0.0
 11
-51.74999999999994
 21
-124.01
 31
0.0
  0
LINE
  5
192
  8
1
  6
CONTINUOUS
 62
     7
 10
-51.74999999999994
 20
-225.99
 30
0.0
 11
-51.74999999999994
 21
-226.01
 31
0.0
  0
LINE
  5
193
  8
1
  6
CONTINUOUS
 62
     7
 10
-59.76922142419262
 20
-152.5003690036901
 30
0.0
 11
-59.74923504520326
 21
-152.49963099631
 31
0.0
  0
ARC
  5
194
  8
1
  6
CONTINUOUS
 62
     7
 10
-73.29999999999993
 20
-153.0
 30
0.0
 40
13.55999999999999
 50
2.114715504226574
 51
87.88528449577342
  0
LINE
  5
195
  8
1
  6
CONTINUOUS
 62
     7
 10
-72.7996309963099
 20
-139.4492350452034
 30
0.0
 11
-72.80036900368997
 21
-139.4692214241927
 31
0.0
  0
ARC
  5
196
  8
1
  6
CONTINUOUS
 62
     7
 10
-73.29999999999993
 20
-197.0
 30
0.0
 40
13.54000000000002
 50
2.114715504226524
 51
87.88528449577336
  0
LINE
  5
197
  8
1
  6
CONTINUOUS
 62
     7
 10
-59.76922142419262
 20
-196.5003690036901
 30
0.0
 11
-59.74923504520326
 21
-196.49963099631
 31
0.0
  0
ARC
  5
198
  8
1
  6
CONTINUOUS
 62
     7
 10
-73.29999999999993
 20
-197.0
 30
0.0
 40
13.55999999999999
 50
2.11471550422656
 51
87.88528449577339
  0
LINE
  5
199
  8
1
  6
CONTINUOUS
 62
     7
 10
-72.7996309963099
 20
-183.4492350452033
 30
0.0
 11
-72.80036900368997
 21
-183.4692214241927
 31
0.0
  0
LINE
  5
19A
  8
1
  6
CONTINUOUS
 62
     7
 10
-59.76922142419262
 20
-197.49963099631
 30
0.0
 11
-59.74923504520326
 21
-197.5003690036901
 31
0.0
  0
ARC
  5
19B
  8
1
  6
CONTINUOUS
 62
     7
 10
-73.29999999999993
 20
-197.0
 30
0.0
 40
13.53999999999999
 50
272.1147155042266
 51
357.8852844957735
  0
LINE
  5
19C
  8
1
  6
CONTINUOUS
 62
     7
 10
-72.7996309963099
 20
-210.5507649547967
 30
0.0
 11
-72.80036900368997
 21
-210.5307785758073
 31
0.0
  0
ARC
  5
19D
  8
1
  6
CONTINUOUS
 62
     7
 10
-73.29999999999993
 20
-197.0
 30
0.0
 40
13.55999999999999
 50
272.1147155042265
 51
357.8852844957735
  0
LINE
  5
19E
  8
1
  6
CONTINUOUS
 62
     7
 10
-73.79922509225086
 20
-210.5197860673632
 30
0.0
 11
-73.80077490774902
 21
-210.5617574632409
 31
0.0
  0
ARC
  5
19F
  8
1
  6
CONTINUOUS
 62
     7
 10
-73.29999999999993
 20
-197.0
 30
0.0
 40
13.52899999999999
 50
92.11471550422661
 51
267.8852844957734
  0
LINE
  5
1A0
  8
1
  6
CONTINUOUS
 62
     7
 10
-73.80077490774902
 20
-183.4382425367592
 30
0.0
 11
-73.79922509225086
 21
-183.4802139326369
 31
0.0
  0
ARC
  5
1A1
  8
1
  6
CONTINUOUS
 62
     7
 10
-73.29999999999993
 20
-197.0
 30
0.0
 40
13.57100000000002
 50
92.11471550422662
 51
267.8852844957735
  0
ARC
  5
1A2
  8
1
  6
CONTINUOUS
 62
     7
 10
-73.29999999999993
 20
-153.0
 30
0.0
 40
13.52900000000002
 50
92.11471550422658
 51
267.8852844957734
  0
LINE
  5
1A3
  8
1
  6
CONTINUOUS
 62
     7
 10
-73.79922509225086
 20
-139.4802139326369
 30
0.0
 11
-73.80077490774902
 21
-139.4382425367592
 31
0.0
  0
ARC
  5
1A4
  8
1
  6
CONTINUOUS
 62
     7
 10
-73.29999999999993
 20
-153.0
 30
0.0
 40
13.57099999999999
 50
92.11471550422658
 51
267.8852844957736
  0
LINE
  5
1A5
  8
1
  6
CONTINUOUS
 62
     7
 10
-73.80077490774902
 20
-166.5617574632409
 30
0.0
 11
-73.79922509225086
 21
-166.5197860673632
 31
0.0
  0
LINE
  5
1A6
  8
1
  6
CONTINUOUS
 62
     7
 10
-59.76922142419262
 20
-153.49963099631
 30
0.0
 11
-59.74923504520326
 21
-153.5003690036901
 31
0.0
  0
ARC
  5
1A7
  8
1
  6
CONTINUOUS
 62
     7
 10
-73.29999999999993
 20
-153.0
 30
0.0
 40
13.54000000000002
 50
272.1147155042266
 51
357.8852844957735
  0
LINE
  5
1A8
  8
1
  6
CONTINUOUS
 62
     7
 10
-72.7996309963099
 20
-166.5507649547967
 30
0.0
 11
-72.80036900368997
 21
-166.5307785758074
 31
0.0
  0
ARC
  5
1A9
  8
1
  6
CONTINUOUS
 62
     7
 10
-73.29999999999993
 20
-153.0
 30
0.0
 40
13.55999999999999
 50
272.1147155042265
 51
357.8852844957735
  0
ARC
  5
1AA
  8
1
  6
CONTINUOUS
 62
     7
 10
-73.29999999999993
 20
-153.0
 30
0.0
 40
13.53999999999999
 50
2.114715504226581
 51
87.88528449577342
  0
ARC
  5
1AB
  8
1
  6
CONTINUOUS
 62
     7
 10
-50.74999999999995
 20
-225.0
 30
0.0
 40
4.000000000000004
 50
270.0
 51
0.0
  0
LINE
  5
1AC
  8
1
  6
CONTINUOUS
 62
     7
 10
-51.74999999999994
 20
-121.0
 30
0.0
 11
-50.74999999999995
 21
-121.0
 31
0.0
  0
LINE
  5
1AD
  8
1
  6
CONTINUOUS
 62
     7
 10
-46.74999999999994
 20
-125.0
 30
0.0
 11
-46.74999999999994
 21
-225.0
 31
0.0
  0
LINE
  5
1AE
  8
1
  6
CONTINUOUS
 62
     7
 10
-50.74999999999995
 20
-229.0
 30
0.0
 11
-51.74999999999994
 21
-229.0
 31
0.0
  0
ARC
  5
1AF
  8
1
  6
CONTINUOUS
 62
     7
 10
-50.74999999999995
 20
-125.0
 30
0.0
 40
3.99999999999999
 50
0.0
 51
90.0
  0
ENDBLK
  8
0
  0
ENDSEC
  0
SECTION
  2
ENTITIES
  0
TEXT
  5
70
  8
1
  6
CONTINUOUS
 62
     7
 10
-212.3902244591722
 20
-347.5454545454546
 30
0.0
 40
5.0
  1
ＯＦ－ＭＡ－３Ｘ３４－１
  0
LINE
  5
71
  8
1
  6
CENTER
 62
     1
 10
-99.74999999999997
 20
-175.0
 30
0.0
 11
-44.74999999999991
 21
-175.0
 31
0.0
  0
LINE
  5
73
  8
1
  6
CENTER
 62
     1
 10
-217.5
 20
-332.7500000000001
 30
0.0
 11
-217.5
 21
-277.7500000000001
 31
0.0
  0
INSERT
  5
13A
  8
1
  6
CONTINUOUS
 62
     7
  2
D_FRAME_VIEW_3427
 10
0.0
 20
0.0
 30
0.0
  0
LINE
  5
13B
  8
1
  6
CENTER
 62
     1
 10
-295.5
 20
-175.0
 30
0.0
 11
-139.4999999999999
 21
-175.0
 31
0.0
  0
LINE
  5
13C
  8
1
  6
CENTER
 62
     1
 10
-217.5
 20
-97.0
 30
0.0
 11
-217.5
 21
-253.0
 31
0.0
  0
INSERT
  5
16D
  8
1
  6
CONTINUOUS
 62
     7
  2
D_FRAME_VIEW_3813
 10
0.0
 20
0.0
 30
0.0
  0
INSERT
  5
1B0
  8
1
  6
CONTINUOUS
 62
     7
  2
D_FRAME_VIEW_3736
 10
0.0
 20
0.0
 30
0.0
  0
ENDSEC
  0
EOF
