  0
SECTION
  2
HEADER
  9
$ACADVER
  1
AC1004
  9
$INSBASE
 10
0.0
 20
0.0
  9
$EXTMIN
 10
-268.5657107879
 20
-337.2089669014631
  9
$EXTMAX
 10
-88.5657107879
 20
-278.623562878
  9
$LIMMIN
 10
0.0
 20
0.0
  9
$LIMMAX
 10
12.0
 20
9.0
  9
$ORTHOMODE
 70
     0
  9
$REGENMODE
 70
     1
  9
$FILLMODE
 70
     1
  9
$QTEXTMODE
 70
     0
  9
$DRAGMODE
 70
     2
  9
$LTSCALE
 40
1.0
  9
$OSMODE
 70
    37
  9
$ATTMODE
 70
     1
  9
$TEXTSIZE
 40
0.2
  9
$TRACEWID
 40
0.05
  9
$TEXTSTYLE
  7
STANDARD
  9
$CLAYER
  8
0
  9
$CELTYPE
  6
BYLAYER
  9
$CECOLOR
 62
   256
  9
$DIMSCALE
 40
1.0
  9
$DIMASZ
 40
3.0
  9
$DIMEXO
 40
0.0625
  9
$DIMDLI
 40
0.38
  9
$DIMRND
 40
0.0
  9
$DIMDLE
 40
0.0
  9
$DIMEXE
 40
1.5
  9
$DIMTP
 40
0.0
  9
$DIMTM
 40
0.0
  9
$DIMTXT
 40
3.5
  9
$DIMCEN
 40
0.09
  9
$DIMTSZ
 40
0.0
  9
$DIMTOL
 70
     0
  9
$DIMLIM
 70
     0
  9
$DIMTIH
 70
     1
  9
$DIMTOH
 70
     1
  9
$DIMSE1
 70
     0
  9
$DIMSE2
 70
     0
  9
$DIMTAD
 70
     1
  9
$DIMZIN
 70
     0
  9
$DIMBLK
  1

  9
$DIMASO
 70
     1
  9
$DIMSHO
 70
     1
  9
$DIMPOST
  1

  9
$DIMAPOST
  1

  9
$DIMALT
 70
     0
  9
$DIMALTD
 70
     2
  9
$DIMALTF
 40
25.4
  9
$DIMLFAC
 40
1.0
  9
$DIMTOFL
 70
     0
  9
$DIMTVP
 40
0.0
  9
$DIMTIX
 70
     0
  9
$DIMSOXD
 70
     0
  9
$DIMSAH
 70
     0
  9
$DIMBLK1
  1

  9
$DIMBLK2
  1

  9
$LUNITS
 70
     2
  9
$LUPREC
 70
     4
  9
$SKETCHINC
 40
0.1
  9
$FILLETRAD
 40
0.5
  9
$AUNITS
 70
     0
  9
$AUPREC
 70
     0
  9
$MENU
  1
.
  9
$ELEVATION
 40
0.0
  9
$THICKNESS
 40
0.0
  9
$LIMCHECK
 70
     0
  9
$CHAMFERA
 40
0.0
  9
$CHAMFERB
 40
0.0
  9
$SKPOLY
 70
     0
  9
$TDCREATE
 40
2459068.671749028
  9
$TDUPDATE
 40
2459068.671749213
  9
$TDINDWG
 40
0.0000000116
  9
$TDUSRTIMER
 40
0.0000000116
  9
$USRTIMER
 70
     1
  9
$ANGBASE
 50
0.0
  9
$ANGDIR
 70
     0
  9
$PDMODE
 70
     0
  9
$PDSIZE
 40
0.0
  9
$PLINEWID
 40
0.0
  9
$COORDS
 70
     1
  9
$SPLFRAME
 70
     0
  9
$SPLINETYPE
 70
     6
  9
$SPLINESEGS
 70
     8
  9
$ATTDIA
 70
     0
  9
$ATTREQ
 70
     1
  9
$SURFTAB1
 70
     6
  9
$SURFTAB2
 70
     6
  9
$SURFTYPE
 70
     6
  9
$SURFU
 70
     6
  9
$SURFV
 70
     6
  9
$UCSNAME
  2

  9
$UCSORG
 10
0.0
 20
0.0
 30
0.0
  9
$UCSXDIR
 10
1.0
 20
0.0
 30
0.0
  9
$UCSYDIR
 10
0.0
 20
1.0
 30
0.0
  9
$USERI1
 70
     0
  9
$USERI2
 70
     0
  9
$USERI3
 70
     0
  9
$USERI4
 70
     0
  9
$USERI5
 70
     0
  9
$USERR1
 40
0.0
  9
$USERR2
 40
0.0
  9
$USERR3
 40
0.0
  9
$USERR4
 40
0.0
  9
$USERR5
 40
0.0
  9
$WORLDVIEW
 70
     1
  0
ENDSEC
  0
SECTION
  2
TABLES
  0
TABLE
  2
LTYPE
 70
     2
  0
LTYPE
  2
CONTINUOUS
 70
     0
  3
Solid line
 72
    65
 73
     0
 40
0.0
  0
LTYPE
  2
CENTER
 70
     0
  3

 72
    65
 73
     0
 40
0.0
  0
ENDTAB
  0
TABLE
  2
LAYER
 70
     2
  0
LAYER
  2
0
 70
     0
 62
     7
  6
CONTINUOUS
  0
LAYER
  2
1
 70
     0
 62
     7
  6
CONTINUOUS
  0
ENDTAB
  0
TABLE
  2
STYLE
 70
     2
  0
STYLE
  2
STANDARD
 70
     0
 40
0.0
 41
1.0
 50
0.0
 71
     0
 42
0.2
  3
txt
  4

  0
STYLE
  2
ＭＳ_ゴシック
 70
     0
 40
0.0
 41
1.0
 50
0.0
 71
     0
 42
0.2
  3
ＭＳ ゴシック.shx
  4

  0
ENDTAB
  0
TABLE
  2
VIEW
 70
     0
  0
ENDTAB
  0
ENDSEC
  0
SECTION
  2
BLOCKS
  0
ENDSEC
  0
SECTION
  2
ENTITIES
  0
LINE
  8
1
  6
CONTINUOUS
 62
     7
 10
-195.3351759958
 20
-281.5190344147
 11
-194.9983664822733
 21
-284.7235628779999
  0
LINE
  8
0
  6
CONTINUOUS
 62
     7
 10
-187.1783664822734
 20
-322.523562878
 11
-187.1783664822733
 21
-284.7235628779999
  0
LINE
  8
0
  6
CONTINUOUS
 62
     7
 10
-194.9943664822839
 20
-322.523562878
 11
-194.9943664822838
 21
-284.7235628779999
  0
LINE
  8
1
  6
CONTINUOUS
 62
     7
 10
-202.8248769058001
 20
-322.523562878
 11
-201.0602212114268
 21
-322.523562878
  0
LINE
  8
1
  6
CONTINUOUS
 62
     7
 10
-195.4292938469
 20
-326.0586175377936
 11
-195.4292938469
 21
-281.1885082182062
  0
ARC
  8
1
  6
CONTINUOUS
 62
     7
 10
-196.3296978912
 20
-281.6235628779999
 40
1.000000000000001
 50
6.0
 51
90.0
  0
LINE
  8
0
  6
CONTINUOUS
 62
     7
 10
-194.9943664822839
 20
-322.523562878
 11
-194.9943664822838
 21
-284.7235628779999
  0
LINE
  8
1
  6
CONTINUOUS
 62
     7
 10
-202.8248769058
 20
-284.7235628779999
 11
-201.0602212114267
 21
-284.7235628779999
  0
LINE
  8
1
  6
CONTINUOUS
 62
     7
 10
-201.0602212114267
 20
-284.7235628779999
 11
-200.7234116979
 21
-281.5190344147
  0
ARC
  8
1
  6
CONTINUOUS
 62
     7
 10
-191.9088898026001
 20
-325.623562878
 40
1.000000000000001
 50
186.0
 51
270.0
  0
LINE
  8
1
  6
CONTINUOUS
 62
     7
 10
-193.2402212114268
 20
-322.523562878
 11
-192.9034116979001
 21
-325.7280913412999
  0
ARC
  8
1
  6
CONTINUOUS
 62
     7
 10
-188.5096978912001
 20
-325.623562878
 40
1.000000000000001
 50
270.0
 51
354.0
  0
LINE
  8
1
  6
CONTINUOUS
 62
     7
 10
-199.7288898026
 20
-280.6235628779999
 11
-196.3296978912
 21
-280.6235628779999
  0
LINE
  8
0
  6
CONTINUOUS
 62
     7
 10
-201.0602212114267
 20
-284.7235628779999
 11
-201.0602212114268
 21
-322.523562878
  0
LINE
  8
0
  6
CONTINUOUS
 62
     7
 10
-202.8143664822839
 20
-322.523562878
 11
-202.8143664822838
 21
-284.7235628779999
  0
LINE
  8
0
  6
CONTINUOUS
 62
     7
 10
-202.8143664822839
 20
-322.523562878
 11
-202.8143664822838
 21
-284.7235628779999
  0
LINE
  8
0
  6
CONTINUOUS
 62
     7
 10
-202.8143664822839
 20
-322.523562878
 11
-202.8143664822838
 21
-284.7235628779999
  0
LINE
  8
1
  6
CONTINUOUS
 62
     7
 10
-201.0602212114268
 20
-322.523562878
 11
-200.7234116979001
 21
-325.7280913412999
  0
LINE
  8
1
  6
CONTINUOUS
 62
     7
 10
-200.6292938469
 20
-281.1885082182062
 11
-200.6292938469
 21
-326.0586175377939
  0
LINE
  8
0
  6
CONTINUOUS
 62
     7
 10
-202.8143664822839
 20
-322.523562878
 11
-202.8143664822838
 21
-284.7235628779999
  0
LINE
  8
1
  6
CONTINUOUS
 62
     7
 10
-199.7288898026001
 20
-326.623562878
 11
-196.3296978912001
 21
-326.623562878
  0
LINE
  8
0
  6
CONTINUOUS
 62
     7
 10
-194.9983664822734
 20
-322.523562878
 11
-194.9983664822733
 21
-284.7235628779999
  0
ARC
  8
1
  6
CONTINUOUS
 62
     7
 10
-199.7288898026001
 20
-325.623562878
 40
1.000000000000001
 50
186.0
 51
270.0
  0
LINE
  8
1
  6
CONTINUOUS
 62
     7
 10
-210.6448769058
 20
-284.7235628779999
 11
-208.8802212114267
 21
-284.7235628779999
  0
LINE
  8
1
  6
CONTINUOUS
 62
     7
 10
-195.3351759958001
 20
-325.7280913412999
 11
-194.9983664822734
 21
-322.523562878
  0
LINE
  8
1
  6
CENTER
 62
     1
 10
-268.5657107879
 20
-303.623562878
 11
-157.8452938468
 21
-303.623562878
  0
LINE
  8
0
  6
CONTINUOUS
 62
     7
 10
-193.2402212114267
 20
-284.7235628779999
 11
-193.2402212114268
 21
-322.523562878
  0
LINE
  8
0
  6
CONTINUOUS
 62
     7
 10
-194.9943664822839
 20
-322.523562878
 11
-194.9943664822838
 21
-284.7235628779999
  0
LINE
  8
1
  6
CONTINUOUS
 62
     7
 10
-216.2692938469
 20
-281.1885082182062
 11
-216.2692938469
 21
-326.0586175377939
  0
LINE
  8
1
  6
CONTINUOUS
 62
     7
 10
-215.3688898026
 20
-280.6235628779999
 11
-211.9696978912
 21
-280.6235628779999
  0
LINE
  8
1
  6
CONTINUOUS
 62
     7
 10
-216.7002212114267
 20
-284.7235628779999
 11
-216.3634116979
 21
-281.5190344147
  0
LINE
  8
1
  6
CONTINUOUS
 62
     7
 10
-210.9751759958
 20
-281.5190344147
 11
-210.6383664822733
 21
-284.7235628779999
  0
ARC
  8
1
  6
CONTINUOUS
 62
     7
 10
-196.3296978912001
 20
-325.623562878
 40
1.000000000000001
 50
270.0
 51
354.0
  0
ARC
  8
1
  6
CONTINUOUS
 62
     7
 10
-199.7288898026
 20
-281.6235628779999
 40
1.000000000000001
 50
90.0
 51
174.0
  0
LINE
  8
1
  6
CONTINUOUS
 62
     7
 10
-195.0048769058001
 20
-322.523562878
 11
-193.2402212114268
 21
-322.523562878
  0
LINE
  8
1
  6
CONTINUOUS
 62
     7
 10
-191.9088898026001
 20
-326.623562878
 11
-188.5096978912001
 21
-326.623562878
  0
LINE
  8
1
  6
CONTINUOUS
 62
     7
 10
-218.4648769058
 20
-284.7235628779999
 11
-216.7002212114267
 21
-284.7235628779999
  0
LINE
  8
1
  6
CONTINUOUS
 62
     7
 10
-193.2402212114267
 20
-284.7235628779999
 11
-192.9034116979
 21
-281.5190344147
  0
LINE
  8
1
  6
CONTINUOUS
 62
     7
 10
-187.5151759958001
 20
-325.7280913412999
 11
-187.1783664822734
 21
-322.523562878
  0
LINE
  8
1
  6
CONTINUOUS
 62
     7
 10
-218.7951759958
 20
-281.5190344147
 11
-218.4583664822732
 21
-284.7235628779999
  0
LINE
  8
0
  6
CONTINUOUS
 62
     7
 10
-226.2743664822839
 20
-322.523562878
 11
-226.2743664822838
 21
-284.7235628779999
  0
LINE
  8
1
  6
CONTINUOUS
 62
     7
 10
-234.1048769058
 20
-322.523562878
 11
-232.3402212114268
 21
-322.523562878
  0
LINE
  8
0
  6
CONTINUOUS
 62
     7
 10
-234.0943664822838
 20
-322.523562878
 11
-234.0943664822838
 21
-284.7235628779999
  0
LINE
  8
1
  6
CONTINUOUS
 62
     7
 10
-231.0088898026
 20
-280.6235628779999
 11
-227.6096978911999
 21
-280.6235628779999
  0
LINE
  8
0
  6
CONTINUOUS
 62
     7
 10
-234.0943664822838
 20
-322.523562878
 11
-234.0943664822838
 21
-284.7235628779999
  0
LINE
  8
1
  6
CONTINUOUS
 62
     7
 10
-226.7092938469
 20
-326.0586175377936
 11
-226.7092938469
 21
-281.1885082182062
  0
LINE
  8
1
  6
CONTINUOUS
 62
     7
 10
-224.5202212114268
 20
-322.523562878
 11
-224.1834116979001
 21
-325.7280913412999
  0
LINE
  8
0
  6
CONTINUOUS
 62
     7
 10
-234.0943664822838
 20
-322.523562878
 11
-234.0943664822838
 21
-284.7235628779999
  0
LINE
  8
0
  6
CONTINUOUS
 62
     7
 10
-226.2743664822839
 20
-322.523562878
 11
-226.2743664822838
 21
-284.7235628779999
  0
LINE
  8
1
  6
CONTINUOUS
 62
     7
 10
-249.7448769058
 20
-322.523562878
 11
-247.9802212114267
 21
-322.523562878
  0
LINE
  8
0
  6
CONTINUOUS
 62
     7
 10
-241.9143664822838
 20
-322.523562878
 11
-241.9143664822838
 21
-284.7235628779999
  0
LINE
  8
0
  6
CONTINUOUS
 62
     7
 10
-226.2743664822839
 20
-322.523562878
 11
-226.2743664822838
 21
-284.7235628779999
  0
LINE
  8
0
  6
CONTINUOUS
 62
     7
 10
-226.2743664822839
 20
-322.523562878
 11
-226.2743664822838
 21
-284.7235628779999
  0
LINE
  8
0
  6
CONTINUOUS
 62
     7
 10
-241.9143664822838
 20
-322.523562878
 11
-241.9143664822838
 21
-284.7235628779999
  0
LINE
  8
1
  6
CONTINUOUS
 62
     7
 10
-242.3492938469
 20
-326.0586175377936
 11
-242.3492938469
 21
-281.1885082182062
  0
ARC
  8
1
  6
CONTINUOUS
 62
     7
 10
-231.0088898026
 20
-325.623562878
 40
1.000000000000001
 50
186.0
 51
270.0
  0
ARC
  8
1
  6
CONTINUOUS
 62
     7
 10
-246.6488898025999
 20
-281.6235628779999
 40
1.000000000000001
 50
90.0
 51
174.0
  0
LINE
  8
1
  6
CONTINUOUS
 62
     7
 10
-226.2848769058
 20
-284.7235628779999
 11
-224.5202212114267
 21
-284.7235628779999
  0
LINE
  8
0
  6
CONTINUOUS
 62
     7
 10
-224.5202212114267
 20
-284.7235628779999
 11
-224.5202212114268
 21
-322.523562878
  0
LINE
  8
0
  6
CONTINUOUS
 62
     7
 10
-241.9143664822838
 20
-322.523562878
 11
-241.9143664822838
 21
-284.7235628779999
  0
LINE
  8
1
  6
CONTINUOUS
 62
     7
 10
-232.3402212114268
 20
-322.523562878
 11
-232.0034116979
 21
-325.7280913412999
  0
LINE
  8
1
  6
CONTINUOUS
 62
     7
 10
-218.7951759958
 20
-325.7280913412999
 11
-218.4583664822733
 21
-322.523562878
  0
LINE
  8
0
  6
CONTINUOUS
 62
     7
 10
-226.2743664822839
 20
-322.523562878
 11
-226.2743664822838
 21
-284.7235628779999
  0
ARC
  8
1
  6
CONTINUOUS
 62
     7
 10
-227.6096978912
 20
-325.623562878
 40
1.000000000000001
 50
270.0
 51
354.0
  0
LINE
  8
1
  6
CONTINUOUS
 62
     7
 10
-226.6151759958
 20
-325.7280913412999
 11
-226.2783664822733
 21
-322.523562878
  0
LINE
  8
0
  6
CONTINUOUS
 62
     7
 10
-234.0943664822838
 20
-322.523562878
 11
-234.0943664822838
 21
-284.7235628779999
  0
LINE
  8
1
  6
CONTINUOUS
 62
     7
 10
-224.5202212114267
 20
-284.7235628779999
 11
-224.1834116979
 21
-281.5190344147
  0
LINE
  8
1
  6
CONTINUOUS
 62
     7
 10
-208.8802212114268
 20
-322.523562878
 11
-208.5434116979001
 21
-325.7280913412999
  0
LINE
  8
1
  6
CONTINUOUS
 62
     7
 10
-208.8802212114267
 20
-284.7235628779999
 11
-208.5434116979
 21
-281.5190344147
  0
LINE
  8
0
  6
CONTINUOUS
 62
     7
 10
-241.9143664822838
 20
-322.523562878
 11
-241.9143664822838
 21
-284.7235628779999
  0
LINE
  8
0
  6
CONTINUOUS
 62
     7
 10
-241.9143664822838
 20
-322.523562878
 11
-241.9143664822838
 21
-284.7235628779999
  0
LINE
  8
1
  6
CONTINUOUS
 62
     7
 10
-203.1551759958
 20
-281.5190344147
 11
-202.8183664822733
 21
-284.7235628779999
  0
LINE
  8
0
  6
CONTINUOUS
 62
     7
 10
-210.6343664822839
 20
-322.523562878
 11
-210.6343664822838
 21
-284.7235628779999
  0
LINE
  8
1
  6
CONTINUOUS
 62
     7
 10
-247.9802212114267
 20
-284.7235628779999
 11
-247.6434116978999
 21
-281.5190344147
  0
ARC
  8
1
  6
CONTINUOUS
 62
     7
 10
-207.5488898026
 20
-281.6235628779999
 40
1.000000000000001
 50
90.0
 51
174.0
  0
LINE
  8
1
  6
CONTINUOUS
 62
     7
 10
-203.2492938469
 20
-326.0586175377936
 11
-203.2492938469
 21
-281.1885082182062
  0
LINE
  8
0
  6
CONTINUOUS
 62
     7
 10
-210.6343664822839
 20
-322.523562878
 11
-210.6343664822838
 21
-284.7235628779999
  0
LINE
  8
0
  6
CONTINUOUS
 62
     7
 10
-241.9143664822838
 20
-322.523562878
 11
-241.9143664822838
 21
-284.7235628779999
  0
ARC
  8
1
  6
CONTINUOUS
 62
     7
 10
-246.6488898026
 20
-325.623562878
 40
1.000000000000001
 50
186.0
 51
270.0
  0
LINE
  8
1
  6
CONTINUOUS
 62
     7
 10
-210.6448769058001
 20
-322.523562878
 11
-208.8802212114268
 21
-322.523562878
  0
LINE
  8
0
  6
CONTINUOUS
 62
     7
 10
-241.9143664822838
 20
-322.523562878
 11
-241.9143664822838
 21
-284.7235628779999
  0
LINE
  8
0
  6
CONTINUOUS
 62
     7
 10
-241.9143664822838
 20
-322.523562878
 11
-241.9143664822838
 21
-284.7235628779999
  0
LINE
  8
0
  6
CONTINUOUS
 62
     7
 10
-202.8183664822733
 20
-322.523562878
 11
-202.8183664822733
 21
-284.7235628779999
  0
LINE
  8
1
  6
CONTINUOUS
 62
     7
 10
-242.2551759957999
 20
-281.5190344147
 11
-241.9183664822732
 21
-284.7235628779999
  0
LINE
  8
1
  6
CONTINUOUS
 62
     7
 10
-249.7448769057999
 20
-284.7235628779999
 11
-247.9802212114267
 21
-284.7235628779999
  0
LINE
  8
1
  6
CONTINUOUS
 62
     7
 10
-246.6488898026
 20
-326.623562878
 11
-243.2496978912
 21
-326.623562878
  0
LINE
  8
1
  6
CONTINUOUS
 62
     7
 10
-246.6488898025999
 20
-280.6235628779999
 11
-243.2496978911999
 21
-280.6235628779999
  0
LINE
  8
0
  6
CONTINUOUS
 62
     7
 10
-240.1602212114267
 20
-284.7235628779999
 11
-240.1602212114267
 21
-322.523562878
  0
ARC
  8
1
  6
CONTINUOUS
 62
     7
 10
-243.2496978911999
 20
-281.6235628779999
 40
1.000000000000001
 50
6.0
 51
90.0
  0
ARC
  8
1
  6
CONTINUOUS
 62
     7
 10
-204.1496978912
 20
-281.6235628779999
 40
1.000000000000001
 50
6.0
 51
90.0
  0
ARC
  8
1
  6
CONTINUOUS
 62
     7
 10
-204.1496978912
 20
-325.623562878
 40
1.000000000000001
 50
270.0
 51
354.0
  0
LINE
  8
0
  6
CONTINUOUS
 62
     7
 10
-208.8802212114267
 20
-284.7235628779999
 11
-208.8802212114268
 21
-322.523562878
  0
LINE
  8
1
  6
CONTINUOUS
 62
     7
 10
-247.5492938468999
 20
-281.1885082182062
 11
-247.5492938468999
 21
-326.0586175377939
  0
LINE
  8
0
  6
CONTINUOUS
 62
     7
 10
-241.9143664822838
 20
-322.523562878
 11
-241.9143664822838
 21
-284.7235628779999
  0
LINE
  8
1
  6
CONTINUOUS
 62
     7
 10
-208.4492938469
 20
-281.1885082182062
 11
-208.4492938469
 21
-326.0586175377939
  0
TEXT
  8
1
  6
CONTINUOUS
 62
     7
 10
-122.6047839087626
 20
-337.6080071665626
 40
3.5
  1
P-FRA-36
 41
0.996045
  0
LINE
  8
1
  6
CONTINUOUS
 62
     7
 10
-257.8951759957999
 20
-281.5190344147
 11
-257.5583664822732
 21
-284.7235628779999
  0
LINE
  8
0
  6
CONTINUOUS
 62
     7
 10
-257.5543664822839
 20
-322.523562878
 11
-257.5543664822838
 21
-284.7235628779999
  0
LINE
  8
0
  6
CONTINUOUS
 62
     7
 10
-257.5543664822839
 20
-322.523562878
 11
-257.5543664822838
 21
-284.7235628779999
  0
LINE
  8
1
  6
CONTINUOUS
 62
     7
 10
-255.8002212114268
 20
-322.523562878
 11
-255.4634116979
 21
-325.7280913412999
  0
LINE
  8
0
  6
CONTINUOUS
 62
     7
 10
-249.7343664822838
 20
-322.523562878
 11
-249.7343664822837
 21
-284.7235628779999
  0
LINE
  8
1
  6
CONTINUOUS
 62
     7
 10
-257.8951759958
 20
-325.7280913412999
 11
-257.5583664822733
 21
-322.523562878
  0
LINE
  8
1
  6
CONTINUOUS
 62
     7
 10
-262.2888898026
 20
-326.623562878
 11
-258.8896978912
 21
-326.623562878
  0
LINE
  8
1
  6
CONTINUOUS
 62
     7
 10
-263.1892938468999
 20
-281.1885082182062
 11
-263.1892938468999
 21
-326.0586175377939
  0
LINE
  8
0
  6
CONTINUOUS
 62
     7
 10
-257.5543664822839
 20
-322.523562878
 11
-257.5543664822838
 21
-284.7235628779999
  0
LINE
  8
1
  6
CONTINUOUS
 62
     7
 10
-257.9892938469
 20
-326.0586175377936
 11
-257.9892938469
 21
-281.1885082182062
  0
LINE
  8
0
  6
CONTINUOUS
 62
     7
 10
-265.3743664822838
 20
-322.523562878
 11
-265.3743664822837
 21
-284.7235628779999
  0
LINE
  8
1
  6
CONTINUOUS
 62
     7
 10
-263.6202212114267
 20
-322.523562878
 11
-263.2834116979
 21
-325.7280913412999
  0
ARC
  8
1
  6
CONTINUOUS
 62
     7
 10
-262.2888898026
 20
-281.6235628779999
 40
1.000000000000001
 50
90.0
 51
174.0
  0
LINE
  8
0
  6
CONTINUOUS
 62
     7
 10
-257.5543664822839
 20
-322.523562878
 11
-257.5543664822838
 21
-284.7235628779999
  0
ARC
  8
1
  6
CONTINUOUS
 62
     7
 10
-258.8896978912
 20
-325.623562878
 40
1.000000000000001
 50
270.0
 51
354.0
  0
LINE
  8
0
  6
CONTINUOUS
 62
     7
 10
-257.5543664822839
 20
-322.523562878
 11
-257.5543664822838
 21
-284.7235628779999
  0
LINE
  8
0
  6
CONTINUOUS
 62
     7
 10
-257.5543664822839
 20
-322.523562878
 11
-257.5543664822838
 21
-284.7235628779999
  0
LINE
  8
0
  6
CONTINUOUS
 62
     7
 10
-263.6202212114266
 20
-284.7235628779999
 11
-263.6202212114267
 21
-322.523562878
  0
LINE
  8
1
  6
CONTINUOUS
 62
     7
 10
-265.3848769057999
 20
-284.7235628779999
 11
-263.6202212114266
 21
-284.7235628779999
  0
LINE
  8
1
  6
CONTINUOUS
 62
     7
 10
-262.2888898026
 20
-280.6235628779999
 11
-258.8896978911999
 21
-280.6235628779999
  0
ARC
  8
1
  6
CONTINUOUS
 62
     7
 10
-258.8896978911999
 20
-281.6235628779999
 40
1.000000000000001
 50
6.0
 51
90.0
  0
LINE
  8
0
  6
CONTINUOUS
 62
     7
 10
-257.5583664822733
 20
-322.523562878
 11
-257.5583664822732
 21
-284.7235628779999
  0
LINE
  8
0
  6
CONTINUOUS
 62
     7
 10
-249.7343664822838
 20
-322.523562878
 11
-249.7343664822837
 21
-284.7235628779999
  0
LINE
  8
0
  6
CONTINUOUS
 62
     7
 10
-257.5543664822839
 20
-322.523562878
 11
-257.5543664822838
 21
-284.7235628779999
  0
LINE
  8
0
  6
CONTINUOUS
 62
     7
 10
-249.7343664822838
 20
-322.523562878
 11
-249.7343664822837
 21
-284.7235628779999
  0
LINE
  8
0
  6
CONTINUOUS
 62
     7
 10
-255.8002212114266
 20
-284.7235628779999
 11
-255.8002212114268
 21
-322.523562878
  0
LINE
  8
0
  6
CONTINUOUS
 62
     7
 10
-249.7343664822838
 20
-322.523562878
 11
-249.7343664822837
 21
-284.7235628779999
  0
LINE
  8
1
  6
CONTINUOUS
 62
     7
 10
-254.4688898026
 20
-280.6235628779999
 11
-251.0696978911999
 21
-280.6235628779999
  0
LINE
  8
1
  6
CONTINUOUS
 62
     7
 10
-210.9751759958
 20
-325.7280913412999
 11
-210.6383664822733
 21
-322.523562878
  0
LINE
  8
0
  6
CONTINUOUS
 62
     7
 10
-218.4543664822839
 20
-322.523562878
 11
-218.4543664822838
 21
-284.7235628779999
  0
ARC
  8
1
  6
CONTINUOUS
 62
     7
 10
-211.9696978912
 20
-325.623562878
 40
1.000000000000001
 50
270.0
 51
354.0
  0
ARC
  8
1
  6
CONTINUOUS
 62
     7
 10
-215.3688898026001
 20
-325.623562878
 40
1.000000000000001
 50
186.0
 51
270.0
  0
LINE
  8
1
  6
CONTINUOUS
 62
     7
 10
-215.3688898026001
 20
-326.623562878
 11
-211.9696978912
 21
-326.623562878
  0
ARC
  8
1
  6
CONTINUOUS
 62
     7
 10
-215.3688898026
 20
-281.6235628779999
 40
1.000000000000001
 50
90.0
 51
174.0
  0
LINE
  8
0
  6
CONTINUOUS
 62
     7
 10
-218.4543664822839
 20
-322.523562878
 11
-218.4543664822838
 21
-284.7235628779999
  0
ARC
  8
1
  6
CONTINUOUS
 62
     7
 10
-211.9696978912
 20
-281.6235628779999
 40
1.000000000000001
 50
6.0
 51
90.0
  0
LINE
  8
1
  6
CONTINUOUS
 62
     7
 10
-211.0692938469
 20
-326.0586175377936
 11
-211.0692938469
 21
-281.1885082182062
  0
LINE
  8
1
  6
CONTINUOUS
 62
     7
 10
-218.4648769058001
 20
-322.523562878
 11
-216.7002212114268
 21
-322.523562878
  0
LINE
  8
1
  6
CONTINUOUS
 62
     7
 10
-216.7002212114268
 20
-322.523562878
 11
-216.3634116979001
 21
-325.7280913412999
  0
LINE
  8
0
  6
CONTINUOUS
 62
     7
 10
-210.6383664822733
 20
-322.523562878
 11
-210.6383664822733
 21
-284.7235628779999
  0
LINE
  8
0
  6
CONTINUOUS
 62
     7
 10
-216.7002212114267
 20
-284.7235628779999
 11
-216.7002212114268
 21
-322.523562878
  0
LINE
  8
1
  6
CONTINUOUS
 62
     7
 10
-234.4351759958
 20
-325.7280913412999
 11
-234.0983664822733
 21
-322.523562878
  0
LINE
  8
0
  6
CONTINUOUS
 62
     7
 10
-218.4543664822839
 20
-322.523562878
 11
-218.4543664822838
 21
-284.7235628779999
  0
LINE
  8
1
  6
CONTINUOUS
 62
     7
 10
-234.1048769058
 20
-284.7235628779999
 11
-232.3402212114267
 21
-284.7235628779999
  0
LINE
  8
0
  6
CONTINUOUS
 62
     7
 10
-226.2743664822839
 20
-322.523562878
 11
-226.2743664822838
 21
-284.7235628779999
  0
ARC
  8
1
  6
CONTINUOUS
 62
     7
 10
-238.8288898025999
 20
-281.6235628779999
 40
1.000000000000001
 50
90.0
 51
174.0
  0
ARC
  8
1
  6
CONTINUOUS
 62
     7
 10
-238.8288898026
 20
-325.623562878
 40
1.000000000000001
 50
186.0
 51
270.0
  0
LINE
  8
0
  6
CONTINUOUS
 62
     7
 10
-234.0943664822838
 20
-322.523562878
 11
-234.0943664822838
 21
-284.7235628779999
  0
LINE
  8
0
  6
CONTINUOUS
 62
     7
 10
-226.2743664822839
 20
-322.523562878
 11
-226.2743664822838
 21
-284.7235628779999
  0
LINE
  8
0
  6
CONTINUOUS
 62
     7
 10
-234.0983664822733
 20
-322.523562878
 11
-234.0983664822732
 21
-284.7235628779999
  0
LINE
  8
1
  6
CONTINUOUS
 62
     7
 10
-234.4351759957999
 20
-281.5190344147
 11
-234.0983664822732
 21
-284.7235628779999
  0
LINE
  8
0
  6
CONTINUOUS
 62
     7
 10
-218.4583664822733
 20
-322.523562878
 11
-218.4583664822732
 21
-284.7235628779999
  0
ARC
  8
1
  6
CONTINUOUS
 62
     7
 10
-227.6096978911999
 20
-281.6235628779999
 40
1.000000000000001
 50
6.0
 51
90.0
  0
ARC
  8
1
  6
CONTINUOUS
 62
     7
 10
-235.4296978912
 20
-325.623562878
 40
1.000000000000001
 50
270.0
 51
354.0
  0
LINE
  8
1
  6
CONTINUOUS
 62
     7
 10
-223.1888898026
 20
-326.623562878
 11
-219.7896978912
 21
-326.623562878
  0
LINE
  8
1
  6
CONTINUOUS
 62
     7
 10
-240.1602212114267
 20
-284.7235628779999
 11
-239.8234116979
 21
-281.5190344147
  0
ARC
  8
1
  6
CONTINUOUS
 62
     7
 10
-223.1888898026
 20
-281.6235628779999
 40
1.000000000000001
 50
90.0
 51
174.0
  0
LINE
  8
1
  6
CONTINUOUS
 62
     7
 10
-241.9248769057999
 20
-284.7235628779999
 11
-240.1602212114267
 21
-284.7235628779999
  0
LINE
  8
1
  6
CONTINUOUS
 62
     7
 10
-218.8892938469
 20
-326.0586175377936
 11
-218.8892938469
 21
-281.1885082182062
  0
ARC
  8
1
  6
CONTINUOUS
 62
     7
 10
-231.0088898026
 20
-281.6235628779999
 40
1.000000000000001
 50
90.0
 51
174.0
  0
LINE
  8
1
  6
CONTINUOUS
 62
     7
 10
-238.8288898026
 20
-326.623562878
 11
-235.4296978912
 21
-326.623562878
  0
LINE
  8
1
  6
CONTINUOUS
 62
     7
 10
-231.9092938468999
 20
-281.1885082182062
 11
-231.9092938468999
 21
-326.0586175377939
  0
LINE
  8
0
  6
CONTINUOUS
 62
     7
 10
-232.3402212114267
 20
-284.7235628779999
 11
-232.3402212114268
 21
-322.523562878
  0
ARC
  8
1
  6
CONTINUOUS
 62
     7
 10
-223.1888898026
 20
-325.623562878
 40
1.000000000000001
 50
186.0
 51
270.0
  0
LINE
  8
1
  6
CONTINUOUS
 62
     7
 10
-240.1602212114267
 20
-322.523562878
 11
-239.8234116979
 21
-325.7280913412999
  0
LINE
  8
0
  6
CONTINUOUS
 62
     7
 10
-234.0943664822838
 20
-322.523562878
 11
-234.0943664822838
 21
-284.7235628779999
  0
LINE
  8
1
  6
CONTINUOUS
 62
     7
 10
-241.9248769058
 20
-322.523562878
 11
-240.1602212114267
 21
-322.523562878
  0
LINE
  8
0
  6
CONTINUOUS
 62
     7
 10
-226.2783664822733
 20
-322.523562878
 11
-226.2783664822732
 21
-284.7235628779999
  0
LINE
  8
1
  6
CONTINUOUS
 62
     7
 10
-224.0892938468999
 20
-281.1885082182062
 11
-224.0892938468999
 21
-326.0586175377939
  0
LINE
  8
1
  6
CONTINUOUS
 62
     7
 10
-265.3848769058
 20
-322.523562878
 11
-263.6202212114267
 21
-322.523562878
  0
LINE
  8
0
  6
CONTINUOUS
 62
     7
 10
-257.5543664822839
 20
-322.523562878
 11
-257.5543664822838
 21
-284.7235628779999
  0
LINE
  8
1
  6
CONTINUOUS
 62
     7
 10
-164.0591759958
 20
-281.5190344147
 11
-163.7223664822733
 21
-284.7235628779999
  0
LINE
  8
0
  6
CONTINUOUS
 62
     7
 10
-210.6343664822839
 20
-322.523562878
 11
-210.6343664822838
 21
-284.7235628779999
  0
LINE
  8
1
  6
CONTINUOUS
 62
     7
 10
-177.6002212114267
 20
-284.7235628779999
 11
-177.2634116979
 21
-281.5190344147
  0
LINE
  8
1
  6
CONTINUOUS
 62
     7
 10
-164.1532938469
 20
-326.0586175377935
 11
-164.1532938469
 21
-281.1885082182062
  0
LINE
  8
1
  6
CONTINUOUS
 62
     7
 10
-163.7328769058
 20
-284.7235628779999
 11
-163.7328769058
 21
-322.523562878
  0
LINE
  8
1
  6
CONTINUOUS
 62
     7
 10
-207.5488898026
 20
-280.6235628779999
 11
-204.1496978912
 21
-280.6235628779999
  0
LINE
  8
1
  6
CONTINUOUS
 62
     7
 10
-171.5383664822733
 20
-284.7235628779999
 11
-169.7842212114267
 21
-284.7235628779999
  0
LINE
  8
1
  6
CONTINUOUS
 62
     7
 10
-162.8452938468
 20
-284.7235628779999
 11
-162.8452938468
 21
-322.523562878
  0
LINE
  8
1
  6
CONTINUOUS
 62
     7
 10
-203.1551759958001
 20
-325.7280913412999
 11
-202.8183664822733
 21
-322.523562878
  0
ARC
  8
1
  6
CONTINUOUS
 62
     7
 10
-207.5488898026001
 20
-325.623562878
 40
1.000000000000001
 50
186.0
 51
270.0
  0
LINE
  8
0
  6
CONTINUOUS
 62
     7
 10
-210.6343664822839
 20
-322.523562878
 11
-210.6343664822838
 21
-284.7235628779999
  0
LINE
  8
1
  6
CONTINUOUS
 62
     7
 10
-207.5488898026001
 20
-326.623562878
 11
-204.1496978912
 21
-326.623562878
  0
LINE
  8
1
  6
CONTINUOUS
 62
     7
 10
-169.3532938469
 20
-281.1885082182062
 11
-169.3532938469
 21
-326.0586175377939
  0
LINE
  8
1
  6
CONTINUOUS
 62
     7
 10
-169.7842212114267
 20
-284.7235628779999
 11
-169.4474116979
 21
-281.5190344147
  0
LINE
  8
1
  6
CONTINUOUS
 62
     7
 10
-163.7223664822733
 20
-284.7235628779999
 11
-162.8452938468
 21
-284.7235628779999
  0
LINE
  8
1
  6
CONTINUOUS
 62
     7
 10
-171.9692938469
 20
-326.0586175377936
 11
-171.9692938469
 21
-281.1885082182062
  0
LINE
  8
1
  6
CONTINUOUS
 62
     7
 10
-171.8751759958
 20
-281.5190344147
 11
-171.5383664822733
 21
-284.7235628779999
  0
LINE
  8
0
  6
CONTINUOUS
 62
     7
 10
-210.6343664822839
 20
-322.523562878
 11
-210.6343664822838
 21
-284.7235628779999
  0
LINE
  8
1
  6
CONTINUOUS
 62
     7
 10
-177.1692938469
 20
-281.1885082182062
 11
-177.1692938469
 21
-326.0586175377939
  0
ARC
  8
1
  6
CONTINUOUS
 62
     7
 10
-262.2888898026
 20
-325.623562878
 40
1.000000000000001
 50
186.0
 51
270.0
  0
LINE
  8
0
  6
CONTINUOUS
 62
     7
 10
-257.5543664822839
 20
-322.523562878
 11
-257.5543664822838
 21
-284.7235628779999
  0
LINE
  8
0
  6
CONTINUOUS
 62
     7
 10
-249.7383664822733
 20
-322.523562878
 11
-249.7383664822732
 21
-284.7235628779999
  0
LINE
  8
0
  6
CONTINUOUS
 62
     7
 10
-257.5543664822839
 20
-322.523562878
 11
-257.5543664822838
 21
-284.7235628779999
  0
LINE
  8
0
  6
CONTINUOUS
 62
     7
 10
-257.5543664822839
 20
-322.523562878
 11
-257.5543664822838
 21
-284.7235628779999
  0
LINE
  8
1
  6
CONTINUOUS
 62
     7
 10
-263.6202212114267
 20
-284.7235628779999
 11
-263.2834116979
 21
-281.5190344147
  0
LINE
  8
1
  6
CONTINUOUS
 62
     7
 10
-179.3648769058
 20
-284.7235628779999
 11
-177.6002212114267
 21
-284.7235628779999
  0
LINE
  8
1
  6
CONTINUOUS
 62
     7
 10
-176.2688898026
 20
-280.6235628779999
 11
-172.8696978912
 21
-280.6235628779999
  0
ARC
  8
1
  6
CONTINUOUS
 62
     7
 10
-172.8696978912
 20
-281.6235628779999
 40
1.000000000000001
 50
6.0
 51
90.0
  0
ARC
  8
1
  6
CONTINUOUS
 62
     7
 10
-168.4528898026
 20
-281.6235628779999
 40
1.000000000000001
 50
90.0
 51
174.0
  0
LINE
  8
0
  6
CONTINUOUS
 62
     7
 10
-218.4543664822839
 20
-322.523562878
 11
-218.4543664822838
 21
-284.7235628779999
  0
LINE
  8
1
  6
CONTINUOUS
 62
     7
 10
-168.4528898026
 20
-280.6235628779999
 11
-165.0536978912
 21
-280.6235628779999
  0
CIRCLE
  8
1
  6
CONTINUOUS
 62
     7
 10
-113.5657107879
 20
-303.623562878
 40
18.9
  0
ARC
  8
1
  6
CONTINUOUS
 62
     7
 10
-176.2688898026
 20
-281.6235628779999
 40
1.000000000000001
 50
90.0
 51
174.0
  0
LINE
  8
1
  6
CENTER
 62
     1
 10
-113.5657107879
 20
-278.623562878
 11
-113.5657107879
 21
-328.623562878
  0
LINE
  8
1
  6
CENTER
 62
     1
 10
-138.5657107879
 20
-303.623562878
 11
-88.5657107879
 21
-303.623562878
  0
CIRCLE
  8
1
  6
CONTINUOUS
 62
     7
 10
-113.5657107879
 20
-303.623562878
 40
18.0
  0
ARC
  8
1
  6
CONTINUOUS
 62
     7
 10
-165.0536978912
 20
-281.6235628779999
 40
1.000000000000001
 50
6.0
 51
90.0
  0
LINE
  8
0
  6
CONTINUOUS
 62
     7
 10
-218.4543664822839
 20
-322.523562878
 11
-218.4543664822838
 21
-284.7235628779999
  0
CIRCLE
  8
1
  6
CONTINUOUS
 62
     7
 10
-113.5657107879
 20
-303.623562878
 40
23.0
  0
ARC
  8
1
  6
CONTINUOUS
 62
     7
 10
-180.6896978912
 20
-281.6235628779999
 40
1.000000000000001
 50
6.0
 51
90.0
  0
LINE
  8
1
  6
CONTINUOUS
 62
     7
 10
-171.5383664822734
 20
-322.523562878
 11
-169.7842212114268
 21
-322.523562878
  0
LINE
  8
1
  6
CONTINUOUS
 62
     7
 10
-184.9892938469
 20
-281.1885082182062
 11
-184.9892938469
 21
-326.0586175377939
  0
LINE
  8
1
  6
CONTINUOUS
 62
     7
 10
-187.1848769058001
 20
-322.523562878
 11
-185.4202212114268
 21
-322.523562878
  0
LINE
  8
0
  6
CONTINUOUS
 62
     7
 10
-187.1743664822839
 20
-322.523562878
 11
-187.1743664822838
 21
-284.7235628779999
  0
LINE
  8
1
  6
CONTINUOUS
 62
     7
 10
-187.1848769058
 20
-284.7235628779999
 11
-185.4202212114267
 21
-284.7235628779999
  0
ARC
  8
1
  6
CONTINUOUS
 62
     7
 10
-184.0888898026001
 20
-325.623562878
 40
1.000000000000001
 50
186.0
 51
270.0
  0
LINE
  8
1
  6
CONTINUOUS
 62
     7
 10
-163.7223664822734
 20
-322.523562878
 11
-162.8452938468001
 21
-322.523562878
  0
LINE
  8
1
  6
CONTINUOUS
 62
     7
 10
-164.0591759958001
 20
-325.7280913412999
 11
-163.7223664822734
 21
-322.523562878
  0
LINE
  8
1
  6
CONTINUOUS
 62
     7
 10
-195.0048769058
 20
-284.7235628779999
 11
-193.2402212114267
 21
-284.7235628779999
  0
ARC
  8
1
  6
CONTINUOUS
 62
     7
 10
-165.0536978912001
 20
-325.623562878
 40
1.000000000000001
 50
270.0
 51
354.0
  0
ARC
  8
1
  6
CONTINUOUS
 62
     7
 10
-180.6896978912001
 20
-325.623562878
 40
1.000000000000001
 50
270.0
 51
354.0
  0
LINE
  8
1
  6
CONTINUOUS
 62
     7
 10
-184.0888898026001
 20
-326.623562878
 11
-180.6896978912001
 21
-326.623562878
  0
LINE
  8
1
  6
CONTINUOUS
 62
     7
 10
-187.5151759958
 20
-281.5190344147
 11
-187.1783664822733
 21
-284.7235628779999
  0
ARC
  8
1
  6
CONTINUOUS
 62
     7
 10
-184.0888898026
 20
-281.6235628779999
 40
1.000000000000001
 50
90.0
 51
174.0
  0
ARC
  8
1
  6
CONTINUOUS
 62
     7
 10
-191.9088898026
 20
-281.6235628779999
 40
1.000000000000001
 50
90.0
 51
174.0
  0
LINE
  8
1
  6
CONTINUOUS
 62
     7
 10
-171.8751759958001
 20
-325.7280913412999
 11
-171.5383664822734
 21
-322.523562878
  0
LINE
  8
1
  6
CONTINUOUS
 62
     7
 10
-185.4202212114268
 20
-322.523562878
 11
-185.0834116979001
 21
-325.7280913412999
  0
LINE
  8
1
  6
CONTINUOUS
 62
     7
 10
-179.7892938469
 20
-326.0586175377936
 11
-179.7892938469
 21
-281.1885082182062
  0
LINE
  8
1
  6
CONTINUOUS
 62
     7
 10
-168.4528898026001
 20
-326.623562878
 11
-165.0536978912001
 21
-326.623562878
  0
LINE
  8
1
  6
CONTINUOUS
 62
     7
 10
-177.6002212114268
 20
-322.523562878
 11
-177.2634116979001
 21
-325.7280913412999
  0
LINE
  8
0
  6
CONTINUOUS
 62
     7
 10
-218.4543664822839
 20
-322.523562878
 11
-218.4543664822838
 21
-284.7235628779999
  0
LINE
  8
1
  6
CONTINUOUS
 62
     7
 10
-179.6951759958001
 20
-325.7280913412999
 11
-179.3583664822734
 21
-322.523562878
  0
LINE
  8
1
  6
CONTINUOUS
 62
     7
 10
-184.0888898026
 20
-280.6235628779999
 11
-180.6896978912
 21
-280.6235628779999
  0
LINE
  8
1
  6
CONTINUOUS
 62
     7
 10
-191.9088898026
 20
-280.6235628779999
 11
-188.5096978912
 21
-280.6235628779999
  0
ARC
  8
1
  6
CONTINUOUS
 62
     7
 10
-172.8696978912001
 20
-325.623562878
 40
1.000000000000001
 50
270.0
 51
354.0
  0
LINE
  8
1
  6
CONTINUOUS
 62
     7
 10
-169.7842212114268
 20
-322.523562878
 11
-169.4474116979001
 21
-325.7280913412999
  0
LINE
  8
1
  6
CONTINUOUS
 62
     7
 10
-179.6951759958
 20
-281.5190344147
 11
-179.3583664822733
 21
-284.7235628779999
  0
LINE
  8
1
  6
CONTINUOUS
 62
     7
 10
-179.3648769058001
 20
-322.523562878
 11
-177.6002212114268
 21
-322.523562878
  0
ARC
  8
1
  6
CONTINUOUS
 62
     7
 10
-168.4528898026001
 20
-325.623562878
 40
1.000000000000001
 50
186.0
 51
270.0
  0
LINE
  8
1
  6
CONTINUOUS
 62
     7
 10
-185.4202212114267
 20
-284.7235628779999
 11
-185.0834116979
 21
-281.5190344147
  0
ARC
  8
1
  6
CONTINUOUS
 62
     7
 10
-176.2688898026001
 20
-325.623562878
 40
1.000000000000001
 50
186.0
 51
270.0
  0
LINE
  8
0
  6
CONTINUOUS
 62
     7
 10
-185.4202212114267
 20
-284.7235628779999
 11
-185.4202212114268
 21
-322.523562878
  0
LINE
  8
0
  6
CONTINUOUS
 62
     7
 10
-187.1743664822839
 20
-322.523562878
 11
-187.1743664822838
 21
-284.7235628779999
  0
LINE
  8
1
  6
CONTINUOUS
 62
     7
 10
-192.8092938469
 20
-281.1885082182062
 11
-192.8092938469
 21
-326.0586175377939
  0
LINE
  8
1
  6
CONTINUOUS
 62
     7
 10
-176.2688898026001
 20
-326.623562878
 11
-172.8696978912001
 21
-326.623562878
  0
LINE
  8
1
  6
CONTINUOUS
 62
     7
 10
-187.6092938469
 20
-326.0586175377936
 11
-187.6092938469
 21
-281.1885082182062
  0
ARC
  8
1
  6
CONTINUOUS
 62
     7
 10
-188.5096978912
 20
-281.6235628779999
 40
1.000000000000001
 50
6.0
 51
90.0
  0
LINE
  8
0
  6
CONTINUOUS
 62
     7
 10
-179.3583664822734
 20
-322.523562878
 11
-179.3583664822733
 21
-284.7235628779999
  0
LINE
  8
0
  6
CONTINUOUS
 62
     7
 10
-249.7343664822838
 20
-322.523562878
 11
-249.7343664822837
 21
-284.7235628779999
  0
LINE
  8
1
  6
CONTINUOUS
 62
     7
 10
-242.2551759958
 20
-325.7280913412999
 11
-241.9183664822733
 21
-322.523562878
  0
LINE
  8
1
  6
CONTINUOUS
 62
     7
 10
-250.0751759957999
 20
-281.5190344147
 11
-249.7383664822732
 21
-284.7235628779999
  0
LINE
  8
0
  6
CONTINUOUS
 62
     7
 10
-171.5383664822734
 20
-322.523562878
 11
-171.5383664822733
 21
-284.7235628779999
  0
LINE
  8
1
  6
CONTINUOUS
 62
     7
 10
-250.0751759958
 20
-325.7280913412999
 11
-249.7383664822733
 21
-322.523562878
  0
LINE
  8
0
  6
CONTINUOUS
 62
     7
 10
-179.3543664822839
 20
-322.523562878
 11
-179.3543664822838
 21
-284.7235628779999
  0
LINE
  8
0
  6
CONTINUOUS
 62
     7
 10
-249.7343664822838
 20
-322.523562878
 11
-249.7343664822837
 21
-284.7235628779999
  0
LINE
  8
1
  6
CONTINUOUS
 62
     7
 10
-255.3692938468999
 20
-281.1885082182062
 11
-255.3692938468999
 21
-326.0586175377939
  0
LINE
  8
0
  6
CONTINUOUS
 62
     7
 10
-241.9183664822733
 20
-322.523562878
 11
-241.9183664822732
 21
-284.7235628779999
  0
LINE
  8
1
  6
CONTINUOUS
 62
     7
 10
-247.9802212114267
 20
-322.523562878
 11
-247.6434116979
 21
-325.7280913412999
  0
LINE
  8
1
  6
CONTINUOUS
 62
     7
 10
-255.8002212114267
 20
-284.7235628779999
 11
-255.4634116979
 21
-281.5190344147
  0
LINE
  8
1
  6
CONTINUOUS
 62
     7
 10
-250.1692938469
 20
-326.0586175377936
 11
-250.1692938469
 21
-281.1885082182062
  0
LINE
  8
0
  6
CONTINUOUS
 62
     7
 10
-249.7343664822838
 20
-322.523562878
 11
-249.7343664822837
 21
-284.7235628779999
  0
ARC
  8
1
  6
CONTINUOUS
 62
     7
 10
-251.0696978911999
 20
-281.6235628779999
 40
1.000000000000001
 50
6.0
 51
90.0
  0
ARC
  8
1
  6
CONTINUOUS
 62
     7
 10
-254.4688898026
 20
-325.623562878
 40
1.000000000000001
 50
186.0
 51
270.0
  0
LINE
  8
1
  6
CONTINUOUS
 62
     7
 10
-254.4688898026
 20
-326.623562878
 11
-251.0696978912
 21
-326.623562878
  0
LINE
  8
1
  6
CONTINUOUS
 62
     7
 10
-257.5648769057999
 20
-284.7235628779999
 11
-255.8002212114266
 21
-284.7235628779999
  0
ARC
  8
1
  6
CONTINUOUS
 62
     7
 10
-243.2496978912
 20
-325.623562878
 40
1.000000000000001
 50
270.0
 51
354.0
  0
ARC
  8
1
  6
CONTINUOUS
 62
     7
 10
-254.4688898026
 20
-281.6235628779999
 40
1.000000000000001
 50
90.0
 51
174.0
  0
LINE
  8
0
  6
CONTINUOUS
 62
     7
 10
-249.7343664822838
 20
-322.523562878
 11
-249.7343664822837
 21
-284.7235628779999
  0
LINE
  8
0
  6
CONTINUOUS
 62
     7
 10
-249.7343664822838
 20
-322.523562878
 11
-249.7343664822837
 21
-284.7235628779999
  0
LINE
  8
0
  6
CONTINUOUS
 62
     7
 10
-247.9802212114267
 20
-284.7235628779999
 11
-247.9802212114267
 21
-322.523562878
  0
LINE
  8
0
  6
CONTINUOUS
 62
     7
 10
-169.7842212114267
 20
-284.7235628779999
 11
-169.7842212114268
 21
-322.523562878
  0
LINE
  8
0
  6
CONTINUOUS
 62
     7
 10
-177.6002212114267
 20
-284.7235628779999
 11
-177.6002212114268
 21
-322.523562878
  0
ARC
  8
1
  6
CONTINUOUS
 62
     7
 10
-251.0696978912
 20
-325.623562878
 40
1.000000000000001
 50
270.0
 51
354.0
  0
LINE
  8
0
  6
CONTINUOUS
 62
     7
 10
-113.5657107879
 20
-280.6235628779999
 11
-113.5657107879
 21
-285.6235628779999
  0
LINE
  8
1
  6
CONTINUOUS
 62
     7
 10
-257.5648769058
 20
-322.523562878
 11
-255.8002212114268
 21
-322.523562878
  0
LINE
  8
0
  6
CONTINUOUS
 62
     7
 10
-249.7343664822838
 20
-322.523562878
 11
-249.7343664822837
 21
-284.7235628779999
  0
LINE
  8
0
  6
CONTINUOUS
 62
     7
 10
-234.0943664822838
 20
-322.523562878
 11
-234.0943664822838
 21
-284.7235628779999
  0
LINE
  8
1
  6
CONTINUOUS
 62
     7
 10
-239.7292938468999
 20
-281.1885082182062
 11
-239.7292938468999
 21
-326.0586175377939
  0
ARC
  8
1
  6
CONTINUOUS
 62
     7
 10
-219.7896978911999
 20
-281.6235628779999
 40
1.000000000000001
 50
6.0
 51
90.0
  0
LINE
  8
1
  6
CONTINUOUS
 62
     7
 10
-234.5292938469
 20
-326.0586175377936
 11
-234.5292938469
 21
-281.1885082182062
  0
LINE
  8
1
  6
CONTINUOUS
 62
     7
 10
-223.1888898026
 20
-280.6235628779999
 11
-219.7896978911999
 21
-280.6235628779999
  0
ARC
  8
1
  6
CONTINUOUS
 62
     7
 10
-235.4296978911999
 20
-281.6235628779999
 40
1.000000000000001
 50
6.0
 51
90.0
  0
ARC
  8
1
  6
CONTINUOUS
 62
     7
 10
-219.7896978912
 20
-325.623562878
 40
1.000000000000001
 50
270.0
 51
354.0
  0
LINE
  8
1
  6
CONTINUOUS
 62
     7
 10
-226.2848769058
 20
-322.523562878
 11
-224.5202212114268
 21
-322.523562878
  0
LINE
  8
0
  6
CONTINUOUS
 62
     7
 10
-234.0943664822838
 20
-322.523562878
 11
-234.0943664822838
 21
-284.7235628779999
  0
LINE
  8
1
  6
CONTINUOUS
 62
     7
 10
-238.8288898025999
 20
-280.6235628779999
 11
-235.4296978911999
 21
-280.6235628779999
  0
LINE
  8
1
  6
CONTINUOUS
 62
     7
 10
-232.3402212114267
 20
-284.7235628779999
 11
-232.0034116979
 21
-281.5190344147
  0
LINE
  8
1
  6
CONTINUOUS
 62
     7
 10
-231.0088898026
 20
-326.623562878
 11
-227.6096978912
 21
-326.623562878
  0
LINE
  8
1
  6
CONTINUOUS
 62
     7
 10
-226.6151759957999
 20
-281.5190344147
 11
-226.2783664822732
 21
-284.7235628779999
  0
ENDSEC
  0
EOF
