  0
SECTION
  2
HEADER
  9
$ACADVER
  1
AC1004
  9
$INSBASE
 10
0.0
 20
0.0
  9
$EXTMIN
 10
-263.5833163478
 20
-415.6383238181818
  9
$EXTMAX
 10
-78.5833163478
 20
-349.4201422416
  9
$LIMMIN
 10
0.0
 20
0.0
  9
$LIMMAX
 10
12.0
 20
9.0
  9
$ORTHOMODE
 70
     0
  9
$REGENMODE
 70
     1
  9
$FILLMODE
 70
     1
  9
$QTEXTMODE
 70
     0
  9
$DRAGMODE
 70
     2
  9
$LTSCALE
 40
1.0
  9
$OSMODE
 70
    37
  9
$ATTMODE
 70
     1
  9
$TEXTSIZE
 40
0.2
  9
$TRACEWID
 40
0.05
  9
$TEXTSTYLE
  7
STANDARD
  9
$CLAYER
  8
0
  9
$CELTYPE
  6
BYLAYER
  9
$CECOLOR
 62
   256
  9
$DIMSCALE
 40
1.0
  9
$DIMASZ
 40
3.0
  9
$DIMEXO
 40
0.0625
  9
$DIMDLI
 40
0.38
  9
$DIMRND
 40
0.0
  9
$DIMDLE
 40
0.0
  9
$DIMEXE
 40
1.5
  9
$DIMTP
 40
0.0
  9
$DIMTM
 40
0.0
  9
$DIMTXT
 40
3.5
  9
$DIMCEN
 40
0.09
  9
$DIMTSZ
 40
0.0
  9
$DIMTOL
 70
     0
  9
$DIMLIM
 70
     0
  9
$DIMTIH
 70
     1
  9
$DIMTOH
 70
     1
  9
$DIMSE1
 70
     0
  9
$DIMSE2
 70
     0
  9
$DIMTAD
 70
     1
  9
$DIMZIN
 70
     0
  9
$DIMBLK
  1

  9
$DIMASO
 70
     1
  9
$DIMSHO
 70
     1
  9
$DIMPOST
  1

  9
$DIMAPOST
  1

  9
$DIMALT
 70
     0
  9
$DIMALTD
 70
     2
  9
$DIMALTF
 40
25.4
  9
$DIMLFAC
 40
1.0
  9
$DIMTOFL
 70
     0
  9
$DIMTVP
 40
0.0
  9
$DIMTIX
 70
     0
  9
$DIMSOXD
 70
     0
  9
$DIMSAH
 70
     0
  9
$DIMBLK1
  1

  9
$DIMBLK2
  1

  9
$LUNITS
 70
     2
  9
$LUPREC
 70
     4
  9
$SKETCHINC
 40
0.1
  9
$FILLETRAD
 40
0.5
  9
$AUNITS
 70
     0
  9
$AUPREC
 70
     0
  9
$MENU
  1
.
  9
$ELEVATION
 40
0.0
  9
$THICKNESS
 40
0.0
  9
$LIMCHECK
 70
     0
  9
$CHAMFERA
 40
0.0
  9
$CHAMFERB
 40
0.0
  9
$SKPOLY
 70
     0
  9
$TDCREATE
 40
2459068.682206123
  9
$TDUPDATE
 40
2459068.682206308
  9
$TDINDWG
 40
0.0000000116
  9
$TDUSRTIMER
 40
0.0000000116
  9
$USRTIMER
 70
     1
  9
$ANGBASE
 50
0.0
  9
$ANGDIR
 70
     0
  9
$PDMODE
 70
     0
  9
$PDSIZE
 40
0.0
  9
$PLINEWID
 40
0.0
  9
$COORDS
 70
     1
  9
$SPLFRAME
 70
     0
  9
$SPLINETYPE
 70
     6
  9
$SPLINESEGS
 70
     8
  9
$ATTDIA
 70
     0
  9
$ATTREQ
 70
     1
  9
$SURFTAB1
 70
     6
  9
$SURFTAB2
 70
     6
  9
$SURFTYPE
 70
     6
  9
$SURFU
 70
     6
  9
$SURFV
 70
     6
  9
$UCSNAME
  2

  9
$UCSORG
 10
0.0
 20
0.0
 30
0.0
  9
$UCSXDIR
 10
1.0
 20
0.0
 30
0.0
  9
$UCSYDIR
 10
0.0
 20
1.0
 30
0.0
  9
$USERI1
 70
     0
  9
$USERI2
 70
     0
  9
$USERI3
 70
     0
  9
$USERI4
 70
     0
  9
$USERI5
 70
     0
  9
$USERR1
 40
0.0
  9
$USERR2
 40
0.0
  9
$USERR3
 40
0.0
  9
$USERR4
 40
0.0
  9
$USERR5
 40
0.0
  9
$WORLDVIEW
 70
     1
  0
ENDSEC
  0
SECTION
  2
TABLES
  0
TABLE
  2
LTYPE
 70
     2
  0
LTYPE
  2
CONTINUOUS
 70
     0
  3
Solid line
 72
    65
 73
     0
 40
0.0
  0
LTYPE
  2
CENTER
 70
     0
  3

 72
    65
 73
     0
 40
0.0
  0
ENDTAB
  0
TABLE
  2
LAYER
 70
     2
  0
LAYER
  2
0
 70
     0
 62
     7
  6
CONTINUOUS
  0
LAYER
  2
1
 70
     0
 62
     7
  6
CONTINUOUS
  0
ENDTAB
  0
TABLE
  2
STYLE
 70
     2
  0
STYLE
  2
STANDARD
 70
     0
 40
0.0
 41
1.0
 50
0.0
 71
     0
 42
0.2
  3
txt
  4

  0
STYLE
  2
ＭＳ_ゴシック
 70
     0
 40
0.0
 41
1.0
 50
0.0
 71
     0
 42
0.2
  3
ＭＳ ゴシック.shx
  4

  0
ENDTAB
  0
TABLE
  2
VIEW
 70
     0
  0
ENDTAB
  0
ENDSEC
  0
SECTION
  2
BLOCKS
  0
ENDSEC
  0
SECTION
  2
ENTITIES
  0
ARC
  8
1
  6
CONTINUOUS
 62
     7
 10
-176.6806637931
 20
-354.0629993844
 40
1.142857142899995
 50
90.0
 51
174.0
  0
ARC
  8
1
  6
CONTINUOUS
 62
     7
 10
-172.7958730372
 20
-354.0629993844
 40
1.142857142799991
 50
6.0
 51
90.0
  0
LINE
  8
1
  6
CONTINUOUS
 62
     7
 10
-176.6806637931
 20
-352.9201422416
 11
-172.7958730372
 21
-352.9201422416
  0
LINE
  8
1
  6
CONTINUOUS
 62
     7
 10
-249.6438370412841
 20
-401.2187136702
 11
-249.2572602449999
 21
-404.8967461997
  0
LINE
  8
0
  6
CONTINUOUS
 62
     7
 10
-242.7152712176158
 20
-357.6215708130001
 11
-242.7152712176158
 21
-401.2187136702
  0
LINE
  8
0
  6
CONTINUOUS
 62
     7
 10
-242.7152712176158
 20
-357.6215708130001
 11
-242.7152712176158
 21
-401.2187136702
  0
LINE
  8
1
  6
CONTINUOUS
 62
     7
 10
-248.1206637930999
 20
-405.9201422416
 11
-244.2358730372
 21
-405.9201422416
  0
ARC
  8
1
  6
CONTINUOUS
 62
     7
 10
-244.2358730372
 20
-354.0629993844
 40
1.142857142799991
 50
6.0
 51
90.0
  0
LINE
  8
0
  6
CONTINUOUS
 62
     7
 10
-249.6438370412841
 20
-401.2187136702
 11
-249.6301734906999
 21
-357.6215708130001
  0
LINE
  8
0
  6
CONTINUOUS
 62
     7
 10
-249.6301734906999
 20
-357.6215708130001
 11
-251.6452712176158
 21
-357.6215708130001
  0
LINE
  8
1
  6
CONTINUOUS
 62
     7
 10
-243.2068398437
 20
-405.2744904241176
 11
-243.2068398437
 21
-353.5657940590825
  0
ARC
  8
1
  6
CONTINUOUS
 62
     7
 10
-248.1206637930999
 20
-354.0629993844
 40
1.142857142899995
 50
90.0
 51
174.0
  0
LINE
  8
1
  6
CONTINUOUS
 62
     7
 10
-249.6438370412841
 20
-357.6215708130001
 11
-249.6301734906999
 21
-357.6215708130001
  0
LINE
  8
1
  6
CONTINUOUS
 62
     7
 10
-243.0992765854
 20
-404.8967461997
 11
-242.7126997891158
 21
-401.2187136702
  0
LINE
  8
0
  6
CONTINUOUS
 62
     7
 10
-242.7152712176158
 20
-357.6215708130001
 11
-242.7152712176158
 21
-401.2187136702
  0
LINE
  8
1
  6
CONTINUOUS
 62
     7
 10
-249.1496969865999
 20
-353.5657940588526
 11
-249.1496969865999
 21
-405.2744904243474
  0
ARC
  8
1
  6
CONTINUOUS
 62
     7
 10
-248.1206637930999
 20
-404.7772850988
 40
1.142857142899995
 50
186.0
 51
270.0
  0
ARC
  8
1
  6
CONTINUOUS
 62
     7
 10
-244.2358730372
 20
-404.7772850988
 40
1.142857142799991
 50
270.0
 51
354.0
  0
LINE
  8
0
  6
CONTINUOUS
 62
     7
 10
-242.7152712176158
 20
-357.6215708130001
 11
-242.7152712176158
 21
-401.2187136702
  0
LINE
  8
0
  6
CONTINUOUS
 62
     7
 10
-242.7152712176158
 20
-357.6215708130001
 11
-242.7152712176158
 21
-401.2187136702
  0
LINE
  8
0
  6
CONTINUOUS
 62
     7
 10
-242.7152712176158
 20
-357.6215708130001
 11
-242.7152712176158
 21
-401.2187136702
  0
LINE
  8
1
  6
CONTINUOUS
 62
     7
 10
-248.1206637930999
 20
-352.9201422416
 11
-244.2358730372
 21
-352.9201422416
  0
LINE
  8
1
  6
CONTINUOUS
 62
     7
 10
-249.6438370412841
 20
-357.6215708130001
 11
-249.2572602449999
 21
-353.9435382835
  0
LINE
  8
0
  6
CONTINUOUS
 62
     7
 10
-242.7152712176158
 20
-357.6215708130001
 11
-242.7152712176158
 21
-401.2187136702
  0
LINE
  8
1
  6
CONTINUOUS
 62
     7
 10
-251.6589347681999
 20
-401.2187136702
 11
-249.6438370412841
 21
-401.2187136702
  0
LINE
  8
1
  6
CONTINUOUS
 62
     7
 10
-243.0992765854
 20
-353.9435382835
 11
-242.7126997891158
 21
-357.6215708130001
  0
LINE
  8
0
  6
CONTINUOUS
 62
     7
 10
-242.7126997891158
 20
-357.6215708130001
 11
-242.7126997891158
 21
-401.2187136702
  0
LINE
  8
0
  6
CONTINUOUS
 62
     7
 10
-240.7001734907
 20
-357.6215708130001
 11
-242.7152712176158
 21
-357.6215708130001
  0
LINE
  8
0
  6
CONTINUOUS
 62
     7
 10
-242.7152712176158
 20
-357.6215708130001
 11
-242.7152712176158
 21
-401.2187136702
  0
LINE
  8
0
  6
CONTINUOUS
 62
     7
 10
-251.6452712176158
 20
-357.6215708130001
 11
-251.6452712176158
 21
-401.2187136702
  0
LINE
  8
1
  6
CONTINUOUS
 62
     7
 10
-225.3468398437
 20
-405.2744904241176
 11
-225.3468398437
 21
-353.5657940590825
  0
ARC
  8
1
  6
CONTINUOUS
 62
     7
 10
-230.2606637931
 20
-354.0629993844
 40
1.142857142899995
 50
90.0
 51
174.0
  0
LINE
  8
0
  6
CONTINUOUS
 62
     7
 10
-233.7852712176158
 20
-357.6215708130001
 11
-233.7852712176158
 21
-401.2187136702
  0
LINE
  8
1
  6
CONTINUOUS
 62
     7
 10
-225.2392765853999
 20
-353.9435382835
 11
-224.8526997891158
 21
-357.6215708130001
  0
LINE
  8
1
  6
CONTINUOUS
 62
     7
 10
-231.7838370412841
 20
-357.6215708130001
 11
-231.397260245
 21
-353.9435382835
  0
LINE
  8
0
  6
CONTINUOUS
 62
     7
 10
-233.7852712176158
 20
-357.6215708130001
 11
-233.7852712176158
 21
-401.2187136702
  0
ARC
  8
1
  6
CONTINUOUS
 62
     7
 10
-239.1906637930999
 20
-404.7772850988
 40
1.142857142899995
 50
186.0
 51
270.0
  0
LINE
  8
1
  6
CONTINUOUS
 62
     7
 10
-239.1906637930999
 20
-405.9201422416
 11
-235.3058730372
 21
-405.9201422416
  0
LINE
  8
0
  6
CONTINUOUS
 62
     7
 10
-233.7852712176158
 20
-357.6215708130001
 11
-233.7852712176158
 21
-401.2187136702
  0
LINE
  8
1
  6
CONTINUOUS
 62
     7
 10
-234.2768398436999
 20
-405.2744904241176
 11
-234.2768398436999
 21
-353.5657940590825
  0
LINE
  8
1
  6
CONTINUOUS
 62
     7
 10
-239.1906637930999
 20
-352.9201422416
 11
-235.3058730372
 21
-352.9201422416
  0
ARC
  8
1
  6
CONTINUOUS
 62
     7
 10
-235.3058730372
 20
-354.0629993844
 40
1.142857142799991
 50
6.0
 51
90.0
  0
LINE
  8
0
  6
CONTINUOUS
 62
     7
 10
-233.7852712176158
 20
-357.6215708130001
 11
-233.7852712176158
 21
-401.2187136702
  0
LINE
  8
1
  6
CONTINUOUS
 62
     7
 10
-240.7138370412841
 20
-357.6215708130001
 11
-240.7001734907
 21
-357.6215708130001
  0
LINE
  8
1
  6
CONTINUOUS
 62
     7
 10
-240.7138370412841
 20
-357.6215708130001
 11
-240.3272602449999
 21
-353.9435382835
  0
ARC
  8
1
  6
CONTINUOUS
 62
     7
 10
-226.3758730372
 20
-354.0629993844
 40
1.142857142799991
 50
6.0
 51
90.0
  0
LINE
  8
0
  6
CONTINUOUS
 62
     7
 10
-233.7826997891158
 20
-357.6215708130001
 11
-233.7826997891158
 21
-401.2187136702
  0
ARC
  8
1
  6
CONTINUOUS
 62
     7
 10
-235.3058730372
 20
-404.7772850988
 40
1.142857142799991
 50
270.0
 51
354.0
  0
LINE
  8
0
  6
CONTINUOUS
 62
     7
 10
-224.8526997891158
 20
-357.6215708130001
 11
-224.8526997891158
 21
-401.2187136702
  0
LINE
  8
1
  6
CONTINUOUS
 62
     7
 10
-242.7289347682
 20
-401.2187136702
 11
-240.7138370412841
 21
-401.2187136702
  0
LINE
  8
1
  6
CONTINUOUS
 62
     7
 10
-234.1692765854
 20
-404.8967461997
 11
-233.7826997891158
 21
-401.2187136702
  0
LINE
  8
0
  6
CONTINUOUS
 62
     7
 10
-240.7138370412841
 20
-401.2187136702
 11
-240.7001734907
 21
-357.6215708130001
  0
LINE
  8
0
  6
CONTINUOUS
 62
     7
 10
-233.7852712176158
 20
-357.6215708130001
 11
-233.7852712176158
 21
-401.2187136702
  0
LINE
  8
1
  6
CONTINUOUS
 62
     7
 10
-231.7838370412841
 20
-357.6215708130001
 11
-231.7701734907
 21
-357.6215708130001
  0
LINE
  8
1
  6
CONTINUOUS
 62
     7
 10
-240.7138370412841
 20
-401.2187136702
 11
-240.3272602449999
 21
-404.8967461997
  0
LINE
  8
1
  6
CONTINUOUS
 62
     7
 10
-230.2606637931
 20
-352.9201422416
 11
-226.3758730372
 21
-352.9201422416
  0
LINE
  8
0
  6
CONTINUOUS
 62
     7
 10
-233.7852712176158
 20
-357.6215708130001
 11
-233.7852712176158
 21
-401.2187136702
  0
LINE
  8
1
  6
CONTINUOUS
 62
     7
 10
-240.2196969866
 20
-353.5657940588526
 11
-240.2196969866
 21
-405.2744904243474
  0
ARC
  8
1
  6
CONTINUOUS
 62
     7
 10
-239.1906637930999
 20
-354.0629993844
 40
1.142857142899995
 50
90.0
 51
174.0
  0
LINE
  8
0
  6
CONTINUOUS
 62
     7
 10
-231.7838370412841
 20
-401.2187136702
 11
-231.7701734907
 21
-357.6215708130001
  0
LINE
  8
0
  6
CONTINUOUS
 62
     7
 10
-231.7701734907
 20
-357.6215708130001
 11
-233.7852712176158
 21
-357.6215708130001
  0
LINE
  8
0
  6
CONTINUOUS
 62
     7
 10
-233.7852712176158
 20
-357.6215708130001
 11
-233.7852712176158
 21
-401.2187136702
  0
LINE
  8
1
  6
CONTINUOUS
 62
     7
 10
-234.1692765854
 20
-353.9435382835
 11
-233.7826997891158
 21
-357.6215708130001
  0
LINE
  8
0
  6
CONTINUOUS
 62
     7
 10
-108.5833163478
 20
-352.9201422415999
 11
-108.5833163478
 21
-358.4201422415999
  0
TEXT
  8
1
  6
CONTINUOUS
 62
     7
 10
-117.6123479828686
 20
-416.0373640832813
 40
3.5
  1
P-FRA-42
  0
LINE
  8
0
  6
CONTINUOUS
 62
     7
 10
-251.6426997891158
 20
-357.6215708130001
 11
-251.6426997891158
 21
-401.2187136702
  0
LINE
  8
1
  6
CONTINUOUS
 62
     7
 10
-258.5738370412841
 20
-357.6215708130001
 11
-258.5601734906999
 21
-357.6215708130001
  0
LINE
  8
1
  6
CONTINUOUS
 62
     7
 10
-258.5738370412841
 20
-357.6215708130001
 11
-258.1872602449999
 21
-353.9435382835
  0
LINE
  8
1
  6
CONTINUOUS
 62
     7
 10
-222.8538370412841
 20
-401.2187136702
 11
-222.4672602449999
 21
-404.8967461997
  0
LINE
  8
0
  6
CONTINUOUS
 62
     7
 10
-215.9226997891158
 20
-357.6215708130001
 11
-215.9226997891158
 21
-401.2187136702
  0
LINE
  8
1
  6
CONTINUOUS
 62
     7
 10
-222.8538370412841
 20
-357.6215708130001
 11
-222.8401734907
 21
-357.6215708130001
  0
LINE
  8
0
  6
CONTINUOUS
 62
     7
 10
-215.9252712176158
 20
-357.6215708130001
 11
-215.9252712176158
 21
-401.2187136702
  0
LINE
  8
1
  6
CONTINUOUS
 62
     7
 10
-233.7989347682
 20
-401.2187136702
 11
-231.7838370412841
 21
-401.2187136702
  0
LINE
  8
0
  6
CONTINUOUS
 62
     7
 10
-213.9238370412841
 20
-401.2187136702
 11
-213.9101734907
 21
-357.6215708130001
  0
LINE
  8
0
  6
CONTINUOUS
 62
     7
 10
-215.9252712176158
 20
-357.6215708130001
 11
-215.9252712176158
 21
-401.2187136702
  0
LINE
  8
0
  6
CONTINUOUS
 62
     7
 10
-215.9252712176158
 20
-357.6215708130001
 11
-215.9252712176158
 21
-401.2187136702
  0
LINE
  8
1
  6
CONTINUOUS
 62
     7
 10
-216.3092765854
 20
-404.8967461997
 11
-215.9226997891158
 21
-401.2187136702
  0
LINE
  8
0
  6
CONTINUOUS
 62
     7
 10
-224.8552712176158
 20
-357.6215708130001
 11
-224.8552712176158
 21
-401.2187136702
  0
LINE
  8
1
  6
CONTINUOUS
 62
     7
 10
-231.7838370412841
 20
-401.2187136702
 11
-231.397260245
 21
-404.8967461997
  0
LINE
  8
1
  6
CONTINUOUS
 62
     7
 10
-216.3092765854
 20
-353.9435382835
 11
-215.9226997891158
 21
-357.6215708130001
  0
LINE
  8
1
  6
CONTINUOUS
 62
     7
 10
-231.2896969865999
 20
-353.5657940588526
 11
-231.2896969865999
 21
-405.2744904243474
  0
LINE
  8
1
  6
CONTINUOUS
 62
     7
 10
-221.3306637930999
 20
-405.9201422416
 11
-217.4458730372
 21
-405.9201422416
  0
ARC
  8
1
  6
CONTINUOUS
 62
     7
 10
-221.3306637930999
 20
-354.0629993844
 40
1.142857142899995
 50
90.0
 51
174.0
  0
LINE
  8
0
  6
CONTINUOUS
 62
     7
 10
-215.9252712176158
 20
-357.6215708130001
 11
-215.9252712176158
 21
-401.2187136702
  0
LINE
  8
0
  6
CONTINUOUS
 62
     7
 10
-224.8552712176158
 20
-357.6215708130001
 11
-224.8552712176158
 21
-401.2187136702
  0
LINE
  8
0
  6
CONTINUOUS
 62
     7
 10
-222.8401734907
 20
-357.6215708130001
 11
-224.8552712176158
 21
-357.6215708130001
  0
LINE
  8
0
  6
CONTINUOUS
 62
     7
 10
-224.8552712176158
 20
-357.6215708130001
 11
-224.8552712176158
 21
-401.2187136702
  0
LINE
  8
1
  6
CONTINUOUS
 62
     7
 10
-222.3596969866
 20
-353.5657940588526
 11
-222.3596969866
 21
-405.2744904243474
  0
ARC
  8
1
  6
CONTINUOUS
 62
     7
 10
-217.4458730372
 20
-404.7772850988
 40
1.142857142799991
 50
270.0
 51
354.0
  0
LINE
  8
1
  6
CONTINUOUS
 62
     7
 10
-221.3306637930999
 20
-352.9201422416
 11
-217.4458730372
 21
-352.9201422416
  0
LINE
  8
0
  6
CONTINUOUS
 62
     7
 10
-224.8552712176158
 20
-357.6215708130001
 11
-224.8552712176158
 21
-401.2187136702
  0
LINE
  8
0
  6
CONTINUOUS
 62
     7
 10
-224.8552712176158
 20
-357.6215708130001
 11
-224.8552712176158
 21
-401.2187136702
  0
LINE
  8
0
  6
CONTINUOUS
 62
     7
 10
-213.9101734907
 20
-357.6215708130001
 11
-215.9252712176158
 21
-357.6215708130001
  0
LINE
  8
0
  6
CONTINUOUS
 62
     7
 10
-224.8552712176158
 20
-357.6215708130001
 11
-224.8552712176158
 21
-401.2187136702
  0
ARC
  8
1
  6
CONTINUOUS
 62
     7
 10
-226.3758730372
 20
-404.7772850988
 40
1.142857142799991
 50
270.0
 51
354.0
  0
LINE
  8
1
  6
CONTINUOUS
 62
     7
 10
-225.2392765853999
 20
-404.8967461997
 11
-224.8526997891158
 21
-401.2187136702
  0
LINE
  8
0
  6
CONTINUOUS
 62
     7
 10
-222.8538370412841
 20
-401.2187136702
 11
-222.8401734907
 21
-357.6215708130001
  0
LINE
  8
0
  6
CONTINUOUS
 62
     7
 10
-215.9252712176158
 20
-357.6215708130001
 11
-215.9252712176158
 21
-401.2187136702
  0
ARC
  8
1
  6
CONTINUOUS
 62
     7
 10
-221.3306637930999
 20
-404.7772850988
 40
1.142857142899995
 50
186.0
 51
270.0
  0
ARC
  8
1
  6
CONTINUOUS
 62
     7
 10
-217.4458730372
 20
-354.0629993844
 40
1.142857142799991
 50
6.0
 51
90.0
  0
LINE
  8
1
  6
CONTINUOUS
 62
     7
 10
-222.8538370412841
 20
-357.6215708130001
 11
-222.4672602449999
 21
-353.9435382835
  0
ARC
  8
1
  6
CONTINUOUS
 62
     7
 10
-230.2606637931
 20
-404.7772850988
 40
1.142857142899995
 50
186.0
 51
270.0
  0
LINE
  8
1
  6
CONTINUOUS
 62
     7
 10
-216.4168398437
 20
-405.2744904241176
 11
-216.4168398437
 21
-353.5657940590825
  0
LINE
  8
1
  6
CONTINUOUS
 62
     7
 10
-230.2606637931
 20
-405.9201422416
 11
-226.3758730372
 21
-405.9201422416
  0
LINE
  8
1
  6
CONTINUOUS
 62
     7
 10
-224.8689347682
 20
-401.2187136702
 11
-222.8538370412841
 21
-401.2187136702
  0
LINE
  8
0
  6
CONTINUOUS
 62
     7
 10
-251.6452712176158
 20
-357.6215708130001
 11
-251.6452712176158
 21
-401.2187136702
  0
LINE
  8
0
  6
CONTINUOUS
 62
     7
 10
-251.6452712176158
 20
-357.6215708130001
 11
-251.6452712176158
 21
-401.2187136702
  0
LINE
  8
0
  6
CONTINUOUS
 62
     7
 10
-251.6452712176158
 20
-357.6215708130001
 11
-251.6452712176158
 21
-401.2187136702
  0
LINE
  8
0
  6
CONTINUOUS
 62
     7
 10
-251.6452712176158
 20
-357.6215708130001
 11
-251.6452712176158
 21
-401.2187136702
  0
LINE
  8
1
  6
CONTINUOUS
 62
     7
 10
-260.5889347681999
 20
-401.2187136702
 11
-258.5738370412841
 21
-401.2187136702
  0
LINE
  8
1
  6
CONTINUOUS
 62
     7
 10
-258.5738370412841
 20
-401.2187136702
 11
-258.1872602449999
 21
-404.8967461997
  0
LINE
  8
1
  6
CONTINUOUS
 62
     7
 10
-258.0796969865999
 20
-353.5657940588526
 11
-258.0796969865999
 21
-405.2744904243474
  0
ARC
  8
1
  6
CONTINUOUS
 62
     7
 10
-253.1658730372
 20
-404.7772850988
 40
1.142857142799991
 50
270.0
 51
354.0
  0
LINE
  8
1
  6
CONTINUOUS
 62
     7
 10
-252.0292765854
 20
-404.8967461997
 11
-251.6426997891158
 21
-401.2187136702
  0
ARC
  8
1
  6
CONTINUOUS
 62
     7
 10
-257.0506637930999
 20
-404.7772850988
 40
1.142857142899967
 50
186.0
 51
270.0
  0
LINE
  8
1
  6
CONTINUOUS
 62
     7
 10
-252.1368398436999
 20
-405.2744904241176
 11
-252.1368398436999
 21
-353.5657940590825
  0
ARC
  8
1
  6
CONTINUOUS
 62
     7
 10
-257.0506637930999
 20
-354.0629993844
 40
1.142857142899967
 50
90.0
 51
174.0
  0
LINE
  8
0
  6
CONTINUOUS
 62
     7
 10
-251.6452712176158
 20
-357.6215708130001
 11
-251.6452712176158
 21
-401.2187136702
  0
LINE
  8
1
  6
CONTINUOUS
 62
     7
 10
-257.0506637930999
 20
-352.9201422416
 11
-253.1658730372
 21
-352.9201422416
  0
LINE
  8
1
  6
CONTINUOUS
 62
     7
 10
-252.0292765854
 20
-353.9435382835
 11
-251.6426997891158
 21
-357.6215708130001
  0
LINE
  8
0
  6
CONTINUOUS
 62
     7
 10
-251.6452712176158
 20
-357.6215708130001
 11
-251.6452712176158
 21
-401.2187136702
  0
LINE
  8
1
  6
CONTINUOUS
 62
     7
 10
-257.0506637930999
 20
-405.9201422416
 11
-253.1658730372
 21
-405.9201422416
  0
ARC
  8
1
  6
CONTINUOUS
 62
     7
 10
-253.1658730372
 20
-354.0629993844
 40
1.142857142799991
 50
6.0
 51
90.0
  0
LINE
  8
0
  6
CONTINUOUS
 62
     7
 10
-251.6452712176158
 20
-357.6215708130001
 11
-251.6452712176158
 21
-401.2187136702
  0
LINE
  8
0
  6
CONTINUOUS
 62
     7
 10
-251.6452712176158
 20
-357.6215708130001
 11
-251.6452712176158
 21
-401.2187136702
  0
LINE
  8
1
  6
CONTINUOUS
 62
     7
 10
-171.6592765854
 20
-404.8967461997
 11
-171.2726997891158
 21
-401.2187136702
  0
LINE
  8
1
  6
CONTINUOUS
 62
     7
 10
-162.8342684152
 20
-405.2744904241176
 11
-162.8342684152
 21
-353.5657940590824
  0
LINE
  8
1
  6
CONTINUOUS
 62
     7
 10
-168.777125558
 20
-353.5657940588526
 11
-168.777125558
 21
-405.2744904243474
  0
LINE
  8
1
  6
CONTINUOUS
 62
     7
 10
-162.7267051568
 20
-404.8967461997
 11
-162.3401283605053
 21
-401.2187136701
  0
LINE
  8
1
  6
CONTINUOUS
 62
     7
 10
-171.2726997891158
 20
-357.6215708130001
 11
-169.2712656126841
 21
-357.6215708130001
  0
LINE
  8
1
  6
CONTINUOUS
 62
     7
 10
-171.7668398437
 20
-405.2744904241176
 11
-171.7668398437
 21
-353.5657940590825
  0
LINE
  8
1
  6
CONTINUOUS
 62
     7
 10
-178.2038370412841
 20
-401.2187136702
 11
-177.817260245
 21
-404.8967461997
  0
LINE
  8
1
  6
CONTINUOUS
 62
     7
 10
-162.3401283605053
 20
-401.2187136701
 11
-161.3394112723
 21
-401.2187136701
  0
LINE
  8
1
  6
CONTINUOUS
 62
     7
 10
-171.2726997891158
 20
-401.2187136702
 11
-169.2712656126841
 21
-401.2187136702
  0
LINE
  8
1
  6
CONTINUOUS
 62
     7
 10
-162.7267051568
 20
-353.9435382835
 11
-162.3401283605264
 21
-357.6215708129
  0
LINE
  8
1
  6
CONTINUOUS
 62
     7
 10
-162.3401283605264
 20
-357.6215708129
 11
-161.3394112723
 21
-357.6215708129
  0
LINE
  8
1
  6
CONTINUOUS
 62
     7
 10
-178.2038370412841
 20
-357.6215708130001
 11
-177.817260245
 21
-353.9435382835
  0
LINE
  8
1
  6
CONTINUOUS
 62
     7
 10
-169.2712656126841
 20
-357.6215708130001
 11
-168.8846888164
 21
-353.9435382835
  0
LINE
  8
1
  6
CONTINUOUS
 62
     7
 10
-178.2038370412841
 20
-357.6215708130001
 11
-178.1901734907
 21
-357.6215708130001
  0
LINE
  8
1
  6
CONTINUOUS
 62
     7
 10
-171.6592765854
 20
-353.9435382835
 11
-171.2726997891158
 21
-357.6215708130001
  0
LINE
  8
1
  6
CONTINUOUS
 62
     7
 10
-169.2712656126841
 20
-401.2187136702
 11
-168.8846888164
 21
-404.8967461997
  0
LINE
  8
1
  6
CONTINUOUS
 62
     7
 10
-180.2189347682
 20
-401.2187136702
 11
-178.2038370412841
 21
-401.2187136702
  0
LINE
  8
1
  6
CONTINUOUS
 62
     7
 10
-177.7096969866
 20
-353.5657940588526
 11
-177.7096969866
 21
-405.2744904243474
  0
LINE
  8
1
  6
CONTINUOUS
 62
     7
 10
-189.6268398437
 20
-405.2744904241176
 11
-189.6268398437
 21
-353.5657940590825
  0
LINE
  8
1
  6
CONTINUOUS
 62
     7
 10
-180.5892765854
 20
-353.9435382835
 11
-180.2026997891159
 21
-357.6215708130001
  0
LINE
  8
0
  6
CONTINUOUS
 62
     7
 10
-189.1326997891158
 20
-357.6215708130001
 11
-189.1326997891158
 21
-401.2187136702
  0
ARC
  8
1
  6
CONTINUOUS
 62
     7
 10
-194.5406637931
 20
-404.7772850988
 40
1.142857142899995
 50
186.0
 51
270.0
  0
LINE
  8
0
  6
CONTINUOUS
 62
     7
 10
-189.1352712176159
 20
-357.6215708130001
 11
-189.1352712176159
 21
-401.2187136702
  0
ARC
  8
1
  6
CONTINUOUS
 62
     7
 10
-190.6558730372
 20
-404.7772850988
 40
1.142857142799991
 50
270.0
 51
354.0
  0
LINE
  8
0
  6
CONTINUOUS
 62
     7
 10
-198.0652712176158
 20
-357.6215708130001
 11
-198.0652712176158
 21
-401.2187136702
  0
LINE
  8
1
  6
CONTINUOUS
 62
     7
 10
-198.0789347682
 20
-401.2187136702
 11
-196.0638370412841
 21
-401.2187136702
  0
LINE
  8
1
  6
CONTINUOUS
 62
     7
 10
-189.5192765854
 20
-353.9435382835
 11
-189.1326997891158
 21
-357.6215708130001
  0
LINE
  8
0
  6
CONTINUOUS
 62
     7
 10
-196.0501734907
 20
-357.6215708130001
 11
-198.0652712176158
 21
-357.6215708130001
  0
LINE
  8
1
  6
CONTINUOUS
 62
     7
 10
-187.1338370412841
 20
-401.2187136702
 11
-186.747260245
 21
-404.8967461997
  0
LINE
  8
1
  6
CONTINUOUS
 62
     7
 10
-203.4706637931
 20
-352.9201422416
 11
-199.5858730372
 21
-352.9201422416
  0
LINE
  8
1
  6
CONTINUOUS
 62
     7
 10
-198.4492765854
 20
-353.9435382835
 11
-198.0626997891158
 21
-357.6215708130001
  0
LINE
  8
1
  6
CONTINUOUS
 62
     7
 10
-204.9938370412841
 20
-357.6215708130001
 11
-204.9801734907
 21
-357.6215708130001
  0
LINE
  8
0
  6
CONTINUOUS
 62
     7
 10
-206.9952712176159
 20
-357.6215708130001
 11
-206.9952712176159
 21
-401.2187136702
  0
LINE
  8
0
  6
CONTINUOUS
 62
     7
 10
-180.2026997891159
 20
-357.6215708130001
 11
-180.2026997891159
 21
-401.2187136702
  0
LINE
  8
1
  6
CONTINUOUS
 62
     7
 10
-194.5406637931
 20
-352.9201422416
 11
-190.6558730372
 21
-352.9201422416
  0
ARC
  8
1
  6
CONTINUOUS
 62
     7
 10
-190.6558730372
 20
-354.0629993844
 40
1.142857142799991
 50
6.0
 51
90.0
  0
LINE
  8
1
  6
CONTINUOUS
 62
     7
 10
-180.5892765854
 20
-404.8967461997
 11
-180.2026997891159
 21
-401.2187136702
  0
LINE
  8
1
  6
CONTINUOUS
 62
     7
 10
-203.4706637931
 20
-405.9201422416
 11
-199.5858730372
 21
-405.9201422416
  0
ARC
  8
1
  6
CONTINUOUS
 62
     7
 10
-185.6106637931
 20
-354.0629993844
 40
1.142857142899995
 50
90.0
 51
174.0
  0
LINE
  8
1
  6
CONTINUOUS
 62
     7
 10
-198.4492765854
 20
-404.8967461997
 11
-198.0626997891158
 21
-401.2187136702
  0
LINE
  8
1
  6
CONTINUOUS
 62
     7
 10
-185.6106637931
 20
-352.9201422416
 11
-181.7258730372
 21
-352.9201422416
  0
LINE
  8
0
  6
CONTINUOUS
 62
     7
 10
-187.1201734907
 20
-357.6215708130001
 11
-189.1352712176159
 21
-357.6215708130001
  0
LINE
  8
1
  6
CONTINUOUS
 62
     7
 10
-207.0089347682
 20
-401.2187136702
 11
-204.9938370412841
 21
-401.2187136702
  0
ARC
  8
1
  6
CONTINUOUS
 62
     7
 10
-203.4706637931
 20
-354.0629993844
 40
1.142857142899995
 50
90.0
 51
174.0
  0
LINE
  8
0
  6
CONTINUOUS
 62
     7
 10
-198.0626997891158
 20
-357.6215708130001
 11
-198.0626997891158
 21
-401.2187136702
  0
LINE
  8
1
  6
CONTINUOUS
 62
     7
 10
-185.6106637931
 20
-405.9201422416
 11
-181.7258730372
 21
-405.9201422416
  0
LINE
  8
0
  6
CONTINUOUS
 62
     7
 10
-196.0638370412841
 20
-401.2187136702
 11
-196.0501734907
 21
-357.6215708130001
  0
LINE
  8
0
  6
CONTINUOUS
 62
     7
 10
-204.9801734907
 20
-357.6215708130001
 11
-206.9952712176159
 21
-357.6215708130001
  0
LINE
  8
1
  6
CONTINUOUS
 62
     7
 10
-180.6968398437
 20
-405.2744904241176
 11
-180.6968398437
 21
-353.5657940590825
  0
LINE
  8
1
  6
CONTINUOUS
 62
     7
 10
-196.0638370412841
 20
-357.6215708130001
 11
-195.677260245
 21
-353.9435382835
  0
LINE
  8
0
  6
CONTINUOUS
 62
     7
 10
-204.9938370412841
 20
-401.2187136702
 11
-204.9801734907
 21
-357.6215708130001
  0
LINE
  8
0
  6
CONTINUOUS
 62
     7
 10
-206.9952712176159
 20
-357.6215708130001
 11
-206.9952712176159
 21
-401.2187136702
  0
LINE
  8
1
  6
CONTINUOUS
 62
     7
 10
-198.5568398437
 20
-405.2744904241176
 11
-198.5568398437
 21
-353.5657940590825
  0
ARC
  8
1
  6
CONTINUOUS
 62
     7
 10
-212.4006637931
 20
-404.7772850988
 40
1.142857142899995
 50
186.0
 51
270.0
  0
ARC
  8
1
  6
CONTINUOUS
 62
     7
 10
-185.6106637931
 20
-404.7772850988
 40
1.142857142899995
 50
186.0
 51
270.0
  0
LINE
  8
0
  6
CONTINUOUS
 62
     7
 10
-187.1338370412841
 20
-401.2187136702
 11
-187.1201734907
 21
-357.6215708130001
  0
ARC
  8
1
  6
CONTINUOUS
 62
     7
 10
-203.4706637931
 20
-404.7772850988
 40
1.142857142899995
 50
186.0
 51
270.0
  0
LINE
  8
1
  6
CONTINUOUS
 62
     7
 10
-212.4006637931
 20
-405.9201422416
 11
-208.5158730372
 21
-405.9201422416
  0
LINE
  8
1
  6
CONTINUOUS
 62
     7
 10
-186.6396969866
 20
-353.5657940588526
 11
-186.6396969866
 21
-405.2744904243474
  0
LINE
  8
1
  6
CONTINUOUS
 62
     7
 10
-187.1338370412841
 20
-357.6215708130001
 11
-187.1201734907
 21
-357.6215708130001
  0
ARC
  8
1
  6
CONTINUOUS
 62
     7
 10
-181.7258730372
 20
-404.7772850988
 40
1.142857142799991
 50
270.0
 51
354.0
  0
LINE
  8
1
  6
CONTINUOUS
 62
     7
 10
-189.1489347682
 20
-401.2187136702
 11
-187.1338370412841
 21
-401.2187136702
  0
LINE
  8
1
  6
CONTINUOUS
 62
     7
 10
-189.5192765854
 20
-404.8967461997
 11
-189.1326997891158
 21
-401.2187136702
  0
LINE
  8
1
  6
CONTINUOUS
 62
     7
 10
-195.5696969866
 20
-353.5657940588526
 11
-195.5696969866
 21
-405.2744904243474
  0
LINE
  8
0
  6
CONTINUOUS
 62
     7
 10
-198.0652712176158
 20
-357.6215708130001
 11
-198.0652712176158
 21
-401.2187136702
  0
ARC
  8
1
  6
CONTINUOUS
 62
     7
 10
-194.5406637931
 20
-354.0629993844
 40
1.142857142899995
 50
90.0
 51
174.0
  0
LINE
  8
0
  6
CONTINUOUS
 62
     7
 10
-198.0652712176158
 20
-357.6215708130001
 11
-198.0652712176158
 21
-401.2187136702
  0
LINE
  8
1
  6
CONTINUOUS
 62
     7
 10
-204.4996969866
 20
-353.5657940588526
 11
-204.4996969866
 21
-405.2744904243474
  0
LINE
  8
0
  6
CONTINUOUS
 62
     7
 10
-189.1352712176159
 20
-357.6215708130001
 11
-189.1352712176159
 21
-401.2187136702
  0
LINE
  8
1
  6
CONTINUOUS
 62
     7
 10
-196.0638370412841
 20
-357.6215708130001
 11
-196.0501734907
 21
-357.6215708130001
  0
LINE
  8
1
  6
CONTINUOUS
 62
     7
 10
-204.9938370412841
 20
-401.2187136702
 11
-204.607260245
 21
-404.8967461997
  0
LINE
  8
1
  6
CONTINUOUS
 62
     7
 10
-187.1338370412841
 20
-357.6215708130001
 11
-186.747260245
 21
-353.9435382835
  0
ARC
  8
1
  6
CONTINUOUS
 62
     7
 10
-199.5858730372
 20
-354.0629993844
 40
1.142857142799991
 50
6.0
 51
90.0
  0
LINE
  8
1
  6
CONTINUOUS
 62
     7
 10
-204.9938370412841
 20
-357.6215708130001
 11
-204.607260245
 21
-353.9435382835
  0
ARC
  8
1
  6
CONTINUOUS
 62
     7
 10
-181.7258730372
 20
-354.0629993844
 40
1.142857142799991
 50
6.0
 51
90.0
  0
LINE
  8
1
  6
CONTINUOUS
 62
     7
 10
-194.5406637931
 20
-405.9201422416
 11
-190.6558730372
 21
-405.9201422416
  0
LINE
  8
1
  6
CONTINUOUS
 62
     7
 10
-196.0638370412841
 20
-401.2187136702
 11
-195.677260245
 21
-404.8967461997
  0
ARC
  8
1
  6
CONTINUOUS
 62
     7
 10
-199.5858730372
 20
-404.7772850988
 40
1.142857142799991
 50
270.0
 51
354.0
  0
LINE
  8
0
  6
CONTINUOUS
 62
     7
 10
-206.9952712176159
 20
-357.6215708130001
 11
-206.9952712176159
 21
-401.2187136702
  0
LINE
  8
0
  6
CONTINUOUS
 62
     7
 10
-206.9952712176159
 20
-357.6215708130001
 11
-206.9952712176159
 21
-401.2187136702
  0
LINE
  8
1
  6
CONTINUOUS
 62
     7
 10
-213.4296969866
 20
-353.5657940588526
 11
-213.4296969866
 21
-405.2744904243474
  0
LINE
  8
1
  6
CONTINUOUS
 62
     7
 10
-213.9238370412841
 20
-357.6215708130001
 11
-213.9101734907
 21
-357.6215708130001
  0
LINE
  8
1
  6
CONTINUOUS
 62
     7
 10
-207.3792765854
 20
-404.8967461997
 11
-206.9926997891158
 21
-401.2187136702
  0
LINE
  8
1
  6
CONTINUOUS
 62
     7
 10
-213.9238370412841
 20
-357.6215708130001
 11
-213.537260245
 21
-353.9435382835
  0
LINE
  8
0
  6
CONTINUOUS
 62
     7
 10
-206.9926997891158
 20
-357.6215708130001
 11
-206.9926997891158
 21
-401.2187136702
  0
LINE
  8
1
  6
CONTINUOUS
 62
     7
 10
-212.4006637931
 20
-352.9201422416
 11
-208.5158730372
 21
-352.9201422416
  0
ARC
  8
1
  6
CONTINUOUS
 62
     7
 10
-208.5158730372
 20
-354.0629993844
 40
1.142857142799991
 50
6.0
 51
90.0
  0
ARC
  8
1
  6
CONTINUOUS
 62
     7
 10
-212.4006637931
 20
-354.0629993844
 40
1.142857142899995
 50
90.0
 51
174.0
  0
LINE
  8
1
  6
CONTINUOUS
 62
     7
 10
-207.3792765854
 20
-353.9435382835
 11
-206.9926997891158
 21
-357.6215708130001
  0
LINE
  8
1
  6
CONTINUOUS
 62
     7
 10
-213.9238370412841
 20
-401.2187136702
 11
-213.537260245
 21
-404.8967461997
  0
ARC
  8
1
  6
CONTINUOUS
 62
     7
 10
-208.5158730372
 20
-404.7772850988
 40
1.142857142799991
 50
270.0
 51
354.0
  0
LINE
  8
1
  6
CONTINUOUS
 62
     7
 10
-207.4868398437
 20
-405.2744904241176
 11
-207.4868398437
 21
-353.5657940590825
  0
LINE
  8
1
  6
CONTINUOUS
 62
     7
 10
-215.9389347682
 20
-401.2187136702
 11
-213.9238370412841
 21
-401.2187136702
  0
LINE
  8
0
  6
CONTINUOUS
 62
     7
 10
-171.2726997891158
 20
-357.6215708130001
 11
-171.2726997891158
 21
-401.2187136702
  0
LINE
  8
0
  6
CONTINUOUS
 62
     7
 10
-180.2052712176159
 20
-357.6215708130001
 11
-180.2052712176159
 21
-401.2187136702
  0
LINE
  8
0
  6
CONTINUOUS
 62
     7
 10
-178.2038370412841
 20
-401.2187136702
 11
-178.1901734907
 21
-357.6215708130001
  0
LINE
  8
0
  6
CONTINUOUS
 62
     7
 10
-162.3401283605264
 20
-357.6215708129
 11
-162.3401283605053
 21
-401.2187136701
  0
LINE
  8
0
  6
CONTINUOUS
 62
     7
 10
-169.2712656126841
 20
-401.2187136702
 11
-169.2712656126841
 21
-357.6215708130001
  0
LINE
  8
0
  6
CONTINUOUS
 62
     7
 10
-178.1901734907
 20
-357.6215708130001
 11
-180.2052712176159
 21
-357.6215708130001
  0
LINE
  8
0
  6
CONTINUOUS
 62
     7
 10
-161.3394112723
 20
-357.6215708129
 11
-161.3394112723
 21
-401.2187136701
  0
ARC
  8
1
  6
CONTINUOUS
 62
     7
 10
-176.6806637931
 20
-404.7772850988
 40
1.142857142899995
 50
186.0
 51
270.0
  0
LINE
  8
1
  6
CONTINUOUS
 62
     7
 10
-176.6806637931
 20
-405.9201422416
 11
-172.7958730372
 21
-405.9201422416
  0
LINE
  8
1
  6
CENTER
 62
     1
 10
-138.5833163478
 20
-379.4201422416
 11
-78.5833163478
 21
-379.4201422416
  0
CIRCLE
  8
1
  6
CONTINUOUS
 62
     7
 10
-108.5833163478
 20
-379.4201422416
 40
21.0
  0
LINE
  8
1
  6
CENTER
 62
     1
 10
-108.5833163478
 20
-349.4201422416
 11
-108.5833163478
 21
-409.4201422416
  0
CIRCLE
  8
1
  6
CONTINUOUS
 62
     7
 10
-108.5833163478
 20
-379.4201422416
 40
21.8
  0
ARC
  8
1
  6
CONTINUOUS
 62
     7
 10
-163.8633016087
 20
-354.0629993844
 40
1.142857142799991
 50
6.0
 51
90.0
  0
ARC
  8
1
  6
CONTINUOUS
 62
     7
 10
-167.7480923645
 20
-354.0629993844
 40
1.142857142899995
 50
90.0
 51
174.0
  0
LINE
  8
1
  6
CONTINUOUS
 62
     7
 10
-167.7480923645
 20
-352.9201422416
 11
-163.8633016087
 21
-352.9201422416
  0
CIRCLE
  8
1
  6
CONTINUOUS
 62
     7
 10
-108.5833163478
 20
-379.4201422416
 40
26.5
  0
LINE
  8
1
  6
CENTER
 62
     1
 10
-263.5833163478
 20
-379.4201422416
 11
-156.3394112723
 21
-379.4201422416
  0
LINE
  8
0
  6
CONTINUOUS
 62
     7
 10
-258.5738370412841
 20
-401.2187136702
 11
-258.5601734907
 21
-357.6215708130001
  0
LINE
  8
0
  6
CONTINUOUS
 62
     7
 10
-260.5752712176158
 20
-357.6215708130001
 11
-260.5752712176158
 21
-401.2187136702
  0
LINE
  8
0
  6
CONTINUOUS
 62
     7
 10
-258.5601734907
 20
-357.6215708130001
 11
-260.5752712176158
 21
-357.6215708130001
  0
ARC
  8
1
  6
CONTINUOUS
 62
     7
 10
-163.8633016087
 20
-404.7772850988
 40
1.142857142799991
 50
270.0
 51
354.0
  0
LINE
  8
1
  6
CONTINUOUS
 62
     7
 10
-167.7480923645
 20
-405.9201422416
 11
-163.8633016087
 21
-405.9201422416
  0
ARC
  8
1
  6
CONTINUOUS
 62
     7
 10
-167.7480923645
 20
-404.7772850988
 40
1.142857142899995
 50
186.0
 51
270.0
  0
ARC
  8
1
  6
CONTINUOUS
 62
     7
 10
-172.7958730372
 20
-404.7772850988
 40
1.142857142799991
 50
270.0
 51
354.0
  0
ENDSEC
  0
EOF
