  0
SECTION
  2
HEADER
  9
$ACADVER
  1
AC1004
  9
$INSBASE
 10
0.0
 20
0.0
  9
$EXTMIN
 10
56.04999999999993
 20
73.22045454545454
  9
$EXTMAX
 10
235.8
 20
130.8
  9
$LIMMIN
 10
0.0
 20
0.0
  9
$LIMMAX
 10
12.0
 20
9.0
  9
$ORTHOMODE
 70
     0
  9
$REGENMODE
 70
     1
  9
$FILLMODE
 70
     1
  9
$QTEXTMODE
 70
     0
  9
$DRAGMODE
 70
     2
  9
$LTSCALE
 40
1.0
  9
$OSMODE
 70
    37
  9
$ATTMODE
 70
     1
  9
$TEXTSIZE
 40
0.2
  9
$TRACEWID
 40
0.05
  9
$TEXTSTYLE
  7
STANDARD
  9
$CLAYER
  8
0
  9
$CELTYPE
  6
BYLAYER
  9
$CECOLOR
 62
   256
  9
$DIMSCALE
 40
1.0
  9
$DIMASZ
 40
3.0
  9
$DIMEXO
 40
0.0625
  9
$DIMDLI
 40
0.38
  9
$DIMRND
 40
0.0
  9
$DIMDLE
 40
0.0
  9
$DIMEXE
 40
1.5
  9
$DIMTP
 40
0.0
  9
$DIMTM
 40
0.0
  9
$DIMTXT
 40
3.0
  9
$DIMCEN
 40
0.09
  9
$DIMTSZ
 40
0.0
  9
$DIMTOL
 70
     0
  9
$DIMLIM
 70
     0
  9
$DIMTIH
 70
     1
  9
$DIMTOH
 70
     1
  9
$DIMSE1
 70
     0
  9
$DIMSE2
 70
     0
  9
$DIMTAD
 70
     1
  9
$DIMZIN
 70
     0
  9
$DIMBLK
  1

  9
$DIMASO
 70
     1
  9
$DIMSHO
 70
     1
  9
$DIMPOST
  1

  9
$DIMAPOST
  1

  9
$DIMALT
 70
     0
  9
$DIMALTD
 70
     2
  9
$DIMALTF
 40
25.4
  9
$DIMLFAC
 40
1.0
  9
$DIMTOFL
 70
     0
  9
$DIMTVP
 40
0.0
  9
$DIMTIX
 70
     0
  9
$DIMSOXD
 70
     0
  9
$DIMSAH
 70
     0
  9
$DIMBLK1
  1

  9
$DIMBLK2
  1

  9
$LUNITS
 70
     2
  9
$LUPREC
 70
     4
  9
$SKETCHINC
 40
0.1
  9
$FILLETRAD
 40
0.5
  9
$AUNITS
 70
     0
  9
$AUPREC
 70
     0
  9
$MENU
  1
.
  9
$ELEVATION
 40
0.0
  9
$THICKNESS
 40
0.0
  9
$LIMCHECK
 70
     0
  9
$CHAMFERA
 40
0.0
  9
$CHAMFERB
 40
0.0
  9
$SKPOLY
 70
     0
  9
$TDCREATE
 40
2459002.537003252
  9
$TDUPDATE
 40
2459002.537003438
  9
$TDINDWG
 40
0.0000000116
  9
$TDUSRTIMER
 40
0.0000000116
  9
$USRTIMER
 70
     1
  9
$ANGBASE
 50
0.0
  9
$ANGDIR
 70
     0
  9
$PDMODE
 70
     0
  9
$PDSIZE
 40
0.0
  9
$PLINEWID
 40
0.0
  9
$COORDS
 70
     1
  9
$SPLFRAME
 70
     0
  9
$SPLINETYPE
 70
     6
  9
$SPLINESEGS
 70
     8
  9
$ATTDIA
 70
     0
  9
$ATTREQ
 70
     1
  9
$SURFTAB1
 70
     6
  9
$SURFTAB2
 70
     6
  9
$SURFTYPE
 70
     6
  9
$SURFU
 70
     6
  9
$SURFV
 70
     6
  9
$UCSNAME
  2

  9
$UCSORG
 10
0.0
 20
0.0
 30
0.0
  9
$UCSXDIR
 10
1.0
 20
0.0
 30
0.0
  9
$UCSYDIR
 10
0.0
 20
1.0
 30
0.0
  9
$USERI1
 70
     0
  9
$USERI2
 70
     0
  9
$USERI3
 70
     0
  9
$USERI4
 70
     0
  9
$USERI5
 70
     0
  9
$USERR1
 40
0.0
  9
$USERR2
 40
0.0
  9
$USERR3
 40
0.0
  9
$USERR4
 40
0.0
  9
$USERR5
 40
0.0
  9
$WORLDVIEW
 70
     1
  0
ENDSEC
  0
SECTION
  2
TABLES
  0
TABLE
  2
LTYPE
 70
     2
  0
LTYPE
  2
CONTINUOUS
 70
     0
  3
Solid line
 72
    65
 73
     0
 40
0.0
  0
LTYPE
  2
CENTER
 70
     0
  3

 72
    65
 73
     0
 40
0.0
  0
ENDTAB
  0
TABLE
  2
LAYER
 70
     2
  0
LAYER
  2
0
 70
     0
 62
     7
  6
CONTINUOUS
  0
LAYER
  2
1
 70
     0
 62
     7
  6
CONTINUOUS
  0
ENDTAB
  0
TABLE
  2
STYLE
 70
     2
  0
STYLE
  2
STANDARD
 70
     0
 40
0.0
 41
1.0
 50
0.0
 71
     0
 42
0.2
  3
txt
  4

  0
STYLE
  2
ＭＳ_ゴシック
 70
     0
 40
0.0
 41
1.0
 50
0.0
 71
     0
 42
0.2
  3
ＭＳ ゴシック.shx
  4

  0
ENDTAB
  0
TABLE
  2
VIEW
 70
     0
  0
ENDTAB
  0
ENDSEC
  0
SECTION
  2
BLOCKS
  0
ENDSEC
  0
SECTION
  2
ENTITIES
  0
LINE
  8
1
  6
CONTINUOUS
 62
     7
 10
161.3620763149
 20
105.8
 11
61.04999999999995
 21
105.8
  0
LINE
  8
1
  6
CONTINUOUS
 62
     7
 10
91.32743410650001
 20
84.07628573759997
 11
91.32743410650001
 21
105.8
  0
LINE
  8
1
  6
CONTINUOUS
 62
     7
 10
91.1844335555
 20
105.8
 11
91.1844335555
 21
86.66274883359995
  0
LINE
  8
1
  6
CONTINUOUS
 62
     7
 10
106.7766829165
 20
83.29999999999995
 11
109.5346853232
 21
83.29999999999995
  0
LINE
  8
1
  6
CONTINUOUS
 62
     7
 10
112.9588542595
 20
125.6596102813
 11
113.0351833594
 21
127.8453897195999
  0
ARC
  8
1
  6
CONTINUOUS
 62
     7
 10
114.0237112426
 20
127.8108695652
 40
0.9891304347999785
 50
90.0
 51
178.0
  0
LINE
  8
1
  6
CONTINUOUS
 62
     7
 10
117.8465706325
 20
86.44038971869996
 11
117.7702415326
 21
84.25461028039996
  0
ARC
  8
1
  6
CONTINUOUS
 62
     7
 10
114.0237112426
 20
84.28913043479993
 40
0.9891304347999785
 50
182.0
 51
270.0
  0
ARC
  8
1
  6
CONTINUOUS
 62
     7
 10
104.3410418635
 20
86.40586956429999
 40
0.9891304347999785
 50
89.9999999999
 51
178.0
  0
LINE
  8
1
  6
CONTINUOUS
 62
     7
 10
110.5995423064
 20
125.6596102813
 11
110.5232132065
 21
127.8453897195999
  0
ARC
  8
1
  6
CONTINUOUS
 62
     7
 10
106.7766829165
 20
127.8108695652
 40
0.9891304347999785
 50
90.0
 51
178.0
  0
ARC
  8
1
  6
CONTINUOUS
 62
     7
 10
106.7766829165
 20
84.28913043479993
 40
0.9891304347999785
 50
182.0
 51
270.0
  0
ARC
  8
1
  6
CONTINUOUS
 62
     7
 10
118.8350985158
 20
86.40586956429999
 40
0.9891304347999785
 50
89.9999999999
 51
178.0
  0
ARC
  8
1
  6
CONTINUOUS
 62
     7
 10
104.7232980500999
 20
125.6941304356999
 40
0.989130434800034
 50
269.9999999999
 51
358.0
  0
LINE
  8
1
  6
CONTINUOUS
 62
     7
 10
110.5995423064
 20
86.44038971869996
 11
110.5232132065
 21
84.25461028039996
  0
LINE
  8
1
  6
CONTINUOUS
 62
     7
 10
125.0935989587
 20
125.6596102813
 11
125.0172698587
 21
127.8453897195999
  0
ARC
  8
1
  6
CONTINUOUS
 62
     7
 10
99.52965459039997
 20
127.8108695652
 40
0.989130434800034
 50
90.0
 51
178.0
  0
LINE
  8
1
  6
CONTINUOUS
 62
     7
 10
121.2707395687
 20
128.8000000000001
 11
124.0287419755
 21
128.8000000000001
  0
LINE
  8
1
  6
CONTINUOUS
 62
     7
 10
105.7118259333
 20
125.6596102813
 11
105.7881550333
 21
127.8453897195999
  0
LINE
  8
1
  6
CONTINUOUS
 62
     7
 10
99.52965459029994
 20
83.29999999999995
 11
102.2876569971
 21
83.29999999999995
  0
LINE
  8
1
  6
CONTINUOUS
 62
     7
 10
114.0237112426
 20
128.8000000000001
 11
116.7817136494
 21
128.8000000000001
  0
LINE
  8
1
  6
CONTINUOUS
 62
     7
 10
126.0821268419
 20
124.705
 11
126.4643830285
 21
124.705
  0
ARC
  8
1
  6
CONTINUOUS
 62
     7
 10
126.0821268419
 20
125.6941304356999
 40
0.9891304347999785
 50
182.0
 51
270.0000000001
  0
LINE
  8
1
  6
CONTINUOUS
 62
     7
 10
120.2058825856
 20
125.6596102813
 11
120.2822116855
 21
127.8453897195999
  0
LINE
  8
1
  6
CONTINUOUS
 62
     7
 10
105.7118259333
 20
86.44038971869996
 11
105.7881550333
 21
84.25461028039996
  0
ARC
  8
1
  6
CONTINUOUS
 62
     7
 10
119.2173547024
 20
125.6941304356999
 40
0.9891304347999785
 50
269.9999999999
 51
358.0
  0
LINE
  8
1
  6
CONTINUOUS
 62
     7
 10
111.5880701897
 20
124.705
 11
111.9703263762
 21
124.705
  0
LINE
  8
1
  6
CONTINUOUS
 62
     7
 10
111.5880701897
 20
87.39499999999991
 11
111.9703263762
 21
87.39499999999991
  0
ARC
  8
1
  6
CONTINUOUS
 62
     7
 10
111.5880701897
 20
86.40586956429999
 40
0.989130434800034
 50
89.9999999999
 51
178.0
  0
ARC
  8
1
  6
CONTINUOUS
 62
     7
 10
104.7232980500999
 20
86.40586956429999
 40
0.989130434800034
 50
2.0
 51
90.0000000001
  0
LINE
  8
1
  6
CONTINUOUS
 62
     7
 10
103.3525139803
 20
86.44038971869996
 11
103.2761848803001
 21
84.25461028039996
  0
ARC
  8
1
  6
CONTINUOUS
 62
     7
 10
109.5346853232
 20
127.8108695652
 40
0.989130434800034
 50
2.0
 51
90.0
  0
ARC
  8
1
  6
CONTINUOUS
 62
     7
 10
116.7817136494
 20
84.28913043479993
 40
0.989130434800034
 50
270.0
 51
358.0
  0
LINE
  8
1
  6
CONTINUOUS
 62
     7
 10
118.8350985158
 20
87.39499999999991
 11
119.2173547024
 21
87.39499999999991
  0
ARC
  8
1
  6
CONTINUOUS
 62
     7
 10
121.2707395688
 20
127.8108695652
 40
0.989130434800034
 50
90.0
 51
178.0
  0
LINE
  8
1
  6
CONTINUOUS
 62
     7
 10
125.0935989587
 20
86.44038971869996
 11
125.0172698587
 21
84.25461028039996
  0
LINE
  8
1
  6
CONTINUOUS
 62
     7
 10
121.2707395687
 20
83.29999999999995
 11
124.0287419755
 21
83.29999999999995
  0
ARC
  8
1
  6
CONTINUOUS
 62
     7
 10
102.2876569971
 20
84.28913043479993
 40
0.989130434800034
 50
270.0
 51
358.0
  0
ARC
  8
1
  6
CONTINUOUS
 62
     7
 10
109.5346853232
 20
84.28913043479993
 40
0.989130434800034
 50
270.0
 51
358.0
  0
LINE
  8
1
  6
CONTINUOUS
 62
     7
 10
106.7766829165
 20
128.8000000000001
 11
109.5346853232
 21
128.8000000000001
  0
LINE
  8
1
  6
CONTINUOUS
 62
     7
 10
117.8465706325
 20
125.6596102813
 11
117.7702415326
 21
127.8453897195999
  0
ARC
  8
1
  6
CONTINUOUS
 62
     7
 10
111.9703263762
 20
125.6941304356999
 40
0.989130434800034
 50
269.9999999999
 51
358.0
  0
ARC
  8
1
  6
CONTINUOUS
 62
     7
 10
111.9703263762
 20
86.40586956429999
 40
0.989130434800034
 50
2.0
 51
90.0000000001
  0
ARC
  8
1
  6
CONTINUOUS
 62
     7
 10
111.5880701897
 20
125.6941304356999
 40
0.989130434800034
 50
182.0
 51
270.0000000001
  0
ARC
  8
1
  6
CONTINUOUS
 62
     7
 10
118.8350985158
 20
125.6941304356999
 40
0.9891304347999785
 50
182.0
 51
270.0000000001
  0
ARC
  8
1
  6
CONTINUOUS
 62
     7
 10
124.0287419755
 20
127.8108695652
 40
0.989130434800034
 50
2.0
 51
90.0
  0
LINE
  8
1
  6
CONTINUOUS
 62
     7
 10
118.8350985158
 20
124.705
 11
119.2173547024
 21
124.705
  0
ARC
  8
1
  6
CONTINUOUS
 62
     7
 10
97.47626972400003
 20
86.40586956429999
 40
0.9891304347999785
 50
2.0
 51
90.0000000001
  0
ARC
  8
1
  6
CONTINUOUS
 62
     7
 10
116.7817136494
 20
127.8108695652
 40
0.989130434800034
 50
2.0
 51
90.0
  0
ARC
  8
1
  6
CONTINUOUS
 62
     7
 10
99.52965459039997
 20
84.28913043479993
 40
0.989130434800034
 50
182.0
 51
270.0
  0
LINE
  8
1
  6
CONTINUOUS
 62
     7
 10
114.0237112426
 20
83.29999999999995
 11
116.7817136494
 21
83.29999999999995
  0
LINE
  8
1
  6
CONTINUOUS
 62
     7
 10
98.46479760719994
 20
86.44038971869996
 11
98.54112670709996
 21
84.25461028039996
  0
LINE
  8
1
  6
CONTINUOUS
 62
     7
 10
112.9588542595
 20
86.44038971869996
 11
113.0351833594
 21
84.25461028039996
  0
LINE
  8
1
  6
CONTINUOUS
 62
     7
 10
104.3410418635
 20
87.39499999999991
 11
104.7232980501
 21
87.39499999999991
  0
ARC
  8
1
  6
CONTINUOUS
 62
     7
 10
138.5227986278
 20
84.28913043479993
 40
0.9891304347999785
 50
270.0
 51
358.0
  0
ARC
  8
1
  6
CONTINUOUS
 62
     7
 10
131.2757703016
 20
127.8108695652
 40
0.9891304347999785
 50
2.0
 51
90.0
  0
LINE
  8
1
  6
CONTINUOUS
 62
     7
 10
133.3291551681
 20
124.705
 11
133.7114113546
 21
124.705
  0
LINE
  8
1
  6
CONTINUOUS
 62
     7
 10
127.4529109117
 20
125.6596102813
 11
127.5292400117
 21
127.8453897195999
  0
ARC
  8
1
  6
CONTINUOUS
 62
     7
 10
119.2173547024
 20
86.40586956429999
 40
0.9891304347999785
 50
2.0
 51
90.0000000001
  0
LINE
  8
1
  6
CONTINUOUS
 62
     7
 10
128.5177678949
 20
128.8000000000001
 11
131.2757703016
 21
128.8000000000001
  0
ARC
  8
1
  6
CONTINUOUS
 62
     7
 10
126.0821268419
 20
86.40586956429999
 40
0.9891304347999785
 50
89.9999999999
 51
178.0
  0
ARC
  8
1
  6
CONTINUOUS
 62
     7
 10
124.0287419755
 20
84.28913043479993
 40
0.989130434800034
 50
270.0
 51
358.0
  0
ARC
  8
1
  6
CONTINUOUS
 62
     7
 10
133.329155168
 20
125.6941304356999
 40
0.9891304347999785
 50
182.0
 51
270.0000000001
  0
ARC
  8
1
  6
CONTINUOUS
 62
     7
 10
140.5761834942
 20
86.40586956429999
 40
0.989130434800034
 50
89.9999999999
 51
178.0
  0
LINE
  8
1
  6
CONTINUOUS
 62
     7
 10
134.6999392379
 20
86.44038971869996
 11
134.7762683378
 21
84.25461028039996
  0
ARC
  8
1
  6
CONTINUOUS
 62
     7
 10
138.5227986278
 20
127.8108695652
 40
0.9891304347999785
 50
2.0
 51
90.0
  0
LINE
  8
1
  6
CONTINUOUS
 62
     7
 10
139.5876556109
 20
125.6596102813
 11
139.511326511
 21
127.8453897195999
  0
LINE
  8
1
  6
CONTINUOUS
 62
     7
 10
133.3291551681
 20
87.39499999999991
 11
133.7114113546
 21
87.39499999999991
  0
LINE
  8
1
  6
CONTINUOUS
 62
     7
 10
134.6999392379
 20
125.6596102813
 11
134.7762683378
 21
127.8453897195999
  0
LINE
  8
1
  6
CONTINUOUS
 62
     7
 10
132.3406272848
 20
86.44038971869996
 11
132.2642981849
 21
84.25461028039996
  0
ARC
  8
1
  6
CONTINUOUS
 62
     7
 10
128.5177678949
 20
127.8108695652
 40
0.9891304347999785
 50
90.0
 51
178.0
  0
ARC
  8
1
  6
CONTINUOUS
 62
     7
 10
133.7114113546
 20
86.40586956429999
 40
0.989130434800034
 50
2.0
 51
90.0000000001
  0
ARC
  8
1
  6
CONTINUOUS
 62
     7
 10
135.764796221
 20
84.28913043479993
 40
0.9891304347999785
 50
182.0
 51
270.0
  0
LINE
  8
1
  6
CONTINUOUS
 62
     7
 10
135.764796221
 20
128.8000000000001
 11
138.5227986278
 21
128.8000000000001
  0
LINE
  8
1
  6
CONTINUOUS
 62
     7
 10
140.5761834942
 20
124.705
 11
140.7673115875
 21
124.705
  0
ARC
  8
1
  6
CONTINUOUS
 62
     7
 10
140.5761834942
 20
125.6941304356999
 40
0.989130434800034
 50
182.0
 51
270.0000000001
  0
ARC
  8
1
  6
CONTINUOUS
 62
     7
 10
126.4643830285
 20
86.40586956429999
 40
0.989130434800034
 50
2.0
 51
90.0000000001
  0
ARC
  8
1
  6
CONTINUOUS
 62
     7
 10
128.5177678949
 20
84.28913043479993
 40
0.9891304347999785
 50
182.0
 51
270.0
  0
LINE
  8
1
  6
CONTINUOUS
 62
     7
 10
132.3406272848
 20
125.6596102813
 11
132.2642981849
 21
127.8453897195999
  0
ARC
  8
1
  6
CONTINUOUS
 62
     7
 10
121.2707395688
 20
84.28913043479993
 40
0.989130434800034
 50
182.0
 51
270.0
  0
ARC
  8
1
  6
CONTINUOUS
 62
     7
 10
126.4643830285
 20
125.6941304356999
 40
0.989130434800034
 50
269.9999999999
 51
358.0
  0
LINE
  8
1
  6
CONTINUOUS
 62
     7
 10
128.5177678949
 20
83.29999999999995
 11
131.2757703016
 21
83.29999999999995
  0
ARC
  8
1
  6
CONTINUOUS
 62
     7
 10
131.2757703016
 20
84.28913043479993
 40
0.9891304347999785
 50
270.0
 51
358.0
  0
LINE
  8
1
  6
CONTINUOUS
 62
     7
 10
127.4529109117
 20
86.44038971869996
 11
127.5292400117
 21
84.25461028039996
  0
ARC
  8
1
  6
CONTINUOUS
 62
     7
 10
133.7114113546
 20
125.6941304356999
 40
0.989130434800034
 50
269.9999999999
 51
358.0
  0
LINE
  8
1
  6
CONTINUOUS
 62
     7
 10
140.5761834942
 20
87.39499999999991
 11
140.7673115875
 21
87.39499999999991
  0
LINE
  8
1
  6
CONTINUOUS
 62
     7
 10
126.0821268419
 20
87.39499999999991
 11
126.4643830285
 21
87.39499999999991
  0
ARC
  8
1
  6
CONTINUOUS
 62
     7
 10
133.329155168
 20
86.40586956429999
 40
0.9891304347999785
 50
89.9999999999
 51
178.0
  0
LINE
  8
1
  6
CONTINUOUS
 62
     7
 10
135.764796221
 20
83.29999999999995
 11
138.5227986278
 21
83.29999999999995
  0
LINE
  8
1
  6
CONTINUOUS
 62
     7
 10
120.2058825856
 20
86.44038971869996
 11
120.2822116855
 21
84.25461028039996
  0
ARC
  8
1
  6
CONTINUOUS
 62
     7
 10
135.764796221
 20
127.8108695652
 40
0.9891304347999785
 50
90.0
 51
178.0
  0
LINE
  8
1
  6
CONTINUOUS
 62
     7
 10
139.5876556109
 20
86.44038971869996
 11
139.511326511
 21
84.25461028039996
  0
LINE
  8
1
  6
CONTINUOUS
 62
     7
 10
67.15070807519996
 20
125.4372511664001
 11
67.15070807519996
 21
106.3
  0
LINE
  8
1
  6
CONTINUOUS
 62
     7
 10
81.50176417639999
 20
106.3
 11
81.50176417639999
 21
128.0677488344
  0
ARC
  8
1
  6
CONTINUOUS
 62
     7
 10
211.05
 20
106.05
 40
17.65500000010001
 50
180.8113522295758
 51
179.1886477704242
  0
LINE
  8
1
  6
CONTINUOUS
 62
     7
 10
161.3620763149
 20
124.7050000000999
 11
161.3620763149
 21
105.8
  0
LINE
  8
1
  6
CONTINUOUS
 62
     7
 10
148.1573404647
 20
84.07628573759997
 11
148.1573404647
 21
105.8
  0
LINE
  8
1
  6
CONTINUOUS
 62
     7
 10
160.0727555129
 20
106.3
 11
160.0727555129
 21
128.0677488344
  0
ARC
  8
1
  6
CONTINUOUS
 62
     7
 10
211.05
 20
106.05
 40
22.74999999999999
 50
180.6296366234414
 51
179.3703633765585
  0
LINE
  8
1
  6
CONTINUOUS
 62
     7
 10
96.13882137969998
 20
105.8
 11
96.13882137969998
 21
86.66274883359995
  0
LINE
  8
1
  6
CONTINUOUS
 62
     7
 10
62.339320802
 20
106.3
 11
62.339320802
 21
128.0677488344
  0
LINE
  8
1
  6
CONTINUOUS
 62
     7
 10
145.7216994117
 20
125.4372511664001
 11
145.7216994117
 21
106.3
  0
LINE
  8
1
  6
CONTINUOUS
 62
     7
 10
67.00770752410001
 20
106.3
 11
67.00770752410001
 21
128.0677488344
  0
LINE
  8
1
  6
CONTINUOUS
 62
     7
 10
139.4779907855
 20
106.3
 11
139.4779907855
 21
128.0677488344
  0
LINE
  8
1
  6
CONTINUOUS
 62
     7
 10
62.19632025090005
 20
125.4372511664001
 11
62.19632025090005
 21
106.3
  0
LINE
  8
1
  6
CONTINUOUS
 62
     7
 10
81.64476472749993
 20
125.4372511664001
 11
81.64476472749993
 21
106.3
  0
LINE
  8
1
  6
CONTINUOUS
 62
     7
 10
139.6209913365
 20
105.8
 11
139.6209913365
 21
86.66274883359995
  0
LINE
  8
1
  6
CONTINUOUS
 62
     7
 10
152.8257271868
 20
84.07628573759997
 11
152.8257271868
 21
105.8
  0
LINE
  8
1
  6
CONTINUOUS
 62
     7
 10
160.2157560639999
 20
125.4372511664001
 11
160.2157560639999
 21
106.3
  0
LINE
  8
1
  6
CONTINUOUS
 62
     7
 10
148.0143399136
 20
105.8
 11
148.0143399136
 21
86.66274883359995
  0
LINE
  8
1
  6
CONTINUOUS
 62
     7
 10
140.7673115875
 20
105.8
 11
140.7673115875
 21
86.66274883359995
  0
LINE
  8
1
  6
CONTINUOUS
 62
     7
 10
161.3620763149
 20
105.8
 11
161.3620763149
 21
87.39499999999991
  0
LINE
  8
1
  6
CONTINUOUS
 62
     7
 10
160.2157560639999
 20
105.8
 11
160.2157560639999
 21
86.66274883359995
  0
LINE
  8
1
  6
CONTINUOUS
 62
     7
 10
145.7216994117
 20
105.8
 11
145.7216994117
 21
86.66274883359995
  0
LINE
  8
1
  6
CONTINUOUS
 62
     7
 10
155.2613682396999
 20
105.8
 11
155.2613682396999
 21
86.66274883359995
  0
LINE
  8
1
  6
CONTINUOUS
 62
     7
 10
74.39773640129998
 20
125.4372511664001
 11
74.39773640129998
 21
106.3
  0
LINE
  8
1
  6
CONTINUOUS
 62
     7
 10
155.4043687908
 20
106.3
 11
155.4043687908
 21
128.0677488344
  0
LINE
  8
1
  6
CONTINUOUS
 62
     7
 10
140.9103121385
 20
106.3
 11
140.9103121385
 21
128.0677488344
  0
LINE
  8
1
  6
CONTINUOUS
 62
     7
 10
76.6903769031999
 20
125.4372511664001
 11
76.6903769031999
 21
106.3
  0
LINE
  8
1
  6
CONTINUOUS
 62
     7
 10
155.4043687908
 20
84.07628573759997
 11
155.4043687908
 21
105.8
  0
LINE
  8
1
  6
CONTINUOUS
 62
     7
 10
152.9687277378
 20
125.4372511664001
 11
152.9687277378
 21
106.3
  0
LINE
  8
1
  6
CONTINUOUS
 62
     7
 10
145.5786988606
 20
84.07628573759997
 11
145.5786988606
 21
105.8
  0
LINE
  8
1
  6
CONTINUOUS
 62
     7
 10
148.1573404647
 20
106.3
 11
148.1573404647
 21
128.0677488344
  0
LINE
  8
1
  6
CONTINUOUS
 62
     7
 10
76.83337745429996
 20
106.3
 11
76.83337745429996
 21
128.0677488344
  0
LINE
  8
1
  6
CONTINUOUS
 62
     7
 10
69.58634912819994
 20
106.3
 11
69.58634912819994
 21
128.0677488344
  0
LINE
  8
1
  6
CONTINUOUS
 62
     7
 10
139.4779907855
 20
84.07628573759997
 11
139.4779907855
 21
105.8
  0
LINE
  8
1
  6
CONTINUOUS
 62
     7
 10
140.7673115875
 20
125.4372511664001
 11
140.7673115875
 21
106.3
  0
LINE
  8
1
  6
CONTINUOUS
 62
     7
 10
160.0727555129
 20
84.07628573759997
 11
160.0727555129
 21
105.8
  0
LINE
  8
1
  6
CONTINUOUS
 62
     7
 10
139.6209913365
 20
125.4372511664001
 11
139.6209913365
 21
106.3
  0
LINE
  8
1
  6
CONTINUOUS
 62
     7
 10
140.9103121385
 20
84.07628573759997
 11
140.9103121385
 21
105.8
  0
LINE
  8
1
  6
CONTINUOUS
 62
     7
 10
74.25473585029995
 20
106.3
 11
74.25473585029995
 21
128.0677488344
  0
LINE
  8
1
  6
CONTINUOUS
 62
     7
 10
145.5786988606
 20
106.3
 11
145.5786988606
 21
128.0677488344
  0
LINE
  8
1
  6
CONTINUOUS
 62
     7
 10
155.2613682396999
 20
125.4372511664001
 11
155.2613682396999
 21
106.3
  0
LINE
  8
1
  6
CONTINUOUS
 62
     7
 10
69.4433485771
 20
125.4372511664001
 11
69.4433485771
 21
106.3
  0
ARC
  8
1
  6
CONTINUOUS
 62
     7
 10
211.05
 20
106.05
 40
18.65500000010001
 50
180.7678570710081
 51
179.2321429289918
  0
LINE
  8
1
  6
CONTINUOUS
 62
     7
 10
152.9687277378
 20
105.8
 11
152.9687277378
 21
86.66274883359995
  0
LINE
  8
1
  6
CONTINUOUS
 62
     7
 10
152.8257271868
 20
106.3
 11
152.8257271868
 21
128.0677488344
  0
LINE
  8
1
  6
CONTINUOUS
 62
     7
 10
95.99582082869995
 20
84.07628573759997
 11
95.99582082869995
 21
105.8
  0
LINE
  8
1
  6
CONTINUOUS
 62
     7
 10
148.0143399136
 20
125.4372511664001
 11
148.0143399136
 21
106.3
  0
LINE
  8
1
  6
CONTINUOUS
 62
     7
 10
88.74879250250001
 20
106.3
 11
88.74879250250001
 21
128.0677488344
  0
LINE
  8
1
  6
CENTER
 62
     1
 10
211.05
 20
81.30000000000001
 11
211.05
 21
130.8
  0
LINE
  8
1
  6
CENTER
 62
     1
 10
186.3
 20
106.05
 11
235.8
 21
106.05
  0
LINE
  8
1
  6
CONTINUOUS
 62
     7
 10
134.8096040633
 20
106.3
 11
134.8096040633
 21
128.0677488344
  0
LINE
  8
1
  6
CONTINUOUS
 62
     7
 10
67.00770752410001
 20
84.07628573759997
 11
67.00770752410001
 21
105.8
  0
LINE
  8
1
  6
CONTINUOUS
 62
     7
 10
67.15070807519996
 20
105.8
 11
67.15070807519996
 21
86.66274883359995
  0
LINE
  8
1
  6
CONTINUOUS
 62
     7
 10
132.3739630104
 20
125.4372511664001
 11
132.3739630104
 21
106.3
  0
LINE
  8
1
  6
CONTINUOUS
 62
     7
 10
134.6666035123
 20
125.4372511664001
 11
134.6666035123
 21
106.3
  0
LINE
  8
1
  6
CONTINUOUS
 62
     7
 10
127.5625757372
 20
106.3
 11
127.5625757372
 21
128.0677488344
  0
LINE
  8
1
  6
CONTINUOUS
 62
     7
 10
127.4195751861
 20
125.4372511664001
 11
127.4195751861
 21
106.3
  0
LINE
  8
1
  6
CONTINUOUS
 62
     7
 10
76.83337745429996
 20
84.07628573759997
 11
76.83337745429996
 21
105.8
  0
LINE
  8
1
  6
CONTINUOUS
 62
     7
 10
83.93740522929993
 20
105.8
 11
83.93740522929993
 21
86.66274883359995
  0
LINE
  8
1
  6
CONTINUOUS
 62
     7
 10
74.39773640129998
 20
105.8
 11
74.39773640129998
 21
86.66274883359995
  0
LINE
  8
1
  6
CONTINUOUS
 62
     7
 10
81.50176417639999
 20
84.07628573759997
 11
81.50176417639999
 21
105.8
  0
LINE
  8
1
  6
CONTINUOUS
 62
     7
 10
69.4433485771
 20
105.8
 11
69.4433485771
 21
86.66274883359995
  0
LINE
  8
1
  6
CONTINUOUS
 62
     7
 10
81.64476472749993
 20
105.8
 11
81.64476472749993
 21
86.66274883359995
  0
LINE
  8
1
  6
CONTINUOUS
 62
     7
 10
76.6903769031999
 20
105.8
 11
76.6903769031999
 21
86.66274883359995
  0
LINE
  8
1
  6
CONTINUOUS
 62
     7
 10
62.339320802
 20
84.07628573759997
 11
62.339320802
 21
105.8
  0
LINE
  8
1
  6
CONTINUOUS
 62
     7
 10
69.58634912819994
 20
84.07628573759997
 11
69.58634912819994
 21
105.8
  0
LINE
  8
1
  6
CONTINUOUS
 62
     7
 10
88.74879250250001
 20
84.07628573759997
 11
88.74879250250001
 21
105.8
  0
LINE
  8
1
  6
CONTINUOUS
 62
     7
 10
88.89179305359995
 20
105.8
 11
88.89179305359995
 21
86.66274883359995
  0
LINE
  8
1
  6
CONTINUOUS
 62
     7
 10
74.25473585029995
 20
84.07628573759997
 11
74.25473585029995
 21
105.8
  0
LINE
  8
1
  6
CONTINUOUS
 62
     7
 10
84.08040578039999
 20
84.07628573759997
 11
84.08040578039999
 21
105.8
  0
LINE
  8
1
  6
CONTINUOUS
 62
     7
 10
62.19632025090005
 20
105.8
 11
62.19632025090005
 21
86.66274883359995
  0
LINE
  8
1
  6
CONTINUOUS
 62
     7
 10
110.632878032
 20
125.4372511664001
 11
110.632878032
 21
106.3
  0
LINE
  8
1
  6
CONTINUOUS
 62
     7
 10
105.8214907588
 20
106.3
 11
105.8214907588
 21
128.0677488344
  0
LINE
  8
1
  6
CONTINUOUS
 62
     7
 10
105.6784902076999
 20
125.4372511664001
 11
105.6784902076999
 21
106.3
  0
LINE
  8
1
  6
CONTINUOUS
 62
     7
 10
117.7369058071
 20
106.3
 11
117.7369058071
 21
128.0677488344
  0
LINE
  8
1
  6
CONTINUOUS
 62
     7
 10
112.9255185339
 20
125.4372511664001
 11
112.9255185339
 21
106.3
  0
LINE
  8
1
  6
CONTINUOUS
 62
     7
 10
125.1269346843
 20
125.4372511664001
 11
125.1269346843
 21
106.3
  0
LINE
  8
1
  6
CONTINUOUS
 62
     7
 10
98.43146188160001
 20
125.4372511664001
 11
98.43146188160001
 21
106.3
  0
LINE
  8
1
  6
CONTINUOUS
 62
     7
 10
120.17254686
 20
125.4372511664001
 11
120.17254686
 21
106.3
  0
LINE
  8
1
  6
CONTINUOUS
 62
     7
 10
132.2309624593
 20
106.3
 11
132.2309624593
 21
128.0677488344
  0
LINE
  8
1
  6
CONTINUOUS
 62
     7
 10
120.3155474111
 20
106.3
 11
120.3155474111
 21
128.0677488344
  0
LINE
  8
1
  6
CONTINUOUS
 62
     7
 10
113.0685190849
 20
106.3
 11
113.0685190849
 21
128.0677488344
  0
LINE
  8
1
  6
CONTINUOUS
 62
     7
 10
117.8799063581
 20
125.4372511664001
 11
117.8799063581
 21
106.3
  0
LINE
  8
1
  6
CONTINUOUS
 62
     7
 10
124.9839341332
 20
106.3
 11
124.9839341332
 21
128.0677488344
  0
LINE
  8
1
  6
CONTINUOUS
 62
     7
 10
110.4898774809
 20
106.3
 11
110.4898774809
 21
128.0677488344
  0
LINE
  8
1
  6
CONTINUOUS
 62
     7
 10
91.32743410650001
 20
106.3
 11
91.32743410650001
 21
128.0677488344
  0
LINE
  8
1
  6
CONTINUOUS
 62
     7
 10
103.2428491548
 20
106.3
 11
103.2428491548
 21
128.0677488344
  0
LINE
  8
1
  6
CONTINUOUS
 62
     7
 10
84.08040578039999
 20
106.3
 11
84.08040578039999
 21
128.0677488344
  0
LINE
  8
1
  6
CONTINUOUS
 62
     7
 10
83.93740522929993
 20
125.4372511664001
 11
83.93740522929993
 21
106.3
  0
LINE
  8
1
  6
CONTINUOUS
 62
     7
 10
91.1844335555
 20
125.4372511664001
 11
91.1844335555
 21
106.3
  0
LINE
  8
1
  6
CONTINUOUS
 62
     7
 10
98.57446243269996
 20
106.3
 11
98.57446243269996
 21
128.0677488344
  0
LINE
  8
1
  6
CONTINUOUS
 62
     7
 10
103.3858497058999
 20
125.4372511664001
 11
103.3858497058999
 21
106.3
  0
LINE
  8
1
  6
CONTINUOUS
 62
     7
 10
88.89179305359995
 20
125.4372511664001
 11
88.89179305359995
 21
106.3
  0
LINE
  8
1
  6
CONTINUOUS
 62
     7
 10
95.99582082869995
 20
106.3
 11
95.99582082869995
 21
128.0677488344
  0
LINE
  8
1
  6
CONTINUOUS
 62
     7
 10
96.13882137969998
 20
125.4372511664001
 11
96.13882137969998
 21
106.3
  0
LINE
  8
1
  6
CONTINUOUS
 62
     7
 10
61.04999999999993
 20
106.3
 11
161.3620763149
 21
106.3
  0
LINE
  8
1
  6
CONTINUOUS
 62
     7
 10
193.3967701254549
 20
105.8
 11
188.3013736678453
 21
105.8
  0
LINE
  8
1
  6
CONTINUOUS
 62
     7
 10
188.3013736678453
 20
106.3
 11
193.3967701254549
 21
106.3
  0
TEXT
  8
1
  6
CONTINUOUS
 62
     7
 10
204.4095066900088
 20
72.8784200325122
 40
3.0
  1
P-FRS-36
  0
ARC
  8
1
  6
CONTINUOUS
 62
     7
 10
66.0525153664
 20
127.8108695652
 40
0.989130434800034
 50
2.0
 51
90.0
  0
ARC
  8
1
  6
CONTINUOUS
 62
     7
 10
61.24112809329996
 20
125.6941304356999
 40
0.989130434800034
 50
269.9999999999
 51
358.0
  0
ARC
  8
1
  6
CONTINUOUS
 62
     7
 10
68.10590023289997
 20
125.6941304356999
 40
0.989130434800034
 50
182.0
 51
270.0000000001
  0
ARC
  8
1
  6
CONTINUOUS
 62
     7
 10
63.29451295970001
 20
127.8108695652
 40
0.9891304347999785
 50
90.0
 51
178.0
  0
ARC
  8
1
  6
CONTINUOUS
 62
     7
 10
63.29451295970001
 20
84.28913043479993
 40
0.9891304347999785
 50
182.0
 51
270.0
  0
ARC
  8
1
  6
CONTINUOUS
 62
     7
 10
75.35292855899999
 20
125.6941304356999
 40
0.9891304347999785
 50
182.0
 51
270.0000000001
  0
LINE
  8
1
  6
CONTINUOUS
 62
     7
 10
69.47668430269994
 20
125.6596102813
 11
69.55301340259994
 21
127.8453897195999
  0
LINE
  8
1
  6
CONTINUOUS
 62
     7
 10
70.54154128579992
 20
83.29999999999995
 11
73.29954369259994
 21
83.29999999999995
  0
ARC
  8
1
  6
CONTINUOUS
 62
     7
 10
82.59995688510003
 20
125.6941304356999
 40
0.9891304347999785
 50
182.0
 51
270.0000000001
  0
ARC
  8
1
  6
CONTINUOUS
 62
     7
 10
75.73518474559992
 20
125.6941304356999
 40
0.989130434800034
 50
270.0
 51
358.0
  0
ARC
  8
1
  6
CONTINUOUS
 62
     7
 10
77.78856961199997
 20
127.8108695652
 40
0.9891304347999785
 50
90.0
 51
178.0
  0
LINE
  8
1
  6
CONTINUOUS
 62
     7
 10
67.11737234960002
 20
125.6596102813
 11
67.04104324970001
 21
127.8453897195999
  0
LINE
  8
1
  6
CONTINUOUS
 62
     7
 10
68.10590023289997
 20
124.705
 11
68.48815641939998
 21
124.705
  0
ARC
  8
1
  6
CONTINUOUS
 62
     7
 10
66.0525153664
 20
84.28913043479993
 40
0.989130434800034
 50
270.0
 51
358.0
  0
LINE
  8
1
  6
CONTINUOUS
 62
     7
 10
63.29451295970001
 20
128.8000000000001
 11
66.05251536640006
 21
128.8000000000001
  0
ARC
  8
1
  6
CONTINUOUS
 62
     7
 10
70.54154128579992
 20
127.8108695652
 40
0.989130434800034
 50
90.0
 51
178.0
  0
ARC
  8
1
  6
CONTINUOUS
 62
     7
 10
68.48815641939998
 20
125.6941304356999
 40
0.989130434800034
 50
269.9999999999
 51
358.0
  0
ARC
  8
1
  6
CONTINUOUS
 62
     7
 10
61.24112809329996
 20
86.40586956429999
 40
0.989130434800034
 50
2.0
 51
90.0000000001
  0
ARC
  8
1
  6
CONTINUOUS
 62
     7
 10
68.48815641939998
 20
86.40586956429999
 40
0.989130434800034
 50
2.0
 51
90.0000000001
  0
ARC
  8
1
  6
CONTINUOUS
 62
     7
 10
73.29954369259994
 20
127.8108695652
 40
0.989130434800034
 50
2.0
 51
90.0
  0
LINE
  8
1
  6
CONTINUOUS
 62
     7
 10
77.78856961189994
 20
83.29999999999995
 11
80.54657201869996
 21
83.29999999999995
  0
LINE
  8
1
  6
CONTINUOUS
 62
     7
 10
74.36440067570005
 20
125.6596102813
 11
74.28807157580003
 21
127.8453897195999
  0
LINE
  8
1
  6
CONTINUOUS
 62
     7
 10
62.22965597649998
 20
86.44038971869996
 11
62.30598507649998
 21
84.25461028039996
  0
LINE
  8
1
  6
CONTINUOUS
 62
     7
 10
74.36440067570005
 20
86.44038971869996
 11
74.28807157580003
 21
84.25461028039996
  0
LINE
  8
1
  6
CONTINUOUS
 62
     7
 10
61.24112809329996
 20
87.39499999999991
 11
61.04999999999993
 21
87.39499999999991
  0
LINE
  8
1
  6
CONTINUOUS
 62
     7
 10
67.11737234960002
 20
86.44038971869996
 11
67.04104324970001
 21
84.25461028039996
  0
LINE
  8
1
  6
CONTINUOUS
 62
     7
 10
70.54154128579992
 20
128.8000000000001
 11
73.29954369259994
 21
128.8000000000001
  0
LINE
  8
1
  6
CONTINUOUS
 62
     7
 10
62.22965597649998
 20
125.6596102813
 11
62.30598507649998
 21
127.8453897195999
  0
LINE
  8
1
  6
CONTINUOUS
 62
     7
 10
69.47668430269994
 20
86.44038971869996
 11
69.55301340259994
 21
84.25461028039996
  0
LINE
  8
1
  6
CONTINUOUS
 62
     7
 10
75.35292855899999
 20
87.39499999999991
 11
75.73518474559998
 21
87.39499999999991
  0
ARC
  8
1
  6
CONTINUOUS
 62
     7
 10
75.35292855899999
 20
86.40586956429999
 40
0.9891304347999785
 50
89.9999999999
 51
178.0
  0
ARC
  8
1
  6
CONTINUOUS
 62
     7
 10
70.54154128579992
 20
84.28913043479993
 40
0.989130434800034
 50
182.0
 51
270.0
  0
LINE
  8
1
  6
CONTINUOUS
 62
     7
 10
81.61142900189999
 20
125.6596102813
 11
81.53509990199997
 21
127.8453897195999
  0
LINE
  8
1
  6
CONTINUOUS
 62
     7
 10
77.78856961189994
 20
128.8000000000001
 11
80.54657201869996
 21
128.8000000000001
  0
LINE
  8
1
  6
CONTINUOUS
 62
     7
 10
75.35292855899999
 20
124.705
 11
75.73518474559998
 21
124.705
  0
ARC
  8
1
  6
CONTINUOUS
 62
     7
 10
73.29954369259994
 20
84.28913043479993
 40
0.989130434800034
 50
270.0
 51
358.0
  0
ARC
  8
1
  6
CONTINUOUS
 62
     7
 10
80.54657201869996
 20
127.8108695652
 40
0.989130434800034
 50
2.0
 51
90.0
  0
LINE
  8
1
  6
CONTINUOUS
 62
     7
 10
82.59995688510003
 20
124.705
 11
82.9822130717
 21
124.705
  0
LINE
  8
1
  6
CONTINUOUS
 62
     7
 10
76.72371262879996
 20
125.6596102813
 11
76.80004172869997
 21
127.8453897195999
  0
ARC
  8
1
  6
CONTINUOUS
 62
     7
 10
68.10590023289997
 20
86.40586956429999
 40
0.989130434800034
 50
89.9999999999
 51
178.0
  0
LINE
  8
1
  6
CONTINUOUS
 62
     7
 10
61.24112809329996
 20
124.705
 11
61.04999999999993
 21
124.705
  0
LINE
  8
1
  6
CONTINUOUS
 62
     7
 10
68.10590023289997
 20
87.39499999999991
 11
68.48815641939998
 21
87.39499999999991
  0
LINE
  8
1
  6
CONTINUOUS
 62
     7
 10
63.29451295970001
 20
83.29999999999995
 11
66.05251536640006
 21
83.29999999999995
  0
LINE
  8
1
  6
CONTINUOUS
 62
     7
 10
81.61142900189999
 20
86.44038971869996
 11
81.53509990199997
 21
84.25461028039996
  0
LINE
  8
1
  6
CONTINUOUS
 62
     7
 10
146.6768915694
 20
87.39499999999991
 11
147.0591477559
 21
87.39499999999991
  0
LINE
  8
1
  6
CONTINUOUS
 62
     7
 10
140.8006473131
 20
125.6596102813
 11
140.876976413
 21
127.8453897195999
  0
LINE
  8
1
  6
CONTINUOUS
 62
     7
 10
140.8006473131
 20
86.44038971869996
 11
140.876976413
 21
84.25461028039996
  0
LINE
  8
1
  6
CONTINUOUS
 62
     7
 10
146.6768915694
 20
124.705
 11
147.0591477559
 21
124.705
  0
LINE
  8
1
  6
CONTINUOUS
 62
     7
 10
149.1125326222999
 20
128.8000000000001
 11
151.8705350291
 21
128.8000000000001
  0
ARC
  8
1
  6
CONTINUOUS
 62
     7
 10
151.8705350291
 20
127.8108695652
 40
0.9891304347999785
 50
2.0
 51
90.0
  0
LINE
  8
1
  6
CONTINUOUS
 62
     7
 10
148.0476756392
 20
125.6596102813
 11
148.1240047391
 21
127.8453897195999
  0
ARC
  8
1
  6
CONTINUOUS
 62
     7
 10
151.8705350291
 20
84.28913043479993
 40
0.9891304347999785
 50
270.0
 51
358.0
  0
ARC
  8
1
  6
CONTINUOUS
 62
     7
 10
149.1125326224
 20
84.28913043479993
 40
0.9891304347999785
 50
182.0
 51
270.0
  0
LINE
  8
1
  6
CONTINUOUS
 62
     7
 10
148.0476756392
 20
86.44038971869996
 11
148.1240047391
 21
84.25461028039996
  0
LINE
  8
1
  6
CONTINUOUS
 62
     7
 10
141.8655042962
 20
83.29999999999995
 11
144.623506703
 21
83.29999999999995
  0
ARC
  8
1
  6
CONTINUOUS
 62
     7
 10
146.6768915694
 20
86.40586956429999
 40
0.9891304347999785
 50
89.9999999999
 51
178.0
  0
LINE
  8
1
  6
CONTINUOUS
 62
     7
 10
153.9239198955
 20
87.39499999999991
 11
154.3061760821
 21
87.39499999999991
  0
LINE
  8
1
  6
CONTINUOUS
 62
     7
 10
160.1824203384
 20
125.6596102813
 11
160.1060912385
 21
127.8453897195999
  0
ARC
  8
1
  6
CONTINUOUS
 62
     7
 10
144.6235067029999
 20
84.28913043479993
 40
0.989130434800034
 50
270.0
 51
358.0
  0
LINE
  8
1
  6
CONTINUOUS
 62
     7
 10
156.3595609484
 20
128.8000000000001
 11
159.1175633552
 21
128.8000000000001
  0
ARC
  8
1
  6
CONTINUOUS
 62
     7
 10
159.1175633552
 20
127.8108695652
 40
0.9891304347999785
 50
2.0
 51
90.0
  0
ARC
  8
1
  6
CONTINUOUS
 62
     7
 10
161.1709482216
 20
125.6941304356999
 40
0.9891304347999785
 50
182.0
 51
270.0000000001
  0
LINE
  8
1
  6
CONTINUOUS
 62
     7
 10
156.3595609484
 20
83.29999999999995
 11
159.1175633552
 21
83.29999999999995
  0
ARC
  8
1
  6
CONTINUOUS
 62
     7
 10
161.1709482216
 20
86.40586956429999
 40
0.9891304347999785
 50
89.9999999999
 51
178.0
  0
ARC
  8
1
  6
CONTINUOUS
 62
     7
 10
154.3061760820999
 20
86.40586956429999
 40
0.989130434800034
 50
2.0
 51
90.0000000001
  0
ARC
  8
1
  6
CONTINUOUS
 62
     7
 10
154.3061760820999
 20
125.6941304356999
 40
0.989130434800034
 50
269.9999999999
 51
358.0
  0
LINE
  8
1
  6
CONTINUOUS
 62
     7
 10
141.8655042962
 20
128.8000000000001
 11
144.623506703
 21
128.8000000000001
  0
ARC
  8
1
  6
CONTINUOUS
 62
     7
 10
146.6768915694
 20
125.6941304356999
 40
0.9891304347999785
 50
182.0
 51
270.0000000001
  0
LINE
  8
1
  6
CONTINUOUS
 62
     7
 10
153.9239198955
 20
124.705
 11
154.3061760821
 21
124.705
  0
ARC
  8
1
  6
CONTINUOUS
 62
     7
 10
153.9239198955
 20
125.6941304356999
 40
0.9891304347999785
 50
182.0
 51
270.0000000001
  0
LINE
  8
1
  6
CONTINUOUS
 62
     7
 10
149.1125326222999
 20
83.29999999999995
 11
151.8705350291
 21
83.29999999999995
  0
LINE
  8
1
  6
CONTINUOUS
 62
     7
 10
139.8121194298
 20
124.705
 11
139.6209913365
 21
124.705
  0
LINE
  8
1
  6
CONTINUOUS
 62
     7
 10
161.1709482216
 20
124.705
 11
161.3620763149
 21
124.705
  0
ARC
  8
1
  6
CONTINUOUS
 62
     7
 10
144.6235067029999
 20
127.8108695652
 40
0.989130434800034
 50
2.0
 51
90.0
  0
LINE
  8
1
  6
CONTINUOUS
 62
     7
 10
145.6883636861
 20
86.44038971869996
 11
145.6120345862
 21
84.25461028039996
  0
ARC
  8
1
  6
CONTINUOUS
 62
     7
 10
141.8655042962
 20
127.8108695652
 40
0.989130434800034
 50
90.0
 51
178.0
  0
LINE
  8
1
  6
CONTINUOUS
 62
     7
 10
152.9353920123
 20
125.6596102813
 11
152.8590629123
 21
127.8453897195999
  0
ARC
  8
1
  6
CONTINUOUS
 62
     7
 10
147.0591477559
 20
125.6941304356999
 40
0.9891304347999785
 50
269.9999999999
 51
358.0
  0
LINE
  8
1
  6
CONTINUOUS
 62
     7
 10
152.9353920123
 20
86.44038971869996
 11
152.8590629123
 21
84.25461028039996
  0
ARC
  8
1
  6
CONTINUOUS
 62
     7
 10
149.1125326224
 20
127.8108695652
 40
0.9891304347999785
 50
90.0
 51
178.0
  0
LINE
  8
1
  6
CONTINUOUS
 62
     7
 10
155.2947039653
 20
125.6596102813
 11
155.3710330652
 21
127.8453897195999
  0
ARC
  8
1
  6
CONTINUOUS
 62
     7
 10
156.3595609485
 20
127.8108695652
 40
0.9891304347999785
 50
90.0
 51
178.0
  0
LINE
  8
1
  6
CONTINUOUS
 62
     7
 10
139.8121194298
 20
87.39499999999991
 11
139.6209913365
 21
87.39499999999991
  0
LINE
  8
1
  6
CONTINUOUS
 62
     7
 10
160.1824203384
 20
86.44038971869996
 11
160.1060912385
 21
84.25461028039996
  0
ARC
  8
1
  6
CONTINUOUS
 62
     7
 10
159.1175633552
 20
84.28913043479993
 40
0.9891304347999785
 50
270.0
 51
358.0
  0
LINE
  8
1
  6
CONTINUOUS
 62
     7
 10
155.2947039653
 20
86.44038971869996
 11
155.3710330652
 21
84.25461028039996
  0
ARC
  8
1
  6
CONTINUOUS
 62
     7
 10
153.9239198955
 20
86.40586956429999
 40
0.9891304347999785
 50
89.9999999999
 51
178.0
  0
LINE
  8
1
  6
CONTINUOUS
 62
     7
 10
145.6883636861
 20
125.6596102813
 11
145.6120345862
 21
127.8453897195999
  0
ARC
  8
1
  6
CONTINUOUS
 62
     7
 10
147.0591477559
 20
86.40586956429999
 40
0.9891304347999785
 50
2.0
 51
90.0000000001
  0
ARC
  8
1
  6
CONTINUOUS
 62
     7
 10
156.3595609485
 20
84.28913043479993
 40
0.9891304347999785
 50
182.0
 51
270.0
  0
ARC
  8
1
  6
CONTINUOUS
 62
     7
 10
139.8121194298
 20
86.40586956429999
 40
0.9891304347999785
 50
2.0
 51
90.0
  0
LINE
  8
1
  6
CONTINUOUS
 62
     7
 10
161.1709482216
 20
87.39499999999991
 11
161.3620763149
 21
87.39499999999991
  0
LINE
  8
1
  6
CONTINUOUS
 62
     7
 10
61.04999999999993
 20
124.705
 11
61.04999999999993
 21
87.39499999919988
  0
ARC
  8
1
  6
CONTINUOUS
 62
     7
 10
139.8121194298
 20
125.6941304356999
 40
0.9891304347999785
 50
270.0
 51
358.0
  0
ARC
  8
1
  6
CONTINUOUS
 62
     7
 10
141.8655042962
 20
84.28913043479993
 40
0.989130434800034
 50
182.0
 51
270.0
  0
LINE
  8
1
  6
CENTER
 62
     1
 10
56.04999999999993
 20
106.05
 11
166.3620763149
 21
106.05
  0
ARC
  8
1
  6
CONTINUOUS
 62
     7
 10
82.98221307169995
 20
86.40586956429999
 40
0.989130434800034
 50
2.0
 51
90.0000000001
  0
LINE
  8
1
  6
CONTINUOUS
 62
     7
 10
83.97074095489998
 20
125.6596102813
 11
84.04707005490003
 21
127.8453897195999
  0
LINE
  8
1
  6
CONTINUOUS
 62
     7
 10
76.72371262879996
 20
86.44038971869996
 11
76.80004172869997
 21
84.25461028039996
  0
ARC
  8
1
  6
CONTINUOUS
 62
     7
 10
95.04062867100005
 20
127.8108695652
 40
0.9891304347999785
 50
2.0
 51
90.0
  0
ARC
  8
1
  6
CONTINUOUS
 62
     7
 10
97.09401353739999
 20
86.40586956429999
 40
0.989130434800034
 50
89.9999999999
 51
178.0
  0
ARC
  8
1
  6
CONTINUOUS
 62
     7
 10
92.28262626420003
 20
84.28913043479993
 40
0.9891304347999785
 50
182.0
 51
270.0
  0
ARC
  8
1
  6
CONTINUOUS
 62
     7
 10
87.7936003448
 20
84.28913043479993
 40
0.989130434800034
 50
270.0
 51
358.0
  0
LINE
  8
1
  6
CONTINUOUS
 62
     7
 10
89.84698521129997
 20
124.705
 11
90.22924139779997
 21
124.705
  0
LINE
  8
1
  6
CONTINUOUS
 62
     7
 10
89.84698521129997
 20
87.39499999999991
 11
90.22924139779997
 21
87.39499999999991
  0
ARC
  8
1
  6
CONTINUOUS
 62
     7
 10
77.78856961199997
 20
84.28913043479993
 40
0.9891304347999785
 50
182.0
 51
270.0
  0
LINE
  8
1
  6
CONTINUOUS
 62
     7
 10
85.0355979381
 20
128.8000000000001
 11
87.79360034480004
 21
128.8000000000001
  0
ARC
  8
1
  6
CONTINUOUS
 62
     7
 10
95.04062867100005
 20
84.28913043479993
 40
0.9891304347999785
 50
270.0
 51
358.0
  0
LINE
  8
1
  6
CONTINUOUS
 62
     7
 10
91.21776928109992
 20
86.44038971869996
 11
91.29409838099994
 21
84.25461028039996
  0
ARC
  8
1
  6
CONTINUOUS
 62
     7
 10
80.54657201869996
 20
84.28913043479993
 40
0.989130434800034
 50
270.0
 51
358.0
  0
LINE
  8
1
  6
CONTINUOUS
 62
     7
 10
82.59995688510003
 20
87.39499999999991
 11
82.9822130717
 21
87.39499999999991
  0
ARC
  8
1
  6
CONTINUOUS
 62
     7
 10
82.59995688510003
 20
86.40586956429999
 40
0.9891304347999785
 50
89.9999999999
 51
178.0
  0
ARC
  8
1
  6
CONTINUOUS
 62
     7
 10
89.84698521129997
 20
125.6941304356999
 40
0.989130434800034
 50
182.0
 51
270.0000000001
  0
LINE
  8
1
  6
CONTINUOUS
 62
     7
 10
88.85845732800001
 20
86.44038971869996
 11
88.78212822809999
 21
84.25461028039996
  0
LINE
  8
1
  6
CONTINUOUS
 62
     7
 10
85.0355979381
 20
83.29999999999995
 11
87.79360034480004
 21
83.29999999999995
  0
LINE
  8
1
  6
CONTINUOUS
 62
     7
 10
96.10548565409992
 20
86.44038971869996
 11
96.02915655419997
 21
84.25461028039996
  0
ARC
  8
1
  6
CONTINUOUS
 62
     7
 10
92.28262626420003
 20
127.8108695652
 40
0.9891304347999785
 50
90.0
 51
178.0
  0
LINE
  8
1
  6
CONTINUOUS
 62
     7
 10
88.85845732800001
 20
125.6596102813
 11
88.78212822809999
 21
127.8453897195999
  0
LINE
  8
1
  6
CONTINUOUS
 62
     7
 10
103.3525139803
 20
125.6596102813
 11
103.2761848803001
 21
127.8453897195999
  0
LINE
  8
1
  6
CONTINUOUS
 62
     7
 10
99.52965459029994
 20
128.8000000000001
 11
102.2876569971
 21
128.8000000000001
  0
ARC
  8
1
  6
CONTINUOUS
 62
     7
 10
85.0355979381
 20
127.8108695652
 40
0.9891304347999785
 50
90.0
 51
178.0
  0
ARC
  8
1
  6
CONTINUOUS
 62
     7
 10
90.22924139779997
 20
125.6941304356999
 40
0.989130434800034
 50
269.9999999999
 51
358.0
  0
ARC
  8
1
  6
CONTINUOUS
 62
     7
 10
87.7936003448
 20
127.8108695652
 40
0.989130434800034
 50
2.0
 51
90.0
  0
ARC
  8
1
  6
CONTINUOUS
 62
     7
 10
102.2876569971
 20
127.8108695652
 40
0.989130434800034
 50
2.0
 51
90.0
  0
LINE
  8
1
  6
CONTINUOUS
 62
     7
 10
97.09401353739999
 20
124.705
 11
97.47626972399998
 21
124.705
  0
LINE
  8
1
  6
CONTINUOUS
 62
     7
 10
96.10548565409992
 20
125.6596102813
 11
96.02915655419997
 21
127.8453897195999
  0
ARC
  8
1
  6
CONTINUOUS
 62
     7
 10
97.09401353739999
 20
125.6941304356999
 40
0.989130434800034
 50
182.0
 51
270.0000000001
  0
LINE
  8
1
  6
CONTINUOUS
 62
     7
 10
104.3410418635
 20
124.705
 11
104.7232980501
 21
124.705
  0
ARC
  8
1
  6
CONTINUOUS
 62
     7
 10
104.3410418635
 20
125.6941304356999
 40
0.9891304347999785
 50
182.0
 51
270.0000000001
  0
LINE
  8
1
  6
CONTINUOUS
 62
     7
 10
83.97074095489998
 20
86.44038971869996
 11
84.04707005490003
 21
84.25461028039996
  0
LINE
  8
1
  6
CONTINUOUS
 62
     7
 10
98.46479760719994
 20
125.6596102813
 11
98.54112670709996
 21
127.8453897195999
  0
ARC
  8
1
  6
CONTINUOUS
 62
     7
 10
97.47626972400003
 20
125.6941304356999
 40
0.9891304347999785
 50
269.9999999999
 51
358.0
  0
LINE
  8
1
  6
CONTINUOUS
 62
     7
 10
92.28262626420003
 20
83.29999999999995
 11
95.04062867100005
 21
83.29999999999995
  0
ARC
  8
1
  6
CONTINUOUS
 62
     7
 10
82.98221307169995
 20
125.6941304356999
 40
0.989130434800034
 50
269.9999999999
 51
358.0
  0
LINE
  8
1
  6
CONTINUOUS
 62
     7
 10
92.28262626420003
 20
128.8000000000001
 11
95.04062867100005
 21
128.8000000000001
  0
ARC
  8
1
  6
CONTINUOUS
 62
     7
 10
75.73518474559992
 20
86.40586956429999
 40
0.989130434800034
 50
2.0
 51
90.0
  0
ARC
  8
1
  6
CONTINUOUS
 62
     7
 10
89.84698521129997
 20
86.40586956429999
 40
0.989130434800034
 50
89.9999999999
 51
178.0
  0
ARC
  8
1
  6
CONTINUOUS
 62
     7
 10
85.0355979381
 20
84.28913043479993
 40
0.9891304347999785
 50
182.0
 51
270.0
  0
LINE
  8
1
  6
CONTINUOUS
 62
     7
 10
91.21776928109992
 20
125.6596102813
 11
91.29409838099994
 21
127.8453897195999
  0
LINE
  8
1
  6
CONTINUOUS
 62
     7
 10
97.09401353739999
 20
87.39499999999991
 11
97.47626972399998
 21
87.39499999999991
  0
ARC
  8
1
  6
CONTINUOUS
 62
     7
 10
90.22924139779997
 20
86.40586956429999
 40
0.989130434800034
 50
2.0
 51
90.0000000001
  0
LINE
  8
1
  6
CONTINUOUS
 62
     7
 10
105.6784902076999
 20
105.8
 11
105.6784902076999
 21
86.66274883359995
  0
LINE
  8
1
  6
CONTINUOUS
 62
     7
 10
117.8799063581
 20
105.8
 11
117.8799063581
 21
86.66274883359995
  0
LINE
  8
1
  6
CONTINUOUS
 62
     7
 10
120.3155474111
 20
84.07628573759997
 11
120.3155474111
 21
105.8
  0
LINE
  8
1
  6
CONTINUOUS
 62
     7
 10
120.17254686
 20
105.8
 11
120.17254686
 21
86.66274883359995
  0
LINE
  8
1
  6
CONTINUOUS
 62
     7
 10
134.8096040633
 20
84.07628573759997
 11
134.8096040633
 21
105.8
  0
LINE
  8
1
  6
CONTINUOUS
 62
     7
 10
112.9255185339
 20
105.8
 11
112.9255185339
 21
86.66274883359995
  0
LINE
  8
1
  6
CONTINUOUS
 62
     7
 10
117.7369058071
 20
84.07628573759997
 11
117.7369058071
 21
105.8
  0
LINE
  8
1
  6
CONTINUOUS
 62
     7
 10
103.3858497058999
 20
105.8
 11
103.3858497058999
 21
86.66274883359995
  0
LINE
  8
1
  6
CONTINUOUS
 62
     7
 10
98.57446243269996
 20
84.07628573759997
 11
98.57446243269996
 21
105.8
  0
LINE
  8
1
  6
CONTINUOUS
 62
     7
 10
132.3739630104
 20
105.8
 11
132.3739630104
 21
86.66274883359995
  0
LINE
  8
1
  6
CONTINUOUS
 62
     7
 10
105.8214907588
 20
84.07628573759997
 11
105.8214907588
 21
105.8
  0
LINE
  8
1
  6
CONTINUOUS
 62
     7
 10
127.4195751861
 20
105.8
 11
127.4195751861
 21
86.66274883359995
  0
LINE
  8
1
  6
CONTINUOUS
 62
     7
 10
134.6666035123
 20
105.8
 11
134.6666035123
 21
86.66274883359995
  0
LINE
  8
1
  6
CONTINUOUS
 62
     7
 10
113.0685190849
 20
84.07628573759997
 11
113.0685190849
 21
105.8
  0
LINE
  8
1
  6
CONTINUOUS
 62
     7
 10
110.632878032
 20
105.8
 11
110.632878032
 21
86.66274883359995
  0
LINE
  8
1
  6
CONTINUOUS
 62
     7
 10
98.43146188160001
 20
105.8
 11
98.43146188160001
 21
86.66274883359995
  0
LINE
  8
1
  6
CONTINUOUS
 62
     7
 10
124.9839341332
 20
84.07628573759997
 11
124.9839341332
 21
105.8
  0
LINE
  8
1
  6
CONTINUOUS
 62
     7
 10
132.2309624593
 20
84.07628573759997
 11
132.2309624593
 21
105.8
  0
LINE
  8
1
  6
CONTINUOUS
 62
     7
 10
110.4898774809
 20
84.07628573759997
 11
110.4898774809
 21
105.8
  0
LINE
  8
1
  6
CONTINUOUS
 62
     7
 10
125.1269346843
 20
105.8
 11
125.1269346843
 21
86.66274883359995
  0
LINE
  8
1
  6
CONTINUOUS
 62
     7
 10
127.5625757372
 20
84.07628573759997
 11
127.5625757372
 21
105.8
  0
LINE
  8
1
  6
CONTINUOUS
 62
     7
 10
103.2428491548
 20
84.07628573759997
 11
103.2428491548
 21
105.8
  0
ENDSEC
  0
EOF
