  0
SECTION
  2
HEADER
  9
$ACADVER
  1
AC1006
  9
$DWGCODEPAGE
  3
ansi_932
  9
$INSBASE
 10
0.0
 20
0.0
 30
0.0
  9
$EXTMIN
 10
582.4779196066071
 20
5.030742818181817
  9
$EXTMAX
 10
940.5
 20
151.2136924317
  9
$LIMMIN
 10
0.0
 20
0.0
  9
$LIMMAX
 10
12.0
 20
9.0
  9
$ORTHOMODE
 70
     0
  9
$REGENMODE
 70
     1
  9
$FILLMODE
 70
     1
  9
$QTEXTMODE
 70
     0
  9
$MIRRTEXT
 70
     1
  9
$DRAGMODE
 70
     2
  9
$LTSCALE
 40
1.0
  9
$OSMODE
 70
    37
  9
$ATTMODE
 70
     1
  9
$TEXTSIZE
 40
0.2
  9
$TRACEWID
 40
0.05
  9
$TEXTSTYLE
  7
STANDARD
  9
$CLAYER
  8
0
  9
$CELTYPE
  6
BYLAYER
  9
$CECOLOR
 62
   256
  9
$DIMSCALE
 40
1.0
  9
$DIMASZ
 40
1.5
  9
$DIMEXO
 40
0.0625
  9
$DIMDLI
 40
0.38
  9
$DIMRND
 40
0.0
  9
$DIMDLE
 40
0.0
  9
$DIMEXE
 40
0.75
  9
$DIMTP
 40
0.0
  9
$DIMTM
 40
0.0
  9
$DIMTXT
 40
3.5
  9
$DIMCEN
 40
0.09
  9
$DIMTSZ
 40
0.0
  9
$DIMTOL
 70
     0
  9
$DIMLIM
 70
     0
  9
$DIMTIH
 70
     1
  9
$DIMTOH
 70
     1
  9
$DIMSE1
 70
     0
  9
$DIMSE2
 70
     0
  9
$DIMTAD
 70
     1
  9
$DIMZIN
 70
     0
  9
$DIMBLK
  1

  9
$DIMASO
 70
     1
  9
$DIMSHO
 70
     1
  9
$DIMPOST
  1

  9
$DIMAPOST
  1

  9
$DIMALT
 70
     0
  9
$DIMALTD
 70
     2
  9
$DIMALTF
 40
25.4
  9
$DIMLFAC
 40
1.0
  9
$DIMTOFL
 70
     0
  9
$DIMTVP
 40
0.0
  9
$DIMTIX
 70
     0
  9
$DIMSOXD
 70
     0
  9
$DIMSAH
 70
     0
  9
$DIMBLK1
  1

  9
$DIMBLK2
  1

  9
$LUNITS
 70
     2
  9
$LUPREC
 70
     4
  9
$SKETCHINC
 40
0.1
  9
$FILLETRAD
 40
0.5
  9
$AUNITS
 70
     0
  9
$AUPREC
 70
     0
  9
$MENU
  1
.
  9
$ELEVATION
 40
0.0
  9
$THICKNESS
 40
0.0
  9
$LIMCHECK
 70
     0
  9
$CHAMFERA
 40
0.0
  9
$CHAMFERB
 40
0.0
  9
$SKPOLY
 70
     0
  9
$TDCREATE
 40
2459431.310034595
  9
$TDUPDATE
 40
2459431.31003478
  9
$TDINDWG
 40
0.0000000116
  9
$TDUSRTIMER
 40
0.0000000116
  9
$USRTIMER
 70
     1
  9
$ANGBASE
 50
0.0
  9
$ANGDIR
 70
     0
  9
$PDMODE
 70
     0
  9
$PDSIZE
 40
0.0
  9
$PLINEWID
 40
0.0
  9
$COORDS
 70
     1
  9
$SPLFRAME
 70
     0
  9
$SPLINETYPE
 70
     6
  9
$SPLINESEGS
 70
     8
  9
$ATTDIA
 70
     0
  9
$ATTREQ
 70
     1
  9
$HANDLING
 70
     1
  9
$HANDSEED
  5
26D
  9
$SURFTAB1
 70
     6
  9
$SURFTAB2
 70
     6
  9
$SURFTYPE
 70
     6
  9
$SURFU
 70
     6
  9
$SURFV
 70
     6
  9
$UCSNAME
  2

  9
$UCSORG
 10
0.0
 20
0.0
 30
0.0
  9
$UCSXDIR
 10
1.0
 20
0.0
 30
0.0
  9
$UCSYDIR
 10
0.0
 20
1.0
 30
0.0
  9
$USERI1
 70
     0
  9
$USERI2
 70
     0
  9
$USERI3
 70
     0
  9
$USERI4
 70
     0
  9
$USERI5
 70
     0
  9
$USERR1
 40
0.0
  9
$USERR2
 40
0.0
  9
$USERR3
 40
0.0
  9
$USERR4
 40
0.0
  9
$USERR5
 40
0.0
  9
$WORLDVIEW
 70
     1
  0
ENDSEC
  0
SECTION
  2
TABLES
  0
TABLE
  2
VPORT
 70
     1
  0
VPORT
  2
*ACTIVE
 70
     0
 10
0.0
 20
0.0
 11
1.0
 21
1.0
 12
761.4889598033035
 22
78.1222176249409
 13
0.0
 23
0.0
 14
0.5
 24
0.5
 15
0.5
 25
0.5
 16
0.0
 26
0.0
 36
1.0
 17
0.0
 27
0.0
 37
0.0
 40
146.1829496135182
 41
1.6
 42
50.0
 43
0.0
 44
0.0
 50
0.0
 51
0.0
 71
     0
 72
   100
 73
     1
 74
     3
 75
     0
 76
     0
 77
     0
 78
     0
  0
ENDTAB
  0
TABLE
  2
LTYPE
 70
     2
  0
LTYPE
  2
CONTINUOUS
 70
     0
  3
Solid line
 72
    65
 73
     0
 40
0.0
  0
LTYPE
  2
CENTER
 70
     0
  3

 72
    65
 73
     0
 40
0.0
  0
ENDTAB
  0
TABLE
  2
LAYER
 70
     2
  0
LAYER
  2
0
 70
     0
 62
     7
  6
CONTINUOUS
  0
LAYER
  2
1
 70
     0
 62
     7
  6
CONTINUOUS
  0
ENDTAB
  0
TABLE
  2
STYLE
 70
     2
  0
STYLE
  2
STANDARD
 70
     0
 40
0.0
 41
1.0
 50
0.0
 71
     0
 42
0.2
  3
txt
  4

  0
STYLE
  2
ＭＳ_ゴシック
 70
     0
 40
0.0
 41
1.0
 50
0.0
 71
     0
 42
0.2
  3
ＭＳ ゴシック.shx
  4

  0
ENDTAB
  0
TABLE
  2
VIEW
 70
     0
  0
ENDTAB
  0
TABLE
  2
UCS
 70
     0
  0
ENDTAB
  0
ENDSEC
  0
SECTION
  2
BLOCKS
  0
ENDSEC
  0
SECTION
  2
ENTITIES
  0
ARC
  5
70
  8
1
  6
CONTINUOUS
 62
     7
 10
756.477919606607
 20
18.21348457669999
 30
0.0
 40
5.000000000000004
 50
258.4630409671846
 51
270.0000000000001
  0
LINE
  5
71
  8
1
  6
CONTINUOUS
 62
     7
 10
753.3396666678566
 20
37.3913209727354
 30
0.0
 11
753.3523816050817
 21
37.38434184806039
 31
0.0
  0
ARC
  5
72
  8
1
  6
CONTINUOUS
 62
     7
 10
756.477919606607
 20
143.2134845767
 30
0.0
 40
5.000000000000004
 50
173.620629791557
 51
179.9999999999999
  0
LINE
  5
73
  8
1
  6
CONTINUOUS
 62
     7
 10
753.4660144711588
 20
59.7772646630845
 30
0.0
 11
755.4775374595874
 21
59.46346431879679
 31
0.0
  0
LINE
  5
74
  8
1
  6
CONTINUOUS
 62
     7
 10
753.5805643418487
 20
130.4814053864467
 30
0.0
 11
753.59186436146
 21
130.4885696891388
 31
0.0
  0
ARC
  5
75
  8
1
  6
CONTINUOUS
 62
     7
 10
756.477919606607
 20
18.21348457669999
 30
0.0
 40
5.000000000000004
 50
180.0
 51
186.379370208443
  0
ARC
  5
76
  8
1
  6
CONTINUOUS
 62
     7
 10
756.3050607797003
 20
140.0319581503284
 30
0.0
 40
4.215663664142943
 50
130.2616658020166
 51
178.7271057310954
  0
ARC
  5
77
  8
1
  6
CONTINUOUS
 62
     7
 10
756.2693617448401
 20
21.37797914284151
 30
0.0
 40
4.179626616315213
 50
181.0503437966138
 51
229.9608846699382
  0
LINE
  5
78
  8
1
  6
CONTINUOUS
 62
     7
 10
753.4542388511197
 20
101.6465882914607
 30
0.0
 11
752.7376736458308
 21
101.5113717845326
 31
0.0
  0
LINE
  5
79
  8
1
  6
CONTINUOUS
 62
     7
 10
753.4529248456257
 20
59.78072279409879
 30
0.0
 11
753.4646392516992
 21
59.77762386168611
 31
0.0
  0
ARC
  5
7A
  8
1
  6
CONTINUOUS
 62
     7
 10
756.2843532580576
 20
42.89095338321969
 30
0.0
 40
6.238528014573808
 50
241.9673170438662
 51
262.5708552500802
  0
LINE
  5
7B
  8
1
  6
CONTINUOUS
 62
     7
 10
752.090437412911
 20
138.7460291527171
 30
0.0
 11
752.090437412911
 21
140.1256064567112
 31
0.0
  0
ARC
  5
7C
  8
1
  6
CONTINUOUS
 62
     7
 10
756.477919606607
 20
143.2134845767
 30
0.0
 40
5.000000000000004
 50
89.99999999999994
 51
101.5369590328154
  0
LINE
  5
7D
  8
1
  6
CONTINUOUS
 62
     7
 10
753.2722279197709
 20
14.57493452775019
 30
0.0
 11
753.2742174373744
 21
14.57322215216397
 31
0.0
  0
LINE
  5
7E
  8
1
  6
CONTINUOUS
 62
     7
 10
755.4949478466802
 20
147.9102674268687
 30
0.0
 11
755.478989842564
 21
147.9070434845025
 31
0.0
  0
LINE
  5
7F
  8
1
  6
CONTINUOUS
 62
     7
 10
753.59186436146
 20
18.16904113914028
 30
0.0
 11
753.5805643418298
 21
18.1780342718516
 31
0.0
  0
TEXT
  5
80
  8
1
  6
CONTINUOUS
 62
     7
 10
715.6766973377132
 20
4.664833727272725
 30
0.0
 40
3.5
  1
ＰＢＺ－１１４Ｓ
 41
0.609191
 51
15.0
  0
LINE
  5
81
  8
1
  6
CONTINUOUS
 62
     7
 10
753.5805643418479
 20
143.248934881563
 30
0.0
 11
753.59186436146
 21
143.2579280142598
 31
0.0
  0
LINE
  5
82
  8
1
  6
CONTINUOUS
 62
     7
 10
752.2182238575912
 20
38.05523680716258
 30
0.0
 11
753.3396477669404
 21
37.391331376842
 31
0.0
  0
LINE
  5
83
  8
1
  6
CONTINUOUS
 62
     7
 10
755.477919606607
 20
16.63940974622918
 30
0.0
 11
755.477919606607
 21
20.62223695939708
 31
0.0
  0
ARC
  5
84
  8
1
  6
CONTINUOUS
 62
     7
 10
756.1562971927117
 20
89.76809183917861
 30
0.0
 40
11.87257175459833
 50
93.27556268751404
 51
104.0588665562444
  0
LINE
  5
85
  8
1
  6
CONTINUOUS
 62
     7
 10
753.2722279197709
 20
75.58449173793468
 30
0.0
 11
753.2586359790768
 21
75.5853143835262
 31
0.0
  0
LINE
  5
86
  8
1
  6
CONTINUOUS
 62
     7
 10
753.2586359790992
 20
131.0986282781578
 30
0.0
 11
753.2722279197709
 21
131.1072474311064
 31
0.0
  0
LINE
  5
87
  8
1
  6
CONTINUOUS
 62
     7
 10
753.59186436146
 20
30.93839946426119
 30
0.0
 11
753.5805643418297
 21
30.94556376696542
 31
0.0
  0
ARC
  5
88
  8
1
  6
CONTINUOUS
 62
     7
 10
753.2150358374793
 20
84.0760034364262
 30
0.0
 40
1.766189571833388
 50
88.58545315151197
 51
132.6246321898648
  0
ARC
  5
89
  8
1
  6
CONTINUOUS
 62
     7
 10
755.2606157228306
 20
107.3981684159649
 30
0.0
 40
3.213199891168639
 50
121.5242425046562
 51
189.3863706844891
  0
LINE
  5
8A
  8
1
  6
CONTINUOUS
 62
     7
 10
755.4775435953447
 20
101.9635052686717
 30
0.0
 11
753.4660144711588
 21
101.6497044903155
 31
0.0
  0
LINE
  5
8B
  8
1
  6
CONTINUOUS
 62
     7
 10
752.090437412911
 20
34.4018401253724
 30
0.0
 11
752.090437412911
 21
37.26832848060752
 31
0.0
  0
ARC
  5
8C
  8
1
  6
CONTINUOUS
 62
     7
 10
755.8292668969228
 20
33.964423781466
 30
0.0
 40
3.764329816638323
 50
173.3271372729225
 51
233.3181388276905
  0
ARC
  5
8D
  8
1
  6
CONTINUOUS
 62
     7
 10
756.4328209303294
 20
18.4208559288499
 30
0.0
 40
4.977877060918234
 50
188.4420316172518
 51
230.3825694857078
  0
LINE
  5
8E
  8
1
  6
CONTINUOUS
 62
     7
 10
751.5088796566146
 20
54.73594719076771
 30
0.0
 11
751.5088796566148
 21
58.45498125898018
 31
0.0
  0
ARC
  5
8F
  8
1
  6
CONTINUOUS
 62
     7
 10
756.2730107477532
 20
43.23915900548297
 30
0.0
 40
6.411524172473704
 50
242.0935332439212
 51
262.8764296202601
  0
LINE
  5
90
  8
1
  6
CONTINUOUS
 62
     7
 10
751.5088796566084
 20
138.1692992326787
 30
0.0
 11
751.5088796566083
 21
139.7097735826598
 31
0.0
  0
LINE
  5
91
  8
1
  6
CONTINUOUS
 62
     7
 10
753.2586359790768
 20
85.84165476987378
 30
0.0
 11
753.272227919771
 21
85.8424774154653
 31
0.0
  0
ARC
  5
92
  8
1
  6
CONTINUOUS
 62
     7
 10
652.9779196066071
 20
80.71369243170001
 30
0.0
 40
63.05555555555464
 50
335.6708140046353
 51
339.3291859953648
  0
ARC
  5
93
  8
1
  6
CONTINUOUS
 62
     7
 10
652.9779196066071
 20
80.71369243170001
 30
0.0
 40
63.05555555555542
 50
20.67081400463529
 51
24.32918599536467
  0
ARC
  5
94
  8
1
  6
CONTINUOUS
 62
     7
 10
652.9779196066071
 20
80.71369243170001
 30
0.0
 40
63.0555555555562
 50
268.1708140046353
 51
271.8291859953649
  0
ARC
  5
95
  8
1
  6
CONTINUOUS
 62
     7
 10
651.0443341834028
 20
14.49536337618321
 30
0.0
 40
3.195884758283918
 50
91.4189894229462
 51
178.365719789814
  0
ARC
  5
96
  8
1
  6
CONTINUOUS
 62
     7
 10
652.9779196066071
 20
80.71369243170001
 30
0.0
 40
67.39897948556639
 50
265.5718374283583
 51
274.4281625716416
  0
ARC
  5
97
  8
1
  6
CONTINUOUS
 62
     7
 10
701.1685979950365
 20
35.25883978922204
 30
0.0
 40
3.194922974058989
 50
46.61792544430154
 51
133.5973653425471
  0
ARC
  5
98
  8
1
  6
CONTINUOUS
 62
     7
 10
652.9779196066071
 20
80.71369243170001
 30
0.0
 40
67.39897948556639
 50
355.5718374283583
 51
4.428162571641622
  0
ARC
  5
99
  8
1
  6
CONTINUOUS
 62
     7
 10
629.4393545971332
 20
18.80251702379942
 30
0.0
 40
3.18357042813755
 50
338.9237945243195
 51
66.29149626262978
  0
LINE
  5
9A
  8
1
  6
CONTINUOUS
 62
     7
 10
752.090437412911
 20
103.1288760235319
 30
0.0
 11
752.090437412911
 21
106.8741235477315
 31
0.0
  0
ARC
  5
9B
  8
1
  6
CONTINUOUS
 62
     7
 10
719.1962486621239
 20
78.78010700849575
 30
0.0
 40
3.195884758283807
 50
181.4189894229455
 51
268.3657197898148
  0
ARC
  5
9C
  8
1
  6
CONTINUOUS
 62
     7
 10
714.8951200543835
 20
57.1606586356847
 30
0.0
 40
3.194922974058545
 50
69.1179254444238
 51
156.0973653425496
  0
ARC
  5
9D
  8
1
  6
CONTINUOUS
 62
     7
 10
757.7626976273062
 20
83.09114853296117
 30
0.0
 40
6.264456751132186
 50
161.176162484674
 51
183.339668246775
  0
ARC
  5
9E
  8
1
  6
CONTINUOUS
 62
     7
 10
756.4418933536062
 20
139.7579470224844
 30
0.0
 40
5.121156717490138
 50
100.8497168243195
 51
128.2384369489343
  0
ARC
  5
9F
  8
1
  6
CONTINUOUS
 62
     7
 10
756.4065602073583
 20
135.6129567408964
 30
0.0
 40
5.27417346328718
 50
100.1411177775126
 51
126.4612744146685
  0
LINE
  5
A0
  8
1
  6
CONTINUOUS
 62
     7
 10
753.5805643418298
 20
110.1371610953643
 30
0.0
 11
753.5918643614599
 21
110.1414058679191
 31
0.0
  0
ARC
  5
A1
  8
1
  6
CONTINUOUS
 62
     7
 10
756.4761622953633
 20
143.0064779191302
 30
0.0
 40
5.005347327225018
 50
101.5039358616539
 51
129.7994487587546
  0
LINE
  5
A2
  8
1
  6
CONTINUOUS
 62
     7
 10
753.2722279197709
 20
17.64665129238729
 30
0.0
 11
753.2586359790768
 21
17.65746754585129
 31
0.0
  0
LINE
  5
A3
  8
1
  6
CONTINUOUS
 62
     7
 10
753.5805643418298
 20
85.31342878061918
 30
0.0
 11
753.5918643614599
 21
85.31410779488219
 31
0.0
  0
LINE
  5
A4
  8
1
  6
CONTINUOUS
 62
     7
 10
756.477919606607
 20
80.7134845767
 30
0.0
 11
756.477919606607
 21
148.2134845767
 31
0.0
  0
ARC
  5
A5
  8
1
  6
CONTINUOUS
 62
     7
 10
719.1952659643994
 20
82.6482568670297
 30
0.0
 40
3.19487826068976
 50
91.6171647640283
 51
178.5981260232112
  0
ARC
  5
A6
  8
1
  6
CONTINUOUS
 62
     7
 10
756.4331540873249
 20
143.0059254059864
 30
0.0
 40
4.978234183407815
 50
129.6190058232588
 51
171.5563930740361
  0
LINE
  5
A7
  8
1
  6
CONTINUOUS
 62
     7
 10
753.2722279197709
 20
50.66478572618541
 30
0.0
 11
753.2586359790768
 21
50.66989559074139
 31
0.0
  0
LINE
  5
A8
  8
1
  6
CONTINUOUS
 62
     7
 10
751.477919606607
 20
18.21348457669999
 30
0.0
 11
751.477919606607
 21
80.7134845767
 31
0.0
  0
LINE
  5
A9
  8
1
  6
CONTINUOUS
 62
     7
 10
753.2722279197709
 20
85.8424774154653
 30
0.0
 11
755.477919606607
 21
85.91729910892701
 31
0.0
  0
LINE
  5
AA
  8
1
  6
CONTINUOUS
 62
     7
 10
719.116469655557
 20
85.84268527046534
 30
0.0
 11
720.1757078887373
 21
85.91750696392705
 31
0.0
  0
LINE
  5
AB
  8
1
  6
CONTINUOUS
 62
     7
 10
683.0266184571218
 20
21.57242031561663
 30
0.0
 11
683.5010976110646
 21
20.6224448143972
 31
0.0
  0
ARC
  5
AC
  8
1
  6
CONTINUOUS
 62
     7
 10
680.1054820006383
 20
20.27711020831241
 30
0.0
 40
3.194922974058323
 50
24.11792544443773
 51
111.0973653425515
  0
ARC
  5
AD
  8
1
  6
CONTINUOUS
 62
     7
 10
713.4156605620472
 20
53.58660745168208
 30
0.0
 40
3.195832305751489
 50
158.918097855975
 51
245.8666113567838
  0
ARC
  5
AE
  8
1
  6
CONTINUOUS
 62
     7
 10
652.9779196066071
 20
80.71369243170001
 30
0.0
 40
67.39897948556639
 50
288.0718374283584
 51
296.9281625716415
  0
ARC
  5
AF
  8
1
  6
CONTINUOUS
 62
     7
 10
652.9779196066071
 20
80.71369243170001
 30
0.0
 40
63.05555555555464
 50
358.1708140046353
 51
1.829185995364867
  0
LINE
  5
B0
  8
1
  6
CONTINUOUS
 62
     7
 10
658.1069124453725
 20
14.57514238275021
 30
0.0
 11
658.1817341388343
 21
13.5159041495699
 31
0.0
  0
ARC
  5
B1
  8
1
  6
CONTINUOUS
 62
     7
 10
654.9124840419362
 20
14.49634607390643
 30
0.0
 40
3.194878260690981
 50
1.617164763791664
 51
88.59812602320228
  0
LINE
  5
B2
  8
1
  6
CONTINUOUS
 62
     7
 10
647.7741050743801
 20
13.51590414956991
 30
0.0
 11
647.8489267678419
 21
14.57514238275022
 31
0.0
  0
LINE
  5
B3
  8
1
  6
CONTINUOUS
 62
     7
 10
632.4063637683569
 20
17.64685914738731
 30
0.0
 11
632.0701370767683
 21
16.63961760122931
 31
0.0
  0
LINE
  5
B4
  8
1
  6
CONTINUOUS
 62
     7
 10
720.1757078887372
 20
75.50987789947288
 30
0.0
 11
719.1164696555569
 21
75.58469959293471
 31
0.0
  0
LINE
  5
B5
  8
1
  6
CONTINUOUS
 62
     7
 10
716.0447528909199
 20
60.14213659344983
 30
0.0
 11
717.0519944370777
 21
59.80590990186121
 31
0.0
  0
ARC
  5
B6
  8
1
  6
CONTINUOUS
 62
     7
 10
713.4145018299936
 20
107.8412548257311
 30
0.0
 40
3.194922974057102
 50
114.11792544468
 51
201.0973653425591
  0
LINE
  5
B7
  8
1
  6
CONTINUOUS
 62
     7
 10
622.4547416021496
 20
20.62244481439721
 30
0.0
 11
622.9292207560926
 21
21.57242031561663
 31
0.0
  0
ARC
  5
B8
  8
1
  6
CONTINUOUS
 62
     7
 10
698.4340254763446
 20
32.52301168874722
 30
0.0
 40
3.195832305751378
 50
136.4180978559742
 51
223.3666113567857
  0
ARC
  5
B9
  8
1
  6
CONTINUOUS
 62
     7
 10
652.9779196066071
 20
80.71369243170001
 30
0.0
 40
67.39897948556639
 50
243.0718374283584
 51
251.9281625716416
  0
LINE
  5
BA
  8
1
  6
CONTINUOUS
 62
     7
 10
609.8376479860971
 20
30.31992957729362
 30
0.0
 11
609.14156037535
 21
29.51802811289312
 31
0.0
  0
ARC
  5
BB
  8
1
  6
CONTINUOUS
 62
     7
 10
652.9779196066071
 20
80.71369243170001
 30
0.0
 40
67.39897948556639
 50
18.07183742835837
 51
26.9281625716416
  0
LINE
  5
BC
  8
1
  6
CONTINUOUS
 62
     7
 10
703.3716824610135
 20
37.57342081118992
 30
0.0
 11
704.173583925414
 21
36.87733320044281
 31
0.0
  0
LINE
  5
BD
  8
1
  6
CONTINUOUS
 62
     7
 10
717.0519944370777
 20
101.6214749615389
 30
0.0
 11
716.0447528909199
 21
101.2852482699502
 31
0.0
  0
ARC
  5
BE
  8
1
  6
CONTINUOUS
 62
     7
 10
676.5321103326003
 20
18.79601021931801
 30
0.0
 40
3.195832305751378
 50
113.9180978559749
 51
200.8666113567855
  0
ARC
  5
BF
  8
1
  6
CONTINUOUS
 62
     7
 10
652.9779196066071
 20
80.71369243170001
 30
0.0
 40
63.05555555555542
 50
313.1708140046355
 51
316.8291859953648
  0
ARC
  5
C0
  8
1
  6
CONTINUOUS
 62
     7
 10
652.9779196066071
 20
80.71369243170001
 30
0.0
 40
67.39897948556639
 50
310.5718374283584
 51
319.4281625716417
  0
LINE
  5
C1
  8
1
  6
CONTINUOUS
 62
     7
 10
673.885702136446
 20
16.63961760122931
 30
0.0
 11
673.5494754448573
 21
17.64685914738731
 31
0.0
  0
ARC
  5
C2
  8
1
  6
CONTINUOUS
 62
     7
 10
625.8508346265892
 20
20.27595147625993
 30
0.0
 40
3.195832305751267
 50
68.91809785597411
 51
155.8666113567837
  0
ARC
  5
C3
  8
1
  6
CONTINUOUS
 62
     7
 10
652.9779196066071
 20
80.71369243170001
 30
0.0
 40
67.39897948556639
 50
333.0718374283584
 51
341.9281625716416
  0
ARC
  5
C4
  8
1
  6
CONTINUOUS
 62
     7
 10
652.9779196066071
 20
80.71369243170001
 30
0.0
 40
63.0555555555562
 50
245.6708140046353
 51
249.3291859953648
  0
LINE
  5
C5
  8
1
  6
CONTINUOUS
 62
     7
 10
713.0691672239099
 20
50.19051442724254
 30
0.0
 11
712.1191917226904
 21
50.66499358118543
 31
0.0
  0
ARC
  5
C6
  8
1
  6
CONTINUOUS
 62
     7
 10
629.423728880614
 20
142.6313746440821
 30
0.0
 40
3.195832305751267
 50
293.9180978559739
 51
20.86661135678753
  0
LINE
  5
C7
  8
1
  6
CONTINUOUS
 62
     7
 10
588.9038447761365
 20
59.80590990186121
 30
0.0
 11
589.9110863222945
 21
60.14213659344983
 31
0.0
  0
ARC
  5
C8
  8
1
  6
CONTINUOUS
 62
     7
 10
592.5413373832197
 20
53.58613003766893
 30
0.0
 40
3.194922974058212
 50
294.1179254444802
 51
21.09736534255234
  0
LINE
  5
C9
  8
1
  6
CONTINUOUS
 62
     7
 10
696.8142788378644
 20
29.51802811289311
 30
0.0
 11
696.1181912271171
 21
30.31992957729362
 31
0.0
  0
LINE
  5
CA
  8
1
  6
CONTINUOUS
 62
     7
 10
585.780131324477
 20
85.91750696392702
 30
0.0
 11
586.8393695576574
 21
85.84268527046524
 31
0.0
  0
ARC
  5
CB
  8
1
  6
CONTINUOUS
 62
     7
 10
592.5401786511671
 20
107.840777411718
 30
0.0
 40
3.195832305751267
 50
338.9180978559745
 51
65.86661135678402
  0
LINE
  5
CC
  8
1
  6
CONTINUOUS
 62
     7
 10
593.8366474905238
 20
50.66499358118542
 30
0.0
 11
592.8866719893044
 21
50.19051442724253
 31
0.0
  0
ARC
  5
CD
  8
1
  6
CONTINUOUS
 62
     7
 10
652.9779196066071
 20
80.71369243170001
 30
0.0
 40
67.39897948556639
 50
85.57183742835839
 51
94.42816257164158
  0
ARC
  5
CE
  8
1
  6
CONTINUOUS
 62
     7
 10
586.7605732488138
 20
78.77912799637082
 30
0.0
 40
3.194878260690759
 50
271.6171647638188
 51
358.5981260232036
  0
ARC
  5
CF
  8
1
  6
CONTINUOUS
 62
     7
 10
652.9779196066071
 20
80.71369243170001
 30
0.0
 40
67.39897948556639
 50
153.0718374283584
 51
161.9281625716416
  0
ARC
  5
D0
  8
1
  6
CONTINUOUS
 62
     7
 10
652.9779196066071
 20
80.71369243170001
 30
0.0
 40
63.05555555555509
 50
200.6708140046353
 51
204.329185995365
  0
ARC
  5
D1
  8
1
  6
CONTINUOUS
 62
     7
 10
652.9779196066071
 20
80.71369243170001
 30
0.0
 40
63.05555555555697
 50
155.6708140046352
 51
159.3291859953648
  0
LINE
  5
D2
  8
1
  6
CONTINUOUS
 62
     7
 10
592.8866719893043
 20
111.2368704361575
 30
0.0
 11
593.8366474905237
 21
110.7623912822146
 31
0.0
  0
ARC
  5
D3
  8
1
  6
CONTINUOUS
 62
     7
 10
652.9779196066071
 20
80.71369243170001
 30
0.0
 40
63.05555555555509
 50
88.17081400463532
 51
91.8291859953649
  0
ARC
  5
D4
  8
1
  6
CONTINUOUS
 62
     7
 10
654.9115050298113
 20
146.9320214872168
 30
0.0
 40
3.195884758283918
 50
271.4189894229462
 51
358.3657197898137
  0
ARC
  5
D5
  8
1
  6
CONTINUOUS
 62
     7
 10
652.9779196066071
 20
80.71369243170001
 30
0.0
 40
67.39897948556639
 50
130.5718374283584
 51
139.4281625716417
  0
ARC
  5
D6
  8
1
  6
CONTINUOUS
 62
     7
 10
714.8956018189891
 20
104.2678831576933
 30
0.0
 40
3.195832305751378
 50
203.9180978559748
 51
290.8666113567849
  0
ARC
  5
D7
  8
1
  6
CONTINUOUS
 62
     7
 10
652.9779196066071
 20
80.71369243170001
 30
0.0
 40
63.05555555555509
 50
290.6708140046353
 51
294.3291859953648
  0
ARC
  5
D8
  8
1
  6
CONTINUOUS
 62
     7
 10
718.9442880070713
 20
78.60697933916744
 30
0.0
 40
2.500000000000058
 50
178.1708140046366
 51
265.7827985413657
  0
LINE
  5
D9
  8
1
  6
CONTINUOUS
 62
     7
 10
658.181734138834
 20
147.9114807138301
 30
0.0
 11
658.1069124453724
 21
146.8522424806498
 31
0.0
  0
ARC
  5
DA
  8
1
  6
CONTINUOUS
 62
     7
 10
652.9779196066071
 20
80.71369243170001
 30
0.0
 40
63.05555555555464
 50
133.1708140046353
 51
136.8291859953649
  0
ARC
  5
DB
  8
1
  6
CONTINUOUS
 62
     7
 10
604.7872412181779
 20
126.1685450741771
 30
0.0
 40
3.194922974058212
 50
226.6179254444708
 51
313.5973653425528
  0
ARC
  5
DC
  8
1
  6
CONTINUOUS
 62
     7
 10
651.0433551712782
 20
146.9310387894942
 30
0.0
 40
3.194878260691647
 50
181.6171647636643
 51
268.5981260231982
  0
ARC
  5
DD
  8
1
  6
CONTINUOUS
 62
     7
 10
607.5218137368695
 20
128.9043731746528
 30
0.0
 40
3.195832305751378
 50
316.4180978559752
 51
43.36661135678343
  0
ARC
  5
DE
  8
1
  6
CONTINUOUS
 62
     7
 10
625.8443865820502
 20
141.1357833314555
 30
0.0
 40
3.183570428137217
 50
203.9237945243676
 51
291.2914962626307
  0
ARC
  5
DF
  8
1
  6
CONTINUOUS
 62
     7
 10
652.9779196066071
 20
80.71369243170001
 30
0.0
 40
63.05555555555509
 50
223.1708140046352
 51
226.8291859953646
  0
ARC
  5
E0
  8
1
  6
CONTINUOUS
 62
     7
 10
652.9779196066071
 20
80.71369243170001
 30
0.0
 40
63.05555555555575
 50
178.1708140046353
 51
181.8291859953648
  0
LINE
  5
E1
  8
1
  6
CONTINUOUS
 62
     7
 10
601.7822552878001
 20
36.87733320044273
 30
0.0
 11
602.5841567522007
 21
37.57342081118993
 31
0.0
  0
ARC
  5
E2
  8
1
  6
CONTINUOUS
 62
     7
 10
714.7291014031541
 20
57.41580525861492
 30
0.0
 40
2.499999999999947
 50
71.71720145833022
 51
159.3291859953646
  0
ARC
  5
E3
  8
1
  6
CONTINUOUS
 62
     7
 10
713.1166930086365
 20
107.9042778189141
 30
0.0
 40
2.500000000000058
 50
116.717201458634
 51
204.3291859953626
  0
ARC
  5
E4
  8
1
  6
CONTINUOUS
 62
     7
 10
652.9779196066071
 20
80.71369243170001
 30
0.0
 40
67.39897948556639
 50
220.5718374283584
 51
229.4281625716417
  0
ARC
  5
E5
  8
1
  6
CONTINUOUS
 62
     7
 10
652.9779196066071
 20
80.71369243170001
 30
0.0
 40
63.05555555555697
 50
110.6708140046353
 51
114.3291859953649
  0
LINE
  5
E6
  8
1
  6
CONTINUOUS
 62
     7
 10
609.14156037535
 20
131.9093567505068
 30
0.0
 11
609.8376479860971
 21
131.1074552861064
 31
0.0
  0
ARC
  5
E7
  8
1
  6
CONTINUOUS
 62
     7
 10
591.060237394225
 20
57.1595017057068
 30
0.0
 40
3.195832305751378
 50
23.91809785597474
 51
110.8666113567845
  0
LINE
  5
E8
  8
1
  6
CONTINUOUS
 62
     7
 10
622.9292207560926
 20
139.8549645477833
 30
0.0
 11
622.4547416021496
 21
140.8049400490027
 31
0.0
  0
LINE
  5
E9
  8
1
  6
CONTINUOUS
 62
     7
 10
632.0701370767683
 20
144.7877672621707
 30
0.0
 11
632.406363768357
 21
143.7805257160128
 31
0.0
  0
ARC
  5
EA
  8
1
  6
CONTINUOUS
 62
     7
 10
713.1166930086364
 20
53.5231070444859
 30
0.0
 40
2.499999999999947
 50
155.6708140046355
 51
243.2827985413668
  0
ARC
  5
EB
  8
1
  6
CONTINUOUS
 62
     7
 10
607.52306696413
 20
32.52301404327093
 30
0.0
 40
3.194922974058212
 50
316.6179254444656
 51
43.59736534255205
  0
ARC
  5
EC
  8
1
  6
CONTINUOUS
 62
     7
 10
604.8429820666446
 20
35.55809711922614
 30
0.0
 40
2.500000000000058
 50
43.17081400463615
 51
130.782798541365
  0
ARC
  5
ED
  8
1
  6
CONTINUOUS
 62
     7
 10
586.7595905510902
 20
82.64727785490422
 30
0.0
 40
3.195884758283918
 50
1.418989422945913
 51
88.36571978981226
  0
LINE
  5
EE
  8
1
  6
CONTINUOUS
 62
     7
 10
586.8393695576574
 20
75.58469959293473
 30
0.0
 11
585.7801313244771
 21
75.50987789947291
 31
0.0
  0
ARC
  5
EF
  8
1
  6
CONTINUOUS
 62
     7
 10
604.7872388636542
 20
35.25758656196254
 30
0.0
 40
3.195832305751267
 50
46.418097855974
 51
133.366611356785
  0
ARC
  5
F0
  8
1
  6
CONTINUOUS
 62
     7
 10
652.9779196066071
 20
80.71369243170001
 30
0.0
 40
67.39897948556639
 50
175.5718374283584
 51
184.4281625716416
  0
ARC
  5
F1
  8
1
  6
CONTINUOUS
 62
     7
 10
718.9442880070713
 20
82.82040552423264
 30
0.0
 40
2.500000000000058
 50
94.21720145863239
 51
181.8291859953627
  0
ARC
  5
F2
  8
1
  6
CONTINUOUS
 62
     7
 10
655.0846326991398
 20
14.7473240312358
 30
0.0
 40
2.500000000000058
 50
4.217201458353447
 51
91.82918599536404
  0
ARC
  5
F3
  8
1
  6
CONTINUOUS
 62
     7
 10
676.2758067796922
 20
18.962510635153
 30
0.0
 40
2.499999999999947
 50
110.6708140046348
 51
198.282798541367
  0
ARC
  5
F4
  8
1
  6
CONTINUOUS
 62
     7
 10
591.0607191588309
 20
104.2667262277151
 30
0.0
 40
3.194922974058212
 50
249.1179254444728
 51
336.0973653425518
  0
ARC
  5
F5
  8
1
  6
CONTINUOUS
 62
     7
 10
652.9779196066071
 20
80.71369243170001
 30
0.0
 40
67.39897948556639
 50
108.0718374283584
 51
116.9281625716416
  0
LINE
  5
F6
  8
1
  6
CONTINUOUS
 62
     7
 10
602.5841567522007
 20
123.85396405221
 30
0.0
 11
601.7822552878001
 21
124.5500516629572
 31
0.0
  0
ARC
  5
F7
  8
1
  6
CONTINUOUS
 62
     7
 10
652.9779196066071
 20
80.71369243170001
 30
0.0
 40
67.39897948556639
 50
198.0718374283584
 51
206.9281625716415
  0
LINE
  5
F8
  8
1
  6
CONTINUOUS
 62
     7
 10
589.9110863222944
 20
101.2852482699502
 30
0.0
 11
588.9038447761365
 21
101.6214749615388
 31
0.0
  0
ARC
  5
F9
  8
1
  6
CONTINUOUS
 62
     7
 10
680.1685049938212
 20
20.57491902967071
 30
0.0
 40
2.500000000000058
 50
26.71720145834782
 51
114.3291859953634
  0
ARC
  5
FA
  8
1
  6
CONTINUOUS
 62
     7
 10
698.1335149190811
 20
32.57875489173756
 30
0.0
 40
2.500000000000058
 50
133.1708140046373
 51
220.7827985413648
  0
LINE
  5
FB
  8
1
  6
CONTINUOUS
 62
     7
 10
647.8489267678418
 20
146.8522424806497
 30
0.0
 11
647.77410507438
 21
147.9114807138301
 31
0.0
  0
LINE
  5
FC
  8
1
  6
CONTINUOUS
 62
     7
 10
718.7604439829249
 20
85.31363663561919
 30
0.0
 11
718.8343045517784
 21
85.3287518522908
 31
0.0
  0
ARC
  5
FD
  8
1
  6
CONTINUOUS
 62
     7
 10
650.8712065140745
 20
14.7473240312358
 30
0.0
 40
2.500000000000058
 50
88.17081400463564
 51
175.7827985413662
  0
POINT
  5
FE
  8
0
 62
     7
 10
870.0
 20
80.71
 30
0.0
  0
ARC
  5
FF
  8
1
  6
CONTINUOUS
 62
     7
 10
652.9779196066071
 20
80.71369243170001
 30
0.0
 40
63.5
 50
43.17081400463519
 51
46.82918599536475
  0
ARC
  5
100
  8
1
  6
CONTINUOUS
 62
     7
 10
676.2758067796923
 20
142.4648742282469
 30
0.0
 40
2.499999999999947
 50
161.7172014582821
 51
249.3291859953644
  0
ARC
  5
101
  8
1
  6
CONTINUOUS
 62
     7
 10
652.9779196066071
 20
80.71369243170001
 30
0.0
 40
63.5
 50
268.1708140046353
 51
270.0
  0
ARC
  5
102
  8
1
  6
CONTINUOUS
 62
     7
 10
652.9779196066071
 20
80.71369243170001
 30
0.0
 40
63.5
 50
200.6708140046352
 51
204.3291859953647
  0
ARC
  5
103
  8
1
  6
CONTINUOUS
 62
     7
 10
652.9779196066071
 20
80.71369243170001
 30
0.0
 40
63.5
 50
155.6708140046353
 51
159.3291859953647
  0
ARC
  5
104
  8
1
  6
CONTINUOUS
 62
     7
 10
652.9779196066071
 20
80.71369243170001
 30
0.0
 40
63.5
 50
88.17081400463519
 51
91.8291859953647
  0
ARC
  5
105
  8
1
  6
CONTINUOUS
 62
     7
 10
652.9779196066071
 20
80.71369243170001
 30
0.0
 40
66.88748219369612
 50
266.0
 51
274.0
  0
LINE
  5
106
  8
1
  6
CONTINUOUS
 62
     7
 10
602.4972959980447
 20
36.83155581208391
 30
0.0
 11
603.2028344941683
 21
37.44487106978303
 31
0.0
  0
ARC
  5
107
  8
1
  6
CONTINUOUS
 62
     7
 10
652.9779196066071
 20
80.71369243170001
 30
0.0
 40
66.88748219369612
 50
221.0000000000001
 51
229.0000000000001
  0
ARC
  5
108
  8
1
  6
CONTINUOUS
 62
     7
 10
652.9779196066071
 20
80.71369243170001
 30
0.0
 40
66.88748219369612
 50
288.5
 51
296.5
  0
ARC
  5
109
  8
1
  6
CONTINUOUS
 62
     7
 10
652.9779196066071
 20
80.71369243170001
 30
0.0
 40
63.5
 50
178.1708140046352
 51
181.8291859953647
  0
ARC
  5
10A
  8
1
  6
CONTINUOUS
 62
     7
 10
592.8391462045778
 20
53.5231070444859
 30
0.0
 40
2.500000000000058
 50
296.7172014583977
 51
24.32918599536402
  0
LINE
  5
10B
  8
1
  6
CONTINUOUS
 62
     7
 10
674.2016291618795
 20
144.1446740331654
 30
0.0
 11
673.9049976416769
 21
143.2581358692597
 31
0.0
  0
LINE
  5
10C
  8
1
  6
CONTINUOUS
 62
     7
 10
718.7604439829249
 20
85.31363663561919
 30
0.0
 11
718.7698968227108
 21
85.3143156498822
 31
0.0
  0
ARC
  5
10D
  8
1
  6
CONTINUOUS
 62
     7
 10
701.1128571465697
 20
125.8692877441739
 30
0.0
 40
2.499999999999947
 50
223.1708140046359
 51
310.7827985413665
  0
LINE
  5
10E
  8
1
  6
CONTINUOUS
 62
     7
 10
586.2533719577818
 20
76.04785753624482
 30
0.0
 11
587.1859423905032
 21
76.11306921351782
 31
0.0
  0
ARC
  5
10F
  8
1
  6
CONTINUOUS
 62
     7
 10
714.7291014031541
 20
104.0115796047851
 30
0.0
 40
2.499999999999947
 50
200.6708140046347
 51
288.2827985413672
  0
ARC
  5
110
  8
1
  6
CONTINUOUS
 62
     7
 10
652.9779196066071
 20
80.71369243170001
 30
0.0
 40
63.5
 50
313.1708140046355
 51
316.8291859953645
  0
LINE
  5
111
  8
1
  6
CONTINUOUS
 62
     7
 10
696.8600562262233
 20
131.1943160402624
 30
0.0
 11
696.2467409685241
 21
130.4887775441388
 31
0.0
  0
ARC
  5
112
  8
1
  6
CONTINUOUS
 62
     7
 10
680.1685049938212
 20
140.8524658337293
 30
0.0
 40
2.500000000000058
 50
245.6708140046357
 51
333.2827985413658
  0
ARC
  5
113
  8
1
  6
CONTINUOUS
 62
     7
 10
652.9779196066071
 20
80.71369243170001
 30
0.0
 40
63.5
 50
335.6708140046353
 51
339.3291859953647
  0
LINE
  5
114
  8
1
  6
CONTINUOUS
 62
     7
 10
682.8229678858556
 20
140.5735986078822
 30
0.0
 11
682.4058408978262
 21
139.7369713009547
 31
0.0
  0
ARC
  5
115
  8
1
  6
CONTINUOUS
 62
     7
 10
652.9779196066071
 20
80.71369243170001
 30
0.0
 40
63.5
 50
20.67081400463524
 51
24.3291859953647
  0
LINE
  5
116
  8
1
  6
CONTINUOUS
 62
     7
 10
657.6437545020624
 20
147.4382400805253
 30
0.0
 11
657.5785428247893
 21
146.5056696478038
 31
0.0
  0
ARC
  5
117
  8
1
  6
CONTINUOUS
 62
     7
 10
652.9779196066071
 20
80.71369243170001
 30
0.0
 40
63.5
 50
223.1708140046352
 51
226.8291859953647
  0
ARC
  5
118
  8
1
  6
CONTINUOUS
 62
     7
 10
652.9779196066071
 20
80.71369243170001
 30
0.0
 40
66.88748219369612
 50
176.0
 51
184.0
  0
LINE
  5
119
  8
1
  6
CONTINUOUS
 62
     7
 10
703.4585432151696
 20
36.83155581208391
 30
0.0
 11
702.7530047190459
 21
37.44487106978303
 31
0.0
  0
ARC
  5
11A
  8
1
  6
CONTINUOUS
 62
     7
 10
652.9779196066071
 20
80.71369243170001
 30
0.0
 40
66.88748219369612
 50
108.5
 51
116.5
  0
ARC
  5
11B
  8
1
  6
CONTINUOUS
 62
     7
 10
698.1335149190811
 20
128.8486299716625
 30
0.0
 40
2.500000000000058
 50
139.2172014582712
 51
226.8291859953632
  0
ARC
  5
11C
  8
1
  6
CONTINUOUS
 62
     7
 10
655.0846326991398
 20
146.6800608321643
 30
0.0
 40
2.500000000000058
 50
268.170814004637
 51
355.7827985413651
  0
ARC
  5
11D
  8
1
  6
CONTINUOUS
 62
     7
 10
607.8223242941332
 20
128.8486299716625
 30
0.0
 40
2.500000000000058
 50
313.1708140046366
 51
40.78279854136429
  0
ARC
  5
11E
  8
1
  6
CONTINUOUS
 62
     7
 10
652.9779196066071
 20
80.71369243170001
 30
0.0
 40
63.5
 50
290.6708140046351
 51
294.3291859953647
  0
ARC
  5
11F
  8
1
  6
CONTINUOUS
 62
     7
 10
652.9779196066071
 20
80.71369243170001
 30
0.0
 40
63.5
 50
358.170814004635
 51
1.829185995364696
  0
ARC
  5
120
  8
1
  6
CONTINUOUS
 62
     7
 10
650.8712065140745
 20
146.6800608321641
 30
0.0
 40
2.500000000000058
 50
184.217201458204
 51
271.8291859953645
  0
ARC
  5
121
  8
1
  6
CONTINUOUS
 62
     7
 10
625.7873342193931
 20
140.8524658337293
 30
0.0
 40
2.499999999999947
 50
206.7172014583592
 51
294.3291859953637
  0
ARC
  5
122
  8
1
  6
CONTINUOUS
 62
     7
 10
701.1128571465697
 20
35.55809711922614
 30
0.0
 40
2.499999999999947
 50
49.21720145818832
 51
136.8291859953641
  0
LINE
  5
123
  8
1
  6
CONTINUOUS
 62
     7
 10
715.5873925222758
 20
101.6520809256675
 30
0.0
 11
715.5133699114556
 21
101.6377803489746
 31
0.0
  0
ARC
  5
124
  8
1
  6
CONTINUOUS
 62
     7
 10
629.680032433522
 20
18.962510635153
 30
0.0
 40
2.500000000000058
 50
341.717201458303
 51
69.32918599536396
  0
ARC
  5
125
  8
1
  6
CONTINUOUS
 62
     7
 10
587.011551206143
 20
82.82040552423264
 30
0.0
 40
2.500000000000058
 50
358.1708140046353
 51
85.78279854136474
  0
ARC
  5
126
  8
1
  6
CONTINUOUS
 62
     7
 10
629.6800324335219
 20
142.4648742282469
 30
0.0
 40
2.500000000000058
 50
290.6708140046373
 51
18.28279854136633
  0
ARC
  5
127
  8
1
  6
CONTINUOUS
 62
     7
 10
652.9779196066071
 20
80.71369243170001
 30
0.0
 40
63.5
 50
270.0
 51
271.8291859953647
  0
ARC
  5
128
  8
1
  6
CONTINUOUS
 62
     7
 10
587.011551206143
 20
78.60697933916732
 30
0.0
 40
2.499999999999947
 50
274.2172014583857
 51
1.829185995364696
  0
ARC
  5
129
  8
1
  6
CONTINUOUS
 62
     7
 10
652.9779196066071
 20
80.71369243170001
 30
0.0
 40
63.5
 50
133.1708140046353
 51
136.8291859953647
  0
ARC
  5
12A
  8
1
  6
CONTINUOUS
 62
     7
 10
625.7873342193931
 20
20.57491902967062
 30
0.0
 40
2.500000000000169
 50
65.67081400463715
 51
153.2827985413629
  0
LINE
  5
12B
  8
1
  6
CONTINUOUS
 62
     7
 10
682.8229678858556
 20
20.85378625551781
 30
0.0
 11
682.4058408978262
 21
21.6904135624453
 31
0.0
  0
ARC
  5
12C
  8
1
  6
CONTINUOUS
 62
     7
 10
592.8391462045778
 20
107.9042778189141
 30
0.0
 40
2.499999999999947
 50
335.6708140046358
 51
63.28279854136429
  0
ARC
  5
12D
  8
1
  6
CONTINUOUS
 62
     7
 10
652.9779196066071
 20
80.71369243170001
 30
0.0
 40
63.5
 50
65.67081400463525
 51
69.3291859953647
  0
LINE
  5
12E
  8
1
  6
CONTINUOUS
 62
     7
 10
623.1328713273587
 20
140.5735986078822
 30
0.0
 11
623.5499983153879
 21
139.7369713009548
 31
0.0
  0
ARC
  5
12F
  8
1
  6
CONTINUOUS
 62
     7
 10
652.9779196066071
 20
80.71369243170001
 30
0.0
 40
66.88748219369612
 50
41.00000000000002
 51
49.00000000000004
  0
ARC
  5
130
  8
1
  6
CONTINUOUS
 62
     7
 10
591.2267378100601
 20
104.0115796047851
 30
0.0
 40
2.499999999999947
 50
251.7172014583876
 51
339.329185995365
  0
CIRCLE
  5
131
  8
1
  6
CONTINUOUS
 62
     7
 10
652.9779196066071
 20
80.71369243170001
 30
0.0
 40
50.07246989883595
  0
ARC
  5
132
  8
1
  6
CONTINUOUS
 62
     7
 10
604.8429820666446
 20
125.8692877441739
 30
0.0
 40
2.500000000000058
 50
229.2172014583874
 51
316.8291859953641
  0
ARC
  5
133
  8
1
  6
CONTINUOUS
 62
     7
 10
652.9779196066071
 20
80.71369243170001
 30
0.0
 40
63.5
 50
110.6708140046354
 51
114.3291859953647
  0
ARC
  5
134
  8
1
  6
CONTINUOUS
 62
     7
 10
652.9779196066071
 20
80.71369243170001
 30
0.0
 40
63.5
 50
245.6708140046353
 51
249.3291859953648
  0
ARC
  5
135
  8
1
  6
CONTINUOUS
 62
     7
 10
591.2267378100601
 20
57.41580525861492
 30
0.0
 40
2.499999999999947
 50
20.67081400463496
 51
108.2827985413667
  0
ARC
  5
136
  8
1
  6
CONTINUOUS
 62
     7
 10
607.8223242941332
 20
32.57875489173739
 30
0.0
 40
2.500000000000058
 50
319.2172014583813
 51
46.82918599536356
  0
ARC
  5
137
  8
1
  6
CONTINUOUS
 62
     7
 10
755.4109915076297
 20
123.7476260065406
 30
0.0
 40
3.903576863690916
 50
178.4302136938347
 51
188.5951879595983
  0
LINE
  5
138
  8
1
  6
CONTINUOUS
 62
     7
 10
780.4779196066072
 20
32.7369821846
 30
0.0
 11
780.4779196066072
 21
38.5151567777
 31
0.0
  0
LINE
  5
139
  8
1
  6
CONTINUOUS
 62
     7
 10
657.6437545020624
 20
13.98914478287472
 30
0.0
 11
657.5785428247893
 21
14.92171521559621
 31
0.0
  0
ARC
  5
13A
  8
1
  6
CONTINUOUS
 62
     7
 10
652.9779196066071
 20
80.71369243170001
 30
0.0
 40
66.88748219369612
 50
198.5
 51
206.5000000000001
  0
LINE
  5
13B
  8
1
  6
CONTINUOUS
 62
     7
 10
609.095782986991
 20
30.2330688231375
 30
0.0
 11
609.7090982446902
 21
30.93860731926121
 31
0.0
  0
LINE
  5
13C
  8
1
  6
CONTINUOUS
 62
     7
 10
623.1328713273587
 20
20.85378625551781
 30
0.0
 11
623.5499983153879
 21
21.6904135624453
 31
0.0
  0
ARC
  5
13D
  8
1
  6
CONTINUOUS
 62
     7
 10
780.4779196066072
 20
143.4951439371
 30
0.0
 40
0.9999999999998899
 50
0.0
 51
89.00000000000001
  0
LINE
  5
13E
  8
1
  6
CONTINUOUS
 62
     7
 10
712.8378257827893
 20
110.5587407109485
 30
0.0
 11
712.0011984758619
 21
110.1416137229191
 31
0.0
  0
LINE
  5
13F
  8
1
  6
CONTINUOUS
 62
     7
 10
648.3120847111519
 20
147.4382400805253
 30
0.0
 11
648.3772963884248
 21
146.5056696478038
 31
0.0
  0
LINE
  5
140
  8
1
  6
CONTINUOUS
 62
     7
 10
609.095782986991
 20
131.1943160402624
 30
0.0
 11
609.7090982446902
 21
130.4887775441388
 31
0.0
  0
LINE
  5
141
  8
1
  6
CONTINUOUS
 62
     7
 10
753.2722279197709
 20
139.8547566927834
 30
0.0
 11
753.2586359790768
 21
139.8445700649965
 31
0.0
  0
LINE
  5
142
  8
1
  6
CONTINUOUS
 62
     7
 10
696.8600562262233
 20
30.2330688231375
 30
0.0
 11
696.2467409685241
 21
30.93860731926121
 31
0.0
  0
LINE
  5
143
  8
1
  6
CONTINUOUS
 62
     7
 10
716.4089012080725
 20
59.48998287642762
 30
0.0
 11
715.5223630441668
 21
59.7866143966303
 31
0.0
  0
LINE
  5
144
  8
1
  6
CONTINUOUS
 62
     7
 10
631.7542100513347
 20
144.1446740331654
 30
0.0
 11
632.0508415715375
 21
143.2581358692599
 31
0.0
  0
ARC
  5
145
  8
1
  6
CONTINUOUS
 62
     7
 10
652.9779196066071
 20
80.71369243170001
 30
0.0
 40
66.88748219369612
 50
86.00000000000003
 51
94.00000000000004
  0
LINE
  5
146
  8
1
  6
CONTINUOUS
 62
     7
 10
753.2722279197709
 20
123.8537561972101
 30
0.0
 11
753.2586359790768
 21
123.8463004407997
 31
0.0
  0
ARC
  5
147
  8
1
  6
CONTINUOUS
 62
     7
 10
756.2834161764315
 20
127.3481914959337
 30
0.0
 40
4.818202081651735
 50
128.8866662101862
 51
187.7195713328002
  0
LINE
  5
148
  8
1
  6
CONTINUOUS
 62
     7
 10
753.2722279197709
 20
101.2850404149502
 30
0.0
 11
753.2586359790768
 21
101.2814506012431
 31
0.0
  0
ARC
  5
149
  8
1
  6
CONTINUOUS
 62
     7
 10
652.9779196066071
 20
80.71369243170001
 30
0.0
 40
66.88748219369612
 50
63.49999999999999
 51
71.49999999999997
  0
LINE
  5
14A
  8
1
  6
CONTINUOUS
 62
     7
 10
763.2015264044072
 20
75.7662709812
 30
0.0
 11
762.9779196066072
 21
76.2134845767
 31
0.0
  0
LINE
  5
14B
  8
1
  6
CONTINUOUS
 62
     7
 10
753.2586359790984
 20
143.7695016075659
 30
0.0
 11
753.272227919771
 21
143.7803178610127
 31
0.0
  0
ARC
  5
14C
  8
1
  6
CONTINUOUS
 62
     7
 10
652.9779196066071
 20
80.71369243170001
 30
0.0
 40
66.88748219369612
 50
243.5
 51
251.5
  0
ARC
  5
14D
  8
1
  6
CONTINUOUS
 62
     7
 10
756.3234744413691
 20
126.1489721620167
 30
0.0
 40
5.821906816467659
 50
98.35098919250345
 51
121.6075039406429
  0
ARC
  5
14E
  8
1
  6
CONTINUOUS
 62
     7
 10
757.5433923585882
 20
102.7646983238475
 30
0.0
 40
6.038071920442367
 50
178.0326250026572
 51
191.7377669789386
  0
LINE
  5
14F
  8
1
  6
CONTINUOUS
 62
     7
 10
755.477919606607
 20
124.5498438079573
 30
0.0
 11
755.477919606607
 21
131.909148895507
 31
0.0
  0
LINE
  5
150
  8
1
  6
CONTINUOUS
 62
     7
 10
751.5088796566089
 20
102.9719878944202
 30
0.0
 11
751.5088796566089
 21
106.6910219626325
 31
0.0
  0
LINE
  5
151
  8
1
  6
CONTINUOUS
 62
     7
 10
755.477919606607
 20
101.6212671065388
 30
0.0
 11
755.477919606607
 21
111.2366625811575
 31
0.0
  0
LINE
  5
152
  8
1
  6
CONTINUOUS
 62
     7
 10
755.477919606607
 20
13.31450509113369
 30
0.0
 11
755.477919606607
 21
13.41554708684028
 31
0.0
  0
LINE
  5
153
  8
1
  6
CONTINUOUS
 62
     7
 10
715.5223630441668
 20
101.6407704667696
 30
0.0
 11
715.5133699114555
 21
101.6377803489746
 31
0.0
  0
LINE
  5
154
  8
1
  6
CONTINUOUS
 62
     7
 10
589.5469380051417
 20
101.9374019869724
 30
0.0
 11
590.4334761690474
 21
101.6407704667696
 31
0.0
  0
ARC
  5
155
  8
1
  6
CONTINUOUS
 62
     7
 10
757.0351022371085
 20
134.8164728206352
 30
0.0
 40
6.288359030526824
 50
126.9092102574918
 51
149.6873130643253
  0
LINE
  5
156
  8
1
  6
CONTINUOUS
 62
     7
 10
674.2016291618795
 20
17.28271083023461
 30
0.0
 11
673.9049976416769
 21
18.1692489941403
 31
0.0
  0
LINE
  5
157
  8
1
  6
CONTINUOUS
 62
     7
 10
648.3120847111519
 20
13.98914478287472
 30
0.0
 11
648.3772963884248
 21
14.92171521559621
 31
0.0
  0
LINE
  5
158
  8
1
  6
CONTINUOUS
 62
     7
 10
712.8378257827893
 20
50.86864415245159
 30
0.0
 11
712.0011984758619
 21
51.2857711404809
 31
0.0
  0
ARC
  5
159
  8
1
  6
CONTINUOUS
 62
     7
 10
652.9779196066071
 20
80.71369243170001
 30
0.0
 40
66.88748219369612
 50
311.0
 51
319.0
  0
LINE
  5
15A
  8
1
  6
CONTINUOUS
 62
     7
 10
719.7024672554323
 20
76.04785753624482
 30
0.0
 11
718.7698968227108
 21
76.11306921351782
 31
0.0
  0
LINE
  5
15B
  8
1
  6
CONTINUOUS
 62
     7
 10
589.5469380051417
 20
59.48998287642754
 30
0.0
 11
590.4334761690474
 21
59.78661439663032
 31
0.0
  0
LINE
  5
15C
  8
1
  6
CONTINUOUS
 62
     7
 10
716.4089012080725
 20
101.9374019869724
 30
0.0
 11
715.5223630441668
 21
101.6407704667696
 31
0.0
  0
LINE
  5
15D
  8
1
  6
CONTINUOUS
 62
     7
 10
719.7024672554323
 20
85.3795273271552
 30
0.0
 11
718.7698968227108
 21
85.3143156498822
 31
0.0
  0
LINE
  5
15E
  8
1
  6
CONTINUOUS
 62
     7
 10
586.2533719577818
 20
85.3795273271552
 30
0.0
 11
587.1859423905032
 21
85.3143156498822
 31
0.0
  0
ARC
  5
15F
  8
1
  6
CONTINUOUS
 62
     7
 10
652.9779196066071
 20
80.71369243170001
 30
0.0
 40
66.88748219369612
 50
18.5
 51
26.50000000000002
  0
LINE
  5
160
  8
1
  6
CONTINUOUS
 62
     7
 10
593.1180134304249
 20
50.86864415245152
 30
0.0
 11
593.9546407373524
 21
51.2857711404808
 31
0.0
  0
ARC
  5
161
  8
1
  6
CONTINUOUS
 62
     7
 10
652.9779196066071
 20
80.71369243170001
 30
0.0
 40
66.88748219369612
 50
355.9999999999999
 51
3.999999999999943
  0
ARC
  5
162
  8
1
  6
CONTINUOUS
 62
     7
 10
652.9779196066071
 20
80.71369243170001
 30
0.0
 40
66.88748219369612
 50
333.5
 51
341.4999999999999
  0
ARC
  5
163
  8
1
  6
CONTINUOUS
 62
     7
 10
652.9779196066071
 20
80.71369243170001
 30
0.0
 40
66.88748219369612
 50
131.0
 51
139.0000000000001
  0
LINE
  5
164
  8
1
  6
CONTINUOUS
 62
     7
 10
631.7542100513347
 20
17.28271083023461
 30
0.0
 11
632.0508415715375
 21
18.1692489941403
 31
0.0
  0
LINE
  5
165
  8
1
  6
CONTINUOUS
 62
     7
 10
602.4972959980447
 20
124.595829051316
 30
0.0
 11
603.2028344941684
 21
123.9825137936169
 31
0.0
  0
LINE
  5
166
  8
1
  6
CONTINUOUS
 62
     7
 10
593.1180134304249
 20
110.5587407109485
 30
0.0
 11
593.9546407373524
 21
110.1416137229191
 31
0.0
  0
LINE
  5
167
  8
1
  6
CONTINUOUS
 62
     7
 10
715.596611390127
 20
101.6551455981343
 30
0.0
 11
715.5223630441669
 21
101.6407704667697
 31
0.0
  0
ARC
  5
168
  8
1
  6
CONTINUOUS
 62
     7
 10
652.9779196066071
 20
80.71369243170001
 30
0.0
 40
66.88748219369612
 50
153.5
 51
161.5000000000001
  0
LINE
  5
169
  8
1
  6
CONTINUOUS
 62
     7
 10
718.769896822711
 20
85.31431564988223
 30
0.0
 11
718.8439944744777
 21
85.32944837211676
 31
0.0
  0
LINE
  5
16A
  8
1
  6
CONTINUOUS
 62
     7
 10
753.2586359790768
 20
110.7570735626586
 30
0.0
 11
753.272227919771
 21
110.7621834272146
 31
0.0
  0
ARC
  5
16B
  8
1
  6
CONTINUOUS
 62
     7
 10
785.126069534924
 20
69.27670984899738
 30
0.0
 40
63.19314471359427
 50
120.2839830653963
 51
121.7300322834737
  0
LINE
  5
16C
  8
1
  6
CONTINUOUS
 62
     7
 10
751.508879656614
 20
123.854562589879
 30
0.0
 11
751.5088796566137
 21
126.7009880344915
 31
0.0
  0
LINE
  5
16D
  8
1
  6
CONTINUOUS
 62
     7
 10
703.4585432151696
 20
124.595829051316
 30
0.0
 11
702.7530047190459
 21
123.9825137936169
 31
0.0
  0
LINE
  5
16E
  8
1
  6
CONTINUOUS
 62
     7
 10
751.477919606607
 20
80.7134845767
 30
0.0
 11
751.477919606607
 21
143.2134845767
 31
0.0
  0
ARC
  5
16F
  8
1
  6
CONTINUOUS
 62
     7
 10
764.335750961907
 20
38.5151567777
 30
0.0
 40
1.000000000000112
 50
90.0
 51
171.2480550877
  0
ARC
  5
170
  8
1
  6
CONTINUOUS
 62
     7
 10
756.2740537108508
 20
118.1845053124366
 30
0.0
 40
6.414932865938527
 50
97.12915336787442
 51
117.9008837679468
  0
LINE
  5
171
  8
1
  6
CONTINUOUS
 62
     7
 10
755.477919606607
 20
140.8047321940028
 30
0.0
 11
755.4779196066071
 21
144.7875594071707
 31
0.0
  0
LINE
  5
172
  8
1
  6
CONTINUOUS
 62
     7
 10
779.4779196066071
 20
129.6899869688
 30
0.0
 11
762.9779196066071
 21
129.6899869688
 31
0.0
  0
ARC
  5
173
  8
1
  6
CONTINUOUS
 62
     7
 10
866.7390675106999
 20
13.2888140174
 30
0.0
 40
1.000000000000001
 50
197.9877789448
 51
267.2309567252
  0
LINE
  5
174
  8
1
  6
CONTINUOUS
 62
     7
 10
753.2741962255877
 20
146.8537516835864
 30
0.0
 11
753.272227919771
 21
146.8520346256498
 31
0.0
  0
LINE
  5
175
  8
1
  6
CONTINUOUS
 62
     7
 10
781.4779196066071
 20
17.9318252163
 30
0.0
 11
781.4779196066071
 21
143.4951439371
 31
0.0
  0
ARC
  5
176
  8
1
  6
CONTINUOUS
 62
     7
 10
756.1902450269675
 20
102.5613111642256
 30
0.0
 40
8.70454649661645
 50
94.69397582027074
 51
109.5864687320862
  0
LINE
  5
177
  8
1
  6
CONTINUOUS
 62
     7
 10
780.495372013007
 20
16.8447021965
 30
0.0
 11
780.4779196066071
 21
16.8443975637
 31
0.0
  0
ARC
  5
178
  8
1
  6
CONTINUOUS
 62
     7
 10
779.4779196066071
 20
32.7369821846
 30
0.0
 40
1.000000000000112
 50
270.0
 51
0.0
  0
LINE
  5
179
  8
1
  6
CONTINUOUS
 62
     7
 10
752.090437412911
 20
21.30136269668889
 30
0.0
 11
752.090437412911
 21
22.68886849890492
 31
0.0
  0
LINE
  5
17A
  8
1
  6
CONTINUOUS
 62
     7
 10
780.4779196066072
 20
147.9669307613
 30
0.0
 11
780.4779196066072
 21
144.4952962651
 31
0.0
  0
ARC
  5
17B
  8
1
  6
CONTINUOUS
 62
     7
 10
756.6074582240232
 20
139.9192086292651
 30
0.0
 40
5.102878251227905
 50
131.0153685931068
 51
182.3522245926812
  0
LINE
  5
17C
  8
1
  6
CONTINUOUS
 62
     7
 10
763.3578132152072
 20
145.5488539363
 30
0.0
 11
762.9779196066072
 21
149.1925293757
 31
0.0
  0
ARC
  5
17D
  8
1
  6
CONTINUOUS
 62
     7
 10
764.3478411896072
 20
15.7372443188
 30
0.0
 40
0.9999999999998899
 50
91.0
 51
171.9017555029
  0
LINE
  5
17E
  8
1
  6
CONTINUOUS
 62
     7
 10
763.3473946158072
 20
38.6673137138
 30
0.0
 11
762.9779196066072
 21
36.1384734673
 31
0.0
  0
ARC
  5
17F
  8
1
  6
CONTINUOUS
 62
     7
 10
755.3041371418027
 20
107.507626744203
 30
0.0
 40
3.882115756673521
 50
125.4194246629202
 51
192.1428900707964
  0
ARC
  5
180
  8
1
  6
CONTINUOUS
 62
     7
 10
764.0959535954071
 20
85.2134845767
 30
0.0
 40
1.000000000000112
 50
90.0
 51
153.4349488229
  0
LINE
  5
181
  8
1
  6
CONTINUOUS
 62
     7
 10
780.4779196066072
 20
128.6899869688
 30
0.0
 11
780.4779196066072
 21
122.9118123757
 31
0.0
  0
LINE
  5
182
  8
1
  6
CONTINUOUS
 62
     7
 10
779.4779196066071
 20
121.9118123757
 30
0.0
 11
764.335750961907
 21
121.9118123757
 31
0.0
  0
LINE
  5
183
  8
1
  6
CONTINUOUS
 62
     7
 10
673.5494754448573
 20
143.7805257160128
 30
0.0
 11
673.885702136446
 21
144.7877672621707
 31
0.0
  0
ARC
  5
184
  8
1
  6
CONTINUOUS
 62
     7
 10
652.9779196066071
 20
80.71369243170001
 30
0.0
 40
67.39897948556639
 50
63.07183742835837
 51
71.92816257164156
  0
LINE
  5
185
  8
1
  6
CONTINUOUS
 62
     7
 10
779.4779196066071
 20
31.7369821846
 30
0.0
 11
762.9779196066071
 21
31.7369821846
 31
0.0
  0
LINE
  5
186
  8
1
  6
CONTINUOUS
 62
     7
 10
779.4968680690071
 20
12.4602179304
 30
0.0
 11
761.477919606607
 21
12.2134845767
 31
0.0
  0
ARC
  5
187
  8
1
  6
CONTINUOUS
 62
     7
 10
751.9883191712324
 20
105.4875296003841
 30
0.0
 40
4.393723402685512
 50
272.6457217550612
 51
286.805326691024
  0
LINE
  5
188
  8
1
  6
CONTINUOUS
 62
     7
 10
779.4968680690071
 20
148.966751223
 30
0.0
 11
761.477919606607
 21
149.2134845767
 31
0.0
  0
LINE
  5
189
  8
1
  6
CONTINUOUS
 62
     7
 10
753.4646392517013
 20
101.6493452917167
 30
0.0
 11
753.4529248456097
 21
101.6462463592969
 31
0.0
  0
ARC
  5
18A
  8
1
  6
CONTINUOUS
 62
     7
 10
754.4024534589043
 20
124.0773635037496
 30
0.0
 40
2.313444223476901
 50
177.9866394755361
 51
192.3700166119256
  0
ARC
  5
18B
  8
1
  6
CONTINUOUS
 62
     7
 10
919.9798052801
 20
35.3418496722
 30
0.0
 40
1.000000000000001
 50
317.7690432748
 51
27.01222105519997
  0
LINE
  5
18C
  8
1
  6
CONTINUOUS
 62
     7
 10
762.9779196066071
 20
149.1929450857
 30
0.0
 11
762.9779196066071
 21
12.2344397777
 31
0.0
  0
LINE
  5
18D
  8
1
  6
CONTINUOUS
 62
     7
 10
763.3473946158072
 20
122.7596554396
 30
0.0
 11
762.9779196066072
 21
125.2884956861
 31
0.0
  0
LINE
  5
18E
  8
1
  6
CONTINUOUS
 62
     7
 10
763.3578132152072
 20
15.8781152171
 30
0.0
 11
762.9779196066072
 21
12.2344397777
 31
0.0
  0
LINE
  5
18F
  8
1
  6
CONTINUOUS
 62
     7
 10
752.7376736458308
 20
59.9155973688674
 30
0.0
 11
753.4542388511361
 21
59.78038086193507
 31
0.0
  0
ARC
  5
190
  8
1
  6
CONTINUOUS
 62
     7
 10
779.4779196066071
 20
147.9669307613
 30
0.0
 40
1.000000000000112
 50
0.0
 51
88.91426809790003
  0
LINE
  5
191
  8
1
  6
CONTINUOUS
 62
     7
 10
780.4779196066072
 20
13.4600383921
 30
0.0
 11
780.4779196066072
 21
16.9316728883
 31
0.0
  0
LINE
  5
192
  8
1
  6
CONTINUOUS
 62
     7
 10
763.2015264044072
 20
85.6606981722
 30
0.0
 11
762.9779196066072
 21
85.2134845767
 31
0.0
  0
ARC
  5
193
  8
1
  6
CONTINUOUS
 62
     7
 10
779.4779196066071
 20
13.4600383921
 30
0.0
 40
1.000000000000112
 50
271.0857319021001
 51
0.0
  0
ARC
  5
194
  8
1
  6
CONTINUOUS
 62
     7
 10
764.3478411896072
 20
145.6897248346
 30
0.0
 40
0.9999999999998899
 50
188.0982444971
 51
269.0
  0
LINE
  5
195
  8
1
  6
CONTINUOUS
 62
     7
 10
779.4779196066071
 20
86.2134845767
 30
0.0
 11
764.0959535954071
 21
86.2134845767
 31
0.0
  0
LINE
  5
196
  8
1
  6
CONTINUOUS
 62
     7
 10
779.4779196066071
 20
75.2134845767
 30
0.0
 11
764.0959535954071
 21
75.2134845767
 31
0.0
  0
ARC
  5
197
  8
1
  6
CONTINUOUS
 62
     7
 10
764.0959535954071
 20
76.2134845767
 30
0.0
 40
1.000000000000112
 50
206.5650511771
 51
270.0
  0
LINE
  5
198
  8
1
  6
CONTINUOUS
 62
     7
 10
780.4779196066072
 20
76.2134845767
 30
0.0
 11
780.4779196066072
 21
85.2134845767
 31
0.0
  0
ARC
  5
199
  8
1
  6
CONTINUOUS
 62
     7
 10
779.4779196066071
 20
122.9118123757
 30
0.0
 40
1.000000000000112
 50
270.0
 51
0.0
  0
ARC
  5
19A
  8
1
  6
CONTINUOUS
 62
     7
 10
779.4779196066071
 20
85.2134845767
 30
0.0
 40
1.000000000000112
 50
0.0
 51
90.0
  0
ARC
  5
19B
  8
1
  6
CONTINUOUS
 62
     7
 10
779.4779196066071
 20
76.2134845767
 30
0.0
 40
1.000000000000112
 50
270.0
 51
0.0
  0
ARC
  5
19C
  8
1
  6
CONTINUOUS
 62
     7
 10
780.4779196066072
 20
17.9318252163
 30
0.0
 40
0.9999999999998899
 50
271.0
 51
0.0
  0
LINE
  5
19D
  8
1
  6
CONTINUOUS
 62
     7
 10
780.495372013007
 20
144.4949916322
 30
0.0
 11
764.3303887831071
 21
144.6898771394
 31
0.0
  0
LINE
  5
19E
  8
1
  6
CONTINUOUS
 62
     7
 10
780.495372013007
 20
16.9319775212
 30
0.0
 11
764.3303887831071
 21
16.737092014
 31
0.0
  0
ARC
  5
19F
  8
1
  6
CONTINUOUS
 62
     7
 10
764.335750961907
 20
122.9118123757
 30
0.0
 40
1.000000000000112
 50
188.7519449123
 51
270.0
  0
LINE
  5
1A0
  8
1
  6
CONTINUOUS
 62
     7
 10
756.477919606607
 20
13.21348457669999
 30
0.0
 11
756.477919606607
 21
80.7134845767
 31
0.0
  0
LINE
  5
1A1
  8
1
  6
CONTINUOUS
 62
     7
 10
779.4779196066071
 20
39.5151567777
 30
0.0
 11
764.335750961907
 21
39.5151567777
 31
0.0
  0
LINE
  5
1A2
  8
1
  6
CONTINUOUS
 62
     7
 10
780.495372013007
 20
144.5822669569
 30
0.0
 11
780.4779196066071
 21
144.5825715897
 31
0.0
  0
ARC
  5
1A3
  8
1
  6
CONTINUOUS
 62
     7
 10
779.4779196066071
 20
38.5151567777
 30
0.0
 40
1.000000000000112
 50
0.0
 51
90.0
  0
ARC
  5
1A4
  8
1
  6
CONTINUOUS
 62
     7
 10
755.0074326521454
 20
37.31931831863292
 30
0.0
 40
2.917440863033582
 50
171.306471055657
 51
181.001443186414
  0
LINE
  5
1A5
  8
1
  6
CONTINUOUS
 62
     7
 10
761.477919606607
 20
149.2134845767
 30
0.0
 11
761.477919606607
 21
12.21348457669999
 31
0.0
  0
ARC
  5
1A6
  8
1
  6
CONTINUOUS
 62
     7
 10
779.4779196066071
 20
128.6899869688
 30
0.0
 40
1.000000000000112
 50
0.0
 51
90.0
  0
ARC
  5
1A7
  8
1
  6
CONTINUOUS
 62
     7
 10
756.4420767073215
 20
21.66942364509761
 30
0.0
 40
5.121585568714559
 50
231.7627320788691
 51
259.1491141478773
  0
ARC
  5
1A8
  8
1
  6
CONTINUOUS
 62
     7
 10
873.2609324893
 20
13.2888140174
 30
0.0
 40
1.000000000000001
 50
272.7690432748
 51
342.0122210552
  0
CIRCLE
  5
1A9
  8
1
  6
CONTINUOUS
 62
     7
 10
870.0
 20
80.71
 30
0.0
 40
64.00000000000006
  0
ARC
  5
1AA
  8
1
  6
CONTINUOUS
 62
     7
 10
676.5309534026225
 20
142.6308928794765
 30
0.0
 40
3.194922974058545
 50
159.1179254443817
 51
246.0973653425503
  0
ARC
  5
1AB
  8
1
  6
CONTINUOUS
 62
     7
 10
652.9779196066071
 20
80.71369243170001
 30
0.0
 40
63.0555555555542
 50
43.17081400463532
 51
46.82918599536489
  0
ARC
  5
1AC
  8
1
  6
CONTINUOUS
 62
     7
 10
756.6375276257503
 20
78.43496522808391
 30
0.0
 40
4.554046001099876
 50
176.8328590342293
 51
201.820618446472
  0
LINE
  5
1AD
  8
1
  6
CONTINUOUS
 62
     7
 10
875.4999999999999
 20
16.9467660795
 30
0.0
 11
874.2120548965001
 21
12.9799998882
 31
0.0
  0
CIRCLE
  5
1AE
  8
1
  6
CONTINUOUS
 62
     7
 10
870.0
 20
80.71
 30
0.0
 40
56.49999999999999
  0
ARC
  5
1AF
  8
1
  6
CONTINUOUS
 62
     7
 10
824.6318496722
 20
30.73019471989999
 30
0.0
 40
1.000000000000001
 50
227.7690432748001
 51
297.0122210552
  0
ARC
  5
1B0
  8
1
  6
CONTINUOUS
 62
     7
 10
701.16860034956
 20
126.1697983014375
 30
0.0
 40
3.195832305751267
 50
226.4180978559742
 51
313.3666113567854
  0
ARC
  5
1B1
  8
1
  6
CONTINUOUS
 62
     7
 10
824.6318496722
 20
130.6898052801
 30
0.0
 40
1.000000000000001
 50
62.98777894480001
 51
132.2309567252
  0
ARC
  5
1B2
  8
1
  6
CONTINUOUS
 62
     7
 10
756.6062670101397
 20
21.50724710697569
 30
0.0
 40
5.10170914394259
 50
177.64146515626
 51
228.990941657616
  0
LINE
  5
1B3
  8
1
  6
CONTINUOUS
 62
     7
 10
755.477919606607
 20
75.50967004447287
 30
0.0
 11
755.477919606607
 21
85.91729910892701
 31
0.0
  0
ARC
  5
1B4
  8
1
  6
CONTINUOUS
 62
     7
 10
820.0201947199
 20
126.0781503278
 30
0.0
 40
1.000000000000001
 50
137.7690432748
 51
207.0122210552
  0
ARC
  5
1B5
  8
1
  6
CONTINUOUS
 62
     7
 10
698.4327722490847
 20
128.9043708201293
 30
0.0
 40
3.194922974058545
 50
136.61792544437
 51
223.5973653425499
  0
LINE
  5
1B6
  8
1
  6
CONTINUOUS
 62
     7
 10
933.7632339205
 20
75.21
 30
0.0
 11
937.7300001118
 21
76.4979451035
 31
0.0
  0
ARC
  5
1B7
  8
1
  6
CONTINUOUS
 62
     7
 10
755.0017546568426
 20
53.91058700570619
 30
0.0
 40
2.981319205324962
 50
167.5593820180504
 51
241.5300047928022
  0
ARC
  5
1B8
  8
1
  6
CONTINUOUS
 62
     7
 10
754.760389226789
 20
53.61473748159371
 30
0.0
 40
3.305655242025862
 50
169.0414536831454
 51
242.9802113125235
  0
LINE
  5
1B9
  8
1
  6
CONTINUOUS
 62
     7
 10
933.7632339205
 20
86.21
 30
0.0
 11
937.7300001118
 21
84.9220548965
 31
0.0
  0
ARC
  5
1BA
  8
1
  6
CONTINUOUS
 62
     7
 10
937.4211859826
 20
77.44906751069999
 30
0.0
 40
1.000000000000001
 50
287.9877789448
 51
357.2309567252
  0
LINE
  5
1BB
  8
1
  6
CONTINUOUS
 62
     7
 10
918.9765023921
 20
39.51167220099999
 30
0.0
 11
920.8707149489001
 21
35.79603021119999
 31
0.0
  0
LINE
  5
1BC
  8
1
  6
CONTINUOUS
 62
     7
 10
752.090437412911
 20
124.1586406727923
 30
0.0
 11
752.090437412911
 21
127.0251290280275
 31
0.0
  0
LINE
  5
1BD
  8
1
  6
CONTINUOUS
 62
     7
 10
864.5
 20
144.4732339205
 30
0.0
 11
865.7879451034
 21
148.4400001118
 31
0.0
  0
ARC
  5
1BE
  8
1
  6
CONTINUOUS
 62
     7
 10
652.9779196066071
 20
80.71369243170001
 30
0.0
 40
67.5
 50
0.0
 51
270.0
  0
LINE
  5
1BF
  8
1
  6
CONTINUOUS
 62
     7
 10
828.8016722009
 20
31.73349760789999
 30
0.0
 11
825.0860302112001
 21
29.8392850511
 31
0.0
  0
ARC
  5
1C0
  8
1
  6
CONTINUOUS
 62
     7
 10
680.105004586625
 20
141.1514333871401
 30
0.0
 40
3.195832305751267
 50
248.9180978559739
 51
335.8666113567854
  0
ARC
  5
1C1
  8
1
  6
CONTINUOUS
 62
     7
 10
652.9779196066071
 20
80.71369243170001
 30
0.0
 40
63.05555555555509
 50
65.67081400463529
 51
69.32918599536467
  0
ARC
  5
1C2
  8
1
  6
CONTINUOUS
 62
     7
 10
937.4211859826
 20
83.9709324893
 30
0.0
 40
1.000000000000001
 50
2.7690432748
 51
72.0122210552
  0
LINE
  5
1C3
  8
1
  6
CONTINUOUS
 62
     7
 10
864.5
 20
16.9467660795
 30
0.0
 11
865.7879451034
 21
12.9799998882
 31
0.0
  0
LINE
  5
1C4
  8
1
  6
CONTINUOUS
 62
     7
 10
696.1181912271172
 20
131.1074552861064
 30
0.0
 11
696.8142788378644
 21
131.909356750507
 31
0.0
  0
ARC
  5
1C5
  8
1
  6
CONTINUOUS
 62
     7
 10
802.5788140174001
 20
77.44906751069999
 30
0.0
 40
1.000000000000001
 50
182.7690432748
 51
252.0122210552001
  0
LINE
  5
1C6
  8
1
  6
CONTINUOUS
 62
     7
 10
821.0234976079
 20
121.908327799
 30
0.0
 11
819.1292850511
 21
125.6239697888
 31
0.0
  0
ARC
  5
1C7
  8
1
  6
CONTINUOUS
 62
     7
 10
652.9779196066071
 20
80.71369243170001
 30
0.0
 40
67.5
 50
270.0
 51
0.0
  0
LINE
  5
1C8
  8
1
  6
CONTINUOUS
 62
     7
 10
806.2367660795
 20
86.21
 30
0.0
 11
802.2699998882
 21
84.9220548965
 31
0.0
  0
LINE
  5
1C9
  8
1
  6
CONTINUOUS
 62
     7
 10
821.0234976079
 20
39.51167220099999
 30
0.0
 11
819.1292850511
 21
35.79603021119999
 31
0.0
  0
ARC
  5
1CA
  8
1
  6
CONTINUOUS
 62
     7
 10
802.5788140174001
 20
83.9709324893
 30
0.0
 40
1.000000000000001
 50
107.9877789448
 51
177.2309567252
  0
LINE
  5
1CB
  8
1
  6
CONTINUOUS
 62
     7
 10
911.198327799
 20
31.73349760789999
 30
0.0
 11
914.9139697888
 21
29.8392850511
 31
0.0
  0
ARC
  5
1CC
  8
1
  6
CONTINUOUS
 62
     7
 10
915.3681503278
 20
30.73019471989999
 30
0.0
 40
1.000000000000001
 50
242.9877789448
 51
312.2309567252
  0
LINE
  5
1CD
  8
1
  6
CONTINUOUS
 62
     7
 10
806.2367660795
 20
75.21
 30
0.0
 11
802.2699998882
 21
76.4979451035
 31
0.0
  0
LINE
  5
1CE
  8
1
  6
CONTINUOUS
 62
     7
 10
712.1191917226905
 20
110.7623912822146
 30
0.0
 11
713.06916722391
 21
111.2368704361575
 31
0.0
  0
LINE
  5
1CF
  8
1
  6
CONTINUOUS
 62
     7
 10
828.8016722009
 20
129.6865023921
 30
0.0
 11
825.0860302112001
 21
131.5807149489
 31
0.0
  0
LINE
  5
1D0
  8
1
  6
CONTINUOUS
 62
     7
 10
781.4779196066071
 20
80.7134845767
 30
0.0
 11
781.4779196066072
 21
135.3134845767
 31
0.0
  0
LINE
  5
1D1
  8
1
  6
CONTINUOUS
 62
     7
 10
751.5088796566082
 20
21.7171955707402
 30
0.0
 11
751.5088796566083
 21
23.25766992072151
 31
0.0
  0
LINE
  5
1D2
  8
1
  6
CONTINUOUS
 62
     7
 10
704.173583925414
 20
124.5500516629573
 30
0.0
 11
703.3716824610135
 21
123.8539640522101
 31
0.0
  0
CIRCLE
  5
1D3
  8
1
  6
CONTINUOUS
 62
     7
 10
870.0
 20
80.71
 30
0.0
 40
55.00000000000005
  0
LINE
  5
1D4
  8
1
  6
CONTINUOUS
 62
     7
 10
781.4779196066071
 20
26.11348457670001
 30
0.0
 11
781.4779196066071
 21
80.7134845767
 31
0.0
  0
LINE
  5
1D5
  8
1
  6
CONTINUOUS
 62
     7
 10
875.4999999999999
 20
144.4732339205
 30
0.0
 11
874.2120548965001
 21
148.4400001118
 31
0.0
  0
ARC
  5
1D6
  8
1
  6
CONTINUOUS
 62
     7
 10
873.2609324893
 20
148.1311859826
 30
0.0
 40
1.000000000000001
 50
17.9877789448
 51
87.2309567252
  0
LINE
  5
1D7
  8
1
  6
CONTINUOUS
 62
     7
 10
683.5010976110646
 20
140.8049400490028
 30
0.0
 11
683.0266184571218
 21
139.8549645477834
 31
0.0
  0
ARC
  5
1D8
  8
1
  6
CONTINUOUS
 62
     7
 10
652.9779196066071
 20
80.71369243170001
 30
0.0
 40
67.39897948556639
 50
40.5718374283584
 51
49.42816257164163
  0
CIRCLE
  5
1D9
  8
1
  6
CONTINUOUS
 62
     7
 10
870.0
 20
80.71
 30
0.0
 40
68.5
  0
ARC
  5
1DA
  8
1
  6
CONTINUOUS
 62
     7
 10
866.7390675106999
 20
148.1311859826
 30
0.0
 40
1.000000000000001
 50
92.7690432748
 51
162.0122210552
  0
ARC
  5
1DB
  8
1
  6
CONTINUOUS
 62
     7
 10
820.0201947199
 20
35.3418496722
 30
0.0
 40
1.000000000000001
 50
152.9877789448
 51
222.2309567252
  0
LINE
  5
1DC
  8
1
  6
CONTINUOUS
 62
     7
 10
755.477919606607
 20
29.5178202578931
 30
0.0
 11
755.477919606607
 21
36.87712534544279
 31
0.0
  0
ARC
  5
1DD
  8
1
  6
CONTINUOUS
 62
     7
 10
771.3660680623757
 20
54.7366281357754
 30
0.0
 40
19.85718841744388
 50
180.001964793516
 51
181.4240582316397
  0
ARC
  5
1DE
  8
1
  6
CONTINUOUS
 62
     7
 10
756.0153097072283
 20
127.3823355238696
 30
0.0
 40
3.941093630880911
 50
128.1545047625713
 51
185.2002191364323
  0
ARC
  5
1DF
  8
1
  6
CONTINUOUS
 62
     7
 10
756.1546517683864
 20
71.64808311243439
 30
0.0
 40
11.86170121529917
 50
255.9361776604516
 51
266.72939309579
  0
CIRCLE
  5
1E0
  8
0
  6
CONTINUOUS
 62
     7
 10
652.9779196066071
 20
80.71369243170001
 30
0.0
 40
68.5
  0
ARC
  5
1E1
  8
1
  6
CONTINUOUS
 62
     7
 10
915.3681503278
 20
130.6898052801
 30
0.0
 40
1.000000000000001
 50
47.7690432748
 51
117.0122210552
  0
LINE
  5
1E2
  8
1
  6
CONTINUOUS
 62
     7
 10
753.2586359790939
 20
14.58630120516061
 30
0.0
 11
753.2722279197709
 21
14.57493452775022
 31
0.0
  0
ARC
  5
1E3
  8
1
  6
CONTINUOUS
 62
     7
 10
756.4898346803417
 20
37.63170929730361
 30
0.0
 40
4.981308037322885
 50
173.0952619900761
 51
180.6821253776761
  0
LINE
  5
1E4
  8
1
  6
CONTINUOUS
 62
     7
 10
753.59186436146
 20
76.1128613585178
 30
0.0
 11
753.5805643418298
 21
76.11354037278082
 31
0.0
  0
LINE
  5
1E5
  8
1
  6
CONTINUOUS
 62
     7
 10
911.198327799
 20
129.6865023921
 30
0.0
 11
914.9139697888
 21
131.5807149489
 31
0.0
  0
ARC
  5
1E6
  8
1
  6
CONTINUOUS
 62
     7
 10
757.7231802038891
 20
78.33333746551268
 30
0.0
 40
6.225152931896294
 50
176.6163275220667
 51
198.9800726772173
  0
LINE
  5
1E7
  8
1
  6
CONTINUOUS
 62
     7
 10
753.2586359790954
 20
60.14551855215197
 30
0.0
 11
753.272227919771
 21
60.14192873844981
 31
0.0
  0
LINE
  5
1E8
  8
1
  6
CONTINUOUS
 62
     7
 10
755.477919606607
 20
147.9988880061225
 30
0.0
 11
755.477919606607
 21
148.1124640622663
 31
0.0
  0
LINE
  5
1E9
  8
1
  6
CONTINUOUS
 62
     7
 10
751.5088796566082
 20
34.7259811189077
 30
0.0
 11
751.5088796566083
 21
37.57240656352009
 31
0.0
  0
ARC
  5
1EA
  8
1
  6
CONTINUOUS
 62
     7
 10
756.2081194632314
 20
34.0488182036007
 30
0.0
 40
4.747778888493426
 50
171.8000941879116
 51
231.5936682687257
  0
ARC
  5
1EB
  8
1
  6
CONTINUOUS
 62
     7
 10
756.476153304118
 20
18.42047251146101
 30
0.0
 40
5.005327187370123
 50
230.2004931292409
 51
258.4961222503506
  0
LINE
  5
1EC
  8
1
  6
CONTINUOUS
 62
     7
 10
755.477919606607
 20
75.50967004447287
 30
0.0
 11
753.2722279197708
 21
75.58449173793468
 31
0.0
  0
LINE
  5
1ED
  8
1
  6
CONTINUOUS
 62
     7
 10
753.258635979104
 20
37.58066871258531
 30
0.0
 11
753.272227919771
 21
37.5732129561899
 31
0.0
  0
LINE
  5
1EE
  8
1
  6
CONTINUOUS
 62
     7
 10
753.59186436146
 20
51.2855632854809
 30
0.0
 11
753.5805643418297
 21
51.28980805803568
 31
0.0
  0
LINE
  5
1EF
  8
1
  6
CONTINUOUS
 62
     7
 10
755.477919606607
 20
50.19030657224249
 30
0.0
 11
755.477919606607
 21
59.8057020468612
 31
0.0
  0
ARC
  5
1F0
  8
1
  6
CONTINUOUS
 62
     7
 10
757.0026287366093
 20
26.5749005214983
 30
0.0
 40
6.240396808529725
 50
210.4778569956825
 51
233.1329178756824
  0
LINE
  5
1F1
  8
1
  6
CONTINUOUS
 62
     7
 10
588.9038447761365
 20
101.6214749615388
 30
0.0
 11
588.9105702627055
 21
101.6407181636351
 31
0.0
  0
LINE
  5
1F2
  8
1
  6
CONTINUOUS
 62
     7
 10
761.477919606607
 20
137.0134845767
 30
0.0
 11
756.477919606607
 21
137.0134845767
 31
0.0
  0
LINE
  5
1F3
  8
0
  6
CENTER
 62
     1
 10
582.4779196066071
 20
80.71369243170001
 30
0.0
 11
723.4779196066071
 21
80.71369243170001
 31
0.0
  0
LINE
  5
1F5
  8
1
  6
CONTINUOUS
 62
     7
 10
761.477919606607
 20
24.41348457669998
 30
0.0
 11
756.477919606607
 21
24.41348457669998
 31
0.0
  0
LINE
  5
1F6
  8
1
  6
CONTINUOUS
 62
     7
 10
918.9765023921
 20
121.908327799
 30
0.0
 11
920.8707149489001
 21
125.6239697888
 31
0.0
  0
LINE
  5
1F7
  8
1
  6
CONTINUOUS
 62
     7
 10
754.4794598532486
 20
143.8072522344497
 30
0.0
 11
753.5918643614599
 21
143.2579280142597
 31
0.0
  0
LINE
  5
1F8
  8
1
  6
CONTINUOUS
 62
     7
 10
755.477919606607
 20
144.1444661781654
 30
0.0
 11
754.4794598532486
 21
143.8072522344497
 31
0.0
  0
LINE
  5
1F9
  8
1
  6
CONTINUOUS
 62
     7
 10
754.4794598532486
 20
17.61971691895031
 30
0.0
 11
755.477919606607
 21
17.28250297523459
 31
0.0
  0
LINE
  5
1FA
  8
1
  6
CONTINUOUS
 62
     7
 10
755.477919606607
 20
131.1941081852625
 30
0.0
 11
754.4794598532485
 21
130.9257413755665
 31
0.0
  0
ARC
  5
1FB
  8
1
  6
CONTINUOUS
 62
     7
 10
756.4061951349269
 20
25.81316477251061
 30
0.0
 40
5.273274790624005
 50
233.5364425414201
 51
259.8611652663988
  0
ARC
  5
1FC
  8
1
  6
CONTINUOUS
 62
     7
 10
756.1917091637657
 20
58.87246426156278
 30
0.0
 40
8.711449803226357
 50
250.4194653828222
 51
265.3000900648221
  0
LINE
  5
1FD
  8
1
  6
CONTINUOUS
 62
     7
 10
716.4291449481087
 20
59.48373949006122
 30
0.0
 11
716.4089012080724
 21
59.48998287642762
 31
0.0
  0
ARC
  5
1FE
  8
1
  6
CONTINUOUS
 62
     7
 10
919.9798052801
 20
126.0781503278
 30
0.0
 40
1.000000000000001
 50
332.9877789448
 51
42.23095672520003
  0
LINE
  5
1FF
  8
0
  6
CENTER
 62
     1
 10
652.9779196066071
 20
10.21369243170001
 30
0.0
 11
652.9779196066071
 21
151.2136924317
 31
0.0
  0
LINE
  5
200
  8
0
  6
CENTER
 62
     1
 10
799.5
 20
80.71
 30
0.0
 11
940.5
 21
80.71
 31
0.0
  0
LINE
  5
201
  8
1
  6
CONTINUOUS
 62
     7
 10
753.59186436146
 20
18.16904113914028
 30
0.0
 11
754.4794598532487
 21
17.61971691895031
 31
0.0
  0
LINE
  5
202
  8
1
  6
CONTINUOUS
 62
     7
 10
752.6099936979772
 20
59.88498240499382
 30
0.0
 11
752.7562929229246
 21
59.91177193919578
 31
0.0
  0
CIRCLE
  5
203
  8
1
  6
CONTINUOUS
 62
     7
 10
870.0
 20
80.71
 30
0.0
 40
50.00000000000004
  0
LINE
  5
204
  8
1
  6
CONTINUOUS
 62
     7
 10
754.4794598532486
 20
130.9257413755665
 30
0.0
 11
753.59186436146
 21
130.4885696891388
 31
0.0
  0
LINE
  5
205
  8
1
  6
CONTINUOUS
 62
     7
 10
752.090437412911
 20
78.68657122252081
 30
0.0
 11
752.090437412911
 21
82.74039793087928
 31
0.0
  0
LINE
  5
206
  8
1
  6
CONTINUOUS
 62
     7
 10
752.2909461719429
 20
59.62646382996212
 30
0.0
 11
752.3759030999364
 21
59.74257305693548
 31
0.0
  0
LINE
  5
207
  8
1
  6
CONTINUOUS
 62
     7
 10
752.3759030999365
 20
59.74257305693548
 30
0.0
 11
752.4851712602697
 21
59.83085867791901
 31
0.0
  0
LINE
  5
208
  8
1
  6
CONTINUOUS
 62
     7
 10
752.7100248917823
 20
101.5204909851543
 30
0.0
 11
752.5753150280788
 21
101.5534239140669
 31
0.0
  0
LINE
  5
209
  8
1
  6
CONTINUOUS
 62
     7
 10
752.2427748690882
 20
59.52802212944441
 30
0.0
 11
752.290946171943
 21
59.62646382996212
 31
0.0
  0
LINE
  5
20A
  8
1
  6
CONTINUOUS
 62
     7
 10
758.0543516293827
 20
135.5320939325693
 30
0.0
 11
758.038157474846
 21
135.4784502051062
 31
0.0
  0
ARC
  5
20B
  8
1
  6
CONTINUOUS
 62
     7
 10
753.3131131098953
 20
77.82436496711209
 30
0.0
 40
2.239713212364158
 50
243.0067745546712
 51
268.6062423024915
  0
LINE
  5
20C
  8
1
  6
CONTINUOUS
 62
     7
 10
754.4794598532486
 20
30.50122777783351
 30
0.0
 11
755.477919606607
 21
30.23286096813749
 31
0.0
  0
LINE
  5
20D
  8
1
  6
CONTINUOUS
 62
     7
 10
752.4490457689484
 20
101.6198954120163
 30
0.0
 11
752.3503602098141
 21
101.713599323468
 31
0.0
  0
LINE
  5
20E
  8
0
  6
CENTER
 62
     1
 10
870.0
 20
10.20999999999999
 30
0.0
 11
870.0
 21
151.21
 31
0.0
  0
LINE
  5
20F
  8
1
  6
CONTINUOUS
 62
     7
 10
752.1235103719617
 20
37.76028710568949
 30
0.0
 11
752.1522340022436
 21
37.87636862832858
 31
0.0
  0
LINE
  5
210
  8
1
  6
CONTINUOUS
 62
     7
 10
752.4851712602697
 20
59.83085867791901
 30
0.0
 11
752.6099936979772
 21
59.88498240499382
 31
0.0
  0
ARC
  5
211
  8
1
  6
CONTINUOUS
 62
     7
 10
755.7454425803543
 20
102.9515151053696
 30
0.0
 40
3.659305899938903
 50
177.2218734068272
 51
196.4155300494751
  0
LINE
  5
212
  8
1
  6
CONTINUOUS
 62
     7
 10
752.090437412911
 20
54.5528456056682
 30
0.0
 11
752.090437412911
 21
58.298093129868
 31
0.0
  0
LINE
  5
213
  8
1
  6
CONTINUOUS
 62
     7
 10
753.2722279197709
 20
146.8520346256498
 30
0.0
 11
753.2586359790768
 21
146.8406679482249
 31
0.0
  0
LINE
  5
214
  8
1
  6
CONTINUOUS
 62
     7
 10
753.2586359790943
 20
21.5823990883903
 30
0.0
 11
753.272227919771
 21
21.57221246061661
 31
0.0
  0
LINE
  5
215
  8
1
  6
CONTINUOUS
 62
     7
 10
751.5088796566159
 20
78.70075784267257
 30
0.0
 11
751.5088796566159
 21
82.7262113107276
 31
0.0
  0
ARC
  5
216
  8
1
  6
CONTINUOUS
 62
     7
 10
755.6662964223431
 20
58.47959040101849
 30
0.0
 40
3.580462109109894
 50
162.9731254174147
 51
182.9056267017222
  0
ARC
  5
217
  8
1
  6
CONTINUOUS
 62
     7
 10
803.3862501956255
 20
122.7695029976659
 30
0.0
 40
98.84288135162444
 50
238.5920441421523
 51
239.5261935317054
  0
ARC
  5
218
  8
1
  6
CONTINUOUS
 62
     7
 10
756.3242605025321
 20
35.28015911310231
 30
0.0
 40
5.824160196489125
 50
238.3970578247022
 51
261.6444490421527
  0
ARC
  5
219
  8
1
  6
CONTINUOUS
 62
     7
 10
756.4641965766903
 20
58.7105177109927
 30
0.0
 40
4.961901314694206
 50
165.0609485906782
 51
182.9520216038525
  0
LINE
  5
21A
  8
1
  6
CONTINUOUS
 62
     7
 10
753.2722279197709
 20
30.31972172229361
 30
0.0
 11
753.2586359790768
 21
30.32834087525649
 31
0.0
  0
ARC
  5
21B
  8
1
  6
CONTINUOUS
 62
     7
 10
756.2585108013831
 20
83.01321581526861
 30
0.0
 40
4.1769923832502
 50
154.603674761611
 51
183.744907125515
  0
ARC
  5
21C
  8
1
  6
CONTINUOUS
 62
     7
 10
752.0644872862629
 20
56.37775218488378
 30
0.0
 40
3.952474477958212
 50
72.41460801593132
 51
88.20947965441786
  0
ARC
  5
21D
  8
1
  6
CONTINUOUS
 62
     7
 10
753.6788436248152
 20
78.19093005087177
 30
0.0
 40
2.079713127357441
 50
252.4962986791766
 51
267.2914119902301
  0
LINE
  5
21E
  8
1
  6
CONTINUOUS
 62
     7
 10
716.4496320831375
 20
59.47831445393189
 30
0.0
 11
716.4291449481087
 21
59.48373949006122
 31
0.0
  0
LINE
  5
21F
  8
1
  6
CONTINUOUS
 62
     7
 10
751.5859705081647
 20
123.0605692174161
 30
0.0
 11
751.5512559638548
 21
123.1642274610633
 31
0.0
  0
LINE
  5
220
  8
1
  6
CONTINUOUS
 62
     7
 10
752.1820908071047
 20
123.480171080109
 30
0.0
 11
752.1427169593292
 21
123.5817677737172
 31
0.0
  0
LINE
  5
221
  8
1
  6
CONTINUOUS
 62
     7
 10
755.477919606607
 20
13.51457919881041
 30
0.0
 11
755.477919606607
 21
13.51560256507321
 31
0.0
  0
LINE
  5
222
  8
1
  6
CONTINUOUS
 62
     7
 10
752.0215226816193
 20
76.04864473725658
 30
0.0
 11
751.9228711839777
 21
76.170184761978
 31
0.0
  0
LINE
  5
223
  8
1
  6
CONTINUOUS
 62
     7
 10
751.8916862013743
 20
123.0247265866589
 30
0.0
 11
751.7880784507412
 21
122.9847905135058
 31
0.0
  0
LINE
  5
224
  8
1
  6
CONTINUOUS
 62
     7
 10
751.5111715279273
 20
23.37272120306852
 30
0.0
 11
751.5272209136092
 21
23.48381615272407
 31
0.0
  0
LINE
  5
225
  8
1
  6
CONTINUOUS
 62
     7
 10
752.8976871449039
 20
76.27118970858828
 30
0.0
 11
752.7815508306201
 21
76.3367149479364
 31
0.0
  0
LINE
  5
226
  8
1
  6
CONTINUOUS
 62
     7
 10
753.0542278888579
 20
110.6712846115657
 30
0.0
 11
753.1551231550901
 21
110.7158120184323
 31
0.0
  0
LINE
  5
227
  8
1
  6
CONTINUOUS
 62
     7
 10
751.9705397099534
 20
101.1411163658291
 30
0.0
 11
751.8780109689161
 21
101.1863814321721
 31
0.0
  0
LINE
  5
228
  8
1
  6
CONTINUOUS
 62
     7
 10
752.3503602098141
 20
101.713599323468
 30
0.0
 11
752.2843636941793
 21
101.8121901905105
 31
0.0
  0
LINE
  5
229
  8
1
  6
CONTINUOUS
 62
     7
 10
752.1522340022435
 20
37.87636862832858
 30
0.0
 11
752.2019761547016
 21
37.9785920505882
 31
0.0
  0
LINE
  5
22A
  8
1
  6
CONTINUOUS
 62
     7
 10
751.9228711839777
 20
76.170184761978
 30
0.0
 11
751.8364779418476
 21
76.30867317146961
 31
0.0
  0
LINE
  5
22B
  8
0
  6
CONTINUOUS
 62
     7
 10
761.477919606607
 20
13.21348457669999
 30
0.0
 11
761.477919606607
 21
80.7134845767
 31
0.0
  0
LINE
  5
22C
  8
1
  6
CONTINUOUS
 62
     7
 10
753.15512315509
 20
110.7158120184323
 30
0.0
 11
753.2586359790768
 21
110.7570735626586
 31
0.0
  0
LINE
  5
22D
  8
1
  6
CONTINUOUS
 62
     7
 10
752.1328603650118
 20
75.94301122153651
 30
0.0
 11
752.0215226816193
 21
76.04864473725658
 31
0.0
  0
LINE
  5
22E
  8
1
  6
CONTINUOUS
 62
     7
 10
751.5272209136092
 20
23.48381615272407
 30
0.0
 11
751.6244972369653
 21
23.4097379821572
 31
0.0
  0
LINE
  5
22F
  8
1
  6
CONTINUOUS
 62
     7
 10
752.1911340906363
 20
101.0984896771465
 30
0.0
 11
752.0750457326733
 21
101.1123159252952
 31
0.0
  0
LINE
  5
230
  8
1
  6
CONTINUOUS
 62
     7
 10
755.4779196066071
 20
147.9112983342443
 30
0.0
 11
755.4779196066071
 21
147.9125583054112
 31
0.0
  0
LINE
  5
231
  8
1
  6
CONTINUOUS
 62
     7
 10
752.0721678134275
 20
60.3140985416529
 30
0.0
 11
752.1879838892644
 21
60.32829684201118
 31
0.0
  0
LINE
  5
232
  8
1
  6
CONTINUOUS
 62
     7
 10
751.5721676752817
 20
38.33466167568089
 30
0.0
 11
751.6463018630166
 21
38.43590086199361
 31
0.0
  0
LINE
  5
233
  8
1
  6
CONTINUOUS
 62
     7
 10
752.4862018300905
 20
76.62088730972403
 30
0.0
 11
752.4097693368234
 21
76.7422175119299
 31
0.0
  0
LINE
  5
234
  8
1
  6
CONTINUOUS
 62
     7
 10
755.4779196066071
 20
147.9125583054112
 30
0.0
 11
755.4779196066071
 21
147.9112728588301
 31
0.0
  0
LINE
  5
235
  8
1
  6
CONTINUOUS
 62
     7
 10
754.4794598532486
 20
51.02709955910281
 30
0.0
 11
755.4779196066071
 21
50.8684362974515
 31
0.0
  0
LINE
  5
236
  8
1
  6
CONTINUOUS
 62
     7
 10
754.4794598532486
 20
110.3998695942972
 30
0.0
 11
753.59186436146
 21
110.1414058679191
 31
0.0
  0
LINE
  5
237
  8
1
  6
CONTINUOUS
 62
     7
 10
751.6709244475823
 20
122.9801429328288
 30
0.0
 11
751.5859705081646
 21
123.0605692174161
 31
0.0
  0
LINE
  5
238
  8
1
  6
CONTINUOUS
 62
     7
 10
752.5753150280786
 20
101.5534239140669
 30
0.0
 11
752.4490457689484
 21
101.6198954120163
 31
0.0
  0
LINE
  5
239
  8
1
  6
CONTINUOUS
 62
     7
 10
751.7942700261002
 20
60.1742970200139
 30
0.0
 11
751.8764425537944
 21
60.2396049661694
 31
0.0
  0
LINE
  5
23A
  8
1
  6
CONTINUOUS
 62
     7
 10
751.758321257082
 20
38.44912478365359
 30
0.0
 11
751.8764425537945
 21
38.40923444313307
 31
0.0
  0
LINE
  5
23B
  8
1
  6
CONTINUOUS
 62
     7
 10
753.5918643614601
 20
76.1128613585178
 30
0.0
 11
754.4794598532486
 21
76.07245435155099
 31
0.0
  0
LINE
  5
23C
  8
1
  6
CONTINUOUS
 62
     7
 10
751.5122166891222
 20
138.0353891005062
 30
0.0
 11
751.5088796566075
 21
138.1692992326791
 31
0.0
  0
LINE
  5
23D
  8
1
  6
CONTINUOUS
 62
     7
 10
752.29654055266
 20
75.8286456708396
 30
0.0
 11
752.1328603650118
 21
75.94301122153651
 31
0.0
  0
LINE
  5
23E
  8
1
  6
CONTINUOUS
 62
     7
 10
752.2843636941793
 20
101.8121901905105
 30
0.0
 11
752.2352994646352
 21
101.9173898825373
 31
0.0
  0
LINE
  5
23F
  8
1
  6
CONTINUOUS
 62
     7
 10
755.477919606607
 20
110.5585328559484
 30
0.0
 11
754.4794598532485
 21
110.3998695942972
 31
0.0
  0
LINE
  5
240
  8
1
  6
CONTINUOUS
 62
     7
 10
753.59186436146
 20
51.2855632854809
 30
0.0
 11
754.4794598532486
 21
51.02709955910281
 31
0.0
  0
LINE
  5
241
  8
1
  6
CONTINUOUS
 62
     7
 10
751.9228711839777
 20
85.25678439142197
 30
0.0
 11
752.0189857448352
 21
85.37557635840417
 31
0.0
  0
LINE
  5
242
  8
1
  6
CONTINUOUS
 62
     7
 10
755.4779196066071
 20
85.37931947215519
 30
0.0
 11
754.4794598532486
 21
85.35451480184899
 31
0.0
  0
LINE
  5
243
  8
1
  6
CONTINUOUS
 62
     7
 10
751.5088796566075
 20
23.25766992072079
 30
0.0
 11
751.5111715279273
 21
23.37272120306852
 31
0.0
  0
LINE
  5
244
  8
1
  6
CONTINUOUS
 62
     7
 10
754.4794598532486
 20
85.35451480184899
 30
0.0
 11
753.5918643614601
 21
85.31410779488219
 31
0.0
  0
LINE
  5
245
  8
1
  6
CONTINUOUS
 62
     7
 10
751.5446540579914
 20
38.23055683635548
 30
0.0
 11
751.5721676752815
 21
38.33466167568089
 31
0.0
  0
LINE
  5
246
  8
1
  6
CONTINUOUS
 62
     7
 10
755.477919606607
 20
13.51569629456989
 30
0.0
 11
755.477919606607
 21
13.5148129021307
 31
0.0
  0
LINE
  5
247
  8
1
  6
CONTINUOUS
 62
     7
 10
752.2019761547016
 20
37.9785920505882
 30
0.0
 11
752.2427748690881
 21
38.0211762589609
 31
0.0
  0
LINE
  5
248
  8
1
  6
CONTINUOUS
 62
     7
 10
753.59186436146
 20
30.93839946426119
 30
0.0
 11
754.4794598532487
 21
30.50122777783351
 31
0.0
  0
LINE
  5
249
  8
1
  6
CONTINUOUS
 62
     7
 10
755.477919606607
 20
13.51433144600259
 30
0.0
 11
755.477919606607
 21
13.51457919881038
 31
0.0
  0
LINE
  5
24A
  8
1
  6
CONTINUOUS
 62
     7
 10
751.7880784507412
 20
122.9847905135058
 30
0.0
 11
751.6709244475823
 21
122.9801429328288
 31
0.0
  0
LINE
  5
24B
  8
1
  6
CONTINUOUS
 62
     7
 10
751.833294708018
 20
85.1124351053066
 30
0.0
 11
751.9228711839776
 21
85.25678439142197
 31
0.0
  0
LINE
  5
24C
  8
1
  6
CONTINUOUS
 62
     7
 10
752.2553884706699
 20
123.3969831478963
 30
0.0
 11
752.1820908071047
 21
123.480171080109
 31
0.0
  0
LINE
  5
24D
  8
1
  6
CONTINUOUS
 62
     7
 10
751.6463018630164
 20
38.43590086199361
 30
0.0
 11
751.7583212570819
 21
38.44912478365359
 31
0.0
  0
LINE
  5
24E
  8
1
  6
CONTINUOUS
 62
     7
 10
755.477919606607
 20
13.51481290213072
 30
0.0
 11
755.477919606607
 21
13.51433144600261
 31
0.0
  0
LINE
  5
24F
  8
1
  6
CONTINUOUS
 62
     7
 10
751.6064636788971
 20
137.9903257947198
 30
0.0
 11
751.5122166891222
 21
138.0353891005062
 31
0.0
  0
LINE
  5
250
  8
1
  6
CONTINUOUS
 62
     7
 10
753.2170877947394
 20
85.26470850765189
 30
0.0
 11
753.4134753036034
 21
85.29819260217691
 31
0.0
  0
LINE
  5
251
  8
1
  6
CONTINUOUS
 62
     7
 10
752.6747612063492
 20
76.4154767284203
 30
0.0
 11
752.575204871381
 21
76.5108219463915
 31
0.0
  0
LINE
  5
252
  8
1
  6
CONTINUOUS
 62
     7
 10
751.8780109689161
 20
101.1863814321721
 30
0.0
 11
751.7973762829181
 21
101.2496232848674
 31
0.0
  0
LINE
  5
253
  8
1
  6
CONTINUOUS
 62
     7
 10
752.7236226039375
 20
85.04981896170787
 30
0.0
 11
752.8658911589278
 21
85.13960466309538
 31
0.0
  0
LINE
  5
254
  8
1
  6
CONTINUOUS
 62
     7
 10
752.78155083062
 20
76.3367149479364
 30
0.0
 11
752.6747612063492
 21
76.4154767284203
 31
0.0
  0
LINE
  5
255
  8
1
  6
CONTINUOUS
 62
     7
 10
753.4134753036034
 20
85.29819260217691
 30
0.0
 11
753.5805643418298
 21
85.31342878061918
 31
0.0
  0
LINE
  5
256
  8
1
  6
CONTINUOUS
 62
     7
 10
753.0533336955873
 20
76.20751279256719
 30
0.0
 11
752.8976871449039
 21
76.27118970858828
 31
0.0
  0
LINE
  5
257
  8
1
  6
CONTINUOUS
 62
     7
 10
751.6700045521881
 20
59.98965315689539
 30
0.0
 11
751.7258582193737
 21
60.0908909896333
 31
0.0
  0
LINE
  5
258
  8
1
  6
CONTINUOUS
 62
     7
 10
752.4851712602697
 20
84.80463259458071
 30
0.0
 11
752.5962845644282
 21
84.9381612980594
 31
0.0
  0
LINE
  5
259
  8
1
  6
CONTINUOUS
 62
     7
 10
751.7258582193737
 20
60.0908909896333
 30
0.0
 11
751.7942700261002
 21
60.1742970200139
 31
0.0
  0
LINE
  5
25A
  8
1
  6
CONTINUOUS
 62
     7
 10
751.7284596845737
 20
101.332228222772
 30
0.0
 11
751.6709244475824
 21
101.4353004144643
 31
0.0
  0
LINE
  5
25B
  8
1
  6
CONTINUOUS
 62
     7
 10
752.5962845644282
 20
84.9381612980594
 30
0.0
 11
752.7236226039375
 21
85.04981896170787
 31
0.0
  0
LINE
  5
25C
  8
1
  6
CONTINUOUS
 62
     7
 10
751.6709244475823
 20
101.4353004144643
 30
0.0
 11
751.6315829887419
 21
101.5363569661493
 31
0.0
  0
LINE
  5
25D
  8
1
  6
CONTINUOUS
 62
     7
 10
752.8658911589278
 20
85.13960466309538
 30
0.0
 11
753.0338061177683
 21
85.21261014334422
 31
0.0
  0
LINE
  5
25E
  8
1
  6
CONTINUOUS
 62
     7
 10
751.8764425537944
 20
60.2396049661694
 30
0.0
 11
751.9694775491737
 21
60.28545513534308
 31
0.0
  0
LINE
  5
25F
  8
1
  6
CONTINUOUS
 62
     7
 10
754.4794598532486
 20
76.07245435155099
 30
0.0
 11
755.4779196066071
 21
76.0476496812448
 31
0.0
  0
LINE
  5
260
  8
1
  6
CONTINUOUS
 62
     7
 10
752.575204871381
 20
76.5108219463915
 30
0.0
 11
752.4862018300905
 21
76.62088730972403
 31
0.0
  0
LINE
  5
261
  8
1
  6
CONTINUOUS
 62
     7
 10
751.7973762829181
 20
101.2496232848674
 30
0.0
 11
751.7284596845737
 21
101.332228222772
 31
0.0
  0
LINE
  5
262
  8
1
  6
CONTINUOUS
 62
     7
 10
753.0338061177683
 20
85.21261014334422
 30
0.0
 11
753.2170877947394
 21
85.26470850765189
 31
0.0
  0
LINE
  5
263
  8
1
  6
CONTINUOUS
 62
     7
 10
751.9694775491738
 20
60.28545513534308
 30
0.0
 11
752.0721678134275
 21
60.3140985416529
 31
0.0
  0
LINE
  5
264
  8
1
  6
CONTINUOUS
 62
     7
 10
752.0750457326732
 20
101.1123159252952
 30
0.0
 11
751.9705397099534
 21
101.1411163658291
 31
0.0
  0
LINE
  5
265
  8
1
  6
CENTER
 62
     1
 10
781.4779196066071
 20
80.7134845767
 30
0.0
 11
751.477919606607
 21
80.7134845767
 31
0.0
  0
ENDSEC
  0
EOF
