  0
SECTION
  2
HEADER
  9
$ACADVER
  1
AC1004
  9
$INSBASE
 10
0.0
 20
0.0
  9
$EXTMIN
 10
436.5
 20
128.6704545454546
  9
$EXTMAX
 10
803.5
 20
298.5261746225268
  9
$LIMMIN
 10
0.0
 20
0.0
  9
$LIMMAX
 10
12.0
 20
9.0
  9
$ORTHOMODE
 70
     0
  9
$REGENMODE
 70
     1
  9
$FILLMODE
 70
     1
  9
$QTEXTMODE
 70
     0
  9
$DRAGMODE
 70
     2
  9
$LTSCALE
 40
1.0
  9
$OSMODE
 70
    37
  9
$ATTMODE
 70
     1
  9
$TEXTSIZE
 40
0.2
  9
$TRACEWID
 40
0.05
  9
$TEXTSTYLE
  7
STANDARD
  9
$CLAYER
  8
0
  9
$CELTYPE
  6
BYLAYER
  9
$CECOLOR
 62
   256
  9
$DIMSCALE
 40
1.0
  9
$DIMASZ
 40
3.0
  9
$DIMEXO
 40
0.0625
  9
$DIMDLI
 40
0.38
  9
$DIMRND
 40
0.0
  9
$DIMDLE
 40
0.0
  9
$DIMEXE
 40
1.5
  9
$DIMTP
 40
0.0
  9
$DIMTM
 40
0.0
  9
$DIMTXT
 40
3.0
  9
$DIMCEN
 40
0.09
  9
$DIMTSZ
 40
0.0
  9
$DIMTOL
 70
     0
  9
$DIMLIM
 70
     0
  9
$DIMTIH
 70
     1
  9
$DIMTOH
 70
     1
  9
$DIMSE1
 70
     0
  9
$DIMSE2
 70
     0
  9
$DIMTAD
 70
     1
  9
$DIMZIN
 70
     0
  9
$DIMBLK
  1

  9
$DIMASO
 70
     1
  9
$DIMSHO
 70
     1
  9
$DIMPOST
  1

  9
$DIMAPOST
  1

  9
$DIMALT
 70
     0
  9
$DIMALTD
 70
     2
  9
$DIMALTF
 40
25.4
  9
$DIMLFAC
 40
1.0
  9
$DIMTOFL
 70
     0
  9
$DIMTVP
 40
0.0
  9
$DIMTIX
 70
     0
  9
$DIMSOXD
 70
     0
  9
$DIMSAH
 70
     0
  9
$DIMBLK1
  1

  9
$DIMBLK2
  1

  9
$LUNITS
 70
     2
  9
$LUPREC
 70
     4
  9
$SKETCHINC
 40
0.1
  9
$FILLETRAD
 40
0.5
  9
$AUNITS
 70
     0
  9
$AUPREC
 70
     0
  9
$MENU
  1
.
  9
$ELEVATION
 40
0.0
  9
$THICKNESS
 40
0.0
  9
$LIMCHECK
 70
     0
  9
$CHAMFERA
 40
0.0
  9
$CHAMFERB
 40
0.0
  9
$SKPOLY
 70
     0
  9
$TDCREATE
 40
2459912.443580556
  9
$TDUPDATE
 40
2459912.443580938
  9
$TDINDWG
 40
0.0000000116
  9
$TDUSRTIMER
 40
0.0000000116
  9
$USRTIMER
 70
     1
  9
$ANGBASE
 50
0.0
  9
$ANGDIR
 70
     0
  9
$PDMODE
 70
     0
  9
$PDSIZE
 40
0.0
  9
$PLINEWID
 40
0.0
  9
$COORDS
 70
     1
  9
$SPLFRAME
 70
     0
  9
$SPLINETYPE
 70
     6
  9
$SPLINESEGS
 70
     8
  9
$ATTDIA
 70
     0
  9
$ATTREQ
 70
     1
  9
$SURFTAB1
 70
     6
  9
$SURFTAB2
 70
     6
  9
$SURFTYPE
 70
     6
  9
$SURFU
 70
     6
  9
$SURFV
 70
     6
  9
$UCSNAME
  2

  9
$UCSORG
 10
0.0
 20
0.0
 30
0.0
  9
$UCSXDIR
 10
1.0
 20
0.0
 30
0.0
  9
$UCSYDIR
 10
0.0
 20
1.0
 30
0.0
  9
$USERI1
 70
     0
  9
$USERI2
 70
     0
  9
$USERI3
 70
     0
  9
$USERI4
 70
     0
  9
$USERI5
 70
     0
  9
$USERR1
 40
0.0
  9
$USERR2
 40
0.0
  9
$USERR3
 40
0.0
  9
$USERR4
 40
0.0
  9
$USERR5
 40
0.0
  9
$WORLDVIEW
 70
     1
  0
ENDSEC
  0
SECTION
  2
TABLES
  0
TABLE
  2
LTYPE
 70
     2
  0
LTYPE
  2
CONTINUOUS
 70
     0
  3
Solid line
 72
    65
 73
     0
 40
0.0
  0
LTYPE
  2
CENTER
 70
     0
  3

 72
    65
 73
     0
 40
0.0
  0
ENDTAB
  0
TABLE
  2
LAYER
 70
     1
  0
LAYER
  2
0
 70
     0
 62
     7
  6
CONTINUOUS
  0
ENDTAB
  0
TABLE
  2
STYLE
 70
     2
  0
STYLE
  2
STANDARD
 70
     0
 40
0.0
 41
1.0
 50
0.0
 71
     0
 42
0.2
  3
txt
  4

  0
STYLE
  2
ＭＳ_ゴシック
 70
     0
 40
0.0
 41
1.0
 50
0.0
 71
     0
 42
0.2
  3
ＭＳ ゴシック.shx
  4

  0
ENDTAB
  0
TABLE
  2
VIEW
 70
     0
  0
ENDTAB
  0
ENDSEC
  0
SECTION
  2
BLOCKS
  0
BLOCK
  8
0
  2
D_FRAME_VIEW_1902
 70
     0
 10
0.0
 20
0.0
  0
ENDBLK
  8
0
  0
BLOCK
  8
0
  2
D_FRAME_VIEW_1510
 70
     0
 10
0.0
 20
0.0
  0
ENDBLK
  8
0
  0
BLOCK
  8
0
  2
D_FRAME_VIEW_1936
 70
     0
 10
0.0
 20
0.0
  0
ENDBLK
  8
0
  0
ENDSEC
  0
SECTION
  2
ENTITIES
  0
ARC
  8
0
  6
CONTINUOUS
 62
     7
 10
550.1555953124739
 20
278.1349375399626
 40
2.500000000000037
 50
139.2172014582699
 51
226.829185995364
  0
ARC
  8
0
  6
CONTINUOUS
 62
     7
 10
481.7021128269148
 20
168.248818203453
 40
2.500000000000012
 50
341.7172014583025
 51
69.32918599536436
  0
ARC
  8
0
  6
CONTINUOUS
 62
     7
 10
443.248818203453
 20
206.7021128269148
 40
2.500000000000016
 50
20.67081400463566
 51
108.2827985413662
  0
ARC
  8
0
  6
CONTINUOUS
 62
     7
 10
459.8444046875261
 20
181.8650624600375
 40
2.500000000000039
 50
319.2172014583804
 51
46.82918599536396
  0
ARC
  8
0
  6
CONTINUOUS
 62
     7
 10
444.8612265979707
 20
257.1905853872141
 40
2.500000000000024
 50
335.6708140046358
 51
63.28279854136429
  0
ARC
  8
0
  6
CONTINUOUS
 62
     7
 10
477.809414612786
 20
290.1387734020293
 40
2.500000000000032
 50
206.7172014583589
 51
294.329185995364
  0
ARC
  8
0
  6
CONTINUOUS
 62
     7
 10
444.8612265979707
 20
202.8094146127859
 40
2.500000000000034
 50
296.7172014583975
 51
24.3291859953639
  0
ARC
  8
0
  6
CONTINUOUS
 62
     7
 10
505.0
 20
230.0
 40
63.50000000000001
 50
358.1708140046351
 51
1.829185995364696
  0
ARC
  8
0
  6
CONTINUOUS
 62
     7
 10
505.0
 20
230.0
 40
63.50000000000001
 50
313.1708140046354
 51
316.8291859953646
  0
ARC
  8
0
  6
CONTINUOUS
 62
     7
 10
505.0
 20
230.0
 40
63.50000000000001
 50
335.6708140046353
 51
339.3291859953647
  0
ARC
  8
0
  6
CONTINUOUS
 62
     7
 10
505.0
 20
230.0
 40
63.50000000000001
 50
20.67081400463524
 51
24.3291859953647
  0
ARC
  8
0
  6
CONTINUOUS
 62
     7
 10
505.0
 20
230.0
 40
63.50000000000001
 50
65.67081400463525
 51
69.3291859953647
  0
ARC
  8
0
  6
CONTINUOUS
 62
     7
 10
456.8650624600375
 20
275.1555953124739
 40
2.500000000000034
 50
229.2172014583866
 51
316.8291859953641
  0
ARC
  8
0
  6
CONTINUOUS
 62
     7
 10
505.0
 20
230.0
 40
63.50000000000001
 50
88.17081400463519
 51
91.8291859953647
  0
ARC
  8
0
  6
CONTINUOUS
 62
     7
 10
505.0
 20
230.0
 40
63.50000000000001
 50
43.17081400463519
 51
46.82918599536475
  0
ARC
  8
0
  6
CONTINUOUS
 62
     7
 10
477.8094146127859
 20
169.8612265979707
 40
2.500000000000033
 50
65.67081400463604
 51
153.282798541364
  0
ARC
  8
0
  6
CONTINUOUS
 62
     7
 10
439.0336315995359
 20
227.8932869074673
 40
2.500000000000016
 50
274.2172014583859
 51
1.829185995364355
  0
ARC
  8
0
  6
CONTINUOUS
 62
     7
 10
439.0336315995359
 20
232.1067130925326
 40
2.500000000000028
 50
358.170814004636
 51
85.78279854136463
  0
ARC
  8
0
  6
CONTINUOUS
 62
     7
 10
505.0
 20
230.0
 40
63.50000000000001
 50
290.6708140046351
 51
294.3291859953647
  0
ARC
  8
0
  6
CONTINUOUS
 62
     7
 10
505.0
 20
230.0
 40
66.88748219369607
 50
355.9999999999999
 51
3.999999999999943
  0
ARC
  8
0
  6
CONTINUOUS
 62
     7
 10
505.0
 20
230.0
 40
66.88748219369609
 50
333.5
 51
341.4999999999999
  0
ARC
  8
0
  6
CONTINUOUS
 62
     7
 10
505.0
 20
230.0
 40
66.88748219369607
 50
198.5
 51
206.5000000000001
  0
ARC
  8
0
  6
CONTINUOUS
 62
     7
 10
505.0
 20
230.0
 40
66.88748219369609
 50
288.5
 51
296.5
  0
ARC
  8
0
  6
CONTINUOUS
 62
     7
 10
505.0
 20
230.0
 40
63.50000000000003
 50
110.6708140046354
 51
114.3291859953647
  0
ARC
  8
0
  6
CONTINUOUS
 62
     7
 10
505.0
 20
230.0
 40
66.88748219369607
 50
266.0
 51
274.0
  0
ARC
  8
0
  6
CONTINUOUS
 62
     7
 10
505.0
 20
230.0
 40
66.88748219369607
 50
41.00000000000002
 51
49.00000000000004
  0
ARC
  8
0
  6
CONTINUOUS
 62
     7
 10
505.0
 20
230.0
 40
63.50000000000001
 50
133.1708140046353
 51
136.8291859953647
  0
ARC
  8
0
  6
CONTINUOUS
 62
     7
 10
505.0
 20
230.0
 40
66.88748219369607
 50
86.00000000000003
 51
94.00000000000004
  0
ARC
  8
0
  6
CONTINUOUS
 62
     7
 10
505.0
 20
230.0
 40
66.88748219369607
 50
311.0
 51
319.0
  0
ARC
  8
0
  6
CONTINUOUS
 62
     7
 10
505.0
 20
230.0
 40
63.50000000000001
 50
155.6708140046353
 51
159.3291859953647
  0
ARC
  8
0
  6
CONTINUOUS
 62
     7
 10
505.0
 20
230.0
 40
63.50000000000001
 50
223.1708140046352
 51
226.8291859953647
  0
ARC
  8
0
  6
CONTINUOUS
 62
     7
 10
505.0
 20
230.0
 40
63.50000000000001
 50
178.1708140046352
 51
181.8291859953647
  0
ARC
  8
0
  6
CONTINUOUS
 62
     7
 10
505.0
 20
230.0
 40
66.88748219369607
 50
18.5
 51
26.50000000000002
  0
ARC
  8
0
  6
CONTINUOUS
 62
     7
 10
505.0
 20
230.0
 40
63.50000000000001
 50
245.6708140046353
 51
249.3291859953648
  0
ARC
  8
0
  6
CONTINUOUS
 62
     7
 10
505.0
 20
230.0
 40
63.50000000000001
 50
200.6708140046352
 51
204.3291859953647
  0
ARC
  8
0
  6
CONTINUOUS
 62
     7
 10
505.0
 20
230.0
 40
66.88748219369607
 50
108.5
 51
116.5
  0
ARC
  8
0
  6
CONTINUOUS
 62
     7
 10
505.0
 20
230.0
 40
66.88748219369609
 50
63.49999999999999
 51
71.49999999999997
  0
ARC
  8
0
  6
CONTINUOUS
 62
     7
 10
505.0
 20
230.0
 40
67.39897948556634
 50
243.0718374283584
 51
251.9281625716416
  0
ARC
  8
0
  6
CONTINUOUS
 62
     7
 10
505.0
 20
230.0
 40
67.39897948556634
 50
220.5718374283584
 51
229.4281625716417
  0
ARC
  8
0
  6
CONTINUOUS
 62
     7
 10
505.0
 20
230.0
 40
67.39897948556633
 50
198.0718374283584
 51
206.9281625716415
  0
ARC
  8
0
  6
CONTINUOUS
 62
     7
 10
505.0
 20
230.0
 40
67.39897948556634
 50
175.5718374283584
 51
184.4281625716416
  0
ARC
  8
0
  6
CONTINUOUS
 62
     7
 10
505.0
 20
230.0
 40
67.39897948556634
 50
130.5718374283584
 51
139.4281625716417
  0
CIRCLE
  8
0
  6
CONTINUOUS
 62
     7
 10
505.0
 20
230.0
 40
47.19170962313451
  0
LINE
  8
0
  6
CONTINUOUS
 62
     7
 10
496.8377153930074
 20
231.25
 11
496.8377153930074
 21
228.75
  0
CIRCLE
  8
0
  6
CONTINUOUS
 62
     7
 10
505.0
 20
230.0
 40
48.05773502691894
  0
ARC
  8
0
  6
CONTINUOUS
 62
     7
 10
505.0
 20
230.0
 40
67.39897948556634
 50
153.0718374283584
 51
161.9281625716416
  0
ARC
  8
0
  6
CONTINUOUS
 62
     7
 10
505.0
 20
230.0
 40
67.39897948556634
 50
108.0718374283584
 51
116.9281625716416
  0
ARC
  8
0
  6
CONTINUOUS
 62
     7
 10
505.0
 20
230.0
 40
67.39897948556634
 50
288.0718374283584
 51
296.9281625716415
  0
LINE
  8
0
  6
CONTINUOUS
 62
     7
 10
513.1622846069926
 20
228.75
 11
513.1622846069926
 21
231.25
  0
ARC
  8
0
  6
CONTINUOUS
 62
     7
 10
505.0
 20
230.0
 40
67.39897948556634
 50
85.57183742835839
 51
94.42816257164158
  0
CIRCLE
  8
0
  6
CONTINUOUS
 62
     7
 10
505.0
 20
230.0
 40
68.5
  0
ARC
  8
0
  6
CONTINUOUS
 62
     7
 10
505.0
 20
230.0
 40
67.39897948556634
 50
40.5718374283584
 51
49.42816257164163
  0
ARC
  8
0
  6
CONTINUOUS
 62
     7
 10
505.0
 20
230.0
 40
67.39897948556634
 50
18.07183742835837
 51
26.9281625716416
  0
ARC
  8
0
  6
CONTINUOUS
 62
     7
 10
505.0
 20
230.0
 40
67.39897948556634
 50
63.07183742835837
 51
71.92816257164156
  0
ARC
  8
0
  6
CONTINUOUS
 62
     7
 10
505.0
 20
230.0
 40
67.39897948556634
 50
333.0718374283584
 51
341.9281625716416
  0
ARC
  8
0
  6
CONTINUOUS
 62
     7
 10
505.0
 20
230.0
 40
67.39897948556634
 50
310.5718374283584
 51
319.4281625716417
  0
ARC
  8
0
  6
CONTINUOUS
 62
     7
 10
505.0
 20
230.0
 40
67.39897948556634
 50
265.5718374283583
 51
274.4281625716416
  0
CIRCLE
  8
0
  6
CONTINUOUS
 62
     7
 10
505.0
 20
230.0
 40
55.99999999999999
  0
CIRCLE
  8
0
  6
CONTINUOUS
 62
     7
 10
505.0
 20
230.0
 40
48.60000000000001
  0
ARC
  8
0
  6
CONTINUOUS
 62
     7
 10
505.0
 20
230.0
 40
67.39897948556634
 50
355.5718374283584
 51
4.428162571641622
  0
ARC
  8
0
  6
CONTINUOUS
 62
     7
 10
502.8932869074674
 20
164.0336315995358
 40
2.500000000000028
 50
88.170814004636
 51
175.7827985413662
  0
ARC
  8
0
  6
CONTINUOUS
 62
     7
 10
550.1555953124739
 20
181.8650624600375
 40
2.500000000000035
 50
133.1708140046364
 51
220.7827985413657
  0
ARC
  8
0
  6
CONTINUOUS
 62
     7
 10
532.1905853872141
 20
290.1387734020293
 40
2.500000000000033
 50
245.670814004636
 51
333.2827985413657
  0
ARC
  8
0
  6
CONTINUOUS
 62
     7
 10
566.7511817965469
 20
206.7021128269148
 40
2.50000000000002
 50
71.71720145833038
 51
159.3291859953643
  0
ARC
  8
0
  6
CONTINUOUS
 62
     7
 10
565.1387734020292
 20
202.8094146127859
 40
2.500000000000033
 50
155.6708140046361
 51
243.2827985413659
  0
ARC
  8
0
  6
CONTINUOUS
 62
     7
 10
570.9663684004643
 20
227.8932869074674
 40
2.500000000000041
 50
178.170814004636
 51
265.7827985413657
  0
ARC
  8
0
  6
CONTINUOUS
 62
     7
 10
553.1349375399626
 20
275.155595312474
 40
2.500000000000045
 50
223.1708140046363
 51
310.782798541366
  0
ARC
  8
0
  6
CONTINUOUS
 62
     7
 10
532.1905853872141
 20
169.8612265979707
 40
2.500000000000028
 50
26.71720145834793
 51
114.329185995364
  0
ARC
  8
0
  6
CONTINUOUS
 62
     7
 10
456.8650624600375
 20
184.8444046875261
 40
2.500000000000035
 50
43.17081400463614
 51
130.7827985413651
  0
ARC
  8
0
  6
CONTINUOUS
 62
     7
 10
481.7021128269148
 20
291.751181796547
 40
2.500000000000041
 50
290.6708140046363
 51
18.28279854136736
  0
ARC
  8
0
  6
CONTINUOUS
 62
     7
 10
507.1067130925326
 20
164.0336315995358
 40
2.500000000000023
 50
4.217201458353447
 51
91.82918599536423
  0
ARC
  8
0
  6
CONTINUOUS
 62
     7
 10
502.8932869074674
 20
295.9663684004642
 40
2.500000000000024
 50
184.2172014582045
 51
271.8291859953642
  0
ARC
  8
0
  6
CONTINUOUS
 62
     7
 10
553.1349375399626
 20
184.8444046875261
 40
2.500000000000032
 50
49.21720145818901
 51
136.829185995364
  0
ARC
  8
0
  6
CONTINUOUS
 62
     7
 10
570.9663684004643
 20
232.1067130925326
 40
2.500000000000023
 50
94.21720145863216
 51
181.8291859953642
  0
ARC
  8
0
  6
CONTINUOUS
 62
     7
 10
528.2978871730852
 20
168.248818203453
 40
2.500000000000025
 50
110.6708140046357
 51
198.2827985413666
  0
ARC
  8
0
  6
CONTINUOUS
 62
     7
 10
565.1387734020293
 20
257.1905853872141
 40
2.500000000000033
 50
116.7172014586322
 51
204.3291859953639
  0
ARC
  8
0
  6
CONTINUOUS
 62
     7
 10
566.751181796547
 20
253.2978871730852
 40
2.500000000000048
 50
200.6708140046363
 51
288.2827985413654
  0
ARC
  8
0
  6
CONTINUOUS
 62
     7
 10
459.8444046875261
 20
278.1349375399625
 40
2.500000000000045
 50
313.1708140046364
 51
40.78279854136429
  0
ARC
  8
0
  6
CONTINUOUS
 62
     7
 10
528.2978871730852
 20
291.751181796547
 40
2.50000000000002
 50
161.717201458283
 51
249.3291859953643
  0
ARC
  8
0
  6
CONTINUOUS
 62
     7
 10
443.248818203453
 20
253.2978871730851
 40
2.500000000000017
 50
251.7172014583882
 51
339.3291859953644
  0
ARC
  8
0
  6
CONTINUOUS
 62
     7
 10
507.1067130925326
 20
295.9663684004642
 40
2.500000000000028
 50
268.170814004636
 51
355.782798541366
  0
LINE
  8
0
  6
CONTINUOUS
 62
     7
 10
615.624192616994
 20
273.4451560960923
 11
615.624192616994
 21
276.3116444513275
  0
ARC
  8
0
  6
CONTINUOUS
 62
     7
 10
620.0116748106902
 20
292.5
 40
5.000000000000003
 50
173.620629791557
 51
179.9999999999999
  0
ARC
  8
0
  6
CONTINUOUS
 62
     7
 10
620.0116748106902
 20
292.5
 40
5.000000000000004
 50
89.99999999999994
 51
101.5369590328154
  0
LINE
  8
0
  6
CONTINUOUS
 62
     7
 10
619.0112976169152
 20
251.2500206094037
 11
616.9997696752419
 21
250.9362199136155
  0
LINE
  8
0
  6
CONTINUOUS
 62
     7
 10
616.9997696752419
 20
209.0637800863845
 11
619.0112924070387
 21
208.749979760016
  0
LINE
  8
0
  6
CONTINUOUS
 62
     7
 10
617.125619565543
 20
167.4555565624403
 11
617.1143195459128
 21
167.4645496951516
  0
ARC
  8
0
  6
CONTINUOUS
 62
     7
 10
619.5493347079037
 20
276.6687346280082
 40
3.941351776752691
 50
128.1565442257619
 51
185.1981796732406
  0
LINE
  8
0
  6
CONTINUOUS
 62
     7
 10
615.624192616994
 20
170.5878781199889
 11
615.624192616994
 21
171.9753839222049
  0
LINE
  8
0
  6
CONTINUOUS
 62
     7
 10
615.624192616994
 20
288.0325445760171
 11
615.624192616994
 21
289.4121218800112
  0
LINE
  8
0
  6
CONTINUOUS
 62
     7
 10
617.125619565543
 20
180.2249148875612
 11
617.1143195459128
 21
180.2320791902654
  0
ARC
  8
0
  6
CONTINUOUS
 62
     7
 10
3886.860700841873
 20
234.9058718869105
 40
3262.389796298388
 50
180.0863200401284
 51
181.0432348989607
  0
LINE
  8
0
  6
CONTINUOUS
 62
     7
 10
617.1143195459317
 20
279.7679208097467
 11
617.125619565543
 21
279.7750851124388
  0
LINE
  8
0
  6
CONTINUOUS
 62
     7
 10
621.5881068334658
 20
284.8186093558693
 11
621.5719126789289
 21
284.7649656284062
  0
LINE
  8
0
  6
CONTINUOUS
 62
     7
 10
613.6116748106901
 20
174.0
 11
615.0116748106901
 21
174.0
  0
ARC
  8
0
  6
CONTINUOUS
 62
     7
 10
619.4543421482033
 20
183.2903106112648
 40
3.850777220720254
 50
174.066884752292
 51
232.5783913483232
  0
ARC
  8
0
  6
CONTINUOUS
 62
     7
 10
643.0116748106902
 20
297.2118391006405
 40
1.000000000000001
 50
0.0
 51
89.00000000000016
  0
ARC
  8
0
  6
CONTINUOUS
 62
     7
 10
620.0116748106902
 20
167.5
 40
5.000000000000006
 50
258.4630409671846
 51
270.0000000000001
  0
POLYLINE
  8
0
  6
CONTINUOUS
 62
     7
 10
0.0
 20
0.0
 30
0.0
 66
     1
 70
     8
  0
VERTEX
  8
0
  6
CONTINUOUS
 62
     7
 10
619.0116748106901
 20
297.1978142426058
 30
0.0
 70
    32
  0
VERTEX
  8
0
  6
CONTINUOUS
 62
     7
 10
619.0116748106901
 20
297.1990709470293
 30
0.0
 70
    32
  0
VERTEX
  8
0
  6
CONTINUOUS
 62
     7
 10
619.0116748106901
 20
297.1990959907325
 30
0.0
 70
    32
  0
VERTEX
  8
0
  6
CONTINUOUS
 62
     7
 10
619.0116748106901
 20
297.19778828213
 30
0.0
 70
    32
  0
SEQEND
  8
0
  6
CONTINUOUS
 62
     7
  0
ARC
  8
0
  6
CONTINUOUS
 62
     7
 10
643.0116748106902
 20
162.7881608993595
 40
0.9999999999999831
 50
270.9999999999998
 51
0.0
  0
LINE
  8
0
  6
CONTINUOUS
 62
     7
 10
615.624192616994
 20
183.6883555486724
 11
615.624192616994
 21
186.5548439039076
  0
LINE
  8
0
  6
CONTINUOUS
 62
     7
 10
617.114319545931
 20
292.5354503048629
 11
617.125619565543
 21
292.5444434375597
  0
POLYLINE
  8
0
  6
CONTINUOUS
 62
     7
 66
     1
  0
VERTEX
  8
0
  6
CONTINUOUS
 62
     7
 10
625.0116499285584
 20
286.2952722885223
  0
VERTEX
  8
0
  6
CONTINUOUS
 62
     7
 10
624.9107853305368
 20
286.2650509664372
  0
VERTEX
  8
0
  6
CONTINUOUS
 62
     7
 10
624.8237405271086
 20
286.2027466705243
  0
SEQEND
  8
0
  6
CONTINUOUS
 62
     7
  0
ARC
  8
0
  6
CONTINUOUS
 62
     7
 10
668.2995459106543
 20
262.1900054581747
 40
49.66646146323703
 50
151.0870653806724
 51
152.6698486593788
  0
POLYLINE
  8
0
  6
CONTINUOUS
 62
     7
 66
     1
  0
VERTEX
  8
0
  6
CONTINUOUS
 62
     7
 10
624.1770659680504
 20
284.992728058639
  0
VERTEX
  8
0
  6
CONTINUOUS
 62
     7
 10
624.1125314390604
 20
284.905984112057
  0
VERTEX
  8
0
  6
CONTINUOUS
 62
     7
 10
624.0158720431579
 20
284.8431344173979
  0
VERTEX
  8
0
  6
CONTINUOUS
 62
     7
 10
623.9067520535914
 20
284.8191658629468
  0
SEQEND
  8
0
  6
CONTINUOUS
 62
     7
  0
LINE
  8
0
  6
CONTINUOUS
 62
     7
 10
623.9067520535914
 20
284.8191658629468
 11
623.8971976610678
 21
284.8189336726663
  0
LINE
  8
0
  6
CONTINUOUS
 62
     7
 10
622.7717930505007
 20
175.3525868759567
 11
622.7790202123099
 21
175.4481957919484
  0
LINE
  8
0
  6
CONTINUOUS
 62
     7
 10
615.0116748106901
 20
286.0
 11
613.6116748106901
 21
286.0
  0
LINE
  8
0
  6
CONTINUOUS
 62
     7
 10
621.6124050388734
 20
284.8197685341125
 11
621.5882187081652
 21
284.8186101168708
  0
ARC
  8
0
  6
CONTINUOUS
 62
     7
 10
1752.738342834039
 20
206.1181533406754
 40
1132.727536174433
 50
179.9290630380169
 51
181.5650363696063
  0
POLYLINE
  8
0
  6
CONTINUOUS
 62
     7
 10
0.0
 20
0.0
 30
0.0
 66
     1
 70
     8
  0
VERTEX
  8
0
  6
CONTINUOUS
 62
     7
 10
619.0116748106901
 20
162.80221171787
 30
0.0
 70
    32
  0
VERTEX
  8
0
  6
CONTINUOUS
 62
     7
 10
619.0116748106901
 20
162.801061642644
 30
0.0
 70
    32
  0
VERTEX
  8
0
  6
CONTINUOUS
 62
     7
 10
619.0116748106901
 20
162.8007579055515
 30
0.0
 70
    32
  0
VERTEX
  8
0
  6
CONTINUOUS
 62
     7
 10
619.0116748106901
 20
162.8013086592842
 30
0.0
 70
    32
  0
VERTEX
  8
0
  6
CONTINUOUS
 62
     7
 10
619.0116748106901
 20
162.8021128315243
 30
0.0
 70
    32
  0
SEQEND
  8
0
  6
CONTINUOUS
 62
     7
  0
ARC
  8
0
  6
CONTINUOUS
 62
     7
 10
644.0116748106902
 20
293.0000000000001
 40
1.000000000000001
 50
0.0
 51
90.0000000000008
  0
ARC
  8
0
  6
CONTINUOUS
 62
     7
 10
619.8031169489236
 20
170.6644945661418
 40
4.179626616315615
 50
181.0503437966171
 51
229.9608846699358
  0
ARC
  8
0
  6
CONTINUOUS
 62
     7
 10
644.0116748106902
 20
167.0
 40
1.000000000000001
 50
269.9999999999992
 51
0.0
  0
ARC
  8
0
  6
CONTINUOUS
 62
     7
 10
620.0116748106902
 20
167.5
 40
5.000000000000004
 50
180.0000000000001
 51
186.3793702084431
  0
ARC
  8
0
  6
CONTINUOUS
 62
     7
 10
619.8052442153315
 20
289.3344905239509
 40
4.181772243368134
 50
130.0524843141894
 51
178.9362872189193
  0
POLYLINE
  8
0
  6
CONTINUOUS
 62
     7
 66
     1
  0
VERTEX
  8
0
  6
CONTINUOUS
 62
     7
 10
615.7805570558512
 20
272.6893125639552
  0
VERTEX
  8
0
  6
CONTINUOUS
 62
     7
 10
615.7159258846718
 20
272.7665391607895
  0
VERTEX
  8
0
  6
CONTINUOUS
 62
     7
 10
615.6765105252214
 20
272.8681459604476
  0
SEQEND
  8
0
  6
CONTINUOUS
 62
     7
  0
ARC
  8
0
  6
CONTINUOUS
 62
     7
 10
617.9656107374307
 20
273.3665771787887
 40
2.342736319126348
 50
178.0778524215734
 51
192.283910219154
  0
ARC
  8
0
  6
CONTINUOUS
 62
     7
 10
619.945624220567
 20
175.0125972235904
 40
5.240958465905795
 50
233.4976802930406
 51
260.0008237140543
  0
ARC
  8
0
  6
CONTINUOUS
 62
     7
 10
620.0090066354717
 20
167.6990523510203
 40
4.993014870978442
 50
230.2067166838507
 51
258.677644478932
  0
LINE
  8
0
  6
CONTINUOUS
 62
     7
 10
615.1185423868596
 20
166.7263892835114
 11
615.1188239551948
 21
166.6167413456374
  0
ARC
  8
0
  6
CONTINUOUS
 62
     7
 10
619.9614777968065
 20
167.6981896796844
 40
4.961937799780474
 50
192.5885840064207
 51
230.4209765880608
  0
LINE
  8
0
  6
CONTINUOUS
 62
     7
 10
621.588441091142
 20
284.769040439777
 11
621.3176784550288
 21
284.929070171147
  0
LINE
  8
0
  6
CONTINUOUS
 62
     7
 10
616.8138832657352
 20
170.8103157494973
 11
616.8271273908018
 21
170.8003870226446
  0
ARC
  8
0
  6
CONTINUOUS
 62
     7
 10
619.9456226370543
 20
284.9874058368671
 40
5.240955063848771
 50
99.99950993830186
 51
126.502325694044
  0
LINE
  8
0
  6
CONTINUOUS
 62
     7
 10
616.8271273908024
 20
289.1996129773563
 11
616.813883265718
 21
289.1896842504898
  0
ARC
  8
0
  6
CONTINUOUS
 62
     7
 10
619.9565480370591
 20
292.3082406283597
 40
4.953840714646698
 50
129.5824633863992
 51
167.7782849153493
  0
LINE
  8
0
  6
CONTINUOUS
 62
     7
 10
615.114982495751
 20
293.3569450363356
 11
615.1185423868596
 21
293.2736107164886
  0
ARC
  8
0
  6
CONTINUOUS
 62
     7
 10
619.8181075605212
 20
267.8225344512915
 40
6.238524715231471
 50
97.4290880610957
 51
118.0326897087992
  0
ARC
  8
0
  6
CONTINUOUS
 62
     7
 10
620.7401971624611
 20
176.0153141288949
 40
6.519795148351708
 50
212.8002821225144
 51
232.9814878492883
  0
ARC
  8
0
  6
CONTINUOUS
 62
     7
 10
620.7466952620855
 20
283.9786493904581
 40
6.528527437600014
 50
127.0321499296215
 51
147.186080098788
  0
ARC
  8
0
  6
CONTINUOUS
 62
     7
 10
619.8181087285363
 20
192.1774694374856
 40
6.238528696713838
 50
241.9673176077405
 51
262.5708780012521
  0
LINE
  8
0
  6
CONTINUOUS
 62
     7
 10
619.0287030507634
 20
297.1967828501687
 11
619.0127443058614
 21
297.1935587568879
  0
LINE
  8
0
  6
CONTINUOUS
 62
     7
 10
617.125619565543
 20
200.5720787087809
 11
617.1143195459128
 21
200.5763234813357
  0
LINE
  8
0
  6
CONTINUOUS
 62
     7
 10
616.805983123854
 20
296.1385500489498
 11
616.7923911831599
 21
296.127183371525
  0
LINE
  8
0
  6
CONTINUOUS
 62
     7
 10
615.624192616994
 20
252.4153914468319
 11
615.624192616994
 21
256.1606389710315
  0
LINE
  8
0
  6
CONTINUOUS
 62
     7
 10
619.0116748106901
 20
199.4768219955425
 11
619.0116748106901
 21
209.0922174701612
  0
LINE
  8
0
  6
CONTINUOUS
 62
     7
 10
644.0116748106902
 20
275.3215014297008
 11
643.928093967918
 21
275.3861398170601
  0
ARC
  8
0
  6
CONTINUOUS
 62
     7
 10
643.1138192443848
 20
271.9757502978463
 40
3.506251559450411
 50
76.5713020673562
 51
91.38408999512157
  0
LINE
  8
0
  6
CONTINUOUS
 62
     7
 10
615.624192616994
 20
203.8393610289682
 11
615.624192616994
 21
207.584608553168
  0
LINE
  8
0
  6
CONTINUOUS
 62
     7
 10
619.0116748106901
 20
273.8363592312572
 11
619.0116748106901
 21
281.1956643188069
  0
LINE
  8
0
  6
CONTINUOUS
 62
     7
 10
619.0116748106901
 20
290.0912476173028
 11
619.0116748106901
 21
294.0740748304707
  0
LINE
  8
0
  6
CONTINUOUS
 62
     7
 10
619.0116748106901
 20
178.8043356811931
 11
619.0116748106901
 21
186.1636407687427
  0
LINE
  8
0
  6
CONTINUOUS
 62
     7
 10
622.7425742508033
 20
175.181473214477
 11
622.7717930505007
 21
175.3525868759566
  0
LINE
  8
0
  6
CONTINUOUS
 62
     7
 10
619.0116748106901
 20
250.9077825298388
 11
619.0116748106901
 21
260.5231780044575
  0
LINE
  8
0
  6
CONTINUOUS
 62
     7
 10
644.0116748106902
 20
293.8677850105061
 11
643.0291272171271
 21
293.7893453666675
  0
ARC
  8
0
  6
CONTINUOUS
 62
     7
 10
618.6468818797467
 20
256.7520374622912
 40
3.080000414711659
 50
119.8403601151829
 51
191.07025307396
  0
LINE
  8
0
  6
CONTINUOUS
 62
     7
 10
643.0291272171274
 20
298.1064993471359
 11
626.5116748106901
 21
298.3831119502469
  0
LINE
  8
0
  6
CONTINUOUS
 62
     7
 10
643.0291272171274
 20
161.8935006528641
 11
626.5116748106901
 21
161.6168880497531
  0
LINE
  8
0
  6
CONTINUOUS
 62
     7
 10
619.0116748106901
 20
162.6010205144337
 11
619.0116748106901
 21
162.7173573803404
  0
LINE
  8
0
  6
CONTINUOUS
 62
     7
 10
617.114319545913
 20
259.4236765186643
 11
617.125619565543
 21
259.4279212912191
  0
LINE
  8
0
  6
CONTINUOUS
 62
     7
 10
626.912833869143
 20
294.6813167352955
 11
626.5116748106901
 21
298.3831119502469
  0
LINE
  8
0
  6
CONTINUOUS
 62
     7
 10
643.0291272171266
 20
166.2106546333324
 11
644.0116748106902
 21
166.1322149894939
  0
LINE
  8
0
  6
CONTINUOUS
 62
     7
 10
613.6116748106901
 20
286.0
 11
613.6116748106901
 21
174.0
  0
LINE
  8
0
  6
CONTINUOUS
 62
     7
 10
619.0116748106901
 20
165.9259251695292
 11
619.0116748106901
 21
169.9087523826971
  0
LINE
  8
0
  6
CONTINUOUS
 62
     7
 10
619.0116748106901
 20
224.796185467773
 11
619.0116748106901
 21
235.203814532227
  0
LINE
  8
0
  6
CONTINUOUS
 62
     7
 10
617.125619565543
 20
225.3993767818178
 11
617.1143195459128
 21
225.4000557960809
  0
LINE
  8
0
  6
CONTINUOUS
 62
     7
 10
626.5116748106901
 20
161.6168880497531
 11
626.9128338691426
 21
165.3186832647009
  0
LINE
  8
0
  6
CONTINUOUS
 62
     7
 10
619.0116748106901
 20
297.3018708675303
 11
619.0116748106901
 21
297.3989794855664
  0
LINE
  8
0
  6
CONTINUOUS
 62
     7
 10
617.114319545913
 20
234.5999442039192
 11
617.125619565543
 21
234.6006232181822
  0
ARC
  8
0
  6
CONTINUOUS
 62
     7
 10
618.6808103951595
 20
203.2634566268011
 40
3.110398386418113
 50
169.329857083406
 51
239.7595297274481
  0
LINE
  8
0
  6
CONTINUOUS
 62
     7
 10
615.624192616994
 20
227.9730866458208
 11
615.624192616994
 21
232.0269133541793
  0
LINE
  8
0
  6
CONTINUOUS
 62
     7
 10
616.7923911831771
 20
163.8728166284606
 11
616.805983123854
 21
163.8614499510502
  0
ARC
  8
0
  6
CONTINUOUS
 62
     7
 10
505.0
 20
230.0
 40
66.88748219369607
 50
153.5
 51
161.5000000000001
  0
ARC
  8
0
  6
CONTINUOUS
 62
     7
 10
505.0
 20
230.0
 40
66.88748219369607
 50
176.0
 51
184.0
  0
ARC
  8
0
  6
CONTINUOUS
 62
     7
 10
505.0
 20
230.0
 40
66.88748219369609
 50
243.5
 51
251.5
  0
ARC
  8
0
  6
CONTINUOUS
 62
     7
 10
505.0
 20
230.0
 40
66.88748219369606
 50
131.0
 51
139.0000000000001
  0
ARC
  8
0
  6
CONTINUOUS
 62
     7
 10
505.0
 20
230.0
 40
66.88748219369607
 50
221.0000000000001
 51
229.0000000000001
  0
LINE
  8
0
  6
CONTINUOUS
 62
     7
 10
643.0291272171274
 20
233.7866822161986
 11
626.5116748106901
 21
234.0
  0
LINE
  8
0
  6
CONTINUOUS
 62
     7
 10
626.912833869143
 20
224.8054488047009
 11
626.5116748106901
 21
226.0
  0
LINE
  8
0
  6
CONTINUOUS
 62
     7
 10
626.5116748106901
 20
184.4742649460878
 11
626.912833869143
 21
187.9365046958142
  0
LINE
  8
0
  6
CONTINUOUS
 62
     7
 10
625.0116748106902
 20
298.5
 11
625.0116748106902
 21
161.5
  0
LINE
  8
0
  6
CONTINUOUS
 62
     7
 10
626.5116748106901
 20
234.0
 11
626.9128338691426
 21
235.1945511952981
  0
LINE
  8
0
  6
CONTINUOUS
 62
     7
 10
643.0291272171274
 20
226.2133177838014
 11
626.5116748106901
 21
226.0
  0
LINE
  8
0
  6
CONTINUOUS
 62
     7
 10
626.912833869143
 20
272.0634953041857
 11
626.5116748106901
 21
275.5257350539122
  0
LINE
  8
0
  6
CONTINUOUS
 62
     7
 10
645.0116748106902
 20
293.0000000000001
 11
645.0116748106902
 21
167.0
  0
LINE
  8
0
  6
CONTINUOUS
 62
     7
 10
643.0291272171274
 20
184.5190211420356
 11
626.5116748106901
 21
184.4742649460878
  0
LINE
  8
0
  6
CONTINUOUS
 62
     7
 10
643.0291272171274
 20
179.1638437954905
 11
626.5116748106901
 21
178.8174106965954
  0
LINE
  8
0
  6
CONTINUOUS
 62
     7
 10
644.0116748106902
 20
184.6784985702993
 11
643.9281105381913
 21
184.6138662601443
  0
ARC
  8
0
  6
CONTINUOUS
 62
     7
 10
643.1054262313505
 20
188.103726075401
 40
3.585516838457938
 50
268.7806663049258
 51
283.2644873768019
  0
LINE
  8
0
  6
CONTINUOUS
 62
     7
 10
643.0291272171274
 20
275.4809788579644
 11
626.5116748106901
 21
275.5257350539122
  0
LINE
  8
0
  6
CONTINUOUS
 62
     7
 10
643.0291272171274
 20
280.8361562045095
 11
626.5116748106901
 21
281.1825893034046
  0
INSERT
  8
0
  6
CONTINUOUS
 62
     7
  2
D_FRAME_VIEW_1902
 10
0.0
 20
0.0
 30
0.0
  0
INSERT
  8
0
  6
CONTINUOUS
 62
     7
  2
D_FRAME_VIEW_1510
 10
0.0
 20
0.0
 30
0.0
  0
INSERT
  8
0
  6
CONTINUOUS
 62
     7
  2
D_FRAME_VIEW_1936
 10
0.0
 20
0.0
 30
0.0
  0
LINE
  8
0
  6
CENTER
 62
     1
 10
648.0
 20
230.0
 11
612.0
 21
230.0
  0
TEXT
  8
0
  6
CONTINUOUS
 62
     7
 10
627.1163248718269
 20
128.3284200325122
 40
3.0
  1
PBZC-114S
  0
LINE
  8
0
  6
CONTINUOUS
 62
     7
 10
798.7893453666676
 20
235.1883925923171
 11
803.1064993471358
 21
233.7866822161986
  0
LINE
  8
0
  6
CONTINUOUS
 62
     7
 10
738.7866822161985
 20
298.1064993471359
 11
740.1883925923171
 21
293.7893453666675
  0
LINE
  8
0
  6
CONTINUOUS
 62
     7
 10
731.2133177838014
 20
161.8935006528641
 11
729.8116074076829
 21
166.2106546333324
  0
LINE
  8
0
  6
CONTINUOUS
 62
     7
 10
785.8361562045094
 20
275.4809788579644
 11
783.7746262617067
 21
271.4371310907359
  0
LINE
  8
0
  6
CONTINUOUS
 62
     7
 10
689.5190211420355
 20
280.8361562045095
 11
693.5628689092641
 21
278.7746262617068
  0
LINE
  8
0
  6
CONTINUOUS
 62
     7
 10
803.1064993471358
 20
226.2133177838014
 11
798.7893453666676
 21
224.8116074076829
  0
LINE
  8
0
  6
CONTINUOUS
 62
     7
 10
780.4809788579644
 20
179.1638437954905
 11
776.4371310907359
 21
181.2253737382933
  0
LINE
  8
0
  6
CONTINUOUS
 62
     7
 10
740.1883925923171
 20
166.2106546333324
 11
738.7866822161985
 21
161.8935006528641
  0
CIRCLE
  8
0
  6
CONTINUOUS
 62
     7
 10
735.0
 20
230.0
 40
55.03599999999999
  0
LINE
  8
0
  6
CONTINUOUS
 62
     7
 10
729.8116074076829
 20
293.7893453666675
 11
731.2133177838014
 21
298.1064993471359
  0
LINE
  8
0
  6
CONTINUOUS
 62
     7
 10
686.2253737382931
 20
271.4371310907359
 11
684.1638437954904
 21
275.4809788579644
  0
LINE
  8
0
  6
CONTINUOUS
 62
     7
 10
693.5628689092641
 20
181.2253737382933
 11
689.5190211420355
 21
179.1638437954905
  0
LINE
  8
0
  6
CONTINUOUS
 62
     7
 10
666.8935006528641
 20
233.7866822161986
 11
671.2106546333324
 21
235.1883925923171
  0
LINE
  8
0
  6
CONTINUOUS
 62
     7
 10
776.4371310907359
 20
278.7746262617067
 11
780.4809788579644
 21
280.8361562045094
  0
LINE
  8
0
  6
CONTINUOUS
 62
     7
 10
671.2106546333324
 20
224.8116074076829
 11
666.8935006528641
 21
226.2133177838014
  0
LINE
  8
0
  6
CONTINUOUS
 62
     7
 10
783.7746262617067
 20
188.5628689092641
 11
785.8361562045094
 21
184.5190211420355
  0
LINE
  8
0
  6
CONTINUOUS
 62
     7
 10
684.1638437954905
 20
184.5190211420356
 11
686.2253737382932
 21
188.5628689092642
  0
ARC
  8
0
  6
CONTINUOUS
 62
     7
 10
627.8775395453544
 20
272.1912436846583
 40
0.9731272734991732
 50
187.5433410852837
 51
271.7182030013564
  0
ARC
  8
0
  6
CONTINUOUS
 62
     7
 10
643.1201887403337
 20
187.6730447821445
 40
0.8944714518714942
 50
4.682471830771135
 51
95.84311069400036
  0
ARC
  8
0
  6
CONTINUOUS
 62
     7
 10
571.6933186793796
 20
235.1704417467533
 40
0.5055722726866569
 50
273.5413887070017
 51
3.784841866892975
  0
ARC
  8
0
  6
CONTINUOUS
 62
     7
 10
454.1845699872983
 20
186.4955429489576
 40
0.5047149539796627
 50
221.1173360746551
 51
311.5564333514449
  0
ARC
  8
0
  6
CONTINUOUS
 62
     7
 10
564.6379496886399
 20
260.299293411911
 40
0.5055722726868641
 50
296.0413887070283
 51
26.28484186686944
  0
ARC
  8
0
  6
CONTINUOUS
 62
     7
 10
535.2989007770224
 20
289.639100616843
 40
0.5047149539797231
 50
63.61733607464583
 51
154.0564333514448
  0
ARC
  8
0
  6
CONTINUOUS
 62
     7
 10
548.5032434771654
 20
280.815352318884
 40
0.5055722726867065
 50
318.5413887070075
 51
48.78484186687911
  0
ARC
  8
0
  6
CONTINUOUS
 62
     7
 10
510.1696385582608
 20
296.6942317435229
 40
0.5047149539795733
 50
86.11733607465725
 51
176.5564333514568
  0
ARC
  8
0
  6
CONTINUOUS
 62
     7
 10
484.2533457318943
 20
293.5957706719674
 40
0.5047149539796907
 50
108.6173360746569
 51
199.0564333514513
  0
ARC
  8
0
  6
CONTINUOUS
 62
     7
 10
499.8303614417392
 20
163.3057682564771
 40
0.5047149539795179
 50
266.1173360746446
 51
356.5564333514563
  0
ARC
  8
0
  6
CONTINUOUS
 62
     7
 10
454.184647681116
 20
273.5032434771652
 40
0.5055722726868579
 50
48.54138870702423
 51
138.7848418668691
  0
ARC
  8
0
  6
CONTINUOUS
 62
     7
 10
445.36205031136
 20
199.700706588089
 40
0.5055722726867141
 50
116.0413887070155
 51
206.2848418668918
  0
ARC
  8
0
  6
CONTINUOUS
 62
     7
 10
627.7264085201875
 20
225.7933878145291
 40
1.279815299159527
 50
230.5283066765429
 51
278.0991648489808
  0
ARC
  8
0
  6
CONTINUOUS
 62
     7
 10
571.6942317435228
 20
224.8303614417391
 40
0.5047149539797186
 50
356.1173360746616
 51
86.5564333514451
  0
ARC
  8
0
  6
CONTINUOUS
 62
     7
 10
474.7007065880891
 20
289.6379496886402
 40
0.5055722726866644
 50
26.04138870700564
 51
116.2848418668946
  0
ARC
  8
0
  6
CONTINUOUS
 62
     7
 10
643.1632367260174
 20
227.057792060426
 40
0.8550568193139056
 50
260.9763115050448
 51
352.8664095680547
  0
ARC
  8
0
  6
CONTINUOUS
 62
     7
 10
642.972787236865
 20
234.1503151881325
 40
1.03960516084453
 50
357.8710488912815
 51
86.89341165228564
  0
ARC
  8
0
  6
CONTINUOUS
 62
     7
 10
438.3066813206205
 20
224.8295582532468
 40
0.5055722726866587
 50
93.54138870700795
 51
183.784841866896
  0
ARC
  8
0
  6
CONTINUOUS
 62
     7
 10
3936.572355218016
 20
226515.5181399114
 40
226350.9169622005
 50
269.1624539082242
 51
269.1662822149313
  0
ARC
  8
0
  6
CONTINUOUS
 62
     7
 10
564.639100616843
 20
199.7010992229776
 40
0.5047149539796738
 50
333.6173360746571
 51
64.05643335144906
  0
ARC
  8
0
  6
CONTINUOUS
 62
     7
 10
643.0910202545625
 20
272.3620424402531
 40
0.926979909463475
 50
266.1715999005473
 51
353.3028175747124
  0
ARC
  8
0
  6
CONTINUOUS
 62
     7
 10
999.4083851439723
 20
212175.8604342881
 40
212009.9480238008
 50
269.8996014650156
 51
269.9036883077051
  0
CIRCLE
  8
0
  6
CONTINUOUS
 62
     7
 10
735.0
 20
230.0
 40
48.86602540378443
  0
ARC
  8
0
  6
CONTINUOUS
 62
     7
 10
627.9169934756385
 20
294.7738631586625
 40
1.008415269517056
 50
185.2656791146335
 51
269.416139071085
  0
CIRCLE
  8
0
  6
CONTINUOUS
 62
     7
 10
735.0
 20
230.0
 40
47.99999999999998
  0
ARC
  8
0
  6
CONTINUOUS
 62
     7
 10
642.9709990493309
 20
225.8513166347522
 40
1.041332877011207
 50
273.1999669025786
 51
2.035572553880513
  0
ARC
  8
0
  6
CONTINUOUS
 62
     7
 10
535.2992934119111
 20
170.3620503113602
 40
0.5055722726869384
 50
206.0413887070312
 51
296.2848418668723
  0
ARC
  8
0
  6
CONTINUOUS
 62
     7
 10
548.5044570510423
 20
179.1845699872983
 40
0.5047149539797066
 50
311.1173360746579
 51
41.5564333514364
  0
LINE
  8
0
  6
CONTINUOUS
 62
     7
 10
679.9640000000005
 20
229.999999999983
 11
680.1809683578105
 21
229.999999999983
  0
ARC
  8
0
  6
CONTINUOUS
 62
     7
 10
525.7466542681055
 20
166.4042293280326
 40
0.5047149539797684
 50
288.6173360746728
 51
19.05643335143827
  0
ARC
  8
0
  6
CONTINUOUS
 62
     7
 10
568.5952344776227
 20
209.2544371958237
 40
0.5055722726867689
 50
251.0413887070136
 51
341.2848418668761
  0
ARC
  8
0
  6
CONTINUOUS
 62
     7
 10
555.815352318884
 20
186.4967565228347
 40
0.5055722726867247
 50
228.5413887070138
 51
318.7848418668767
  0
ARC
  8
0
  6
CONTINUOUS
 62
     7
 10
484.2544371958236
 20
166.4047655223773
 40
0.5055722726867421
 50
161.0413887070125
 51
251.284841866885
  0
ARC
  8
0
  6
CONTINUOUS
 62
     7
 10
499.8295582532465
 20
296.6933186793793
 40
0.5055722726868657
 50
3.541388707031729
 51
93.78484186686933
  0
ARC
  8
0
  6
CONTINUOUS
 62
     7
 10
14491.14891785645
 20
731722.1507152971
 40
731618.0325222012
 50
268.9142520112673
 51
268.9154365151403
  0
ARC
  8
0
  6
CONTINUOUS
 62
     7
 10
14491.14891785644
 20
-731262.1507152966
 40
731618.0325222008
 50
91.08456348485971
 51
91.0857479887327
  0
ARC
  8
0
  6
CONTINUOUS
 62
     7
 10
525.7455628041762
 20
293.5952344776226
 40
0.5055722726869363
 50
341.0413887070296
 51
71.28484186685927
  0
ARC
  8
0
  6
CONTINUOUS
 62
     7
 10
627.8763872394621
 20
187.8101117444137
 40
0.9718077359319588
 50
88.21149384353784
 51
172.5269620699364
  0
ARC
  8
0
  6
CONTINUOUS
 62
     7
 10
510.1704417467534
 20
163.3066813206207
 40
0.5055722726868693
 50
183.5413887070321
 51
273.7848418668755
  0
ARC
  8
0
  6
CONTINUOUS
 62
     7
 10
3936.572355219067
 20
-226055.5181399833
 40
226350.9169622724
 50
90.83371778506866
 51
90.83754609177582
  0
ARC
  8
0
  6
CONTINUOUS
 62
     7
 10
441.4042293280326
 20
209.2533457318944
 40
0.504714953979725
 50
198.617336074663
 51
289.0564333514433
  0
ARC
  8
0
  6
CONTINUOUS
 62
     7
 10
642.9198589085912
 20
180.255888678923
 40
1.097497877301572
 50
275.7139083881554
 51
5.832745137665087
  0
ARC
  8
0
  6
CONTINUOUS
 62
     7
 10
642.9191433970338
 20
279.7435272092173
 40
1.098150518843137
 50
354.2013668273131
 51
84.2519796468655
  0
ARC
  8
0
  6
CONTINUOUS
 62
     7
 10
999.4083851439717
 20
-211715.860434288
 40
212009.9480238007
 50
90.09631169229485
 51
90.10039853498441
  0
ARC
  8
0
  6
CONTINUOUS
 62
     7
 10
643.0319309467689
 20
297.1266281122398
 40
0.9798752460780538
 50
0.9382644964143622
 51
90.16394137436747
  0
ARC
  8
0
  6
CONTINUOUS
 62
     7
 10
643.0300008584239
 20
162.8753394672158
 40
0.9818392030350406
 50
269.949018163514
 51
358.9487759657068
  0
ARC
  8
0
  6
CONTINUOUS
 62
     7
 10
555.8154300127018
 20
273.5044570510425
 40
0.5047149539795636
 50
41.11733607464981
 51
131.5564333514466
  0
ARC
  8
0
  6
CONTINUOUS
 62
     7
 10
620.0116748106902
 20
334.3213016309281
 40
108.9949853717845
 50
269.1631071295437
 51
269.4743033577126
  0
ARC
  8
0
  6
CONTINUOUS
 62
     7
 10
618.7439623476128
 20
247.5367074368335
 40
22.20113256916531
 50
265.8188474288102
 51
269.1631071295462
  0
ARC
  8
0
  6
CONTINUOUS
 62
     7
 10
461.4955429489577
 20
280.8154300127018
 40
0.5047149539796834
 50
131.1173360746552
 51
221.5564333514429
  0
ARC
  8
0
  6
CONTINUOUS
 62
     7
 10
438.3057682564772
 20
235.1696385582608
 40
0.5047149539796632
 50
176.117336074655
 51
266.5564333514448
  0
ARC
  8
0
  6
CONTINUOUS
 62
     7
 10
474.7010992229776
 20
170.3608993831569
 40
0.5047149539796367
 50
243.6173360746516
 51
334.0564333514506
  0
ARC
  8
0
  6
CONTINUOUS
 62
     7
 10
445.3608993831569
 20
260.2989007770224
 40
0.5047149539796733
 50
153.617336074657
 51
244.056433351442
  0
ARC
  8
0
  6
CONTINUOUS
 62
     7
 10
643.1551818750446
 20
232.9314882110268
 40
0.8644342446157657
 50
7.772321109068479
 51
98.38495781782372
  0
ARC
  8
0
  6
CONTINUOUS
 62
     7
 10
441.4047655223774
 20
250.7455628041764
 40
0.5055722726867947
 50
71.04138870702354
 51
161.2848418668871
  0
ARC
  8
0
  6
CONTINUOUS
 62
     7
 10
627.6512669751997
 20
234.4741829658154
 40
1.031607405057431
 50
75.66304990637664
 51
135.7094785682522
  0
ARC
  8
0
  6
CONTINUOUS
 62
     7
 10
627.9180643821902
 20
165.2249746471464
 40
1.009588871455134
 50
90.64396133689789
 51
174.6742204776609
  0
ARC
  8
0
  6
CONTINUOUS
 62
     7
 10
620.0116748106902
 20
125.6786983690719
 40
108.9949853717845
 50
90.52569664228736
 51
90.83689287045623
  0
ARC
  8
0
  6
CONTINUOUS
 62
     7
 10
618.7439623476128
 20
212.4632925631665
 40
22.20113256916531
 50
90.83689287045367
 51
94.18115257118984
  0
ARC
  8
0
  6
CONTINUOUS
 62
     7
 10
568.5957706719674
 20
250.7466542681055
 40
0.5047149539797775
 50
18.61733607466687
 51
109.0564333514413
  0
ARC
  8
0
  6
CONTINUOUS
 62
     7
 10
461.4967565228347
 20
179.1846476811161
 40
0.5055722726868057
 50
138.5413887070247
 51
228.7848418668806
  0
LINE
  8
0
  6
CONTINUOUS
 62
     7
 10
644.0116748106902
 20
297.2118391006405
 11
644.0116748106902
 21
293.8677850105061
  0
LINE
  8
0
  6
CONTINUOUS
 62
     7
 10
644.0116748106902
 20
187.7460637151234
 11
644.0116748106902
 21
180.3674217529654
  0
LINE
  8
0
  6
CONTINUOUS
 62
     7
 10
686.0266109616184
 20
271.211432296628
 11
683.8174106965954
 21
275.5257350539122
  0
LINE
  8
0
  6
CONTINUOUS
 62
     7
 10
731.9547383188863
 20
297.1450874078448
 11
731.0
 21
298.3831119502469
  0
LINE
  8
0
  6
CONTINUOUS
 62
     7
 10
667.8549125921552
 20
233.0452616811137
 11
666.616888049753
 21
234.0
  0
LINE
  8
0
  6
CONTINUOUS
 62
     7
 10
798.7702987260825
 20
235.4885322473706
 11
803.3831119502469
 21
234.0
  0
LINE
  8
0
  6
CONTINUOUS
 62
     7
 10
625.0121316904259
 20
161.4738253774731
 11
643.0291272171274
 21
161.7883132042031
  0
LINE
  8
0
  6
CONTINUOUS
 62
     7
 10
740.4736622374905
 20
293.7655002466841
 11
739.0607242963159
 21
298.4016187382791
  0
LINE
  8
0
  6
CONTINUOUS
 62
     7
 10
731.9547383188863
 20
162.8549125921552
 11
731.0
 21
161.6168880497531
  0
LINE
  8
0
  6
CONTINUOUS
 62
     7
 10
783.9733890383815
 20
188.788567703372
 11
786.1825893034046
 21
184.4742649460878
  0
LINE
  8
0
  6
CONTINUOUS
 62
     7
 10
616.284863324268
 20
209.2528970194451
 11
616.9983944557823
 21
209.0641392849861
  0
LINE
  8
0
  6
CONTINUOUS
 62
     7
 10
615.0116748106901
 20
167.5
 11
615.0116748106901
 21
292.5
  0
LINE
  8
0
  6
CONTINUOUS
 62
     7
 10
644.0116748106902
 20
234.111695252785
 11
644.0116748106902
 21
225.8883047472151
  0
LINE
  8
0
  6
CONTINUOUS
 62
     7
 10
784.6320718146535
 20
275.3254214442475
 11
786.1825893034046
 21
275.5257350539122
  0
LINE
  8
0
  6
CENTER
 62
     1
 10
793.0
 20
230.0
 11
677.0
 21
230.0
  0
LINE
  8
0
  6
CENTER
 62
     1
 10
735.0
 20
172.0
 11
735.0
 21
287.9999999999999
  0
LINE
  8
0
  6
CONTINUOUS
 62
     7
 10
783.9594813162371
 20
271.2185539441284
 11
786.2386141404282
 21
275.4958827675197
  0
LINE
  8
0
  6
CONTINUOUS
 62
     7
 10
780.3254214442475
 20
180.3679281853464
 11
780.5257350539122
 21
178.8174106965954
  0
LINE
  8
0
  6
CONTINUOUS
 62
     7
 10
615.7519790616742
 20
187.3417522304626
 11
616.885896071764
 21
186.6704506341123
  0
LINE
  8
0
  6
CONTINUOUS
 62
     7
 10
729.5114677526293
 20
293.7702987260825
 11
731.0
 21
298.3831119502469
  0
LINE
  8
0
  6
CONTINUOUS
 62
     7
 10
686.0405186837628
 20
188.7814460558716
 11
683.7613858595718
 21
184.5041172324802
  0
LINE
  8
0
  6
CONTINUOUS
 62
     7
 10
776.2185539441284
 20
181.0405186837629
 11
780.4958827675198
 21
178.7613858595718
  0
LINE
  8
0
  6
CONTINUOUS
 62
     7
 10
689.6745785557525
 20
279.6320718146536
 11
689.4742649460877
 21
281.1825893034046
  0
LINE
  8
0
  6
CONTINUOUS
 62
     7
 10
780.3254214442475
 20
279.6320718146536
 11
780.5257350539122
 21
281.1825893034046
  0
LINE
  8
0
  6
CONTINUOUS
 62
     7
 10
643.0291272171274
 20
298.2116867957969
 11
625.0121316904259
 21
298.5261746225268
  0
LINE
  8
0
  6
CONTINUOUS
 62
     7
 10
693.7885677033719
 20
181.0266109616184
 11
689.4742649460877
 21
178.8174106965954
  0
LINE
  8
0
  6
CONTINUOUS
 62
     7
 10
624.6211197588756
 20
208.2252406021016
 11
624.3181840836313
 21
253.228767561048
  0
LINE
  8
0
  6
CONTINUOUS
 62
     7
 10
671.2344997533158
 20
235.4736622374906
 11
666.5983812617209
 21
234.060724296316
  0
LINE
  8
0
  6
CONTINUOUS
 62
     7
 10
685.3679281853464
 20
275.3254214442474
 11
683.8174106965954
 21
275.5257350539122
  0
LINE
  8
0
  6
CONTINUOUS
 62
     7
 10
616.8858960717648
 20
273.3295493658899
 11
615.7519790616742
 21
272.6582477695375
  0
LINE
  8
0
  6
CONTINUOUS
 62
     7
 10
685.3679281853464
 20
184.6745785557526
 11
683.8174106965954
 21
184.4742649460878
  0
LINE
  8
0
  6
CONTINUOUS
 62
     7
 10
667.8549125921552
 20
226.9547383188863
 11
666.616888049753
 21
226.0
  0
LINE
  8
0
  6
CONTINUOUS
 62
     7
 10
620.0116748106902
 20
162.5
 11
620.0116748106902
 21
297.5
  0
LINE
  8
0
  6
CONTINUOUS
 62
     7
 10
644.0116748106902
 20
279.6325782470347
 11
644.0116748106902
 21
272.2539362848767
  0
LINE
  8
0
  6
CONTINUOUS
 62
     7
 10
740.4885322473706
 20
166.2297012739174
 11
739.0
 21
161.6168880497531
  0
LINE
  8
0
  6
CONTINUOUS
 62
     7
 10
738.0452616811137
 20
162.8549125921552
 11
739.0
 21
161.6168880497531
  0
LINE
  8
0
  6
CONTINUOUS
 62
     7
 10
738.0452616811137
 20
297.1450874078448
 11
739.0
 21
298.3831119502469
  0
LINE
  8
0
  6
CONTINUOUS
 62
     7
 10
776.211432296628
 20
278.9733890383816
 11
780.5257350539122
 21
281.1825893034046
  0
LINE
  8
0
  6
CONTINUOUS
 62
     7
 10
798.7655002466842
 20
224.5263377625094
 11
803.4016187382791
 21
225.939275703684
  0
LINE
  8
0
  6
CONTINUOUS
 62
     7
 10
616.9983944557844
 20
250.9358607150167
 11
616.2848633243102
 21
250.7471029804322
  0
LINE
  8
0
  6
CONTINUOUS
 62
     7
 10
693.7814460558716
 20
278.9594813162371
 11
689.5041172324802
 21
281.2386141404282
  0
LINE
  8
0
  6
CONTINUOUS
 62
     7
 10
729.5263377625093
 20
166.2344997533159
 11
730.9392757036838
 21
161.5983812617209
  0
LINE
  8
0
  6
CONTINUOUS
 62
     7
 10
689.6745785557525
 20
180.3679281853464
 11
689.4742649460877
 21
178.8174106965954
  0
LINE
  8
0
  6
CONTINUOUS
 62
     7
 10
671.2297012739175
 20
224.5114677526294
 11
666.6168880497531
 21
226.0
  0
LINE
  8
0
  6
CONTINUOUS
 62
     7
 10
622.3161949403099
 20
207.6070104854365
 11
622.1573626054945
 21
231.2021577717162
  0
LINE
  8
0
  6
CONTINUOUS
 62
     7
 10
802.1450874078447
 20
226.9547383188863
 11
803.3831119502469
 21
226.0
  0
LINE
  8
0
  6
CONTINUOUS
 62
     7
 10
784.6320718146535
 20
184.6745785557526
 11
786.1825893034046
 21
184.4742649460878
  0
LINE
  8
0
  6
CONTINUOUS
 62
     7
 10
644.0116748106902
 20
166.1322149894939
 11
644.0116748106902
 21
162.7881608993595
  0
LINE
  8
0
  6
CONTINUOUS
 62
     7
 10
802.1450874078447
 20
233.0452616811137
 11
803.3831119502469
 21
234.0
  0
LINE
  8
0
  6
CONTINUOUS
 62
     7
 10
564.8599061761822
 20
200.1549517207515
 11
564.0147974163098
 21
200.5763074052288
  0
LINE
  8
0
  6
CONTINUOUS
 62
     7
 10
441.5690183985346
 20
251.2237095552724
 11
442.4645439952557
 21
250.9240708821153
  0
LINE
  8
0
  6
CONTINUOUS
 62
     7
 10
445.1400938238178
 20
259.8450482792485
 11
445.9852025836903
 21
259.4236925947712
  0
LINE
  8
0
  6
CONTINUOUS
 62
     7
 10
483.7762904447276
 20
293.4309816014654
 11
484.0759291178882
 21
292.5354560047342
  0
LINE
  8
0
  6
CONTINUOUS
 62
     7
 10
571.7245476488253
 20
234.6658348954552
 11
570.782523123251
 21
234.5999621236092
  0
LINE
  8
0
  6
CONTINUOUS
 62
     7
 10
626.5116748106901
 20
161.5
 11
626.5116748106901
 21
298.5
  0
LINE
  8
0
  6
CONTINUOUS
 62
     7
 10
564.8599061761822
 20
259.8450482792485
 11
564.0147974163099
 21
259.4236925947712
  0
LINE
  8
0
  6
CONTINUOUS
 62
     7
 10
548.8821366196162
 20
179.5193763914375
 11
548.2626037732064
 21
180.2320674051831
  0
LINE
  8
0
  6
CONTINUOUS
 62
     7
 10
445.1400938238178
 20
200.1549517207515
 11
445.985202583681
 21
200.5763074052241
  0
LINE
  8
0
  6
CENTER
 62
     1
 10
505.0
 20
172.0
 11
505.0
 21
287.9999999999999
  0
LINE
  8
0
  6
CONTINUOUS
 62
     7
 10
475.1549517207516
 20
170.1400938238178
 11
475.5763074052288
 21
170.9852025836903
  0
LINE
  8
0
  6
CONTINUOUS
 62
     7
 10
509.6658348954552
 20
163.2754523511747
 11
509.5999621236101
 21
164.2174768767369
  0
LINE
  8
0
  6
CONTINUOUS
 62
     7
 10
548.8821366196162
 20
280.4806236085625
 11
548.2626037732168
 21
279.7679325948289
  0
LINE
  8
0
  6
CONTINUOUS
 62
     7
 10
568.4309816014654
 20
208.7762904447276
 11
567.5354560047467
 21
209.0759291178839
  0
LINE
  8
0
  6
CONTINUOUS
 62
     7
 10
441.5690183985346
 20
208.7762904447275
 11
442.4645439952658
 21
209.0759291178881
  0
LINE
  8
0
  6
CONTINUOUS
 62
     7
 10
509.6658348954552
 20
296.7245476488253
 11
509.5999621236093
 21
295.7825231232509
  0
LINE
  8
0
  6
CONTINUOUS
 62
     7
 10
500.3341651045448
 20
296.7245476488253
 11
500.4000378763894
 21
295.7825231232696
  0
LINE
  8
0
  6
CONTINUOUS
 62
     7
 10
454.5193763914375
 20
273.8821366196161
 11
455.2320674051749
 21
273.2626037732134
  0
LINE
  8
0
  6
CENTER
 62
     1
 10
447.0
 20
230.0
 11
562.9999999999999
 21
230.0
  0
LINE
  8
0
  6
CONTINUOUS
 62
     7
 10
475.1549517207516
 20
289.8599061761822
 11
475.5763074052234
 21
289.0147974163205
  0
LINE
  8
0
  6
CONTINUOUS
 62
     7
 10
555.4806236085625
 20
186.1178633803839
 11
554.7679325948316
 21
186.737396226781
  0
LINE
  8
0
  6
CONTINUOUS
 62
     7
 10
526.2237095552724
 20
166.5690183985346
 11
525.9240708821118
 21
167.4645439952658
  0
LINE
  8
0
  6
CONTINUOUS
 62
     7
 10
555.4806236085625
 20
273.8821366196161
 11
554.7679325948169
 21
273.2626037732063
  0
LINE
  8
0
  6
CONTINUOUS
 62
     7
 10
513.1622846069926
 20
231.25
 11
496.8377153930074
 21
231.25
  0
LINE
  8
0
  6
CONTINUOUS
 62
     7
 10
568.4309816014654
 20
251.2237095552724
 11
567.5354560047342
 21
250.9240708821119
  0
LINE
  8
0
  6
CONTINUOUS
 62
     7
 10
438.2754523511747
 20
234.6658348954552
 11
439.2174768767492
 21
234.5999621236092
  0
LINE
  8
0
  6
CONTINUOUS
 62
     7
 10
571.7245476488253
 20
225.3341651045448
 11
570.7825231232509
 21
225.4000378763908
  0
LINE
  8
0
  6
CONTINUOUS
 62
     7
 10
461.1178633803839
 20
179.5193763914375
 11
461.7373962267865
 21
180.2320674051747
  0
LINE
  8
0
  6
CONTINUOUS
 62
     7
 10
483.7762904447275
 20
166.5690183985346
 11
484.0759291178836
 21
167.4645439952521
  0
LINE
  8
0
  6
CONTINUOUS
 62
     7
 10
526.2237095552724
 20
293.4309816014654
 11
525.9240708821167
 21
292.5354560047487
  0
LINE
  8
0
  6
CONTINUOUS
 62
     7
 10
454.5193763914375
 20
186.1178633803839
 11
455.2320674051831
 21
186.7373962267938
  0
LINE
  8
0
  6
CONTINUOUS
 62
     7
 10
438.2754523511747
 20
225.3341651045448
 11
439.2174768767383
 21
225.40003787639
  0
LINE
  8
0
  6
CONTINUOUS
 62
     7
 10
461.1178633803839
 20
280.4806236085625
 11
461.7373962267937
 21
279.7679325948168
  0
LINE
  8
0
  6
CONTINUOUS
 62
     7
 10
534.8450482792484
 20
289.8599061761822
 11
534.4236925947712
 21
289.0147974163098
  0
LINE
  8
0
  6
CONTINUOUS
 62
     7
 10
534.8450482792484
 20
170.1400938238178
 11
534.4236925947768
 21
170.985202583679
  0
LINE
  8
0
  6
CONTINUOUS
 62
     7
 10
500.3341651045448
 20
163.2754523511747
 11
500.4000378763907
 21
164.2174768767491
  0
LINE
  8
0
  6
CONTINUOUS
 62
     7
 10
513.1622846069926
 20
228.75
 11
496.8377153930074
 21
228.75
  0
CIRCLE
  8
0
  6
CONTINUOUS
 62
     7
 10
505.0
 20
230.0
 40
67.5
  0
ARC
  8
0
  6
CONTINUOUS
 62
     7
 10
616.8725483384848
 20
208.054387448909
 40
1.33382315854162
 50
123.1203078917468
 51
200.6222289080378
  0
POLYLINE
  8
0
  6
CONTINUOUS
 62
     7
 66
     1
  0
VERTEX
  8
0
  6
CONTINUOUS
 62
     7
 10
616.1437489020602
 20
209.1714978282938
  0
VERTEX
  8
0
  6
CONTINUOUS
 62
     7
 10
616.2900481270077
 20
209.1982873624958
  0
VERTEX
  8
0
  6
CONTINUOUS
 62
     7
 10
616.3817642919435
 20
209.2021128218232
  0
SEQEND
  8
0
  6
CONTINUOUS
 62
     7
  0
CIRCLE
  8
0
  6
CONTINUOUS
 62
     7
 10
735.0
 20
230.0
 40
64.0
  0
ARC
  8
0
  6
CONTINUOUS
 62
     7
 10
617.1344286524311
 20
226.9218792255734
 40
1.521956282787863
 50
168.3345210402883
 51
269.242947729757
  0
POLYLINE
  8
0
  6
CONTINUOUS
 62
     7
 66
     1
  0
VERTEX
  8
0
  6
CONTINUOUS
 62
     7
 10
615.6439086606559
 20
227.2296146327599
  0
VERTEX
  8
0
  6
CONTINUOUS
 62
     7
 10
615.6238352553278
 20
227.476957888347
  0
VERTEX
  8
0
  6
CONTINUOUS
 62
     7
 10
615.6172567372419
 20
227.725027134296
  0
VERTEX
  8
0
  6
CONTINUOUS
 62
     7
 10
615.624192616994
 20
227.9730866458208
  0
SEQEND
  8
0
  6
CONTINUOUS
 62
     7
  0
ARC
  8
0
  6
CONTINUOUS
 62
     7
 10
620.0116748106902
 20
237.3962029015637
 40
22.49905057679338
 50
92.55059562585322
 51
94.1656855901059
  0
ARC
  8
0
  6
CONTINUOUS
 62
     7
 10
618.6114954760228
 20
256.6206401168448
 40
3.223690958526451
 50
94.16568559010334
 51
117.8919818153829
  0
ARC
  8
0
  6
CONTINUOUS
 62
     7
 10
620.0116748106902
 20
222.6037970984362
 40
22.49905057679333
 50
265.834314409894
 51
267.4494043741468
  0
ARC
  8
0
  6
CONTINUOUS
 62
     7
 10
618.6114954760228
 20
203.3793598831551
 40
3.223690958526405
 50
242.1080181846167
 51
265.8343144098966
  0
ARC
  8
0
  6
CONTINUOUS
 62
     7
 10
616.3417433434508
 20
251.4459035638886
 40
0.6492462538273113
 50
175.1182507612459
 51
273.5271987887971
  0
POLYLINE
  8
0
  6
CONTINUOUS
 62
     7
 66
     1
  0
VERTEX
  8
0
  6
CONTINUOUS
 62
     7
 10
615.6948522602762
 20
251.5011541260384
  0
VERTEX
  8
0
  6
CONTINUOUS
 62
     7
 10
615.6457748600614
 20
251.8035681920435
  0
VERTEX
  8
0
  6
CONTINUOUS
 62
     7
 10
615.6221664834802
 20
252.1090276870421
  0
VERTEX
  8
0
  6
CONTINUOUS
 62
     7
 10
615.6241926169942
 20
252.4153914468319
  0
SEQEND
  8
0
  6
CONTINUOUS
 62
     7
  0
CIRCLE
  8
0
  6
CONTINUOUS
 62
     7
 10
735.0
 20
230.0
 40
50.24999999999999
  0
ARC
  8
0
  6
CONTINUOUS
 62
     7
 10
618.0423332316433
 20
232.520273383075
 40
2.467956269938341
 50
126.6959226188725
 51
191.5314802980165
  0
POLYLINE
  8
0
  6
CONTINUOUS
 62
     7
 66
     1
  0
VERTEX
  8
0
  6
CONTINUOUS
 62
     7
 10
616.5675613218514
 20
234.4991255666442
  0
VERTEX
  8
0
  6
CONTINUOUS
 62
     7
 10
616.7508429988225
 20
234.5512239309519
  0
VERTEX
  8
0
  6
CONTINUOUS
 62
     7
 10
616.9472305076864
 20
234.5847080254769
  0
VERTEX
  8
0
  6
CONTINUOUS
 62
     7
 10
617.114319545913
 20
234.5999442039192
  0
SEQEND
  8
0
  6
CONTINUOUS
 62
     7
  0
CIRCLE
  8
0
  6
CONTINUOUS
 62
     7
 10
735.0
 20
230.0
 40
68.5
  0
ARC
  8
0
  6
CONTINUOUS
 62
     7
 10
620.0089926610085
 20
292.300969449466
 40
4.992989176458539
 50
101.5094435649893
 51
171.7232531799955
  0
ARC
  8
0
  6
CONTINUOUS
 62
     7
 10
505.0
 20
230.0
 40
63.50000000000001
 50
268.1708140046353
 51
271.8291859953647
  0
POLYLINE
  8
0
  6
CONTINUOUS
 62
     7
 66
     1
  0
VERTEX
  8
0
  6
CONTINUOUS
 62
     7
 10
623.8973368591317
 20
284.8186261043631
  0
VERTEX
  8
0
  6
CONTINUOUS
 62
     7
 10
623.7874460148234
 20
284.8398513814305
  0
VERTEX
  8
0
  6
CONTINUOUS
 62
     7
 10
623.6895928400727
 20
284.8999978839545
  0
SEQEND
  8
0
  6
CONTINUOUS
 62
     7
  0
ARC
  8
0
  6
CONTINUOUS
 62
     7
 10
621.5255948707015
 20
284.5320713220547
 40
2.195052884646282
 50
9.649252378456573
 51
52.62685881336688
  0
ARC
  8
0
  6
CONTINUOUS
 62
     7
 10
622.7434433083354
 20
285.9745473639555
 40
0.3229323938667611
 50
69.2226742941903
 51
142.8780510191507
  0
POLYLINE
  8
0
  6
CONTINUOUS
 62
     7
 66
     1
  0
VERTEX
  8
0
  6
CONTINUOUS
 62
     7
 10
622.4859522623955
 20
286.1694414179164
  0
VERTEX
  8
0
  6
CONTINUOUS
 62
     7
 10
621.8681972458345
 20
284.9926276007204
  0
VERTEX
  8
0
  6
CONTINUOUS
 62
     7
 10
621.8036411329967
 20
284.9058204305543
  0
VERTEX
  8
0
  6
CONTINUOUS
 62
     7
 10
621.7069433858692
 20
284.8428833985239
  0
VERTEX
  8
0
  6
CONTINUOUS
 62
     7
 10
621.6124050388734
 20
284.8197685341125
  0
SEQEND
  8
0
  6
CONTINUOUS
 62
     7
  0
POLYLINE
  8
0
  6
CONTINUOUS
 62
     7
 66
     1
  0
VERTEX
  8
0
  6
CONTINUOUS
 62
     7
 10
620.4334941066382
 20
175.1814920081641
  0
VERTEX
  8
0
  6
CONTINUOUS
 62
     7
 10
620.5438709510942
 20
175.1606774338112
  0
VERTEX
  8
0
  6
CONTINUOUS
 62
     7
 10
620.6311153955654
 20
175.1101614209826
  0
SEQEND
  8
0
  6
CONTINUOUS
 62
     7
  0
ARC
  8
0
  6
CONTINUOUS
 62
     7
 10
622.837453347782
 20
175.5021701008001
 40
2.240892225084367
 50
190.0748287482375
 51
232.5243797767514
  0
ARC
  8
0
  6
CONTINUOUS
 62
     7
 10
621.5889619447154
 20
174.0253619938054
 40
0.3227448354601822
 50
249.140773967797
 51
322.7956113614905
  0
POLYLINE
  8
0
  6
CONTINUOUS
 62
     7
 66
     1
  0
VERTEX
  8
0
  6
CONTINUOUS
 62
     7
 10
621.846022914983
 20
173.830211061496
  0
VERTEX
  8
0
  6
CONTINUOUS
 62
     7
 10
622.4629987767639
 20
175.0054362422995
  0
VERTEX
  8
0
  6
CONTINUOUS
 62
     7
 10
622.5281180850117
 20
175.0937268148687
  0
VERTEX
  8
0
  6
CONTINUOUS
 62
     7
 10
622.6243479430339
 20
175.1567581314379
  0
VERTEX
  8
0
  6
CONTINUOUS
 62
     7
 10
622.7244703261388
 20
175.1806863443919
  0
VERTEX
  8
0
  6
CONTINUOUS
 62
     7
 10
622.7426115677334
 20
175.1814713630294
  0
SEQEND
  8
0
  6
CONTINUOUS
 62
     7
  0
POLYLINE
  8
0
  6
CONTINUOUS
 62
     7
 66
     1
  0
VERTEX
  8
0
  6
CONTINUOUS
 62
     7
 10
622.742744094925
 20
175.1812298038163
  0
VERTEX
  8
0
  6
CONTINUOUS
 62
     7
 10
622.8531595535449
 20
175.1602955827646
  0
VERTEX
  8
0
  6
CONTINUOUS
 62
     7
 10
622.9404353616767
 20
175.1096578175133
  0
SEQEND
  8
0
  6
CONTINUOUS
 62
     7
  0
ARC
  8
0
  6
CONTINUOUS
 62
     7
 10
625.143110481433
 20
175.4995861028451
 40
2.236922383744112
 50
190.0387759655607
 51
232.5644692513078
  0
ARC
  8
0
  6
CONTINUOUS
 62
     7
 10
623.8979957833315
 20
174.0253739885395
 40
0.3230162769182562
 50
249.2124621371941
 51
322.8443092127719
  0
POLYLINE
  8
0
  6
CONTINUOUS
 62
     7
 66
     1
  0
VERTEX
  8
0
  6
CONTINUOUS
 62
     7
 10
624.1554388649854
 20
173.8302776665275
  0
VERTEX
  8
0
  6
CONTINUOUS
 62
     7
 10
624.7724230044998
 20
175.0055142540443
  0
VERTEX
  8
0
  6
CONTINUOUS
 62
     7
 10
624.8375082150368
 20
175.0937105947939
  0
VERTEX
  8
0
  6
CONTINUOUS
 62
     7
 10
624.9336776818216
 20
175.1566113563316
  0
VERTEX
  8
0
  6
CONTINUOUS
 62
     7
 10
625.0518619813463
 20
175.1812135674587
  0
SEQEND
  8
0
  6
CONTINUOUS
 62
     7
  0
ARC
  8
0
  6
CONTINUOUS
 62
     7
 10
-2103.625170565348
 20
228.7085669345203
 40
2725.790847473685
 50
0.0275315367404525
 51
1.179509318672134
  0
LINE
  8
0
  6
CONTINUOUS
 62
     7
 10
621.3176784550288
 20
284.929070171147
 11
620.674009786495
 21
286.1417130959643
  0
ARC
  8
0
  6
CONTINUOUS
 62
     7
 10
620.433082131185
 20
285.9207218147484
 40
0.3269300865119052
 50
42.52865377221283
 51
160.6272146221264
  0
LINE
  8
0
  6
CONTINUOUS
 62
     7
 10
620.1246627205675
 20
286.02916880005
 11
620.0068314156347
 21
285.8027920523023
  0
ARC
  8
0
  6
CONTINUOUS
 62
     7
 10
620.5124697146435
 20
174.8376465634284
 40
0.4995286581154528
 50
99.04761127694326
 51
174.2343163394205
  0
ARC
  8
0
  6
CONTINUOUS
 62
     7
 10
616.6954199394102
 20
186.729919393892
 40
1.085439728167178
 50
147.8394651861411
 51
189.282043308775
  0
ARC
  8
0
  6
CONTINUOUS
 62
     7
 10
620.0116748106902
 20
288.6913551305803
 40
4.846329768235013
 50
101.9139357027201
 51
110.7058125783433
  0
ARC
  8
0
  6
CONTINUOUS
 62
     7
 10
619.7999870810926
 20
289.251398617847
 40
4.247614140835815
 50
110.7058125783344
 51
129.0809510091691
  0
LINE
  8
0
  6
CONTINUOUS
 62
     7
 10
622.7431345088826
 20
175.181265298365
 11
622.7377507567196
 21
175.1862321295724
  0
ARC
  8
0
  6
CONTINUOUS
 62
     7
 10
620.0116748106902
 20
186.4168618795388
 40
6.982403754464434
 50
256.0593399715926
 51
261.7507143149265
  0
ARC
  8
0
  6
CONTINUOUS
 62
     7
 10
619.1847895990794
 20
183.0857128629796
 40
3.550160621511359
 50
234.254087096876
 51
256.059339971591
  0
ARC
  8
0
  6
CONTINUOUS
 62
     7
 10
3105.337136571365
 20
228.730067617269
 40
2483.172006290773
 50
179.9706980552354
 51
181.2356559653329
  0
LINE
  8
0
  6
CONTINUOUS
 62
     7
 10
623.8974783081321
 20
284.8186164968076
 11
623.9015199444219
 21
284.814917158156
  0
ARC
  8
0
  6
CONTINUOUS
 62
     7
 10
616.8349719858934
 20
163.8941580447973
 40
0.0445680526664423
 50
230.1911734325573
 51
231.8895245469688
  0
ARC
  8
0
  6
CONTINUOUS
 62
     7
 10
616.8349719858934
 20
163.8941580447974
 40
0.0445680526664849
 50
228.4497441798283
 51
230.1911734326032
  0
ARC
  8
0
  6
CONTINUOUS
 62
     7
 10
-2706.631625893638
 20
223.4490513951711
 40
3331.112713141042
 50
0.1124259000745618
 51
1.054244904587106
  0
LINE
  8
0
  6
CONTINUOUS
 62
     7
 10
623.9172096563047
 20
284.7382157457572
 11
623.8574917879662
 21
284.4972647028845
  0
ARC
  8
0
  6
CONTINUOUS
 62
     7
 10
765.3046117138983
 20
278.6192851226186
 40
141.5691999669669
 50
177.6203845032737
 51
179.4361687470477
  0
ARC
  8
0
  6
CONTINUOUS
 62
     7
 10
620.0116748106902
 20
273.5831381204605
 40
6.982403754465238
 50
98.24928568507246
 51
103.9406600284058
  0
ARC
  8
0
  6
CONTINUOUS
 62
     7
 10
619.1847895990795
 20
276.9142871370203
 40
3.550160621511537
 50
103.9406600284101
 51
125.7459129031244
  0
ARC
  8
0
  6
CONTINUOUS
 62
     7
 10
616.8349719858935
 20
296.1058419552025
 40
0.0445680526665063
 50
129.8088265673741
 51
131.5502558202565
  0
ARC
  8
0
  6
CONTINUOUS
 62
     7
 10
616.8349719858936
 20
296.1058419552025
 40
0.0445680526665773
 50
128.1286619578487
 51
129.8088265674837
  0
LINE
  8
0
  6
CONTINUOUS
 62
     7
 10
623.8935132667741
 20
284.8158137365898
 11
623.8970500791582
 21
284.8186207014149
  0
ARC
  8
0
  6
CONTINUOUS
 62
     7
 10
-1976.553607662835
 20
230.0142834789675
 40
2598.719062714187
 50
359.9996850821339
 51
1.207305719204044
  0
ARC
  8
0
  6
CONTINUOUS
 62
     7
 10
620.0116748106902
 20
171.3086448694197
 40
4.846329768234986
 50
249.2941874216565
 51
258.0860642972799
  0
ARC
  8
0
  6
CONTINUOUS
 62
     7
 10
619.7999870810929
 20
170.7486013821534
 40
4.247614140836285
 50
230.9190489908293
 51
249.2941874216631
  0
ENDSEC
  0
EOF
