  0
SECTION
  2
HEADER
  9
$ACADVER
  1
AC1004
  9
$INSBASE
 10
0.0
 20
0.0
  9
$EXTMIN
 10
0.0
 20
-248.54164
  9
$EXTMAX
 10
634.8646123727001
 20
5.686136363636363
  9
$LIMMIN
 10
0.0
 20
0.0
  9
$LIMMAX
 10
12.0
 20
9.0
  9
$ORTHOMODE
 70
     0
  9
$REGENMODE
 70
     1
  9
$FILLMODE
 70
     1
  9
$QTEXTMODE
 70
     0
  9
$DRAGMODE
 70
     2
  9
$LTSCALE
 40
1.0
  9
$OSMODE
 70
    37
  9
$ATTMODE
 70
     1
  9
$TEXTSIZE
 40
0.2
  9
$TRACEWID
 40
0.05
  9
$TEXTSTYLE
  7
STANDARD
  9
$CLAYER
  8
0
  9
$CELTYPE
  6
BYLAYER
  9
$CECOLOR
 62
   256
  9
$DIMSCALE
 40
1.0
  9
$DIMASZ
 40
2.0
  9
$DIMEXO
 40
0.0625
  9
$DIMDLI
 40
0.38
  9
$DIMRND
 40
0.0
  9
$DIMDLE
 40
0.0
  9
$DIMEXE
 40
1.0
  9
$DIMTP
 40
0.0
  9
$DIMTM
 40
0.0
  9
$DIMTXT
 40
3.5
  9
$DIMCEN
 40
0.09
  9
$DIMTSZ
 40
0.0
  9
$DIMTOL
 70
     0
  9
$DIMLIM
 70
     0
  9
$DIMTIH
 70
     1
  9
$DIMTOH
 70
     1
  9
$DIMSE1
 70
     0
  9
$DIMSE2
 70
     0
  9
$DIMTAD
 70
     1
  9
$DIMZIN
 70
     0
  9
$DIMBLK
  1

  9
$DIMASO
 70
     1
  9
$DIMSHO
 70
     1
  9
$DIMPOST
  1

  9
$DIMAPOST
  1

  9
$DIMALT
 70
     0
  9
$DIMALTD
 70
     2
  9
$DIMALTF
 40
25.4
  9
$DIMLFAC
 40
1.0
  9
$DIMTOFL
 70
     0
  9
$DIMTVP
 40
0.0
  9
$DIMTIX
 70
     0
  9
$DIMSOXD
 70
     0
  9
$DIMSAH
 70
     0
  9
$DIMBLK1
  1

  9
$DIMBLK2
  1

  9
$LUNITS
 70
     2
  9
$LUPREC
 70
     4
  9
$SKETCHINC
 40
0.1
  9
$FILLETRAD
 40
0.5
  9
$AUNITS
 70
     0
  9
$AUPREC
 70
     0
  9
$MENU
  1
.
  9
$ELEVATION
 40
0.0
  9
$THICKNESS
 40
0.0
  9
$LIMCHECK
 70
     0
  9
$CHAMFERA
 40
0.0
  9
$CHAMFERB
 40
0.0
  9
$SKPOLY
 70
     0
  9
$TDCREATE
 40
2459884.486187547
  9
$TDUPDATE
 40
2459884.486187731
  9
$TDINDWG
 40
0.0000000116
  9
$TDUSRTIMER
 40
0.0000000116
  9
$USRTIMER
 70
     1
  9
$ANGBASE
 50
0.0
  9
$ANGDIR
 70
     0
  9
$PDMODE
 70
     0
  9
$PDSIZE
 40
0.0
  9
$PLINEWID
 40
0.0
  9
$COORDS
 70
     1
  9
$SPLFRAME
 70
     0
  9
$SPLINETYPE
 70
     6
  9
$SPLINESEGS
 70
     8
  9
$ATTDIA
 70
     0
  9
$ATTREQ
 70
     1
  9
$SURFTAB1
 70
     6
  9
$SURFTAB2
 70
     6
  9
$SURFTYPE
 70
     6
  9
$SURFU
 70
     6
  9
$SURFV
 70
     6
  9
$UCSNAME
  2

  9
$UCSORG
 10
0.0
 20
0.0
 30
0.0
  9
$UCSXDIR
 10
1.0
 20
0.0
 30
0.0
  9
$UCSYDIR
 10
0.0
 20
1.0
 30
0.0
  9
$USERI1
 70
     0
  9
$USERI2
 70
     0
  9
$USERI3
 70
     0
  9
$USERI4
 70
     0
  9
$USERI5
 70
     0
  9
$USERR1
 40
0.0
  9
$USERR2
 40
0.0
  9
$USERR3
 40
0.0
  9
$USERR4
 40
0.0
  9
$USERR5
 40
0.0
  9
$WORLDVIEW
 70
     1
  0
ENDSEC
  0
SECTION
  2
TABLES
  0
TABLE
  2
LTYPE
 70
     2
  0
LTYPE
  2
CONTINUOUS
 70
     0
  3
Solid line
 72
    65
 73
     0
 40
0.0
  0
LTYPE
  2
CENTER
 70
     0
  3

 72
    65
 73
     0
 40
0.0
  0
ENDTAB
  0
TABLE
  2
LAYER
 70
     2
  0
LAYER
  2
0
 70
     0
 62
     7
  6
CONTINUOUS
  0
LAYER
  2
1
 70
     0
 62
     7
  6
CONTINUOUS
  0
ENDTAB
  0
TABLE
  2
STYLE
 70
     2
  0
STYLE
  2
STANDARD
 70
     0
 40
0.0
 41
1.0
 50
0.0
 71
     0
 42
0.2
  3
txt
  4

  0
STYLE
  2
ＭＳ_ゴシック
 70
     0
 40
0.0
 41
1.0
 50
0.0
 71
     0
 42
0.2
  3
ＭＳ ゴシック.shx
  4

  0
ENDTAB
  0
TABLE
  2
VIEW
 70
     0
  0
ENDTAB
  0
ENDSEC
  0
SECTION
  2
BLOCKS
  0
BLOCK
  8
0
  2
D_FRAME_DRAWING_21
 70
     0
 10
0.0
 20
0.0
  0
LINE
  8
0
  6
CONTINUOUS
 62
     7
 10
0.0
 20
0.0
 11
420.0
 21
0.0
  0
LINE
  8
0
  6
CONTINUOUS
 62
     7
 10
420.0
 20
0.0
 11
420.0
 21
297.0
  0
LINE
  8
0
  6
CONTINUOUS
 62
     7
 10
420.0
 20
297.0
 11
0.0
 21
297.0
  0
LINE
  8
0
  6
CONTINUOUS
 62
     7
 10
0.0
 20
297.0
 11
0.0
 21
0.0
  0
LINE
  8
0
  6
CONTINUOUS
 62
     7
 10
10.0
 20
10.0
 11
409.9999999999999
 21
10.0
  0
LINE
  8
0
  6
CONTINUOUS
 62
     7
 10
409.9999999999999
 20
10.0
 11
409.9999999999999
 21
286.9999999999999
  0
LINE
  8
0
  6
CONTINUOUS
 62
     7
 10
409.9999999999999
 20
286.9999999999999
 11
10.00000000000006
 21
286.9999999999999
  0
LINE
  8
0
  6
CONTINUOUS
 62
     7
 10
10.0
 20
286.9999999999999
 11
10.0
 21
10.00000000000001
  0
LINE
  8
0
  6
CONTINUOUS
 62
     7
 10
210.0
 20
0.0
 11
210.0
 21
10.0
  0
LINE
  8
0
  6
CONTINUOUS
 62
     7
 10
420.0
 20
148.5
 11
409.9999999999999
 21
148.5
  0
LINE
  8
0
  6
CONTINUOUS
 62
     7
 10
210.0
 20
297.0
 11
210.0
 21
286.9999999999999
  0
LINE
  8
0
  6
CONTINUOUS
 62
     7
 10
0.0
 20
148.5
 11
10.0
 21
148.5
  0
POLYLINE
  8
0
  6
CONTINUOUS
 62
     7
 66
     1
 70
     1
  0
VERTEX
  8
0
  6
CONTINUOUS
 62
     7
 10
11.0
 20
152.5
  0
VERTEX
  8
0
  6
CONTINUOUS
 62
     7
 10
0.0
 20
148.5
  0
VERTEX
  8
0
  6
CONTINUOUS
 62
     7
 10
11.0
 20
144.5
  0
VERTEX
  8
0
  6
CONTINUOUS
 62
     7
 10
11.0
 20
152.5
  0
SEQEND
  8
0
  6
CONTINUOUS
 62
     7
  0
INSERT
  8
0
 62
     7
  2
*U2
 10
0.0
 20
0.0
 30
0.0
  0
POLYLINE
  8
0
  6
CONTINUOUS
 62
     7
 66
     1
 70
     1
  0
VERTEX
  8
0
  6
CONTINUOUS
 62
     7
 10
206.0
 20
11.0
  0
VERTEX
  8
0
  6
CONTINUOUS
 62
     7
 10
210.0
 20
0.0
  0
VERTEX
  8
0
  6
CONTINUOUS
 62
     7
 10
214.0
 20
11.0
  0
VERTEX
  8
0
  6
CONTINUOUS
 62
     7
 10
206.0
 20
11.0
  0
SEQEND
  8
0
  6
CONTINUOUS
 62
     7
  0
INSERT
  8
0
 62
     7
  2
*U3
 10
0.0
 20
0.0
 30
0.0
  0
LINE
  8
0
  6
CONTINUOUS
 62
     7
 10
367.5
 20
286.9999999999999
 11
367.5
 21
292.0
  0
TEXT
  8
0
  6
CONTINUOUS
 62
     7
 10
391.6340909090909
 20
291.8324293485057
 40
3.5
  1
A
 50
270.0
  0
LINE
  8
0
  6
CONTINUOUS
 62
     7
 10
367.5
 20
10.0
 11
367.5
 21
5.0
  0
TEXT
  8
0
  6
CONTINUOUS
 62
     7
 10
392.9868888333125
 20
4.602272727272727
 40
3.5
  1
A
  0
LINE
  8
0
  6
CONTINUOUS
 62
     7
 10
315.0
 20
286.9999999999999
 11
315.0
 21
292.0
  0
TEXT
  8
0
  6
CONTINUOUS
 62
     7
 10
339.1340909090909
 20
291.9745607727899
 40
3.5
  1
B
 50
270.0
  0
LINE
  8
0
  6
CONTINUOUS
 62
     7
 10
315.0
 20
10.0
 11
315.0
 21
5.0
  0
TEXT
  8
0
  6
CONTINUOUS
 62
     7
 10
340.3447574090284
 20
4.602272727272727
 40
3.5
  1
B
  0
LINE
  8
0
  6
CONTINUOUS
 62
     7
 10
262.5
 20
286.9999999999999
 11
262.5
 21
292.0
  0
TEXT
  8
0
  6
CONTINUOUS
 62
     7
 10
286.6327779167187
 20
291.9399305989747
 40
3.5
  1
C
 50
270.0
  0
LINE
  8
0
  6
CONTINUOUS
 62
     7
 10
262.5
 20
10.0
 11
262.5
 21
5.0
  0
TEXT
  8
0
  6
CONTINUOUS
 62
     7
 10
287.8793875828435
 20
4.600959734900587
 40
3.5
  1
C
  0
LINE
  8
0
  6
CONTINUOUS
 62
     7
 10
210.0
 20
286.9999999999999
 11
210.0
 21
292.0
  0
TEXT
  8
0
  6
CONTINUOUS
 62
     7
 10
234.1340909090909
 20
291.9745607727898
 40
3.5
  1
D
 50
270.0
  0
LINE
  8
0
  6
CONTINUOUS
 62
     7
 10
157.5
 20
286.9999999999999
 11
157.5
 21
292.0
  0
TEXT
  8
0
  6
CONTINUOUS
 62
     7
 10
181.6327779167188
 20
292.027463423784
 40
3.5
  1
E
 50
270.0
  0
LINE
  8
0
  6
CONTINUOUS
 62
     7
 10
157.5
 20
10.0
 11
157.5
 21
5.0
  0
LINE
  8
0
  6
CONTINUOUS
 62
     7
 10
105.0
 20
286.9999999999999
 11
105.0
 21
292.0
  0
TEXT
  8
0
  6
CONTINUOUS
 62
     7
 10
129.1327779167188
 20
291.9924502938602
 40
3.5
  1
F
 50
270.0
  0
LINE
  8
0
  6
CONTINUOUS
 62
     7
 10
105.0
 20
10.0
 11
105.0
 21
5.0
  0
TEXT
  8
0
  6
CONTINUOUS
 62
     7
 10
130.326867887958
 20
4.600959734900587
 40
3.5
  1
F
  0
LINE
  8
0
  6
CONTINUOUS
 62
     7
 10
52.50000000000004
 20
286.9999999999999
 11
52.50000000000004
 21
292.0
  0
TEXT
  8
0
  6
CONTINUOUS
 62
     7
 10
76.6327779167188
 20
291.9399305989746
 40
3.5
  1
G
 50
270.0
  0
LINE
  8
0
  6
CONTINUOUS
 62
     7
 10
52.50000000000004
 20
10.0
 11
52.50000000000004
 21
5.0
  0
TEXT
  8
0
  6
CONTINUOUS
 62
     7
 10
77.8793875828436
 20
4.600959734900587
 40
3.5
  1
G
  0
TEXT
  8
0
  6
CONTINUOUS
 62
     7
 10
24.13277791671879
 20
291.9749437288983
 40
3.5
  1
H
 50
270.0
  0
TEXT
  8
0
  6
CONTINUOUS
 62
     7
 10
25.34437445291988
 20
4.600959734900587
 40
3.5
  1
H
  0
LINE
  8
0
  6
CONTINUOUS
 62
     7
 10
409.9999999999999
 20
74.25
 11
414.9999999999999
 21
74.25
  0
TEXT
  8
0
  6
CONTINUOUS
 62
     7
 10
412.9326059772414
 20
35.00777791671877
 40
3.5
  1
1
  0
LINE
  8
0
  6
CONTINUOUS
 62
     7
 10
10.0
 20
74.25
 11
5.0
 21
74.25
  0
TEXT
  8
0
  6
CONTINUOUS
 62
     7
 10
4.600959734900584
 20
38.26171220457671
 40
3.5
  1
1
 50
270.0
  0
LINE
  8
0
  6
CONTINUOUS
 62
     7
 10
409.9999999999999
 20
148.5
 11
414.9999999999999
 21
148.5
  0
TEXT
  8
0
  6
CONTINUOUS
 62
     7
 10
413.163692634738
 20
109.2577779167188
 40
3.5
  1
2
  0
LINE
  8
0
  6
CONTINUOUS
 62
     7
 10
10.0
 20
148.5
 11
5.0
 21
148.5
  0
TEXT
  8
0
  6
CONTINUOUS
 62
     7
 10
4.600959734900599
 20
112.2806255470802
 40
3.5
  1
2
 50
270.0
  0
LINE
  8
0
  6
CONTINUOUS
 62
     7
 10
409.9999999999999
 20
222.75
 11
414.9999999999999
 21
222.75
  0
TEXT
  8
0
  6
CONTINUOUS
 62
     7
 10
413.1811991996998
 20
183.5077779167188
 40
3.5
  1
3
  0
LINE
  8
0
  6
CONTINUOUS
 62
     7
 10
10.0
 20
222.75
 11
5.0
 21
222.75
  0
TEXT
  8
0
  6
CONTINUOUS
 62
     7
 10
4.600959734900584
 20
186.5131189821183
 40
3.5
  1
3
 50
270.0
  0
TEXT
  8
0
  6
CONTINUOUS
 62
     7
 10
413.2351413029886
 20
257.7590909090909
 40
3.5
  1
4
  0
TEXT
  8
0
  6
CONTINUOUS
 62
     7
 10
4.60227272727272
 20
260.7091768788295
 40
3.5
  1
4
 50
270.0
  0
LINE
  8
0
  6
CONTINUOUS
 62
     7
 10
220.0
 20
10.0
 11
220.0
 21
7.0
  0
LINE
  8
0
  6
CONTINUOUS
 62
     7
 10
200.0
 20
10.0
 11
200.0
 21
7.0
  0
LINE
  8
0
  6
CONTINUOUS
 62
     7
 10
230.0
 20
10.0
 11
230.0
 21
7.0
  0
LINE
  8
0
  6
CONTINUOUS
 62
     7
 10
190.0
 20
10.0
 11
190.0
 21
7.0
  0
LINE
  8
0
  6
CONTINUOUS
 62
     7
 10
240.0
 20
10.0
 11
240.0
 21
7.0
  0
LINE
  8
0
  6
CONTINUOUS
 62
     7
 10
180.0
 20
10.0
 11
180.0
 21
7.0
  0
LINE
  8
0
  6
CONTINUOUS
 62
     7
 10
250.0
 20
10.0
 11
250.0
 21
7.0
  0
LINE
  8
0
  6
CONTINUOUS
 62
     7
 10
170.0
 20
10.0
 11
170.0
 21
7.0
  0
LINE
  8
0
  6
CONTINUOUS
 62
     7
 10
260.0
 20
10.0
 11
260.0
 21
5.0
  0
LINE
  8
0
  6
CONTINUOUS
 62
     7
 10
160.0
 20
10.0
 11
160.0
 21
5.0
  0
LINE
  8
0
  6
CONTINUOUS
 62
     7
 10
260.0
 20
10.0
 11
160.0
 21
10.0
  0
LINE
  8
0
  6
CONTINUOUS
 62
     7
 10
260.0
 20
7.0
 11
160.0
 21
7.0
  0
INSERT
  8
0
 62
     7
  2
*U4
 10
0.0
 20
0.0
 30
0.0
  0
INSERT
  8
0
 62
     7
  2
*U5
 10
0.0
 20
0.0
 30
0.0
  0
INSERT
  8
0
 62
     7
  2
*U6
 10
0.0
 20
0.0
 30
0.0
  0
INSERT
  8
0
 62
     7
  2
*U7
 10
0.0
 20
0.0
 30
0.0
  0
ENDBLK
  8
0
  0
BLOCK
  8
0
  2
*U2
 70
     1
 10
0.0
 20
0.0
  0
SOLID
  8
0
  6
CONTINUOUS
 62
     7
 10
11.0
 20
144.5
 11
6.999999999999999
 21
148.5
 12
11.0
 22
152.5
 13
11.0
 23
152.5
  0
ENDBLK
  8
0
  0
BLOCK
  8
0
  2
*U3
 70
     1
 10
0.0
 20
0.0
  0
SOLID
  8
0
  6
CONTINUOUS
 62
     7
 10
210.0
 20
6.999999999999999
 11
206.0
 21
11.0
 12
210.0
 22
11.0
 13
210.0
 23
11.0
  0
SOLID
  8
0
  6
CONTINUOUS
 62
     7
 10
210.0
 20
6.999999999999999
 11
210.0
 21
11.0
 12
214.0
 22
11.0
 13
214.0
 23
11.0
  0
ENDBLK
  8
0
  0
BLOCK
  8
0
  2
*U4
 70
     1
 10
0.0
 20
0.0
  0
SOLID
  8
0
  6
CONTINUOUS
 62
     7
 10
0.0
 20
0.0
 11
0.0
 21
10.0
 12
2.0
 22
0.0
 13
2.0
 23
0.0
  0
SOLID
  8
0
  6
CONTINUOUS
 62
     7
 10
2.0
 20
0.0
 11
0.0
 21
10.0
 12
2.0
 22
10.0
 13
2.0
 23
10.0
  0
SOLID
  8
0
  6
CONTINUOUS
 62
     7
 10
2.0
 20
0.0
 11
2.0
 21
2.0
 12
10.0
 22
0.0
 13
10.0
 23
0.0
  0
SOLID
  8
0
  6
CONTINUOUS
 62
     7
 10
10.0
 20
0.0
 11
2.0
 21
2.0
 12
10.0
 22
2.0
 13
10.0
 23
2.0
  0
ENDBLK
  8
0
  0
BLOCK
  8
0
  2
*U5
 70
     1
 10
0.0
 20
0.0
  0
SOLID
  8
0
  6
CONTINUOUS
 62
     7
 10
409.9999999999999
 20
0.0
 11
409.9999999999999
 21
2.0
 12
418.0
 22
0.0
 13
418.0
 23
0.0
  0
SOLID
  8
0
  6
CONTINUOUS
 62
     7
 10
418.0
 20
0.0
 11
409.9999999999999
 21
2.0
 12
418.0
 22
2.0
 13
418.0
 23
2.0
  0
SOLID
  8
0
  6
CONTINUOUS
 62
     7
 10
418.0
 20
0.0
 11
418.0
 21
10.0
 12
420.0
 22
0.0
 13
420.0
 23
0.0
  0
SOLID
  8
0
  6
CONTINUOUS
 62
     7
 10
420.0
 20
0.0
 11
418.0
 21
10.0
 12
420.0
 22
10.0
 13
420.0
 23
10.0
  0
ENDBLK
  8
0
  0
BLOCK
  8
0
  2
*U6
 70
     1
 10
0.0
 20
0.0
  0
SOLID
  8
0
  6
CONTINUOUS
 62
     7
 10
409.9999999999999
 20
295.0
 11
409.9999999999999
 21
297.0
 12
418.0
 22
295.0
 13
418.0
 23
295.0
  0
SOLID
  8
0
  6
CONTINUOUS
 62
     7
 10
418.0
 20
295.0
 11
409.9999999999999
 21
297.0
 12
418.0
 22
297.0
 13
418.0
 23
297.0
  0
SOLID
  8
0
  6
CONTINUOUS
 62
     7
 10
418.0
 20
286.9999999999999
 11
418.0
 21
297.0
 12
420.0
 22
286.9999999999999
 13
420.0
 23
286.9999999999999
  0
SOLID
  8
0
  6
CONTINUOUS
 62
     7
 10
420.0
 20
286.9999999999999
 11
418.0
 21
297.0
 12
420.0
 22
297.0
 13
420.0
 23
297.0
  0
ENDBLK
  8
0
  0
BLOCK
  8
0
  2
*U7
 70
     1
 10
0.0
 20
0.0
  0
SOLID
  8
0
  6
CONTINUOUS
 62
     7
 10
0.0
 20
286.9999999999999
 11
0.0
 21
297.0
 12
2.0
 22
286.9999999999999
 13
2.0
 23
286.9999999999999
  0
SOLID
  8
0
  6
CONTINUOUS
 62
     7
 10
2.0
 20
286.9999999999999
 11
0.0
 21
297.0
 12
2.0
 22
297.0
 13
2.0
 23
297.0
  0
SOLID
  8
0
  6
CONTINUOUS
 62
     7
 10
2.0
 20
295.0
 11
2.0
 21
297.0
 12
10.0
 22
295.0
 13
10.0
 23
295.0
  0
SOLID
  8
0
  6
CONTINUOUS
 62
     7
 10
10.0
 20
295.0
 11
2.0
 21
297.0
 12
10.0
 22
297.0
 13
10.0
 23
297.0
  0
ENDBLK
  8
0
  0
ENDSEC
  0
SECTION
  2
ENTITIES
  0
INSERT
  8
0
 62
     7
  2
D_FRAME_DRAWING_21
 10
0.0
 20
0.0
 30
0.0
  0
ARC
  8
1
  6
CONTINUOUS
 62
     7
 10
397.3878116618999
 20
-199.6341788627
 40
2.000000000000002
 50
165.5224878138999
 51
194.477512186
  0
ARC
  8
1
  6
CONTINUOUS
 62
     7
 10
474.7878116619
 20
-94.23417886270002
 40
2.000000000000002
 50
345.522487814
 51
14.4775121861
  0
ARC
  8
1
  6
CONTINUOUS
 62
     7
 10
397.3878116618999
 20
-199.6341788627
 40
2.000000000000002
 50
345.522487814
 51
14.4775121861
  0
ARC
  8
1
  6
CONTINUOUS
 62
     7
 10
397.3878116619001
 20
-171.6341788627
 40
2.000000000000002
 50
165.5224878138999
 51
194.477512186
  0
ARC
  8
1
  6
CONTINUOUS
 62
     7
 10
502.7878116619
 20
-94.23417886270002
 40
2.000000000000002
 50
345.522487814
 51
14.4775121861
  0
ARC
  8
1
  6
CONTINUOUS
 62
     7
 10
474.7878116619
 20
-94.23417886270002
 40
2.000000000000002
 50
165.5224878138999
 51
194.477512186
  0
ARC
  8
1
  6
CONTINUOUS
 62
     7
 10
397.3878116619001
 20
-171.6341788627
 40
2.000000000000002
 50
345.522487814
 51
14.4775121861
  0
ARC
  8
1
  6
CONTINUOUS
 62
     7
 10
502.7878116619
 20
-94.23417886270002
 40
2.000000000000002
 50
165.5224878138999
 51
194.477512186
  0
LINE
  8
1
  6
CONTINUOUS
 62
     7
 10
501.4878116604999
 20
-93.7341788627
 11
500.8513199887963
 21
-93.7341788627
  0
LINE
  8
1
  6
CONTINUOUS
 62
     7
 10
504.0878116605
 20
-93.7341788627
 11
504.7243033350037
 21
-93.7341788627
  0
LINE
  8
1
  6
CONTINUOUS
 62
     7
 10
473.4878116605
 20
-93.7341788627
 11
472.8513199887963
 21
-93.7341788627
  0
LINE
  8
1
  6
CONTINUOUS
 62
     7
 10
504.0878116632999
 20
-94.7341788627
 11
504.7243033350037
 21
-94.7341788627
  0
LINE
  8
1
  6
CONTINUOUS
 62
     7
 10
476.0878116605
 20
-93.7341788627
 11
476.7243033350038
 21
-93.7341788627
  0
LINE
  8
1
  6
CONTINUOUS
 62
     7
 10
476.0878116633
 20
-94.7341788627
 11
476.7243033350038
 21
-94.7341788627
  0
LINE
  8
1
  6
CONTINUOUS
 62
     7
 10
501.4878116633
 20
-94.7341788627
 11
500.8513199887963
 21
-94.7341788627
  0
LINE
  8
1
  6
CONTINUOUS
 62
     7
 10
473.4878116633
 20
-94.7341788627
 11
472.8513199887963
 21
-94.7341788627
  0
LINE
  8
1
  6
CONTINUOUS
 62
     7
 10
396.0878116605
 20
-171.1341788627
 11
395.4513199887963
 21
-171.1341788627
  0
LINE
  8
1
  6
CENTER
 62
     3
 10
589.7548109184
 20
-237.5
 11
589.7548109184
 21
-41.63417886269999
  0
LINE
  8
1
  6
CONTINUOUS
 62
     7
 10
396.0878116633
 20
-172.1341788627
 11
395.4513199887963
 21
-172.1341788627
  0
LINE
  8
1
  6
CONTINUOUS
 62
     7
 10
398.6878116605
 20
-171.1341788627
 11
399.3243033350038
 21
-171.1341788627
  0
LINE
  8
1
  6
CONTINUOUS
 62
     7
 10
396.0878116605
 20
-199.1341788627
 11
395.4513199887962
 21
-199.1341788627
  0
LINE
  8
1
  6
CONTINUOUS
 62
     7
 10
398.6878116633
 20
-200.1341788627
 11
399.3243033350037
 21
-200.1341788627
  0
LINE
  8
1
  6
CONTINUOUS
 62
     7
 10
396.0878116633
 20
-200.1341788627
 11
395.4513199887962
 21
-200.1341788627
  0
LINE
  8
1
  6
CONTINUOUS
 62
     7
 10
398.6878116633
 20
-172.1341788627
 11
399.3243033350038
 21
-172.1341788627
  0
LINE
  8
1
  6
CONTINUOUS
 62
     7
 10
398.6878116605
 20
-199.1341788627
 11
399.3243033350037
 21
-199.1341788627
  0
CIRCLE
  8
1
  6
CONTINUOUS
 62
     7
 10
502.7878116619
 20
-94.2341788627
 40
5.75
  0
LINE
  8
1
  6
CONTINUOUS
 62
     7
 10
509.7878116619
 20
-91.2341788627
 11
507.7369173079999
 21
-91.3069184875
  0
LINE
  8
1
  6
CONTINUOUS
 62
     7
 10
429.9878116619
 20
-127.0341788627
 11
429.9878116619
 21
-205.6341788627
  0
LINE
  8
1
  6
CONTINUOUS
 62
     7
 10
428.9878116619
 20
-206.6341788627
 11
400.3878116619
 21
-206.6341788627
  0
ARC
  8
1
  6
CONTINUOUS
 62
     7
 10
526.7878116619
 20
-90.0341788627
 40
2.0
 50
0.0
 51
90.0
  0
ARC
  8
1
  6
CONTINUOUS
 62
     7
 10
551.3930493571
 20
-123.8341788627
 40
3.0
 50
181.0
 51
270.0
  0
LINE
  8
1
  6
CONTINUOUS
 62
     7
 10
555.9450094641
 20
-88.0341788627
 11
554.3450094641
 21
-88.0341788627
  0
LINE
  8
1
  6
CENTER
 62
     3
 10
445.0072881722
 20
-141.853655373
 11
350.0390743204
 21
-46.8854415212
  0
LINE
  8
1
  6
CONTINUOUS
 62
     7
 10
548.3935062716
 20
-123.886536082
 11
547.7450094641
 21
-86.7341788627
  0
LINE
  8
1
  6
CONTINUOUS
 62
     7
 10
547.9282876459
 20
-97.2341788627
 11
551.5282876459
 21
-97.2341788627
  0
CIRCLE
  8
1
  6
CONTINUOUS
 62
     7
 10
520.7878116619
 20
-94.2341788627
 40
2.067
  0
LINE
  8
1
  6
CONTINUOUS
 62
     7
 10
551.4322847888
 20
-91.7341788627
 11
554.3450094641
 21
-91.7341788627
  0
LINE
  8
1
  6
CONTINUOUS
 62
     3
 10
554.3450094641
 20
-95.7341788627
 11
551.5021050485
 21
-95.7341788627
  0
LINE
  8
1
  6
CONTINUOUS
 62
     7
 10
625.1646123727
 20
-100.4341788627
 11
623.5646123727
 21
-100.4341788627
  0
LINE
  8
1
  6
CONTINUOUS
 62
     7
 10
509.7878116619
 20
-125.8341788627
 11
508.7878116619
 21
-126.8341788627
  0
CIRCLE
  8
1
  6
CONTINUOUS
 62
     3
 10
520.7878116619
 20
-94.2341788627
 40
2.5
  0
LINE
  8
1
  6
CONTINUOUS
 62
     7
 10
526.7878116619
 20
-88.0341788627
 11
509.7878116619
 21
-88.0341788627
  0
LINE
  8
1
  6
CONTINUOUS
 62
     3
 10
551.4497398537
 20
-92.7341788627
 11
554.3450094641
 21
-92.7341788627
  0
LINE
  8
1
  6
CONTINUOUS
 62
     3
 10
625.1646123727
 20
-95.7341788627
 11
628.0075167884
 21
-95.7341788627
  0
ARC
  8
1
  6
CONTINUOUS
 62
     7
 10
502.7878116619
 20
-94.2341788627
 40
2.0
 50
255.5224878139
 51
284.477512186
  0
ARC
  8
1
  6
CONTINUOUS
 62
     7
 10
502.7878116619
 20
-94.2341788627
 40
2.0
 50
75.52248781400002
 51
104.4775121861
  0
LINE
  8
1
  6
CONTINUOUS
 62
     7
 10
625.1646123727
 20
-88.0341788627
 11
625.1646123727
 21
-100.4341788627
  0
LINE
  8
1
  6
CONTINUOUS
 62
     7
 10
630.1162678701
 20
-123.8690836756
 11
630.5810560793
 21
-97.2413850008
  0
LINE
  8
1
  6
CONTINUOUS
 62
     7
 10
551.4235572563
 20
-91.2341788627
 11
547.8235572563
 21
-91.2341788627
  0
LINE
  8
1
  6
CONTINUOUS
 62
     7
 10
623.5646123727
 20
-88.0341788627
 11
625.1646123727
 21
-88.0341788627
  0
LINE
  8
1
  6
CONTINUOUS
 62
     7
 10
549.3933539668
 20
-123.8690836756
 11
548.9285657575
 21
-97.2413850008
  0
LINE
  8
1
  6
CONTINUOUS
 62
     7
 10
429.9878116619
 20
-205.6341788627
 11
400.3523443914
 21
-205.6341788627
  0
ARC
  8
1
  6
CONTINUOUS
 62
     7
 10
551.3930493571
 20
-123.8341788627
 40
2.0
 50
181.0
 51
270.0
  0
LINE
  8
1
  6
CONTINUOUS
 62
     7
 10
509.7878116619
 20
-125.8341788627
 11
509.7878116619
 21
-97.2341788627
  0
LINE
  8
1
  6
CONTINUOUS
 62
     7
 10
508.7878116619
 20
-126.8341788627
 11
508.7878116619
 21
-97.1987115922
  0
LINE
  8
1
  6
CONTINUOUS
 62
     7
 10
428.9878116619
 20
-206.6341788627
 11
429.9878116619
 21
-205.6341788627
  0
LINE
  8
1
  6
CONTINUOUS
 62
     7
 10
528.7878116619
 20
-98.4341788627
 11
528.7878116619
 21
-90.0341788627
  0
LINE
  8
1
  6
CONTINUOUS
 62
     7
 10
430.1878116619
 20
-126.8341788627
 11
508.7878116619
 21
-126.8341788627
  0
LINE
  8
1
  6
CONTINUOUS
 62
     7
 10
509.7878116619
 20
-97.2341788627
 11
507.7369173079999
 21
-97.1614392378
  0
LINE
  8
1
  6
CONTINUOUS
 62
     7
 10
551.3450094641
 20
-86.7341788627
 11
551.3450094641
 21
-85.7341788627
  0
LINE
  8
1
  6
CONTINUOUS
 62
     7
 10
526.7878116619
 20
-100.4341788627
 11
509.7878116619
 21
-100.4341788627
  0
LINE
  8
1
  6
CONTINUOUS
 62
     7
 10
554.3450094641
 20
-88.0341788627
 11
554.3450094641
 21
-100.4341788627
  0
ARC
  8
1
  6
CONTINUOUS
 62
     7
 10
430.1878116619
 20
-127.0341788627
 40
0.2
 50
90.0
 51
180.0
  0
ARC
  8
1
  6
CONTINUOUS
 62
     7
 10
526.7878116619
 20
-98.4341788627
 40
2.0
 50
270.0
 51
0.0
  0
LINE
  8
1
  6
CONTINUOUS
 62
     7
 10
554.3450094641
 20
-100.4341788627
 11
555.9450094641
 21
-100.4341788627
  0
ARC
  8
1
  6
CONTINUOUS
 62
     7
 10
551.8095255932
 20
-94.2341788627
 40
7.164516129
 50
124.5629967436
 51
235.4370032564
  0
LINE
  8
1
  6
CONTINUOUS
 62
     7
 10
623.5646123727
 20
-100.4341788627
 11
623.5646123727
 21
-88.0341788627
  0
LINE
  8
1
  6
CONTINUOUS
 62
     7
 10
625.1646123727
 20
-96.7341788627
 11
627.9900617234
 21
-96.7341788627
  0
LINE
  8
1
  6
CONTINUOUS
 62
     3
 10
628.0598819831
 20
-92.7341788627
 11
625.1646123727
 21
-92.7341788627
  0
LINE
  8
1
  6
CONTINUOUS
 62
     7
 10
555.9450094641
 20
-100.4341788627
 11
555.9450094641
 21
-88.0341788627
  0
LINE
  8
1
  6
CONTINUOUS
 62
     7
 10
394.3878116619
 20
-206.6341788627
 11
394.4605512867
 21
-204.5832845088
  0
ARC
  8
1
  6
CONTINUOUS
 62
     7
 10
552.9875081815
 20
-123.5341788627
 40
1.0
 50
181.0
 51
270.0
  0
LINE
  8
1
  6
CONTINUOUS
 62
     7
 10
400.3878116619
 20
-206.6341788627
 11
400.3150720371
 21
-204.5832845088
  0
ARC
  8
1
  6
CONTINUOUS
 62
     7
 10
627.7000962437
 20
-94.2341788627
 40
7.164516129
 50
304.5629967436
 51
55.43700325639998
  0
LINE
  8
1
  6
CONTINUOUS
 62
     7
 10
551.9876604864
 20
-123.5516312691
 11
551.3450094641
 21
-86.7341788627
  0
LINE
  8
1
  6
CONTINUOUS
 62
     7
 10
554.3450094641
 20
-96.7341788627
 11
551.5195601134
 21
-96.7341788627
  0
LINE
  8
1
  6
CONTINUOUS
 62
     7
 10
628.0773370481
 20
-91.7341788627
 11
625.1646123727
 21
-91.7341788627
  0
ARC
  8
1
  6
CONTINUOUS
 62
     7
 10
473.4878116605
 20
-92.934178863
 40
0.8
 50
270.0000000001
 51
0.0000000003000196
  0
ARC
  8
1
  6
CONTINUOUS
 62
     7
 10
476.0878116605
 20
-92.9341788624
 40
0.8
 50
180.0000000003
 51
269.9999999999
  0
ARC
  8
1
  6
CONTINUOUS
 62
     7
 10
397.3878116619
 20
-171.6341788627
 40
2.0
 50
75.52248781400002
 51
104.4775121861
  0
LINE
  8
1
  6
CONTINUOUS
 62
     7
 10
396.8878116619
 20
-170.334178863
 11
396.8878116619
 21
-169.6976871896
  0
LINE
  8
1
  6
CONTINUOUS
 62
     7
 10
502.2878116618999
 20
-92.934178863
 11
502.2878116618999
 21
-92.2976871896
  0
LINE
  8
1
  6
CONTINUOUS
 62
     7
 10
503.2878116618999
 20
-92.9341788624
 11
503.2878116618999
 21
-92.2976871896
  0
LINE
  8
1
  6
CONTINUOUS
 62
     7
 10
503.2878116618999
 20
-95.5341788624
 11
503.2878116618999
 21
-96.1706705358
  0
LINE
  8
1
  6
CONTINUOUS
 62
     7
 10
397.8878116619
 20
-170.3341788624
 11
397.8878116619
 21
-169.6976871896
  0
ARC
  8
1
  6
CONTINUOUS
 62
     7
 10
398.6878116633
 20
-172.9341788624
 40
0.8
 50
89.9999999999
 51
179.9999999997
  0
ARC
  8
1
  6
CONTINUOUS
 62
     7
 10
397.3878116619
 20
-199.6341788627
 40
2.0
 50
75.52248781400002
 51
104.4775121861
  0
LINE
  8
1
  6
CONTINUOUS
 62
     7
 10
502.2878116618999
 20
-95.534178863
 11
502.2878116618999
 21
-96.1706705358
  0
ARC
  8
1
  6
CONTINUOUS
 62
     7
 10
501.4878116633
 20
-95.534178863
 40
0.8
 50
0.0
 51
90.0000000001
  0
CIRCLE
  8
1
  6
CONTINUOUS
 62
     7
 10
397.3878116619
 20
-171.6341788627
 40
5.75
  0
LINE
  8
1
  6
CONTINUOUS
 62
     7
 10
397.8878116619
 20
-172.9341788624
 11
397.8878116619
 21
-173.5706705358
  0
ARC
  8
1
  6
CONTINUOUS
 62
     7
 10
396.0878116633
 20
-200.934178863
 40
0.8
 50
0.0
 51
90.0000000001
  0
ARC
  8
1
  6
CONTINUOUS
 62
     7
 10
504.0878116605
 20
-92.9341788624
 40
0.8
 50
180.0000000003
 51
269.9999999999
  0
LINE
  8
1
  6
CONTINUOUS
 62
     7
 10
396.8878116619
 20
-200.934178863
 11
396.8878116619
 21
-201.5706705358
  0
LINE
  8
1
  6
CONTINUOUS
 62
     7
 10
396.8878116619
 20
-198.334178863
 11
396.8878116619
 21
-197.6976871896
  0
ARC
  8
1
  6
CONTINUOUS
 62
     7
 10
398.6878116605
 20
-170.3341788624
 40
0.8
 50
180.0000000003
 51
269.9999999999
  0
ARC
  8
1
  6
CONTINUOUS
 62
     7
 10
396.0878116605
 20
-198.334178863
 40
0.8
 50
270.0000000001
 51
0.0000000003000196
  0
LINE
  8
1
  6
CONTINUOUS
 62
     7
 10
475.2878116619
 20
-95.5341788624
 11
475.2878116619
 21
-96.1706705358
  0
LINE
  8
1
  6
CONTINUOUS
 62
     7
 10
397.8878116619
 20
-198.3341788624
 11
397.8878116619
 21
-197.6976871896
  0
ARC
  8
1
  6
CONTINUOUS
 62
     7
 10
398.6878116605
 20
-198.3341788624
 40
0.8
 50
180.0000000003
 51
269.9999999999
  0
CIRCLE
  8
1
  6
CONTINUOUS
 62
     7
 10
397.3878116619
 20
-199.6341788627
 40
5.75
  0
LINE
  8
1
  6
CONTINUOUS
 62
     7
 10
397.8878116619
 20
-200.9341788624
 11
397.8878116619
 21
-201.5706705358
  0
ARC
  8
1
  6
CONTINUOUS
 62
     7
 10
398.6878116633
 20
-200.9341788624
 40
0.8
 50
89.9999999999
 51
179.9999999997
  0
ARC
  8
1
  6
CONTINUOUS
 62
     7
 10
474.7878116619
 20
-94.2341788627
 40
2.0
 50
75.52248781400002
 51
104.4775121861
  0
ARC
  8
1
  6
CONTINUOUS
 62
     7
 10
397.3878116619
 20
-171.6341788627
 40
2.0
 50
255.5224878139
 51
284.477512186
  0
ARC
  8
1
  6
CONTINUOUS
 62
     7
 10
501.4878116604999
 20
-92.934178863
 40
0.8
 50
270.0000000001
 51
0.0000000003000196
  0
LINE
  8
1
  6
CONTINUOUS
 62
     7
 10
475.2878116619
 20
-92.9341788624
 11
475.2878116619
 21
-92.2976871896
  0
ARC
  8
1
  6
CONTINUOUS
 62
     7
 10
397.3878116619
 20
-199.6341788627
 40
2.0
 50
255.5224878139
 51
284.477512186
  0
LINE
  8
1
  6
CONTINUOUS
 62
     7
 10
396.8878116619
 20
-172.934178863
 11
396.8878116619
 21
-173.5706705358
  0
ARC
  8
1
  6
CONTINUOUS
 62
     7
 10
473.4878116633
 20
-95.534178863
 40
0.8
 50
0.0
 51
90.0000000001
  0
CIRCLE
  8
1
  6
CONTINUOUS
 62
     7
 10
474.7878116619
 20
-94.2341788627
 40
5.75
  0
ARC
  8
1
  6
CONTINUOUS
 62
     7
 10
396.0878116605
 20
-170.334178863
 40
0.8
 50
270.0000000001
 51
0.0000000003000196
  0
LINE
  8
1
  6
CONTINUOUS
 62
     7
 10
474.2878116619
 20
-95.534178863
 11
474.2878116619
 21
-96.1706705358
  0
ARC
  8
1
  6
CONTINUOUS
 62
     7
 10
476.0878116633
 20
-95.5341788624
 40
0.8
 50
89.9999999999
 51
179.9999999997
  0
ARC
  8
1
  6
CONTINUOUS
 62
     7
 10
396.0878116633
 20
-172.934178863
 40
0.8
 50
0.0
 51
90.0000000001
  0
ARC
  8
1
  6
CONTINUOUS
 62
     7
 10
474.7878116619
 20
-94.2341788627
 40
2.0
 50
255.5224878139
 51
284.477512186
  0
ARC
  8
1
  6
CONTINUOUS
 62
     7
 10
504.0878116632999
 20
-95.5341788624
 40
0.8
 50
89.9999999999
 51
179.9999999997
  0
LINE
  8
1
  6
CONTINUOUS
 62
     7
 10
474.2878116619
 20
-92.934178863
 11
474.2878116619
 21
-92.2976871896
  0
LINE
  8
1
  6
CONTINUOUS
 62
     7
 10
554.3450094641
 20
-225.6341788627
 11
555.9450094641
 21
-225.6341788627
  0
CIRCLE
  8
1
  6
CONTINUOUS
 62
     3
 10
398.2878116619
 20
-217.6341788627
 40
2.5
  0
CIRCLE
  8
1
  6
CONTINUOUS
 62
     7
 10
398.2878116619
 20
-217.6341788627
 40
2.067
  0
LINE
  8
1
  6
CONTINUOUS
 62
     7
 10
394.0878116619
 20
-225.6341788627
 11
402.4878116619
 21
-225.6341788627
  0
LINE
  8
1
  6
CONTINUOUS
 62
     7
 10
625.1646123727
 20
-206.6341788627
 11
625.1646123727
 21
-225.6341788627
  0
LINE
  8
1
  6
CONTINUOUS
 62
     7
 10
625.1646123727
 20
-225.6341788627
 11
623.5646123727
 21
-225.6341788627
  0
ARC
  8
1
  6
CONTINUOUS
 62
     7
 10
394.0878116619
 20
-223.6341788627
 40
2.0
 50
180.0
 51
270.0
  0
LINE
  8
1
  6
CONTINUOUS
 62
     7
 10
555.9450094641
 20
-225.6341788627
 11
555.9450094641
 21
-206.6341788627
  0
ARC
  8
1
  6
CONTINUOUS
 62
     7
 10
402.4878116619
 20
-223.6341788627
 40
2.0
 50
270.0
 51
0.0
  0
LINE
  8
1
  6
CONTINUOUS
 62
     7
 10
404.4878116619
 20
-223.6341788627
 11
404.4878116619
 21
-206.6341788627
  0
LINE
  8
1
  6
CONTINUOUS
 62
     7
 10
623.5646123727
 20
-225.6341788627
 11
623.5646123727
 21
-206.6341788627
  0
LINE
  8
1
  6
CONTINUOUS
 62
     7
 10
392.0878116619
 20
-223.6341788627
 11
392.0878116619
 21
-206.6341788627
  0
LINE
  8
1
  6
CONTINUOUS
 62
     7
 10
554.3450094641
 20
-206.6341788627
 11
554.3450094641
 21
-225.6341788627
  0
LINE
  8
1
  6
CONTINUOUS
 62
     7
 10
548.7450094641
 20
-206.6341788627
 11
630.7646123727
 21
-206.6341788627
  0
LINE
  8
1
  6
CONTINUOUS
 62
     7
 10
413.7878116619
 20
-78.7341788627
 11
463.7878116619
 21
-78.7341788627
  0
LINE
  8
1
  6
CONTINUOUS
 62
     7
 10
350.7878116619
 20
-206.6341788627
 11
349.7878116619
 21
-205.6341788627
  0
LINE
  8
1
  6
CONTINUOUS
 62
     7
 10
551.3930493571
 20
-46.6341788627
 11
628.1165724797
 21
-46.6341788627
  0
LINE
  8
1
  6
CONTINUOUS
 62
     7
 10
350.7878116619
 20
-206.6341788627
 11
394.3878116619
 21
-206.6341788627
  0
LINE
  8
1
  6
CONTINUOUS
 62
     7
 10
508.7878116619
 20
-46.6341788627
 11
509.7878116619
 21
-47.6341788627
  0
LINE
  8
1
  6
CONTINUOUS
 62
     7
 10
509.7878116619
 20
-47.6341788627
 11
509.7878116619
 21
-91.2341788627
  0
LINE
  8
1
  6
CONTINUOUS
 62
     7
 10
508.7878116619
 20
-91.2696461332
 11
508.7878116619
 21
-46.6341788627
  0
ARC
  8
1
  6
CONTINUOUS
 62
     7
 10
628.1165724797
 20
-49.6341788627
 40
2.0
 50
1.0
 51
90.0
  0
LINE
  8
1
  6
CONTINUOUS
 62
     7
 10
631.7646123727
 20
-205.6341788627
 11
630.7646123727
 21
-206.6341788627
  0
LINE
  8
1
  6
CONTINUOUS
 62
     7
 10
349.7878116619
 20
-205.6341788627
 11
394.4232789324
 21
-205.6341788627
  0
LINE
  8
1
  6
CONTINUOUS
 62
     7
 10
627.5219613505
 20
-49.9167264563
 11
628.1646123727
 21
-86.7341788627
  0
ARC
  8
1
  6
CONTINUOUS
 62
     7
 10
626.5221136553
 20
-49.9341788627
 40
1.0
 50
1.0
 51
90.0
  0
LINE
  8
1
  6
CONTINUOUS
 62
     7
 10
551.3930493571
 20
-47.6341788627
 11
628.1165724797
 21
-47.6341788627
  0
LINE
  8
1
  6
CONTINUOUS
 62
     7
 10
381.8878116619
 20
-160.6341788627
 11
390.8878116619
 21
-169.6341788627
  0
LINE
  8
1
  6
CONTINUOUS
 62
     7
 10
381.8878116619
 20
-110.6341788627
 11
381.8878116619
 21
-160.6341788627
  0
LINE
  8
1
  6
CONTINUOUS
 62
     7
 10
413.7878116619
 20
-78.7341788627
 11
381.8878116619
 21
-110.6341788627
  0
ARC
  8
1
  6
CONTINUOUS
 62
     7
 10
551.3930493571
 20
-49.6341788627
 40
3.0
 50
90.0
 51
179.0
  0
ARC
  8
1
  6
CONTINUOUS
 62
     7
 10
552.9875081815
 20
-49.9341788627
 40
1.0
 50
90.0
 51
179.0
  0
LINE
  8
1
  6
CONTINUOUS
 62
     7
 10
547.7450094641
 20
-205.6341788627
 11
547.7450094641
 21
-86.73417886270002
  0
LINE
  8
1
  6
CONTINUOUS
 62
     7
 10
548.7450094641
 20
-206.6341788627
 11
547.7450094641
 21
-205.6341788627
  0
ARC
  8
1
  6
CONTINUOUS
 62
     7
 10
628.1165724797
 20
-49.6341788627
 40
3.0
 50
1.0
 51
90.0
  0
LINE
  8
1
  6
CONTINUOUS
 62
     7
 10
548.3935062716
 20
-49.5818216434
 11
547.7450094641
 21
-86.7341788627
  0
ARC
  8
1
  6
CONTINUOUS
 62
     7
 10
551.3930493571
 20
-49.6341788627
 40
2.0
 50
90.0
 51
179.0
  0
LINE
  8
1
  6
CONTINUOUS
 62
     7
 10
548.666614
 20
-91.2341788627
 11
549.3933539668
 21
-49.5992740498
  0
LINE
  8
1
  6
CONTINUOUS
 62
     7
 10
630.1162678701
 20
-49.5992740498
 11
630.8430078368
 21
-91.2341788627
  0
LINE
  8
1
  6
CONTINUOUS
 62
     7
 10
380.6878116619
 20
-112.6341788627
 11
380.6878116619
 21
-119.6341788627
  0
LINE
  8
1
  6
CONTINUOUS
 62
     7
 10
390.8878116619
 20
-206.6341788627
 11
390.8878116619
 21
-169.6341788627
  0
LINE
  8
1
  6
CONTINUOUS
 62
     7
 10
349.7878116619
 20
-71.6341788627
 11
349.7878116619
 21
-205.6341788627
  0
LINE
  8
1
  6
CONTINUOUS
 62
     7
 10
551.9876604864
 20
-49.9167264563
 11
551.3450094641
 21
-86.7341788627
  0
LINE
  8
1
  6
CONTINUOUS
 62
     7
 10
631.7646123727
 20
-205.6341788627
 11
631.7646123727
 21
-86.73417886270002
  0
LINE
  8
1
  6
CONTINUOUS
 62
     7
 10
415.7878116619
 20
-77.5341788627
 11
422.7878116619
 21
-77.5341788627
  0
LINE
  8
1
  6
CONTINUOUS
 62
     7
 10
631.1161155652
 20
-49.5818216434
 11
631.7646123727
 21
-86.7341788627
  0
LINE
  8
1
  6
CONTINUOUS
 62
     7
 10
552.9875081815
 20
-48.9341788627
 11
626.5221136553
 21
-48.9341788627
  0
LINE
  8
1
  6
CONTINUOUS
 62
     7
 10
415.7878116619
 20
-78.7341788627
 11
415.7878116619
 21
-76.7341788627
  0
LINE
  8
1
  6
CONTINUOUS
 62
     7
 10
627.5219613505
 20
-123.5516312691
 11
628.1646123727
 21
-86.7341788627
  0
ARC
  8
1
  6
CONTINUOUS
 62
     7
 10
374.7878116619
 20
-71.6341788627
 40
25.0
 50
90.0
 51
180.0
  0
LINE
  8
1
  6
CONTINUOUS
 62
     7
 10
422.7878116609
 20
-78.7341788627
 11
422.7878116619
 21
-76.7341788627
  0
LINE
  8
1
  6
CONTINUOUS
 62
     7
 10
379.8878116619
 20
-119.63417886
 11
379.8878116619
 21
-112.6341788627
  0
LINE
  8
1
  6
CONTINUOUS
 62
     7
 10
631.1161155652
 20
-123.886536082
 11
631.7646123727
 21
-86.7341788627
  0
LINE
  8
1
  6
CONTINUOUS
 62
     7
 10
631.7646123727
 20
-205.6341788627
 11
547.7450094641
 21
-205.6341788627
  0
ARC
  8
1
  6
CONTINUOUS
 62
     7
 10
628.1165724797
 20
-123.8341788627
 40
3.0
 50
270.0
 51
358.9999999999999
  0
LINE
  8
1
  6
CONTINUOUS
 62
     7
 10
631.0646642691
 20
-205.6341788627
 11
631.0646642691
 21
-124.3898359526
  0
ARC
  8
1
  6
CONTINUOUS
 62
     7
 10
626.5221136553
 20
-123.5341788627
 40
1.0
 50
270.0
 51
358.9999999999999
  0
LINE
  8
1
  6
CONTINUOUS
 62
     7
 10
549.4449575678
 20
-206.6341788627
 11
548.4449575678
 21
-205.6341788627
  0
LINE
  8
1
  6
CONTINUOUS
 62
     7
 10
472.7878116619
 20
-87.7341788627
 11
509.7878116619
 21
-87.7341788627
  0
LINE
  8
1
  6
CONTINUOUS
 62
     7
 10
463.7878116619
 20
-78.7341788627
 11
472.7878116619
 21
-87.7341788627
  0
LINE
  8
1
  6
CONTINUOUS
 62
     7
 10
374.7878116619
 20
-46.6341788627
 11
508.7878116619
 21
-46.6341788627
  0
LINE
  8
1
  6
CONTINUOUS
 62
     7
 10
415.7878116619
 20
-76.7341788627
 11
422.7878116619
 21
-76.7341788627
  0
LINE
  8
1
  6
CONTINUOUS
 62
     7
 10
381.8878116619
 20
-112.6341788627
 11
379.8878116619
 21
-112.6341788627
  0
LINE
  8
1
  6
CONTINUOUS
 62
     7
 10
379.8878116619
 20
-119.6341788627
 11
381.8878116619
 21
-119.6341788627
  0
LINE
  8
1
  6
CONTINUOUS
 62
     7
 10
548.4449575678
 20
-205.6341788627
 11
548.4449575678
 21
-124.3898359526
  0
LINE
  8
1
  6
CONTINUOUS
 62
     7
 10
630.0646642691
 20
-206.6341788627
 11
631.0646642691
 21
-205.6341788627
  0
LINE
  8
1
  6
CONTINUOUS
 62
     7
 10
551.3930493571
 20
-126.8341788627
 11
628.1165724797
 21
-126.8341788627
  0
LINE
  8
1
  6
CONTINUOUS
 62
     7
 10
631.581334191
 20
-97.2341788627
 11
627.981334191
 21
-97.2341788627
  0
ARC
  8
1
  6
CONTINUOUS
 62
     7
 10
628.1165724797
 20
-123.8341788627
 40
2.0
 50
270.0
 51
358.9999999999999
  0
LINE
  8
1
  6
CONTINUOUS
 62
     7
 10
552.9875081815
 20
-124.5341788627
 11
626.5221136553
 21
-124.5341788627
  0
LINE
  8
1
  6
CONTINUOUS
 62
     7
 10
551.3930493571
 20
-125.8341788627
 11
628.1165724797
 21
-125.8341788627
  0
LINE
  8
1
  6
CONTINUOUS
 62
     7
 10
628.0860645805
 20
-91.2341788627
 11
631.6860645805
 21
-91.2341788627
  0
TEXT
  8
1
  6
CONTINUOUS
 62
     7
 10
481.0881117025136
 20
-249.1689127272727
 40
6.0
  1
ＰＤＤＳ－７７
  0
ENDSEC
  0
EOF
