  0
SECTION
  2
HEADER
  9
$ACADVER
  1
AC1006
  9
$DWGCODEPAGE
  3
ansi_932
  9
$INSBASE
 10
0.0
 20
0.0
 30
0.0
  9
$EXTMIN
 10
-307.5
 20
20.027778
  9
$EXTMAX
 10
-150.0
 20
69.5
  9
$LIMMIN
 10
0.0
 20
0.0
  9
$LIMMAX
 10
12.0
 20
9.0
  9
$ORTHOMODE
 70
     0
  9
$REGENMODE
 70
     1
  9
$FILLMODE
 70
     1
  9
$QTEXTMODE
 70
     0
  9
$MIRRTEXT
 70
     1
  9
$DRAGMODE
 70
     2
  9
$LTSCALE
 40
1.0
  9
$OSMODE
 70
    37
  9
$ATTMODE
 70
     1
  9
$TEXTSIZE
 40
0.2
  9
$TRACEWID
 40
0.05
  9
$TEXTSTYLE
  7
STANDARD
  9
$CLAYER
  8
0
  9
$CELTYPE
  6
BYLAYER
  9
$CECOLOR
 62
   256
  9
$DIMSCALE
 40
1.0
  9
$DIMASZ
 40
3.0
  9
$DIMEXO
 40
0.0625
  9
$DIMDLI
 40
0.38
  9
$DIMRND
 40
0.0
  9
$DIMDLE
 40
0.0
  9
$DIMEXE
 40
1.5
  9
$DIMTP
 40
0.0
  9
$DIMTM
 40
0.0
  9
$DIMTXT
 40
3.5
  9
$DIMCEN
 40
0.09
  9
$DIMTSZ
 40
0.0
  9
$DIMTOL
 70
     0
  9
$DIMLIM
 70
     0
  9
$DIMTIH
 70
     1
  9
$DIMTOH
 70
     1
  9
$DIMSE1
 70
     0
  9
$DIMSE2
 70
     0
  9
$DIMTAD
 70
     1
  9
$DIMZIN
 70
     0
  9
$DIMBLK
  1

  9
$DIMASO
 70
     1
  9
$DIMSHO
 70
     1
  9
$DIMPOST
  1

  9
$DIMAPOST
  1

  9
$DIMALT
 70
     0
  9
$DIMALTD
 70
     2
  9
$DIMALTF
 40
25.4
  9
$DIMLFAC
 40
1.0
  9
$DIMTOFL
 70
     0
  9
$DIMTVP
 40
0.0
  9
$DIMTIX
 70
     0
  9
$DIMSOXD
 70
     0
  9
$DIMSAH
 70
     0
  9
$DIMBLK1
  1

  9
$DIMBLK2
  1

  9
$LUNITS
 70
     2
  9
$LUPREC
 70
     4
  9
$SKETCHINC
 40
0.1
  9
$FILLETRAD
 40
0.5
  9
$AUNITS
 70
     0
  9
$AUPREC
 70
     0
  9
$MENU
  1
.
  9
$ELEVATION
 40
0.0
  9
$THICKNESS
 40
0.0
  9
$LIMCHECK
 70
     0
  9
$CHAMFERA
 40
0.0
  9
$CHAMFERB
 40
0.0
  9
$SKPOLY
 70
     0
  9
$TDCREATE
 40
2460460.607043727
  9
$TDUPDATE
 40
2460460.60704397
  9
$TDINDWG
 40
0.0000000116
  9
$TDUSRTIMER
 40
0.0000000116
  9
$USRTIMER
 70
     1
  9
$ANGBASE
 50
0.0
  9
$ANGDIR
 70
     0
  9
$PDMODE
 70
     0
  9
$PDSIZE
 40
0.0
  9
$PLINEWID
 40
0.0
  9
$COORDS
 70
     1
  9
$SPLFRAME
 70
     0
  9
$SPLINETYPE
 70
     6
  9
$SPLINESEGS
 70
     8
  9
$ATTDIA
 70
     0
  9
$ATTREQ
 70
     1
  9
$HANDLING
 70
     1
  9
$HANDSEED
  5
98
  9
$SURFTAB1
 70
     6
  9
$SURFTAB2
 70
     6
  9
$SURFTYPE
 70
     6
  9
$SURFU
 70
     6
  9
$SURFV
 70
     6
  9
$UCSNAME
  2

  9
$UCSORG
 10
0.0
 20
0.0
 30
0.0
  9
$UCSXDIR
 10
1.0
 20
0.0
 30
0.0
  9
$UCSYDIR
 10
0.0
 20
1.0
 30
0.0
  9
$USERI1
 70
     0
  9
$USERI2
 70
     0
  9
$USERI3
 70
     0
  9
$USERI4
 70
     0
  9
$USERI5
 70
     0
  9
$USERR1
 40
0.0
  9
$USERR2
 40
0.0
  9
$USERR3
 40
0.0
  9
$USERR4
 40
0.0
  9
$USERR5
 40
0.0
  9
$WORLDVIEW
 70
     1
  0
ENDSEC
  0
SECTION
  2
TABLES
  0
TABLE
  2
VPORT
 70
     1
  0
VPORT
  2
*ACTIVE
 70
     0
 10
0.0
 20
0.0
 11
1.0
 21
1.0
 12
-228.75
 22
44.763889
 13
0.0
 23
0.0
 14
0.5
 24
0.5
 15
0.5
 25
0.5
 16
0.0
 26
0.0
 36
1.0
 17
0.0
 27
0.0
 37
0.0
 40
49.472222
 41
1.6
 42
50.0
 43
0.0
 44
0.0
 50
0.0
 51
0.0
 71
     0
 72
   100
 73
     1
 74
     3
 75
     0
 76
     0
 77
     0
 78
     0
  0
ENDTAB
  0
TABLE
  2
LTYPE
 70
     2
  0
LTYPE
  2
CONTINUOUS
 70
     0
  3
Solid line
 72
    65
 73
     0
 40
0.0
  0
LTYPE
  2
CENTER
 70
     0
  3

 72
    65
 73
     0
 40
0.0
  0
ENDTAB
  0
TABLE
  2
LAYER
 70
     2
  0
LAYER
  2
0
 70
     0
 62
     7
  6
CONTINUOUS
  0
LAYER
  2
1
 70
     0
 62
     7
  6
CONTINUOUS
  0
ENDTAB
  0
TABLE
  2
STYLE
 70
     2
  0
STYLE
  2
STANDARD
 70
     0
 40
0.0
 41
1.0
 50
0.0
 71
     0
 42
0.2
  3
txt
  4

  0
STYLE
  2
ＭＳ_ゴシック
 70
     0
 40
0.0
 41
1.0
 50
0.0
 71
     0
 42
0.2
  3
ＭＳ ゴシック.shx
  4

  0
ENDTAB
  0
TABLE
  2
VIEW
 70
     0
  0
ENDTAB
  0
TABLE
  2
UCS
 70
     0
  0
ENDTAB
  0
ENDSEC
  0
SECTION
  2
BLOCKS
  0
ENDSEC
  0
SECTION
  2
ENTITIES
  0
LINE
  5
70
  8
0
  6
CENTER
 62
     1
 10
-292.0
 20
35.5
 30
0.0
 11
-292.0
 21
66.5
 31
0.0
  0
LINE
  5
72
  8
0
  6
CENTER
 62
     1
 10
-307.5
 20
51.0
 30
0.0
 11
-276.4999999999999
 21
51.0
 31
0.0
  0
POINT
  5
73
  8
0
 62
     1
 10
-276.4999999999999
 20
51.0
 30
0.0
  0
TEXT
  5
74
  8
1
  6
CONTINUOUS
 62
     7
 10
-243.6935991527101
 20
24.36186890909091
 30
0.0
 40
3.5
  1
ＰＥＸ－２０Ｈ－３
 41
0.616308
 51
15.0
  0
TEXT
  5
75
  8
1
  6
CONTINUOUS
 62
     7
 10
-243.6935991527101
 20
19.66186890909091
 30
0.0
 40
3.5
  1
ＰＥＸ－２０ＨＳ
 41
0.616308
 51
15.0
  0
LINE
  5
76
  8
0
  6
CENTER
 62
     1
 10
-270.0
 20
51.0
 30
0.0
 11
-150.0
 21
51.0
 31
0.0
  0
CIRCLE
  5
77
  8
1
  6
CONTINUOUS
 62
     7
 10
-292.0
 20
51.0
 30
0.0
 40
13.5
  0
LINE
  5
78
  8
1
  6
CONTINUOUS
 62
     7
 10
-161.5
 20
64.5
 30
0.0
 11
-161.5
 21
37.5
 31
0.0
  0
CIRCLE
  5
79
  8
1
  6
CONTINUOUS
 62
     7
 10
-292.0
 20
51.0
 30
0.0
 40
10.25
  0
LINE
  5
7A
  8
1
  6
CONTINUOUS
 62
     7
 10
-213.5
 20
64.5
 30
0.0
 11
-263.5
 21
64.5
 31
0.0
  0
LINE
  5
7B
  8
1
  6
CONTINUOUS
 62
     7
 10
-263.5
 20
64.5
 30
0.0
 11
-263.5
 21
37.5
 31
0.0
  0
LINE
  5
7C
  8
1
  6
CONTINUOUS
 62
     7
 10
-263.5
 20
37.5
 30
0.0
 11
-213.5
 21
37.5
 31
0.0
  0
LINE
  5
7D
  8
1
  6
CONTINUOUS
 62
     7
 10
-211.5
 20
64.5
 30
0.0
 11
-161.5
 21
64.5
 31
0.0
  0
LINE
  5
7E
  8
1
  6
CONTINUOUS
 62
     7
 10
-161.5
 20
37.5
 30
0.0
 11
-211.5
 21
37.5
 31
0.0
  0
LINE
  5
7F
  8
1
  6
CONTINUOUS
 62
     1
 10
-208.5
 20
58.0
 30
0.0
 11
-211.5
 21
57.0
 31
0.0
  0
LINE
  5
80
  8
1
  6
CONTINUOUS
 62
     1
 10
-216.5
 20
43.0
 30
0.0
 11
-210.5
 21
44.0
 31
0.0
  0
LINE
  5
81
  8
1
  6
CONTINUOUS
 62
     1
 10
-210.5
 20
44.0
 30
0.0
 11
-213.5
 21
45.0
 31
0.0
  0
LINE
  5
82
  8
1
  6
CONTINUOUS
 62
     1
 10
-213.5
 20
57.0
 30
0.0
 11
-213.5
 21
45.0
 31
0.0
  0
LINE
  5
83
  8
1
  6
CONTINUOUS
 62
     1
 10
-211.5
 20
42.0
 30
0.0
 11
-214.5
 21
43.0
 31
0.0
  0
LINE
  5
84
  8
1
  6
CONTINUOUS
 62
     1
 10
-213.5
 20
32.5
 30
0.0
 11
-213.5
 21
42.0
 31
0.0
  0
LINE
  5
85
  8
1
  6
CONTINUOUS
 62
     1
 10
-211.5
 20
69.5
 30
0.0
 11
-211.5
 21
60.0
 31
0.0
  0
LINE
  5
86
  8
1
  6
CONTINUOUS
 62
     1
 10
-214.5
 20
43.0
 30
0.0
 11
-208.5
 21
44.0
 31
0.0
  0
LINE
  5
87
  8
1
  6
CONTINUOUS
 62
     1
 10
-213.5
 20
60.0
 30
0.0
 11
-216.5
 21
59.0
 31
0.0
  0
LINE
  5
88
  8
1
  6
CONTINUOUS
 62
     1
 10
-208.5
 20
44.0
 30
0.0
 11
-211.5
 21
45.0
 31
0.0
  0
LINE
  5
89
  8
1
  6
CONTINUOUS
 62
     1
 10
-211.5
 20
57.0
 30
0.0
 11
-211.5
 21
45.0
 31
0.0
  0
LINE
  5
8A
  8
1
  6
CONTINUOUS
 62
     1
 10
-213.5
 20
42.0
 30
0.0
 11
-216.5
 21
43.0
 31
0.0
  0
LINE
  5
8B
  8
1
  6
CONTINUOUS
 62
     1
 10
-211.5
 20
60.0
 30
0.0
 11
-214.5
 21
59.0
 31
0.0
  0
LINE
  5
8C
  8
1
  6
CONTINUOUS
 62
     1
 10
-213.5
 20
69.5
 30
0.0
 11
-213.5
 21
60.0
 31
0.0
  0
LINE
  5
8D
  8
1
  6
CONTINUOUS
 62
     1
 10
-216.5
 20
59.0
 30
0.0
 11
-210.5
 21
58.0
 31
0.0
  0
LINE
  5
8E
  8
1
  6
CONTINUOUS
 62
     1
 10
-210.5
 20
58.0
 30
0.0
 11
-213.5
 21
57.0
 31
0.0
  0
LINE
  5
8F
  8
1
  6
CONTINUOUS
 62
     1
 10
-214.5
 20
59.0
 30
0.0
 11
-208.5
 21
58.0
 31
0.0
  0
LINE
  5
90
  8
1
  6
CONTINUOUS
 62
     1
 10
-211.5
 20
32.5
 30
0.0
 11
-211.5
 21
42.0
 31
0.0
  0
ENDSEC
  0
EOF
