  0
SECTION
  2
HEADER
  9
$ACADVER
  1
AC1006
  9
$DWGCODEPAGE
  3
ansi_932
  9
$INSBASE
 10
0.0
 20
0.0
 30
0.0
  9
$EXTMIN
 10
-35.00000000000001
 20
57.48863636363637
  9
$EXTMAX
 10
340.0
 20
237.0
  9
$LIMMIN
 10
0.0
 20
0.0
  9
$LIMMAX
 10
12.0
 20
9.0
  9
$ORTHOMODE
 70
     0
  9
$REGENMODE
 70
     1
  9
$FILLMODE
 70
     1
  9
$QTEXTMODE
 70
     0
  9
$MIRRTEXT
 70
     1
  9
$DRAGMODE
 70
     2
  9
$LTSCALE
 40
1.0
  9
$OSMODE
 70
    37
  9
$ATTMODE
 70
     1
  9
$TEXTSIZE
 40
0.2
  9
$TRACEWID
 40
0.05
  9
$TEXTSTYLE
  7
STANDARD
  9
$CLAYER
  8
0
  9
$CELTYPE
  6
BYLAYER
  9
$CECOLOR
 62
   256
  9
$DIMSCALE
 40
1.0
  9
$DIMASZ
 40
3.0
  9
$DIMEXO
 40
0.0625
  9
$DIMDLI
 40
0.38
  9
$DIMRND
 40
0.0
  9
$DIMDLE
 40
0.0
  9
$DIMEXE
 40
1.5
  9
$DIMTP
 40
0.0
  9
$DIMTM
 40
0.0
  9
$DIMTXT
 40
3.0
  9
$DIMCEN
 40
0.09
  9
$DIMTSZ
 40
0.0
  9
$DIMTOL
 70
     0
  9
$DIMLIM
 70
     0
  9
$DIMTIH
 70
     1
  9
$DIMTOH
 70
     1
  9
$DIMSE1
 70
     0
  9
$DIMSE2
 70
     0
  9
$DIMTAD
 70
     1
  9
$DIMZIN
 70
     0
  9
$DIMBLK
  1

  9
$DIMASO
 70
     1
  9
$DIMSHO
 70
     1
  9
$DIMPOST
  1

  9
$DIMAPOST
  1

  9
$DIMALT
 70
     0
  9
$DIMALTD
 70
     2
  9
$DIMALTF
 40
25.4
  9
$DIMLFAC
 40
1.0
  9
$DIMTOFL
 70
     0
  9
$DIMTVP
 40
0.0
  9
$DIMTIX
 70
     0
  9
$DIMSOXD
 70
     0
  9
$DIMSAH
 70
     0
  9
$DIMBLK1
  1

  9
$DIMBLK2
  1

  9
$LUNITS
 70
     2
  9
$LUPREC
 70
     4
  9
$SKETCHINC
 40
0.1
  9
$FILLETRAD
 40
0.5
  9
$AUNITS
 70
     0
  9
$AUPREC
 70
     0
  9
$MENU
  1
.
  9
$ELEVATION
 40
0.0
  9
$THICKNESS
 40
0.0
  9
$LIMCHECK
 70
     0
  9
$CHAMFERA
 40
0.0
  9
$CHAMFERB
 40
0.0
  9
$SKPOLY
 70
     0
  9
$TDCREATE
 40
2460346.545696609
  9
$TDUPDATE
 40
2460346.545697118
  9
$TDINDWG
 40
0.0000000116
  9
$TDUSRTIMER
 40
0.0000000116
  9
$USRTIMER
 70
     1
  9
$ANGBASE
 50
0.0
  9
$ANGDIR
 70
     0
  9
$PDMODE
 70
     0
  9
$PDSIZE
 40
0.0
  9
$PLINEWID
 40
0.0
  9
$COORDS
 70
     1
  9
$SPLFRAME
 70
     0
  9
$SPLINETYPE
 70
     6
  9
$SPLINESEGS
 70
     8
  9
$ATTDIA
 70
     0
  9
$ATTREQ
 70
     1
  9
$HANDLING
 70
     1
  9
$HANDSEED
  5
28B
  9
$SURFTAB1
 70
     6
  9
$SURFTAB2
 70
     6
  9
$SURFTYPE
 70
     6
  9
$SURFU
 70
     6
  9
$SURFV
 70
     6
  9
$UCSNAME
  2

  9
$UCSORG
 10
0.0
 20
0.0
 30
0.0
  9
$UCSXDIR
 10
1.0
 20
0.0
 30
0.0
  9
$UCSYDIR
 10
0.0
 20
1.0
 30
0.0
  9
$USERI1
 70
     0
  9
$USERI2
 70
     0
  9
$USERI3
 70
     0
  9
$USERI4
 70
     0
  9
$USERI5
 70
     0
  9
$USERR1
 40
0.0
  9
$USERR2
 40
0.0
  9
$USERR3
 40
0.0
  9
$USERR4
 40
0.0
  9
$USERR5
 40
0.0
  9
$WORLDVIEW
 70
     1
  0
ENDSEC
  0
SECTION
  2
TABLES
  0
TABLE
  2
VPORT
 70
     1
  0
VPORT
  2
*ACTIVE
 70
     0
 10
0.0
 20
0.0
 11
1.0
 21
1.0
 12
152.5
 22
147.2443181818182
 13
0.0
 23
0.0
 14
0.5
 24
0.5
 15
0.5
 25
0.5
 16
0.0
 26
0.0
 36
1.0
 17
0.0
 27
0.0
 37
0.0
 40
179.5113636363636
 41
1.6
 42
50.0
 43
0.0
 44
0.0
 50
0.0
 51
0.0
 71
     0
 72
   100
 73
     1
 74
     3
 75
     0
 76
     0
 77
     0
 78
     0
  0
ENDTAB
  0
TABLE
  2
LTYPE
 70
     2
  0
LTYPE
  2
CONTINUOUS
 70
     0
  3
Solid line
 72
    65
 73
     0
 40
0.0
  0
LTYPE
  2
CENTER
 70
     0
  3

 72
    65
 73
     0
 40
0.0
  0
ENDTAB
  0
TABLE
  2
LAYER
 70
     1
  0
LAYER
  2
0
 70
     0
 62
     7
  6
CONTINUOUS
  0
ENDTAB
  0
TABLE
  2
STYLE
 70
     2
  0
STYLE
  2
STANDARD
 70
     0
 40
0.0
 41
1.0
 50
0.0
 71
     0
 42
0.2
  3
txt
  4

  0
STYLE
  2
ＭＳ_ゴシック
 70
     0
 40
0.0
 41
1.0
 50
0.0
 71
     0
 42
0.2
  3
ＭＳ ゴシック.shx
  4

  0
ENDTAB
  0
TABLE
  2
VIEW
 70
     0
  0
ENDTAB
  0
TABLE
  2
UCS
 70
     0
  0
ENDTAB
  0
ENDSEC
  0
SECTION
  2
BLOCKS
  0
ENDSEC
  0
SECTION
  2
ENTITIES
  0
LINE
  5
6F
  8
0
  6
CONTINUOUS
 62
     7
 10
-34.99999999999999
 20
97.15302673554297
 30
0.0
 11
-23.00000000000001
 21
97.15302673554294
 31
0.0
  0
LINE
  5
70
  8
0
  6
CONTINUOUS
 62
     7
 10
53.01546029376657
 20
100.4197022040471
 30
0.0
 11
57.46420432805792
 21
109.9600645731605
 31
0.0
  0
LINE
  5
71
  8
0
  6
CONTINUOUS
 62
     7
 10
146.9845397062335
 20
100.4197022040471
 30
0.0
 11
142.5357956719421
 21
109.9600645731605
 31
0.0
  0
LINE
  5
72
  8
0
  6
CONTINUOUS
 62
     7
 10
-23.00000000000001
 20
93.95302673554295
 30
0.0
 11
42.86481307895605
 21
93.95302673554295
 31
0.0
  0
LINE
  5
73
  8
0
  6
CONTINUOUS
 62
     7
 10
300.0
 20
93.95302673554295
 30
0.0
 11
312.0
 21
93.95302673554295
 31
0.0
  0
LINE
  5
74
  8
0
  6
CONTINUOUS
 62
     7
 10
145.4359805904594
 20
111.3124430107308
 30
0.0
 11
149.8847246247508
 21
101.7720806416174
 31
0.0
  0
ARC
  5
75
  8
0
  6
CONTINUOUS
 62
     7
 10
42.86481307895605
 20
105.1530267355429
 30
0.0
 40
11.19999999999999
 50
270.0
 51
334.9999999999999
  0
LINE
  5
76
  8
0
  6
CONTINUOUS
 62
     7
 10
157.135186921044
 20
97.15302673554297
 30
0.0
 11
223.0000000000001
 21
97.15302673554297
 31
0.0
  0
LINE
  5
77
  8
0
  6
CONTINUOUS
 62
     7
 10
223.0000000000001
 20
93.95302673554295
 30
0.0
 11
157.135186921044
 21
93.95302673554295
 31
0.0
  0
ARC
  5
78
  8
0
  6
CONTINUOUS
 62
     7
 10
61.99574326324118
 20
107.846973264457
 30
0.0
 40
8.200000000000019
 50
69.43677199405047
 51
155.0000000000001
  0
ARC
  5
79
  8
0
  6
CONTINUOUS
 62
     7
 10
138.0042567367589
 20
107.846973264457
 30
0.0
 40
5.000000000000012
 50
24.99999999999987
 51
110.5632280059495
  0
LINE
  5
7A
  8
0
  6
CONTINUOUS
 62
     7
 10
-34.99999999999999
 20
93.95302673554295
 30
0.0
 11
-34.99999999999999
 21
97.15302673554297
 31
0.0
  0
ARC
  5
7B
  8
0
  6
CONTINUOUS
 62
     7
 10
42.86481307895608
 20
105.1530267355429
 30
0.0
 40
7.999999999999993
 50
270.0000000000001
 51
335.0000000000001
  0
LINE
  5
7C
  8
0
  6
CONTINUOUS
 62
     7
 10
54.56401940954063
 20
111.3124430107308
 30
0.0
 11
50.11527537524928
 21
101.7720806416174
 31
0.0
  0
LINE
  5
7D
  8
0
  6
CONTINUOUS
 62
     7
 10
42.86481307895608
 20
97.15302673554297
 30
0.0
 11
-23.00000000000001
 21
97.15302673554297
 31
0.0
  0
LINE
  5
7E
  8
0
  6
CONTINUOUS
 62
     7
 10
235.0
 20
93.95302673554295
 30
0.0
 11
235.0
 21
97.15302673554297
 31
0.0
  0
LINE
  5
7F
  8
0
  6
CONTINUOUS
 62
     7
 10
235.0
 20
97.15302673554297
 30
0.0
 11
223.0000000000001
 21
97.15302673554294
 31
0.0
  0
ARC
  5
80
  8
0
  6
CONTINUOUS
 62
     7
 10
138.0042567367589
 20
107.846973264457
 30
0.0
 40
8.200000000000019
 50
24.99999999999989
 51
110.5632280059496
  0
LINE
  5
81
  8
0
  6
CONTINUOUS
 62
     7
 10
340.0
 20
93.95302673554295
 30
0.0
 11
340.0
 21
97.15302673554297
 31
0.0
  0
LINE
  5
82
  8
0
  6
CONTINUOUS
 62
     7
 10
135.1240820117919
 20
228.2499999999999
 30
0.0
 11
145.4359805904594
 21
228.2499999999999
 31
0.0
  0
LINE
  5
83
  8
0
  6
CONTINUOUS
 62
     7
 10
333.25
 20
111.3124430107308
 30
0.0
 11
333.25
 21
109.8405112114851
 31
0.0
  0
LINE
  5
84
  8
0
  6
CONTINUOUS
 62
     7
 10
307.25
 20
111.7792243850224
 30
0.0
 11
306.75
 21
111.9467707183236
 31
0.0
  0
LINE
  5
85
  8
0
  6
CONTINUOUS
 62
     7
 10
300.0
 20
111.3124430107308
 30
0.0
 11
300.0
 21
101.7720806416174
 31
0.0
  0
LINE
  5
86
  8
0
  6
CONTINUOUS
 62
     7
 10
340.0
 20
116.046973264457
 30
0.0
 11
333.25
 21
116.046973264457
 31
0.0
  0
LINE
  5
87
  8
0
  6
CONTINUOUS
 62
     7
 10
307.25
 20
111.7792243850224
 30
0.0
 11
332.75
 21
111.7792243850224
 31
0.0
  0
LINE
  5
88
  8
0
  6
CONTINUOUS
 62
     7
 10
64.87591798820812
 20
228.2499999999999
 30
0.0
 11
54.56401940954063
 21
228.2499999999999
 31
0.0
  0
LINE
  5
89
  8
0
  6
CONTINUOUS
 62
   253
 10
67.17466935951698
 20
227.7499999999999
 30
0.0
 11
65.81546232868189
 21
227.7499999999999
 31
0.0
  0
LINE
  5
8A
  8
0
  6
CONTINUOUS
 62
     7
 10
135.1240820117919
 20
201.75
 30
0.0
 11
133.2995508762438
 21
201.75
 31
0.0
  0
LINE
  5
8B
  8
0
  6
CONTINUOUS
 62
     7
 10
332.75
 20
114.6940532690535
 30
0.0
 11
307.25
 21
114.6940532690535
 31
0.0
  0
POLYLINE
  5
8C
  8
0
  6
CONTINUOUS
 62
     7
 66
     1
 10
0.0
 20
0.0
 30
0.0
  0
VERTEX
  5
227
  8
0
  6
CONTINUOUS
 62
     7
 10
306.75
 20
109.8405112114851
 30
0.0
  0
VERTEX
  5
228
  8
0
  6
CONTINUOUS
 62
     7
 10
306.7596073597984
 20
109.7521052724757
 30
0.0
  0
VERTEX
  5
229
  8
0
  6
CONTINUOUS
 62
     7
 10
306.7880602337444
 20
109.6670967241239
 30
0.0
  0
VERTEX
  5
22A
  8
0
  6
CONTINUOUS
 62
     7
 10
306.8342651938488
 20
109.5887523972694
 30
0.0
  0
VERTEX
  5
22B
  8
0
  6
CONTINUOUS
 62
     7
 10
306.8964466094067
 20
109.5200830204572
 30
0.0
  0
VERTEX
  5
22C
  8
0
  6
CONTINUOUS
 62
     7
 10
306.9722148834902
 20
109.463727519328
 30
0.0
  0
VERTEX
  5
22D
  8
0
  6
CONTINUOUS
 62
     7
 10
307.0586582838175
 20
109.4218516041857
 30
0.0
  0
VERTEX
  5
22E
  8
0
  6
CONTINUOUS
 62
     7
 10
307.152454838992
 20
109.3960645429649
 30
0.0
  0
VERTEX
  5
22F
  8
0
  6
CONTINUOUS
 62
     7
 10
307.25
 20
109.3873573179668
 30
0.0
  0
SEQEND
  5
281
  8
0
  6
CONTINUOUS
 62
     7
  0
LINE
  5
8D
  8
0
  6
CONTINUOUS
 62
     7
 10
54.56401940954066
 20
201.75
 30
0.0
 11
64.87591798820812
 21
201.75
 31
0.0
  0
LINE
  5
8E
  8
0
  6
CONTINUOUS
 62
     7
 10
145.4359805904594
 20
235.0
 30
0.0
 11
149.8847246247508
 21
235.0
 31
0.0
  0
LINE
  5
8F
  8
0
  6
CONTINUOUS
 62
     7
 10
157.135186921044
 20
194.9999999999999
 30
0.0
 11
149.8847246247508
 21
194.9999999999999
 31
0.0
  0
POLYLINE
  5
90
  8
0
  6
CONTINUOUS
 62
     7
 66
     1
 10
0.0
 20
0.0
 30
0.0
  0
VERTEX
  5
230
  8
0
  6
CONTINUOUS
 62
     7
 10
53.66633720840015
 20
202.25
 30
0.0
  0
VERTEX
  5
231
  8
0
  6
CONTINUOUS
 62
     7
 10
53.67039745409806
 20
202.152454838992
 30
0.0
  0
VERTEX
  5
232
  8
0
  6
CONTINUOUS
 62
     7
 10
53.68242215822663
 20
202.0586582838175
 30
0.0
  0
VERTEX
  5
233
  8
0
  6
CONTINUOUS
 62
     7
 10
53.70194921814974
 20
201.9722148834902
 30
0.0
  0
VERTEX
  5
234
  8
0
  6
CONTINUOUS
 62
     7
 10
53.72822821990544
 20
201.8964466094067
 30
0.0
  0
VERTEX
  5
235
  8
0
  6
CONTINUOUS
 62
     7
 10
53.76024927619369
 20
201.8342651938487
 30
0.0
  0
VERTEX
  5
236
  8
0
  6
CONTINUOUS
 62
     7
 10
53.79678183577896
 20
201.7880602337443
 30
0.0
  0
VERTEX
  5
237
  8
0
  6
CONTINUOUS
 62
     7
 10
53.83642197288406
 20
201.7596073597984
 30
0.0
  0
VERTEX
  5
238
  8
0
  6
CONTINUOUS
 62
     7
 10
53.87764633927051
 20
201.75
 30
0.0
  0
SEQEND
  5
282
  8
0
  6
CONTINUOUS
 62
     7
  0
LINE
  5
91
  8
0
  6
CONTINUOUS
 62
   253
 10
53.66633720840018
 20
202.25
 30
0.0
 11
56.56652212691741
 21
202.25
 31
0.0
  0
LINE
  5
92
  8
0
  6
CONTINUOUS
 62
     7
 10
149.8847246247508
 20
235.0
 30
0.0
 11
157.135186921044
 21
235.0
 31
0.0
  0
LINE
  5
93
  8
0
  6
CONTINUOUS
 62
     7
 10
143.4334778730826
 20
227.7499999999999
 30
0.0
 11
143.4334778730826
 21
202.25
 31
0.0
  0
POLYLINE
  5
94
  8
0
  6
CONTINUOUS
 62
     7
 66
     1
 10
0.0
 20
0.0
 30
0.0
  0
VERTEX
  5
239
  8
0
  6
CONTINUOUS
 62
     7
 10
143.4334778730827
 20
227.7499999999999
 30
0.0
  0
VERTEX
  5
23A
  8
0
  6
CONTINUOUS
 62
     7
 10
143.4294176273847
 20
227.847545161008
 30
0.0
  0
VERTEX
  5
23B
  8
0
  6
CONTINUOUS
 62
     7
 10
143.4173929232562
 20
227.9413417161824
 30
0.0
  0
VERTEX
  5
23C
  8
0
  6
CONTINUOUS
 62
     7
 10
143.3978658633331
 20
228.0277851165097
 30
0.0
  0
VERTEX
  5
23D
  8
0
  6
CONTINUOUS
 62
     7
 10
143.3715868615774
 20
228.1035533905932
 30
0.0
  0
VERTEX
  5
23E
  8
0
  6
CONTINUOUS
 62
     7
 10
143.3395658052891
 20
228.1657348061512
 30
0.0
  0
VERTEX
  5
23F
  8
0
  6
CONTINUOUS
 62
     7
 10
143.3030332457038
 20
228.2119397662555
 30
0.0
  0
VERTEX
  5
240
  8
0
  6
CONTINUOUS
 62
     7
 10
143.2633931085987
 20
228.2403926402015
 30
0.0
  0
VERTEX
  5
241
  8
0
  6
CONTINUOUS
 62
     7
 10
143.2221687422123
 20
228.2499999999999
 30
0.0
  0
SEQEND
  5
283
  8
0
  6
CONTINUOUS
 62
     7
  0
ARC
  5
95
  8
0
  6
CONTINUOUS
 62
     7
 10
223.0
 20
223.0
 30
0.0
 40
12.00000000000001
 50
0.0
 51
90.0
  0
ARC
  5
96
  8
0
  6
CONTINUOUS
 62
     7
 10
-27.50000000000001
 20
215.0
 30
0.0
 40
3.099999999999992
 50
90.00000000000102
 51
270.0
  0
LINE
  5
97
  8
0
  6
CONTINUOUS
 62
     7
 10
227.5
 20
218.1
 30
0.0
 11
185.0000000000001
 21
218.1
 31
0.0
  0
LINE
  5
98
  8
0
  6
CONTINUOUS
 62
     7
 10
42.86481307895608
 20
194.9999999999999
 30
0.0
 11
-23.00000000000001
 21
194.9999999999999
 31
0.0
  0
ARC
  5
99
  8
0
  6
CONTINUOUS
 62
     7
 10
185.0000000000001
 20
215.0
 30
0.0
 40
3.099999999999992
 50
90.0
 51
269.9999999999995
  0
LINE
  5
9A
  8
0
  6
CONTINUOUS
 62
   253
 10
42.86481307895608
 20
194.9999999999999
 30
0.0
 11
42.86481307895608
 21
235.0
 31
0.0
  0
LINE
  5
9B
  8
0
  6
CONTINUOUS
 62
   253
 10
146.3336627915999
 20
227.7499999999999
 30
0.0
 11
143.4334778730826
 21
227.7499999999999
 31
0.0
  0
POLYLINE
  5
9C
  8
0
  6
CONTINUOUS
 62
     7
 66
     1
 10
0.0
 20
0.0
 30
0.0
  0
VERTEX
  5
242
  8
0
  6
CONTINUOUS
 62
     7
 10
143.2221687422123
 20
201.75
 30
0.0
  0
VERTEX
  5
243
  8
0
  6
CONTINUOUS
 62
     7
 10
143.2633931085987
 20
201.7596073597984
 30
0.0
  0
VERTEX
  5
244
  8
0
  6
CONTINUOUS
 62
     7
 10
143.3030332457039
 20
201.7880602337443
 30
0.0
  0
VERTEX
  5
245
  8
0
  6
CONTINUOUS
 62
     7
 10
143.3395658052891
 20
201.8342651938487
 30
0.0
  0
VERTEX
  5
246
  8
0
  6
CONTINUOUS
 62
     7
 10
143.3715868615774
 20
201.8964466094067
 30
0.0
  0
VERTEX
  5
247
  8
0
  6
CONTINUOUS
 62
     7
 10
143.3978658633331
 20
201.9722148834902
 30
0.0
  0
VERTEX
  5
248
  8
0
  6
CONTINUOUS
 62
     7
 10
143.4173929232562
 20
202.0586582838175
 30
0.0
  0
VERTEX
  5
249
  8
0
  6
CONTINUOUS
 62
     7
 10
143.4294176273847
 20
202.1524548389919
 30
0.0
  0
VERTEX
  5
24A
  8
0
  6
CONTINUOUS
 62
     7
 10
143.4334778730827
 20
202.25
 30
0.0
  0
SEQEND
  5
284
  8
0
  6
CONTINUOUS
 62
     7
  0
LINE
  5
9D
  8
0
  6
CONTINUOUS
 62
     7
 10
56.56652212691741
 20
227.7499999999999
 30
0.0
 11
56.56652212691741
 21
202.25
 31
0.0
  0
LINE
  5
9E
  8
0
  6
CONTINUOUS
 62
     7
 10
145.4359805904594
 20
194.9999999999999
 30
0.0
 11
149.8847246247508
 21
194.9999999999999
 31
0.0
  0
ARC
  5
9F
  8
0
  6
CONTINUOUS
 62
     7
 10
-22.99999999999999
 20
223.0
 30
0.0
 40
12.00000000000001
 50
90.0
 51
180.0
  0
LINE
  5
A0
  8
0
  6
CONTINUOUS
 62
     7
 10
54.56401940954066
 20
228.2499999999999
 30
0.0
 11
53.87764633927054
 21
228.2499999999999
 31
0.0
  0
ARC
  5
A1
  8
0
  6
CONTINUOUS
 62
     7
 10
227.5
 20
215.0
 30
0.0
 40
3.099999999999992
 50
270.0
 51
89.99999999999898
  0
POLYLINE
  5
A2
  8
0
  6
CONTINUOUS
 62
     7
 66
     1
 10
0.0
 20
0.0
 30
0.0
  0
VERTEX
  5
24B
  8
0
  6
CONTINUOUS
 62
     7
 10
56.56652212691743
 20
202.25
 30
0.0
  0
VERTEX
  5
24C
  8
0
  6
CONTINUOUS
 62
     7
 10
56.57058237261534
 20
202.1524548389919
 30
0.0
  0
VERTEX
  5
24D
  8
0
  6
CONTINUOUS
 62
     7
 10
56.58260707674391
 20
202.0586582838175
 30
0.0
  0
VERTEX
  5
24E
  8
0
  6
CONTINUOUS
 62
     7
 10
56.60213413666702
 20
201.9722148834902
 30
0.0
  0
VERTEX
  5
24F
  8
0
  6
CONTINUOUS
 62
     7
 10
56.62841313842272
 20
201.8964466094067
 30
0.0
  0
VERTEX
  5
250
  8
0
  6
CONTINUOUS
 62
     7
 10
56.66043419471097
 20
201.8342651938487
 30
0.0
  0
VERTEX
  5
251
  8
0
  6
CONTINUOUS
 62
     7
 10
56.69696675429623
 20
201.7880602337443
 30
0.0
  0
VERTEX
  5
252
  8
0
  6
CONTINUOUS
 62
     7
 10
56.73660689140132
 20
201.7596073597984
 30
0.0
  0
VERTEX
  5
253
  8
0
  6
CONTINUOUS
 62
     7
 10
56.77783125778777
 20
201.75
 30
0.0
  0
SEQEND
  5
285
  8
0
  6
CONTINUOUS
 62
     7
  0
LINE
  5
A3
  8
0
  6
CONTINUOUS
 62
     7
 10
157.135186921044
 20
194.9999999999999
 30
0.0
 11
223.0000000000001
 21
194.9999999999999
 31
0.0
  0
POLYLINE
  5
A4
  8
0
  6
CONTINUOUS
 62
     7
 66
     1
 10
0.0
 20
0.0
 30
0.0
  0
VERTEX
  5
254
  8
0
  6
CONTINUOUS
 62
     7
 10
53.87764633927051
 20
228.2499999999999
 30
0.0
  0
VERTEX
  5
255
  8
0
  6
CONTINUOUS
 62
     7
 10
53.83642197288407
 20
228.2403926402015
 30
0.0
  0
VERTEX
  5
256
  8
0
  6
CONTINUOUS
 62
     7
 10
53.79678183577897
 20
228.2119397662555
 30
0.0
  0
VERTEX
  5
257
  8
0
  6
CONTINUOUS
 62
     7
 10
53.76024927619371
 20
228.1657348061512
 30
0.0
  0
VERTEX
  5
258
  8
0
  6
CONTINUOUS
 62
     7
 10
53.72822821990546
 20
228.1035533905932
 30
0.0
  0
VERTEX
  5
259
  8
0
  6
CONTINUOUS
 62
     7
 10
53.70194921814976
 20
228.0277851165097
 30
0.0
  0
VERTEX
  5
25A
  8
0
  6
CONTINUOUS
 62
     7
 10
53.68242215822666
 20
227.9413417161824
 30
0.0
  0
VERTEX
  5
25B
  8
0
  6
CONTINUOUS
 62
     7
 10
53.67039745409809
 20
227.847545161008
 30
0.0
  0
VERTEX
  5
25C
  8
0
  6
CONTINUOUS
 62
     7
 10
53.66633720840018
 20
227.7499999999999
 30
0.0
  0
SEQEND
  5
286
  8
0
  6
CONTINUOUS
 62
     7
  0
ARC
  5
A5
  8
0
  6
CONTINUOUS
 62
     7
 10
223.0
 20
207.0
 30
0.0
 40
12.00000000000001
 50
270.0000000000001
 51
0.0
  0
LINE
  5
A6
  8
0
  6
CONTINUOUS
 62
     7
 10
235.0
 20
223.0
 30
0.0
 11
235.0
 21
207.0
 31
0.0
  0
LINE
  5
A7
  8
0
  6
CONTINUOUS
 62
     7
 10
157.135186921044
 20
235.0
 30
0.0
 11
223.0000000000001
 21
235.0
 31
0.0
  0
LINE
  5
A8
  8
0
  6
CONTINUOUS
 62
     7
 10
53.87764633927054
 20
201.75
 30
0.0
 11
54.56401940954066
 21
201.75
 31
0.0
  0
LINE
  5
A9
  8
0
  6
CONTINUOUS
 62
     7
 10
-34.99999999999999
 20
223.0
 30
0.0
 11
-34.99999999999999
 21
207.0
 31
0.0
  0
LINE
  5
AA
  8
0
  6
CENTER
 62
     1
 10
100.0
 20
91.95302673554295
 30
0.0
 11
100.0
 21
125.0
 31
0.0
  0
TEXT
  5
AC
  8
0
  6
CONTINUOUS
 62
     7
 10
119.1989808678254
 20
56.94318181818182
 30
0.0
 40
5.0
  1
ＰＯＢ－４ＦＷＴ
  0
LINE
  5
AD
  8
0
  6
CONTINUOUS
 62
     7
 10
53.66633720840018
 20
227.7499999999999
 30
0.0
 11
53.66633720840018
 21
202.25
 31
0.0
  0
LINE
  5
AE
  8
0
  6
CONTINUOUS
 62
     7
 10
185.0000000000001
 20
211.9
 30
0.0
 11
227.5
 21
211.9
 31
0.0
  0
LINE
  5
AF
  8
0
  6
CONTINUOUS
 62
   253
 10
157.135186921044
 20
194.9999999999999
 30
0.0
 11
157.135186921044
 21
235.0
 31
0.0
  0
LINE
  5
B0
  8
0
  6
CONTINUOUS
 62
     7
 10
42.86481307895608
 20
194.9999999999999
 30
0.0
 11
50.11527537524928
 21
194.9999999999999
 31
0.0
  0
LINE
  5
B1
  8
0
  6
CONTINUOUS
 62
     7
 10
54.56401940954063
 20
235.0
 30
0.0
 11
50.11527537524928
 21
235.0
 31
0.0
  0
LINE
  5
B2
  8
0
  6
CONTINUOUS
 62
     7
 10
146.3336627915999
 20
227.7499999999999
 30
0.0
 11
146.3336627915999
 21
202.25
 31
0.0
  0
LINE
  5
B3
  8
0
  6
CONTINUOUS
 62
     7
 10
15.0
 20
211.9
 30
0.0
 11
-27.5
 21
211.9
 31
0.0
  0
LINE
  5
B4
  8
0
  6
CONTINUOUS
 62
   253
 10
56.56652212691741
 20
227.7499999999999
 30
0.0
 11
53.66633720840018
 21
227.7499999999999
 31
0.0
  0
POLYLINE
  5
B5
  8
0
  6
CONTINUOUS
 62
     7
 66
     1
 10
0.0
 20
0.0
 30
0.0
  0
VERTEX
  5
25D
  8
0
  6
CONTINUOUS
 62
     7
 10
56.77783125778777
 20
228.2499999999999
 30
0.0
  0
VERTEX
  5
25E
  8
0
  6
CONTINUOUS
 62
     7
 10
56.73660689140132
 20
228.2403926402015
 30
0.0
  0
VERTEX
  5
25F
  8
0
  6
CONTINUOUS
 62
     7
 10
56.69696675429621
 20
228.2119397662555
 30
0.0
  0
VERTEX
  5
260
  8
0
  6
CONTINUOUS
 62
     7
 10
56.66043419471095
 20
228.1657348061512
 30
0.0
  0
VERTEX
  5
261
  8
0
  6
CONTINUOUS
 62
     7
 10
56.6284131384227
 20
228.1035533905932
 30
0.0
  0
VERTEX
  5
262
  8
0
  6
CONTINUOUS
 62
     7
 10
56.602134136667
 20
228.0277851165097
 30
0.0
  0
VERTEX
  5
263
  8
0
  6
CONTINUOUS
 62
     7
 10
56.58260707674389
 20
227.9413417161824
 30
0.0
  0
VERTEX
  5
264
  8
0
  6
CONTINUOUS
 62
     7
 10
56.57058237261531
 20
227.847545161008
 30
0.0
  0
VERTEX
  5
265
  8
0
  6
CONTINUOUS
 62
     7
 10
56.56652212691741
 20
227.7499999999999
 30
0.0
  0
SEQEND
  5
287
  8
0
  6
CONTINUOUS
 62
     7
  0
LINE
  5
B6
  8
0
  6
CONTINUOUS
 62
   253
 10
143.4334778730826
 20
202.25
 30
0.0
 11
146.3336627915999
 21
202.25
 31
0.0
  0
LINE
  5
B7
  8
0
  6
CONTINUOUS
 62
     7
 10
145.4359805904594
 20
228.2499999999999
 30
0.0
 11
146.1223536607295
 21
228.2499999999999
 31
0.0
  0
LINE
  5
B8
  8
0
  6
CONTINUOUS
 62
     7
 10
50.11527537524928
 20
235.0
 30
0.0
 11
42.86481307895608
 21
235.0
 31
0.0
  0
LINE
  5
B9
  8
0
  6
CONTINUOUS
 62
     7
 10
-27.50000000000001
 20
218.1
 30
0.0
 11
14.99999999999999
 21
218.1
 31
0.0
  0
LINE
  5
BA
  8
0
  6
CONTINUOUS
 62
     7
 10
145.4359805904594
 20
201.75
 30
0.0
 11
135.1240820117919
 21
201.75
 31
0.0
  0
LINE
  5
BB
  8
0
  6
CONTINUOUS
 62
     7
 10
65.81546232868189
 20
202.25
 30
0.0
 11
65.81546232868189
 21
227.7499999999999
 31
0.0
  0
LINE
  5
BC
  8
0
  6
CONTINUOUS
 62
     7
 10
333.25
 20
111.9467707183236
 30
0.0
 11
332.75
 21
111.7792243850224
 31
0.0
  0
LINE
  5
BD
  8
0
  6
CONTINUOUS
 62
   253
 10
134.1845376713182
 20
227.7499999999999
 30
0.0
 11
132.8253306404831
 21
227.7499999999999
 31
0.0
  0
LINE
  5
BE
  8
0
  6
CONTINUOUS
 62
     7
 10
340.0
 20
111.3124430107308
 30
0.0
 11
340.0
 21
101.7720806416174
 31
0.0
  0
LINE
  5
BF
  8
0
  6
CONTINUOUS
 62
     7
 10
328.0
 20
97.15302673554297
 30
0.0
 11
312.0
 21
97.15302673554297
 31
0.0
  0
LINE
  5
C0
  8
0
  6
CONTINUOUS
 62
     7
 10
64.87591798820812
 20
201.75
 30
0.0
 11
66.70044912375626
 21
201.75
 31
0.0
  0
LINE
  5
C1
  8
0
  6
CONTINUOUS
 62
     7
 10
145.4359805904594
 20
235.0
 30
0.0
 11
135.1240820117919
 21
235.0
 31
0.0
  0
LINE
  5
C2
  8
0
  6
CONTINUOUS
 62
   253
 10
54.56401940954063
 20
194.9999999999999
 30
0.0
 11
54.56401940954066
 21
201.75
 31
0.0
  0
LINE
  5
C3
  8
0
  6
CONTINUOUS
 62
     7
 10
134.1845376713182
 20
202.25
 30
0.0
 11
134.1845376713182
 21
227.7499999999999
 31
0.0
  0
LINE
  5
C4
  8
0
  6
CONTINUOUS
 62
   253
 10
145.4359805904594
 20
228.2499999999999
 30
0.0
 11
145.4359805904594
 21
235.0
 31
0.0
  0
LINE
  5
C5
  8
0
  6
CONTINUOUS
 62
     7
 10
133.2995508762438
 20
201.75
 30
0.0
 11
133.2797993122144
 21
201.7504364951995
 31
0.0
  0
LINE
  5
C6
  8
0
  6
CONTINUOUS
 62
     7
 10
133.2797993122144
 20
201.7504364951995
 30
0.0
 11
133.2600633639755
 21
201.751743008106
 31
0.0
  0
LINE
  5
C7
  8
0
  6
CONTINUOUS
 62
     7
 10
133.2600633639755
 20
201.751743008106
 30
0.0
 11
133.240393931285
 21
201.7539150796817
 31
0.0
  0
LINE
  5
C8
  8
0
  6
CONTINUOUS
 62
     7
 10
133.240393931285
 20
201.7539150796817
 30
0.0
 11
133.2208419139008
 21
201.7569482508886
 31
0.0
  0
LINE
  5
C9
  8
0
  6
CONTINUOUS
 62
     7
 10
133.2208419139008
 20
201.7569482508886
 30
0.0
 11
133.2008638735045
 21
201.7609683775957
 31
0.0
  0
LINE
  5
CA
  8
0
  6
CONTINUOUS
 62
     7
 10
133.2008638735045
 20
201.7609683775957
 30
0.0
 11
133.1810464642559
 21
201.7658941128805
 31
0.0
  0
LINE
  5
CB
  8
0
  6
CONTINUOUS
 62
     7
 10
133.1810464642559
 20
201.7658941128805
 30
0.0
 11
133.1614437403944
 21
201.7717109710542
 31
0.0
  0
LINE
  5
CC
  8
0
  6
CONTINUOUS
 62
     7
 10
133.1614437403944
 20
201.7717109710542
 30
0.0
 11
133.1421097561593
 21
201.7784044664275
 31
0.0
  0
LINE
  5
CD
  8
0
  6
CONTINUOUS
 62
     7
 10
133.1421097561593
 20
201.7784044664275
 30
0.0
 11
133.1235955445186
 21
201.7857463908838
 31
0.0
  0
LINE
  5
CE
  8
0
  6
CONTINUOUS
 62
     7
 10
133.1235955445186
 20
201.7857463908838
 30
0.0
 11
133.1053682275084
 21
201.7939046181688
 31
0.0
  0
LINE
  5
CF
  8
0
  6
CONTINUOUS
 62
     7
 10
133.1053682275084
 20
201.7939046181688
 30
0.0
 11
133.0874748315669
 21
201.8028573005657
 31
0.0
  0
LINE
  5
D0
  8
0
  6
CONTINUOUS
 62
     7
 10
133.0874748315669
 20
201.8028573005657
 30
0.0
 11
133.0699623831323
 21
201.8125825903573
 31
0.0
  0
LINE
  5
D1
  8
0
  6
CONTINUOUS
 62
     7
 10
133.0699623831323
 20
201.8125825903573
 30
0.0
 11
133.0523549298743
 21
201.8233919809404
 31
0.0
  0
LINE
  5
D2
  8
0
  6
CONTINUOUS
 62
     7
 10
133.0523549298743
 20
201.8233919809404
 30
0.0
 11
133.0351839050278
 21
201.835001620599
 31
0.0
  0
LINE
  5
D3
  8
0
  6
CONTINUOUS
 62
     7
 10
133.0351839050278
 20
201.835001620599
 30
0.0
 11
133.0184963405511
 21
201.8473788862745
 31
0.0
  0
LINE
  5
D4
  8
0
  6
CONTINUOUS
 62
     7
 10
133.0184963405511
 20
201.8473788862745
 30
0.0
 11
133.002339268403
 21
201.860491154908
 31
0.0
  0
LINE
  5
D5
  8
0
  6
CONTINUOUS
 62
     7
 10
133.002339268403
 20
201.860491154908
 30
0.0
 11
132.9871942421969
 21
201.8738993882336
 31
0.0
  0
LINE
  5
D6
  8
0
  6
CONTINUOUS
 62
     7
 10
132.9871942421969
 20
201.8738993882336
 30
0.0
 11
132.9725760678869
 21
201.8879764981196
 31
0.0
  0
LINE
  5
D7
  8
0
  6
CONTINUOUS
 62
     7
 10
132.9725760678869
 20
201.8879764981196
 30
0.0
 11
132.9585225283475
 21
201.9026853894732
 31
0.0
  0
LINE
  5
D8
  8
0
  6
CONTINUOUS
 62
     7
 10
132.9585225283475
 20
201.9026853894732
 30
0.0
 11
132.9450714064535
 21
201.9179889672013
 31
0.0
  0
LINE
  5
D9
  8
0
  6
CONTINUOUS
 62
     7
 10
132.9450714064535
 20
201.9179889672013
 30
0.0
 11
132.9318702040056
 21
201.9343502873956
 31
0.0
  0
LINE
  5
DA
  8
0
  6
CONTINUOUS
 62
     7
 10
132.9318702040056
 20
201.9343502873956
 30
0.0
 11
132.9193330044428
 21
201.9513131591847
 31
0.0
  0
LINE
  5
DB
  8
0
  6
CONTINUOUS
 62
     7
 10
132.9193330044428
 20
201.9513131591847
 30
0.0
 11
132.9074941515457
 21
201.9688301201375
 31
0.0
  0
LINE
  5
DC
  8
0
  6
CONTINUOUS
 62
     7
 10
132.9074941515457
 20
201.9688301201375
 30
0.0
 11
132.8963879890951
 21
201.986853707823
 31
0.0
  0
LINE
  5
DD
  8
0
  6
CONTINUOUS
 62
     7
 10
132.8963879890951
 20
201.986853707823
 30
0.0
 11
132.8863575665802
 21
202.0047503658984
 31
0.0
  0
LINE
  5
DE
  8
0
  6
CONTINUOUS
 62
     7
 10
132.8863575665802
 20
202.0047503658984
 30
0.0
 11
132.8770316276699
 21
202.0230900098944
 31
0.0
  0
LINE
  5
DF
  8
0
  6
CONTINUOUS
 62
     7
 10
132.8770316276699
 20
202.0230900098944
 30
0.0
 11
132.8684339876007
 21
202.0418245439946
 31
0.0
  0
LINE
  5
E0
  8
0
  6
CONTINUOUS
 62
     7
 10
132.8684339876007
 20
202.0418245439946
 30
0.0
 11
132.8605884616086
 21
202.0609058723826
 31
0.0
  0
LINE
  5
E1
  8
0
  6
CONTINUOUS
 62
     7
 10
132.8605884616086
 20
202.0609058723826
 30
0.0
 11
132.8533087479062
 21
202.0808922467611
 31
0.0
  0
LINE
  5
E2
  8
0
  6
CONTINUOUS
 62
     7
 10
132.8533087479062
 20
202.0808922467611
 30
0.0
 11
132.8468408378322
 21
202.1012102001455
 31
0.0
  0
LINE
  5
E3
  8
0
  6
CONTINUOUS
 62
     7
 10
132.8468408378322
 20
202.1012102001455
 30
0.0
 11
132.8412018877073
 21
202.1218031546827
 31
0.0
  0
LINE
  5
E4
  8
0
  6
CONTINUOUS
 62
     7
 10
132.8412018877073
 20
202.1218031546827
 30
0.0
 11
132.8364090538522
 21
202.1426145325195
 31
0.0
  0
LINE
  5
E5
  8
0
  6
CONTINUOUS
 62
     7
 10
132.8364090538522
 20
202.1426145325195
 30
0.0
 11
132.8324379994066
 21
202.163827021591
 31
0.0
  0
LINE
  5
E6
  8
0
  6
CONTINUOUS
 62
     7
 10
132.8324379994066
 20
202.163827021591
 30
0.0
 11
132.8293381904592
 21
202.185232724189
 31
0.0
  0
LINE
  5
E7
  8
0
  6
CONTINUOUS
 62
     7
 10
132.8293381904592
 20
202.185232724189
 30
0.0
 11
132.8271160673976
 21
202.2067707289993
 31
0.0
  0
LINE
  5
E8
  8
0
  6
CONTINUOUS
 62
     7
 10
132.8271160673976
 20
202.2067707289993
 30
0.0
 11
132.8257780706097
 21
202.2283801247077
 31
0.0
  0
LINE
  5
E9
  8
0
  6
CONTINUOUS
 62
     7
 10
132.8257780706097
 20
202.2283801247077
 30
0.0
 11
132.8253306404831
 21
202.25
 31
0.0
  0
LINE
  5
EA
  8
0
  6
CONTINUOUS
 62
     7
 10
132.8253306404831
 20
227.7499999999999
 30
0.0
 11
132.8257388416756
 21
227.7706889627996
 31
0.0
  0
LINE
  5
EB
  8
0
  6
CONTINUOUS
 62
     7
 10
132.8257388416756
 20
227.7706889627996
 30
0.0
 11
132.8269605639055
 21
227.7913599567061
 31
0.0
  0
LINE
  5
EC
  8
0
  6
CONTINUOUS
 62
     7
 10
132.8269605639055
 20
227.7913599567061
 30
0.0
 11
132.828991485151
 21
227.8119594788621
 31
0.0
  0
LINE
  5
ED
  8
0
  6
CONTINUOUS
 62
     7
 10
132.828991485151
 20
227.8119594788621
 30
0.0
 11
132.8318272833905
 21
227.8324340264097
 31
0.0
  0
LINE
  5
EE
  8
0
  6
CONTINUOUS
 62
     7
 10
132.8318272833905
 20
227.8324340264097
 30
0.0
 11
132.8355857965217
 21
227.8533545340867
 31
0.0
  0
LINE
  5
EF
  8
0
  6
CONTINUOUS
 62
     7
 10
132.8355857965217
 20
227.8533545340867
 30
0.0
 11
132.8401902436204
 21
227.87410470431
 31
0.0
  0
LINE
  5
F0
  8
0
  6
CONTINUOUS
 62
     7
 10
132.8401902436204
 20
227.87410470431
 30
0.0
 11
132.8456265405087
 21
227.8946280421857
 31
0.0
  0
LINE
  5
F1
  8
0
  6
CONTINUOUS
 62
     7
 10
132.8456265405087
 20
227.8946280421857
 30
0.0
 11
132.851880603009
 21
227.9148680528195
 31
0.0
  0
LINE
  5
F2
  8
0
  6
CONTINUOUS
 62
     7
 10
132.851880603009
 20
227.9148680528195
 30
0.0
 11
132.858737746229
 21
227.9342456748853
 31
0.0
  0
LINE
  5
F3
  8
0
  6
CONTINUOUS
 62
     7
 10
132.858737746229
 20
227.9342456748853
 30
0.0
 11
132.8663548887173
 21
227.9533217436541
 31
0.0
  0
LINE
  5
F4
  8
0
  6
CONTINUOUS
 62
     7
 10
132.8663548887173
 20
227.9533217436541
 30
0.0
 11
132.8747109982517
 21
227.9720476697463
 31
0.0
  0
LINE
  5
F5
  8
0
  6
CONTINUOUS
 62
     7
 10
132.8747109982517
 20
227.9720476697463
 30
0.0
 11
132.8837850426099
 21
227.9903748637822
 31
0.0
  0
LINE
  5
F6
  8
0
  6
CONTINUOUS
 62
     7
 10
132.8837850426099
 20
227.9903748637822
 30
0.0
 11
132.8938642959389
 21
228.0087977854244
 31
0.0
  0
LINE
  5
F7
  8
0
  6
CONTINUOUS
 62
     7
 10
132.8938642959389
 20
228.0087977854244
 30
0.0
 11
132.9046851429885
 21
228.0267655248462
 31
0.0
  0
LINE
  5
F8
  8
0
  6
CONTINUOUS
 62
     7
 10
132.9046851429885
 20
228.0267655248462
 30
0.0
 11
132.9162166738936
 21
228.0442302223131
 31
0.0
  0
LINE
  5
F9
  8
0
  6
CONTINUOUS
 62
     7
 10
132.9162166738936
 20
228.0442302223131
 30
0.0
 11
132.9284279787891
 21
228.0611440180906
 31
0.0
  0
LINE
  5
FA
  8
0
  6
CONTINUOUS
 62
     7
 10
132.9284279787891
 20
228.0611440180906
 30
0.0
 11
132.9409699723491
 21
228.0770771016487
 31
0.0
  0
LINE
  5
FB
  8
0
  6
CONTINUOUS
 62
     7
 10
132.9409699723491
 20
228.0770771016487
 30
0.0
 11
132.9541348822906
 21
228.0924596467781
 31
0.0
  0
LINE
  5
FC
  8
0
  6
CONTINUOUS
 62
     7
 10
132.9541348822906
 20
228.0924596467781
 30
0.0
 11
132.9678876892442
 21
228.1072532752617
 31
0.0
  0
LINE
  5
FD
  8
0
  6
CONTINUOUS
 62
     7
 10
132.9678876892442
 20
228.1072532752617
 30
0.0
 11
132.9821933738406
 21
228.1214196088823
 31
0.0
  0
LINE
  5
FE
  8
0
  6
CONTINUOUS
 62
     7
 10
132.9821933738406
 20
228.1214196088823
 30
0.0
 11
132.9974757452548
 21
228.1353242518141
 31
0.0
  0
LINE
  5
FF
  8
0
  6
CONTINUOUS
 62
     7
 10
132.9974757452548
 20
228.1353242518141
 30
0.0
 11
133.0133155241818
 21
228.1485403307954
 31
0.0
  0
LINE
  5
100
  8
0
  6
CONTINUOUS
 62
     7
 10
133.0133155241818
 20
228.1485403307954
 30
0.0
 11
133.0296687809662
 21
228.1610335124445
 31
0.0
  0
LINE
  5
101
  8
0
  6
CONTINUOUS
 62
     7
 10
133.0296687809662
 20
228.1610335124445
 30
0.0
 11
133.0464915859532
 21
228.1727694633796
 31
0.0
  0
LINE
  5
102
  8
0
  6
CONTINUOUS
 62
     7
 10
133.0464915859532
 20
228.1727694633796
 30
0.0
 11
133.0633634300821
 21
228.1834898043037
 31
0.0
  0
LINE
  5
103
  8
0
  6
CONTINUOUS
 62
     7
 10
133.0633634300821
 20
228.1834898043037
 30
0.0
 11
133.080653572367
 21
228.1934691546831
 31
0.0
  0
LINE
  5
104
  8
0
  6
CONTINUOUS
 62
     7
 10
133.080653572367
 20
228.1934691546831
 30
0.0
 11
133.0983168621961
 21
228.2026832151403
 31
0.0
  0
LINE
  5
105
  8
0
  6
CONTINUOUS
 62
     7
 10
133.0983168621961
 20
228.2026832151403
 30
0.0
 11
133.1163081489577
 21
228.2111076862978
 31
0.0
  0
LINE
  5
106
  8
0
  6
CONTINUOUS
 62
     7
 10
133.1163081489577
 20
228.2111076862978
 30
0.0
 11
133.1351442067987
 21
228.2189408563601
 31
0.0
  0
LINE
  5
107
  8
0
  6
CONTINUOUS
 62
     7
 10
133.1351442067987
 20
228.2189408563601
 30
0.0
 11
133.1542935727492
 21
228.2259241651024
 31
0.0
  0
LINE
  5
108
  8
0
  6
CONTINUOUS
 62
     7
 10
133.1542935727492
 20
228.2259241651024
 30
0.0
 11
133.173703846186
 21
228.2320401271908
 31
0.0
  0
LINE
  5
109
  8
0
  6
CONTINUOUS
 62
     7
 10
133.173703846186
 20
228.2320401271908
 30
0.0
 11
133.1933226264863
 21
228.2372712572908
 31
0.0
  0
LINE
  5
10A
  8
0
  6
CONTINUOUS
 62
     7
 10
133.1933226264863
 20
228.2372712572908
 30
0.0
 11
133.2142913679726
 21
228.2418332048427
 31
0.0
  0
LINE
  5
10B
  8
0
  6
CONTINUOUS
 62
     7
 10
133.2142913679726
 20
228.2418332048427
 30
0.0
 11
133.2354631090575
 21
228.2453947028234
 31
0.0
  0
LINE
  5
10C
  8
0
  6
CONTINUOUS
 62
     7
 10
133.2354631090575
 20
228.2453947028234
 30
0.0
 11
133.256773304375
 21
228.2479481012989
 31
0.0
  0
LINE
  5
10D
  8
0
  6
CONTINUOUS
 62
     7
 10
133.256773304375
 20
228.2479481012989
 30
0.0
 11
133.278157408559
 21
228.2494857503358
 31
0.0
  0
LINE
  5
10E
  8
0
  6
CONTINUOUS
 62
     7
 10
133.278157408559
 20
228.2494857503358
 30
0.0
 11
133.2995508762438
 21
228.2499999999999
 31
0.0
  0
LINE
  5
10F
  8
0
  6
CONTINUOUS
 62
     7
 10
65.34190150751478
 20
201.75
 30
0.0
 11
65.36156206895545
 21
201.7504321804605
 31
0.0
  0
LINE
  5
110
  8
0
  6
CONTINUOUS
 62
     7
 10
65.36156206895545
 20
201.7504321804605
 30
0.0
 11
65.38119038316991
 21
201.7517272361595
 31
0.0
  0
LINE
  5
111
  8
0
  6
CONTINUOUS
 62
     7
 10
65.38119038316991
 20
201.7517272361595
 30
0.0
 11
65.4008881516041
 21
201.7539016499297
 31
0.0
  0
LINE
  5
112
  8
0
  6
CONTINUOUS
 62
     7
 10
65.4008881516041
 20
201.7539016499297
 30
0.0
 11
65.42048491982362
 21
201.7569449816793
 31
0.0
  0
LINE
  5
113
  8
0
  6
CONTINUOUS
 62
     7
 10
65.42048491982362
 20
201.7569449816793
 30
0.0
 11
65.44036766884369
 21
201.760947260119
 31
0.0
  0
LINE
  5
114
  8
0
  6
CONTINUOUS
 62
     7
 10
65.44036766884369
 20
201.760947260119
 30
0.0
 11
65.46007331417867
 21
201.7658440723479
 31
0.0
  0
LINE
  5
115
  8
0
  6
CONTINUOUS
 62
     7
 10
65.46007331417867
 20
201.7658440723479
 30
0.0
 11
65.4797083110356
 21
201.7716733091238
 31
0.0
  0
LINE
  5
116
  8
0
  6
CONTINUOUS
 62
     7
 10
65.4797083110356
 20
201.7716733091238
 30
0.0
 11
65.49909097614622
 21
201.7783909425071
 31
0.0
  0
LINE
  5
117
  8
0
  6
CONTINUOUS
 62
     7
 10
65.49909097614622
 20
201.7783909425071
 30
0.0
 11
65.51752022895836
 21
201.7857043502239
 31
0.0
  0
LINE
  5
118
  8
0
  6
CONTINUOUS
 62
     7
 10
65.51752022895836
 20
201.7857043502239
 30
0.0
 11
65.53564938376836
 21
201.7938213538119
 31
0.0
  0
LINE
  5
119
  8
0
  6
CONTINUOUS
 62
     7
 10
65.53564938376836
 20
201.7938213538119
 30
0.0
 11
65.55356947423061
 21
201.802793716872
 31
0.0
  0
LINE
  5
11A
  8
0
  6
CONTINUOUS
 62
     7
 10
65.55356947423061
 20
201.802793716872
 30
0.0
 11
65.571122072886
 21
201.8125517460782
 31
0.0
  0
LINE
  5
11B
  8
0
  6
CONTINUOUS
 62
     7
 10
65.571122072886
 20
201.8125517460782
 30
0.0
 11
65.5886458531743
 21
201.8233177709835
 31
0.0
  0
LINE
  5
11C
  8
0
  6
CONTINUOUS
 62
     7
 10
65.5886458531743
 20
201.8233177709835
 30
0.0
 11
65.60572145870204
 21
201.8348674758493
 31
0.0
  0
LINE
  5
11D
  8
0
  6
CONTINUOUS
 62
     7
 10
65.60572145870204
 20
201.8348674758493
 30
0.0
 11
65.62243792915649
 21
201.8472748122367
 31
0.0
  0
LINE
  5
11E
  8
0
  6
CONTINUOUS
 62
     7
 10
65.62243792915649
 20
201.8472748122367
 30
0.0
 11
65.63863625167605
 21
201.8604338975879
 31
0.0
  0
LINE
  5
11F
  8
0
  6
CONTINUOUS
 62
     7
 10
65.63863625167605
 20
201.8604338975879
 30
0.0
 11
65.65371477142305
 21
201.8737932054781
 31
0.0
  0
LINE
  5
120
  8
0
  6
CONTINUOUS
 62
     7
 10
65.65371477142305
 20
201.8737932054781
 30
0.0
 11
65.66825826490317
 21
201.8878046296097
 31
0.0
  0
LINE
  5
121
  8
0
  6
CONTINUOUS
 62
     7
 10
65.66825826490317
 20
201.8878046296097
 30
0.0
 11
65.68233647262635
 21
201.9025494187843
 31
0.0
  0
LINE
  5
122
  8
0
  6
CONTINUOUS
 62
     7
 10
65.68233647262635
 20
201.9025494187843
 30
0.0
 11
65.69582121797583
 21
201.9179058873485
 31
0.0
  0
LINE
  5
123
  8
0
  6
CONTINUOUS
 62
     7
 10
65.69582121797583
 20
201.9179058873485
 30
0.0
 11
65.70896314868182
 21
201.9342042432255
 31
0.0
  0
LINE
  5
124
  8
0
  6
CONTINUOUS
 62
     7
 10
65.70896314868182
 20
201.9342042432255
 30
0.0
 11
65.7214355518668
 21
201.9510841465076
 31
0.0
  0
LINE
  5
125
  8
0
  6
CONTINUOUS
 62
     7
 10
65.7214355518668
 20
201.9510841465076
 30
0.0
 11
65.73329942731161
 21
201.9686472280667
 31
0.0
  0
LINE
  5
126
  8
0
  6
CONTINUOUS
 62
     7
 10
65.73329942731161
 20
201.9686472280667
 30
0.0
 11
65.7444373873128
 21
201.9867370127711
 31
0.0
  0
LINE
  5
127
  8
0
  6
CONTINUOUS
 62
     7
 10
65.7444373873128
 20
201.9867370127711
 30
0.0
 11
65.75442973067904
 21
202.0045742394777
 31
0.0
  0
LINE
  5
128
  8
0
  6
CONTINUOUS
 62
     7
 10
65.75442973067904
 20
202.0045742394777
 30
0.0
 11
65.7637152475044
 21
202.0228358363545
 31
0.0
  0
LINE
  5
129
  8
0
  6
CONTINUOUS
 62
     7
 10
65.7637152475044
 20
202.0228358363545
 30
0.0
 11
65.77233413876475
 21
202.0416226286811
 31
0.0
  0
LINE
  5
12A
  8
0
  6
CONTINUOUS
 62
     7
 10
65.77233413876475
 20
202.0416226286811
 30
0.0
 11
65.7802040604118
 21
202.0607752757856
 31
0.0
  0
LINE
  5
12B
  8
0
  6
CONTINUOUS
 62
     7
 10
65.7802040604118
 20
202.0607752757856
 30
0.0
 11
65.78745742630736
 21
202.0806918180703
 31
0.0
  0
LINE
  5
12C
  8
0
  6
CONTINUOUS
 62
     7
 10
65.78745742630736
 20
202.0806918180703
 30
0.0
 11
65.7939000584012
 21
202.1009191733312
 31
0.0
  0
LINE
  5
12D
  8
0
  6
CONTINUOUS
 62
     7
 10
65.7939000584012
 20
202.1009191733312
 30
0.0
 11
65.7995576858864
 21
202.1215740615049
 31
0.0
  0
LINE
  5
12E
  8
0
  6
CONTINUOUS
 62
     7
 10
65.7995576858864
 20
202.1215740615049
 30
0.0
 11
65.80436921778619
 21
202.1424684667005
 31
0.0
  0
LINE
  5
12F
  8
0
  6
CONTINUOUS
 62
     7
 10
65.80436921778619
 20
202.1424684667005
 30
0.0
 11
65.80773010685807
 21
202.1600656277122
 31
0.0
  0
LINE
  5
130
  8
0
  6
CONTINUOUS
 62
     7
 10
65.80773010685807
 20
202.1600656277122
 30
0.0
 11
65.8104913303436
 21
202.177785506901
 31
0.0
  0
LINE
  5
131
  8
0
  6
CONTINUOUS
 62
     7
 10
65.8104913303436
 20
202.177785506901
 30
0.0
 11
65.81264737881568
 21
202.1955935635066
 31
0.0
  0
LINE
  5
132
  8
0
  6
CONTINUOUS
 62
     7
 10
65.81264737881568
 20
202.1955935635066
 30
0.0
 11
65.81420995920521
 21
202.2136866998748
 31
0.0
  0
LINE
  5
133
  8
0
  6
CONTINUOUS
 62
     7
 10
65.81420995920521
 20
202.2136866998748
 30
0.0
 11
65.8151489161509
 21
202.2318342681363
 31
0.0
  0
LINE
  5
134
  8
0
  6
CONTINUOUS
 62
     7
 10
65.8151489161509
 20
202.2318342681363
 30
0.0
 11
65.81546232868189
 21
202.25
 31
0.0
  0
LINE
  5
135
  8
0
  6
CONTINUOUS
 62
     7
 10
134.1845376713182
 20
202.25
 30
0.0
 11
134.1849415954157
 21
202.2293689065025
 31
0.0
  0
LINE
  5
136
  8
0
  6
CONTINUOUS
 62
     7
 10
134.1849415954157
 20
202.2293689065025
 30
0.0
 11
134.1861519466346
 21
202.2087732808891
 31
0.0
  0
LINE
  5
137
  8
0
  6
CONTINUOUS
 62
     7
 10
134.1861519466346
 20
202.2087732808891
 30
0.0
 11
134.1881841210871
 21
202.1881059908431
 31
0.0
  0
LINE
  5
138
  8
0
  6
CONTINUOUS
 62
     7
 10
134.1881841210871
 20
202.1881059908431
 30
0.0
 11
134.1910281364783
 21
202.1675465617782
 31
0.0
  0
LINE
  5
139
  8
0
  6
CONTINUOUS
 62
     7
 10
134.1910281364783
 20
202.1675465617782
 30
0.0
 11
134.1947681356276
 21
202.1466877051583
 31
0.0
  0
LINE
  5
13A
  8
0
  6
CONTINUOUS
 62
     7
 10
134.1947681356276
 20
202.1466877051583
 30
0.0
 11
134.1993433525432
 21
202.1260167135001
 31
0.0
  0
LINE
  5
13B
  8
0
  6
CONTINUOUS
 62
     7
 10
134.1993433525432
 20
202.1260167135001
 30
0.0
 11
134.2047887934359
 21
202.1054216352273
 31
0.0
  0
LINE
  5
13C
  8
0
  6
CONTINUOUS
 62
     7
 10
134.2047887934359
 20
202.1054216352273
 30
0.0
 11
134.2110627086121
 21
202.0850931235564
 31
0.0
  0
LINE
  5
13D
  8
0
  6
CONTINUOUS
 62
     7
 10
134.2110627086121
 20
202.0850931235564
 30
0.0
 11
134.2178904654933
 21
202.0657683595229
 31
0.0
  0
LINE
  5
13E
  8
0
  6
CONTINUOUS
 62
     7
 10
134.2178904654933
 20
202.0657683595229
 30
0.0
 11
134.2254662510873
 21
202.0467594514785
 31
0.0
  0
LINE
  5
13F
  8
0
  6
CONTINUOUS
 62
     7
 10
134.2254662510873
 20
202.0467594514785
 30
0.0
 11
134.2338374792247
 21
202.0279710470142
 31
0.0
  0
LINE
  5
140
  8
0
  6
CONTINUOUS
 62
     7
 10
134.2338374792247
 20
202.0279710470142
 30
0.0
 11
134.2429386625949
 21
202.0095681159857
 31
0.0
  0
LINE
  5
141
  8
0
  6
CONTINUOUS
 62
     7
 10
134.2429386625949
 20
202.0095681159857
 30
0.0
 11
134.252974699272
 21
201.991197826316
 31
0.0
  0
LINE
  5
142
  8
0
  6
CONTINUOUS
 62
     7
 10
134.252974699272
 20
201.991197826316
 30
0.0
 11
134.2637371377012
 21
201.9732958649693
 31
0.0
  0
LINE
  5
143
  8
0
  6
CONTINUOUS
 62
     7
 10
134.2637371377012
 20
201.9732958649693
 30
0.0
 11
134.2752931041647
 21
201.9557694337265
 31
0.0
  0
LINE
  5
144
  8
0
  6
CONTINUOUS
 62
     7
 10
134.2752931041647
 20
201.9557694337265
 30
0.0
 11
134.2875443030546
 21
201.9387824165965
 31
0.0
  0
LINE
  5
145
  8
0
  6
CONTINUOUS
 62
     7
 10
134.2875443030546
 20
201.9387824165965
 30
0.0
 11
134.3000345411877
 21
201.922894605093
 31
0.0
  0
LINE
  5
146
  8
0
  6
CONTINUOUS
 62
     7
 10
134.3000345411877
 20
201.922894605093
 30
0.0
 11
134.313132065767
 21
201.9075669518801
 31
0.0
  0
LINE
  5
147
  8
0
  6
CONTINUOUS
 62
     7
 10
134.313132065767
 20
201.9075669518801
 30
0.0
 11
134.3269110198428
 21
201.8927261103801
 31
0.0
  0
LINE
  5
148
  8
0
  6
CONTINUOUS
 62
     7
 10
134.3269110198428
 20
201.8927261103801
 30
0.0
 11
134.3412583853097
 21
201.878504577846
 31
0.0
  0
LINE
  5
149
  8
0
  6
CONTINUOUS
 62
     7
 10
134.3412583853097
 20
201.878504577846
 30
0.0
 11
134.3564764307535
 21
201.8646415147713
 31
0.0
  0
LINE
  5
14A
  8
0
  6
CONTINUOUS
 62
     7
 10
134.3564764307535
 20
201.8646415147713
 30
0.0
 11
134.3722336572322
 21
201.8514744534456
 31
0.0
  0
LINE
  5
14B
  8
0
  6
CONTINUOUS
 62
     7
 10
134.3722336572322
 20
201.8514744534456
 30
0.0
 11
134.38862196122
 21
201.8389394391515
 31
0.0
  0
LINE
  5
14C
  8
0
  6
CONTINUOUS
 62
     7
 10
134.38862196122
 20
201.8389394391515
 30
0.0
 11
134.4054980494652
 21
201.8271565397166
 31
0.0
  0
LINE
  5
14D
  8
0
  6
CONTINUOUS
 62
     7
 10
134.4054980494652
 20
201.8271565397166
 30
0.0
 11
134.4222974186233
 21
201.8164708599979
 31
0.0
  0
LINE
  5
14E
  8
0
  6
CONTINUOUS
 62
     7
 10
134.4222974186233
 20
201.8164708599979
 30
0.0
 11
134.4394972669945
 21
201.8065298676737
 31
0.0
  0
LINE
  5
14F
  8
0
  6
CONTINUOUS
 62
     7
 10
134.4394972669945
 20
201.8065298676737
 30
0.0
 11
134.4571908643883
 21
201.7972901301499
 31
0.0
  0
LINE
  5
150
  8
0
  6
CONTINUOUS
 62
     7
 10
134.4571908643883
 20
201.7972901301499
 30
0.0
 11
134.4752297302779
 21
201.7888378522112
 31
0.0
  0
LINE
  5
151
  8
0
  6
CONTINUOUS
 62
     7
 10
134.4752297302779
 20
201.7888378522112
 30
0.0
 11
134.4939822725852
 21
201.7810317980821
 31
0.0
  0
LINE
  5
152
  8
0
  6
CONTINUOUS
 62
     7
 10
134.4939822725852
 20
201.7810317980821
 30
0.0
 11
134.5130285416045
 21
201.7740761961961
 31
0.0
  0
LINE
  5
153
  8
0
  6
CONTINUOUS
 62
     7
 10
134.5130285416045
 20
201.7740761961961
 30
0.0
 11
134.532475938151
 21
201.767942856431
 31
0.0
  0
LINE
  5
154
  8
0
  6
CONTINUOUS
 62
     7
 10
134.532475938151
 20
201.767942856431
 30
0.0
 11
134.5521508800834
 21
201.7626957665103
 31
0.0
  0
LINE
  5
155
  8
0
  6
CONTINUOUS
 62
     7
 10
134.5521508800834
 20
201.7626957665103
 30
0.0
 11
134.5694705165432
 21
201.7588509294709
 31
0.0
  0
LINE
  5
156
  8
0
  6
CONTINUOUS
 62
     7
 10
134.5694705165432
 20
201.7588509294709
 30
0.0
 11
134.5869179130366
 21
201.7556916257126
 31
0.0
  0
LINE
  5
157
  8
0
  6
CONTINUOUS
 62
     7
 10
134.5869179130366
 20
201.7556916257126
 30
0.0
 11
134.6044567734584
 21
201.7532243397691
 31
0.0
  0
LINE
  5
158
  8
0
  6
CONTINUOUS
 62
     7
 10
134.6044567734584
 20
201.7532243397691
 30
0.0
 11
134.6222940018845
 21
201.7514345653323
 31
0.0
  0
LINE
  5
159
  8
0
  6
CONTINUOUS
 62
     7
 10
134.6222940018845
 20
201.7514345653323
 30
0.0
 11
134.6401872869839
 21
201.7503590226918
 31
0.0
  0
LINE
  5
15A
  8
0
  6
CONTINUOUS
 62
     7
 10
134.6401872869839
 20
201.7503590226918
 30
0.0
 11
134.6580984924853
 21
201.75
 31
0.0
  0
LINE
  5
15B
  8
0
  6
CONTINUOUS
 62
     7
 10
66.70044912375626
 20
228.2499999999999
 30
0.0
 11
66.72020068778559
 21
228.2495635048005
 31
0.0
  0
LINE
  5
15C
  8
0
  6
CONTINUOUS
 62
     7
 10
66.72020068778559
 20
228.2495635048005
 30
0.0
 11
66.7399366360245
 21
228.2482569918939
 31
0.0
  0
LINE
  5
15D
  8
0
  6
CONTINUOUS
 62
     7
 10
66.7399366360245
 20
228.2482569918939
 30
0.0
 11
66.75960606871502
 21
228.2460849203182
 31
0.0
  0
LINE
  5
15E
  8
0
  6
CONTINUOUS
 62
     7
 10
66.75960606871502
 20
228.2460849203182
 30
0.0
 11
66.7791580860992
 21
228.2430517491113
 31
0.0
  0
LINE
  5
15F
  8
0
  6
CONTINUOUS
 62
     7
 10
66.7791580860992
 20
228.2430517491113
 30
0.0
 11
66.79913612649558
 21
228.2390316224043
 31
0.0
  0
LINE
  5
160
  8
0
  6
CONTINUOUS
 62
     7
 10
66.79913612649558
 20
228.2390316224043
 30
0.0
 11
66.81895353574411
 21
228.2341058871194
 31
0.0
  0
LINE
  5
161
  8
0
  6
CONTINUOUS
 62
     7
 10
66.81895353574411
 20
228.2341058871194
 30
0.0
 11
66.8385562596056
 21
228.2282890289458
 31
0.0
  0
LINE
  5
162
  8
0
  6
CONTINUOUS
 62
     7
 10
66.8385562596056
 20
228.2282890289458
 30
0.0
 11
66.85789024384074
 21
228.2215955335724
 31
0.0
  0
LINE
  5
163
  8
0
  6
CONTINUOUS
 62
     7
 10
66.85789024384074
 20
228.2215955335724
 30
0.0
 11
66.87640445548142
 21
228.2142536091162
 31
0.0
  0
LINE
  5
164
  8
0
  6
CONTINUOUS
 62
     7
 10
66.87640445548142
 20
228.2142536091162
 30
0.0
 11
66.89463177249165
 21
228.2060953818311
 31
0.0
  0
LINE
  5
165
  8
0
  6
CONTINUOUS
 62
     7
 10
66.89463177249165
 20
228.2060953818311
 30
0.0
 11
66.91252516843316
 21
228.1971426994342
 31
0.0
  0
LINE
  5
166
  8
0
  6
CONTINUOUS
 62
     7
 10
66.91252516843316
 20
228.1971426994342
 30
0.0
 11
66.93003761686768
 21
228.1874174096426
 31
0.0
  0
LINE
  5
167
  8
0
  6
CONTINUOUS
 62
     7
 10
66.93003761686768
 20
228.1874174096426
 30
0.0
 11
66.9476450701257
 21
228.1766080190596
 31
0.0
  0
LINE
  5
168
  8
0
  6
CONTINUOUS
 62
     7
 10
66.9476450701257
 20
228.1766080190596
 30
0.0
 11
66.96481609497228
 21
228.164998379401
 31
0.0
  0
LINE
  5
169
  8
0
  6
CONTINUOUS
 62
     7
 10
66.96481609497228
 20
228.164998379401
 30
0.0
 11
66.98150365944889
 21
228.1526211137255
 31
0.0
  0
LINE
  5
16A
  8
0
  6
CONTINUOUS
 62
     7
 10
66.98150365944889
 20
228.1526211137255
 30
0.0
 11
66.9976607315971
 21
228.1395088450919
 31
0.0
  0
LINE
  5
16B
  8
0
  6
CONTINUOUS
 62
     7
 10
66.9976607315971
 20
228.1395088450919
 30
0.0
 11
67.01280575780306
 21
228.1261006117664
 31
0.0
  0
LINE
  5
16C
  8
0
  6
CONTINUOUS
 62
     7
 10
67.01280575780306
 20
228.1261006117664
 30
0.0
 11
67.02742393211315
 21
228.1120235018803
 31
0.0
  0
LINE
  5
16D
  8
0
  6
CONTINUOUS
 62
     7
 10
67.02742393211315
 20
228.1120235018803
 30
0.0
 11
67.04147747165256
 21
228.0973146105267
 31
0.0
  0
LINE
  5
16E
  8
0
  6
CONTINUOUS
 62
     7
 10
67.04147747165256
 20
228.0973146105267
 30
0.0
 11
67.0549285935466
 21
228.0820110327986
 31
0.0
  0
LINE
  5
16F
  8
0
  6
CONTINUOUS
 62
     7
 10
67.0549285935466
 20
228.0820110327986
 30
0.0
 11
67.06812979599442
 21
228.0656497126043
 31
0.0
  0
LINE
  5
170
  8
0
  6
CONTINUOUS
 62
     7
 10
67.06812979599442
 20
228.0656497126043
 30
0.0
 11
67.08066699555727
 21
228.0486868408152
 31
0.0
  0
LINE
  5
171
  8
0
  6
CONTINUOUS
 62
     7
 10
67.08066699555727
 20
228.0486868408152
 30
0.0
 11
67.09250584845437
 21
228.0311698798624
 31
0.0
  0
LINE
  5
172
  8
0
  6
CONTINUOUS
 62
     7
 10
67.09250584845437
 20
228.0311698798624
 30
0.0
 11
67.10361201090497
 21
228.0131462921769
 31
0.0
  0
LINE
  5
173
  8
0
  6
CONTINUOUS
 62
     7
 10
67.10361201090497
 20
228.0131462921769
 30
0.0
 11
67.1136424334199
 21
227.9952496341016
 31
0.0
  0
LINE
  5
174
  8
0
  6
CONTINUOUS
 62
     7
 10
67.1136424334199
 20
227.9952496341016
 30
0.0
 11
67.1229683723301
 21
227.9769099901056
 31
0.0
  0
LINE
  5
175
  8
0
  6
CONTINUOUS
 62
     7
 10
67.1229683723301
 20
227.9769099901056
 30
0.0
 11
67.13156601239935
 21
227.9581754560054
 31
0.0
  0
LINE
  5
176
  8
0
  6
CONTINUOUS
 62
     7
 10
67.13156601239935
 20
227.9581754560054
 30
0.0
 11
67.13941153839141
 21
227.9390941276173
 31
0.0
  0
LINE
  5
177
  8
0
  6
CONTINUOUS
 62
     7
 10
67.13941153839141
 20
227.9390941276173
 30
0.0
 11
67.14669125209389
 21
227.9191077532389
 31
0.0
  0
LINE
  5
178
  8
0
  6
CONTINUOUS
 62
     7
 10
67.14669125209389
 20
227.9191077532389
 30
0.0
 11
67.15315916216787
 21
227.8987897998544
 31
0.0
  0
LINE
  5
179
  8
0
  6
CONTINUOUS
 62
     7
 10
67.15315916216787
 20
227.8987897998544
 30
0.0
 11
67.15879811229273
 21
227.8781968453171
 31
0.0
  0
LINE
  5
17A
  8
0
  6
CONTINUOUS
 62
     7
 10
67.15879811229273
 20
227.8781968453171
 30
0.0
 11
67.16359094614786
 21
227.8573854674805
 31
0.0
  0
LINE
  5
17B
  8
0
  6
CONTINUOUS
 62
     7
 10
67.16359094614786
 20
227.8573854674805
 30
0.0
 11
67.1675620005934
 21
227.8361729784089
 31
0.0
  0
LINE
  5
17C
  8
0
  6
CONTINUOUS
 62
     7
 10
67.1675620005934
 20
227.8361729784089
 30
0.0
 11
67.17066180954086
 21
227.8147672758109
 31
0.0
  0
LINE
  5
17D
  8
0
  6
CONTINUOUS
 62
     7
 10
67.17066180954086
 20
227.8147672758109
 30
0.0
 11
67.17288393260242
 21
227.7932292710006
 31
0.0
  0
LINE
  5
17E
  8
0
  6
CONTINUOUS
 62
     7
 10
67.17288393260242
 20
227.7932292710006
 30
0.0
 11
67.17422192939036
 21
227.7716198752922
 31
0.0
  0
LINE
  5
17F
  8
0
  6
CONTINUOUS
 62
     7
 10
67.17422192939036
 20
227.7716198752922
 30
0.0
 11
67.17466935951698
 21
227.7499999999999
 31
0.0
  0
LINE
  5
180
  8
0
  6
CONTINUOUS
 62
     7
 10
134.6580984924853
 20
228.2499999999999
 30
0.0
 11
134.6384379310446
 21
228.2495678195395
 31
0.0
  0
LINE
  5
181
  8
0
  6
CONTINUOUS
 62
     7
 10
134.6384379310446
 20
228.2495678195395
 30
0.0
 11
134.6188096168301
 21
228.2482727638404
 31
0.0
  0
LINE
  5
182
  8
0
  6
CONTINUOUS
 62
     7
 10
134.6188096168301
 20
228.2482727638404
 30
0.0
 11
134.5991118483959
 21
228.2460983500702
 31
0.0
  0
LINE
  5
183
  8
0
  6
CONTINUOUS
 62
     7
 10
134.5991118483959
 20
228.2460983500702
 30
0.0
 11
134.5795150801764
 21
228.2430550183206
 31
0.0
  0
LINE
  5
184
  8
0
  6
CONTINUOUS
 62
     7
 10
134.5795150801764
 20
228.2430550183206
 30
0.0
 11
134.5596323311564
 21
228.2390527398809
 31
0.0
  0
LINE
  5
185
  8
0
  6
CONTINUOUS
 62
     7
 10
134.5596323311564
 20
228.2390527398809
 30
0.0
 11
134.5399266858214
 21
228.234155927652
 31
0.0
  0
LINE
  5
186
  8
0
  6
CONTINUOUS
 62
     7
 10
134.5399266858214
 20
228.234155927652
 30
0.0
 11
134.5202916889644
 21
228.2283266908762
 31
0.0
  0
LINE
  5
187
  8
0
  6
CONTINUOUS
 62
     7
 10
134.5202916889644
 20
228.2283266908762
 30
0.0
 11
134.5009090238538
 21
228.2216090574928
 31
0.0
  0
LINE
  5
188
  8
0
  6
CONTINUOUS
 62
     7
 10
134.5009090238538
 20
228.2216090574928
 30
0.0
 11
134.4824797710417
 21
228.214295649776
 31
0.0
  0
LINE
  5
189
  8
0
  6
CONTINUOUS
 62
     7
 10
134.4824797710417
 20
228.214295649776
 30
0.0
 11
134.4643506162317
 21
228.206178646188
 31
0.0
  0
LINE
  5
18A
  8
0
  6
CONTINUOUS
 62
     7
 10
134.4643506162317
 20
228.206178646188
 30
0.0
 11
134.4464305257694
 21
228.197206283128
 31
0.0
  0
LINE
  5
18B
  8
0
  6
CONTINUOUS
 62
     7
 10
134.4464305257694
 20
228.197206283128
 30
0.0
 11
134.4288779271141
 21
228.1874482539218
 31
0.0
  0
LINE
  5
18C
  8
0
  6
CONTINUOUS
 62
     7
 10
134.4288779271141
 20
228.1874482539218
 30
0.0
 11
134.4113541468257
 21
228.1766822290164
 31
0.0
  0
LINE
  5
18D
  8
0
  6
CONTINUOUS
 62
     7
 10
134.4113541468257
 20
228.1766822290164
 30
0.0
 11
134.394278541298
 21
228.1651325241506
 31
0.0
  0
LINE
  5
18E
  8
0
  6
CONTINUOUS
 62
     7
 10
134.394278541298
 20
228.1651325241506
 30
0.0
 11
134.3775620708436
 21
228.1527251877632
 31
0.0
  0
LINE
  5
18F
  8
0
  6
CONTINUOUS
 62
     7
 10
134.3775620708436
 20
228.1527251877632
 30
0.0
 11
134.361363748324
 21
228.139566102412
 31
0.0
  0
LINE
  5
190
  8
0
  6
CONTINUOUS
 62
     7
 10
134.361363748324
 20
228.139566102412
 30
0.0
 11
134.346285228577
 21
228.1262067945218
 31
0.0
  0
LINE
  5
191
  8
0
  6
CONTINUOUS
 62
     7
 10
134.346285228577
 20
228.1262067945218
 30
0.0
 11
134.3317417350969
 21
228.1121953703902
 31
0.0
  0
LINE
  5
192
  8
0
  6
CONTINUOUS
 62
     7
 10
134.3317417350969
 20
228.1121953703902
 30
0.0
 11
134.3176635273737
 21
228.0974505812156
 31
0.0
  0
LINE
  5
193
  8
0
  6
CONTINUOUS
 62
     7
 10
134.3176635273737
 20
228.0974505812156
 30
0.0
 11
134.3041787820242
 21
228.0820941126514
 31
0.0
  0
LINE
  5
194
  8
0
  6
CONTINUOUS
 62
     7
 10
134.3041787820242
 20
228.0820941126514
 30
0.0
 11
134.2910368513182
 21
228.0657957567745
 31
0.0
  0
LINE
  5
195
  8
0
  6
CONTINUOUS
 62
     7
 10
134.2910368513182
 20
228.0657957567745
 30
0.0
 11
134.2785644481332
 21
228.0489158534923
 31
0.0
  0
LINE
  5
196
  8
0
  6
CONTINUOUS
 62
     7
 10
134.2785644481332
 20
228.0489158534923
 30
0.0
 11
134.2667005726885
 21
228.0313527719333
 31
0.0
  0
LINE
  5
197
  8
0
  6
CONTINUOUS
 62
     7
 10
134.2667005726885
 20
228.0313527719333
 30
0.0
 11
134.2555626126872
 21
228.0132629872288
 31
0.0
  0
LINE
  5
198
  8
0
  6
CONTINUOUS
 62
     7
 10
134.2555626126872
 20
228.0132629872288
 30
0.0
 11
134.245570269321
 21
227.9954257605222
 31
0.0
  0
LINE
  5
199
  8
0
  6
CONTINUOUS
 62
     7
 10
134.245570269321
 20
227.9954257605222
 30
0.0
 11
134.2362847524957
 21
227.9771641636454
 31
0.0
  0
LINE
  5
19A
  8
0
  6
CONTINUOUS
 62
     7
 10
134.2362847524957
 20
227.9771641636454
 30
0.0
 11
134.2276658612353
 21
227.9583773713188
 31
0.0
  0
LINE
  5
19B
  8
0
  6
CONTINUOUS
 62
     7
 10
134.2276658612353
 20
227.9583773713188
 30
0.0
 11
134.2197959395882
 21
227.9392247242143
 31
0.0
  0
LINE
  5
19C
  8
0
  6
CONTINUOUS
 62
     7
 10
134.2197959395882
 20
227.9392247242143
 30
0.0
 11
134.2125425736927
 21
227.9193081819296
 31
0.0
  0
LINE
  5
19D
  8
0
  6
CONTINUOUS
 62
     7
 10
134.2125425736927
 20
227.9193081819296
 30
0.0
 11
134.2060999415988
 21
227.8990808266687
 31
0.0
  0
LINE
  5
19E
  8
0
  6
CONTINUOUS
 62
     7
 10
134.2060999415988
 20
227.8990808266687
 30
0.0
 11
134.2004423141136
 21
227.878425938495
 31
0.0
  0
LINE
  5
19F
  8
0
  6
CONTINUOUS
 62
     7
 10
134.2004423141136
 20
227.878425938495
 30
0.0
 11
134.1956307822139
 21
227.8575315332994
 31
0.0
  0
LINE
  5
1A0
  8
0
  6
CONTINUOUS
 62
     7
 10
134.1956307822139
 20
227.8575315332994
 30
0.0
 11
134.192269893142
 21
227.8399343722877
 31
0.0
  0
LINE
  5
1A1
  8
0
  6
CONTINUOUS
 62
     7
 10
134.192269893142
 20
227.8399343722877
 30
0.0
 11
134.1895086696564
 21
227.822214493099
 31
0.0
  0
LINE
  5
1A2
  8
0
  6
CONTINUOUS
 62
     7
 10
134.1895086696564
 20
227.822214493099
 30
0.0
 11
134.1873526211844
 21
227.8044064364933
 31
0.0
  0
LINE
  5
1A3
  8
0
  6
CONTINUOUS
 62
     7
 10
134.1873526211844
 20
227.8044064364933
 30
0.0
 11
134.1857900407948
 21
227.7863133001252
 31
0.0
  0
LINE
  5
1A4
  8
0
  6
CONTINUOUS
 62
     7
 10
134.1857900407948
 20
227.7863133001252
 30
0.0
 11
134.1848510838491
 21
227.7681657318636
 31
0.0
  0
LINE
  5
1A5
  8
0
  6
CONTINUOUS
 62
     7
 10
134.1848510838491
 20
227.7681657318636
 30
0.0
 11
134.1845376713182
 21
227.7499999999999
 31
0.0
  0
LINE
  5
1A6
  8
0
  6
CONTINUOUS
 62
     7
 10
65.81546232868189
 20
227.7499999999999
 30
0.0
 11
65.8150584045843
 21
227.7706310934974
 31
0.0
  0
LINE
  5
1A7
  8
0
  6
CONTINUOUS
 62
     7
 10
65.8150584045843
 20
227.7706310934974
 30
0.0
 11
65.81384805336542
 21
227.7912267191108
 31
0.0
  0
LINE
  5
1A8
  8
0
  6
CONTINUOUS
 62
     7
 10
65.81384805336542
 20
227.7912267191108
 30
0.0
 11
65.81181587891292
 21
227.8118940091568
 31
0.0
  0
LINE
  5
1A9
  8
0
  6
CONTINUOUS
 62
     7
 10
65.81181587891292
 20
227.8118940091568
 30
0.0
 11
65.80897186352176
 21
227.8324534382217
 31
0.0
  0
LINE
  5
1AA
  8
0
  6
CONTINUOUS
 62
     7
 10
65.80897186352176
 20
227.8324534382217
 30
0.0
 11
65.80523186437247
 21
227.8533122948417
 31
0.0
  0
LINE
  5
1AB
  8
0
  6
CONTINUOUS
 62
     7
 10
65.80523186437247
 20
227.8533122948417
 30
0.0
 11
65.80065664745686
 21
227.8739832864998
 31
0.0
  0
LINE
  5
1AC
  8
0
  6
CONTINUOUS
 62
     7
 10
65.80065664745686
 20
227.8739832864998
 30
0.0
 11
65.79521120656413
 21
227.8945783647726
 31
0.0
  0
LINE
  5
1AD
  8
0
  6
CONTINUOUS
 62
     7
 10
65.79521120656413
 20
227.8945783647726
 30
0.0
 11
65.78893729138795
 21
227.9149068764435
 31
0.0
  0
LINE
  5
1AE
  8
0
  6
CONTINUOUS
 62
     7
 10
65.78893729138795
 20
227.9149068764435
 30
0.0
 11
65.78210953450673
 21
227.934231640477
 31
0.0
  0
LINE
  5
1AF
  8
0
  6
CONTINUOUS
 62
     7
 10
65.78210953450673
 20
227.934231640477
 30
0.0
 11
65.77453374891272
 21
227.9532405485214
 31
0.0
  0
LINE
  5
1B0
  8
0
  6
CONTINUOUS
 62
     7
 10
65.77453374891272
 20
227.9532405485214
 30
0.0
 11
65.76616252077537
 21
227.9720289529857
 31
0.0
  0
LINE
  5
1B1
  8
0
  6
CONTINUOUS
 62
     7
 10
65.76616252077537
 20
227.9720289529857
 30
0.0
 11
65.75706133740515
 21
227.9904318840142
 31
0.0
  0
LINE
  5
1B2
  8
0
  6
CONTINUOUS
 62
     7
 10
65.75706133740515
 20
227.9904318840142
 30
0.0
 11
65.74702530072797
 21
228.0088021736839
 31
0.0
  0
LINE
  5
1B3
  8
0
  6
CONTINUOUS
 62
     7
 10
65.74702530072797
 20
228.0088021736839
 30
0.0
 11
65.73626286229887
 21
228.0267041350307
 31
0.0
  0
LINE
  5
1B4
  8
0
  6
CONTINUOUS
 62
     7
 10
65.73626286229887
 20
228.0267041350307
 30
0.0
 11
65.7247068958353
 21
228.0442305662734
 31
0.0
  0
LINE
  5
1B5
  8
0
  6
CONTINUOUS
 62
     7
 10
65.7247068958353
 20
228.0442305662734
 30
0.0
 11
65.71245569694541
 21
228.0612175834035
 31
0.0
  0
LINE
  5
1B6
  8
0
  6
CONTINUOUS
 62
     7
 10
65.71245569694541
 20
228.0612175834035
 30
0.0
 11
65.69996545881233
 21
228.0771053949069
 31
0.0
  0
LINE
  5
1B7
  8
0
  6
CONTINUOUS
 62
     7
 10
65.69996545881233
 20
228.0771053949069
 30
0.0
 11
65.68686793423308
 21
228.0924330481198
 31
0.0
  0
LINE
  5
1B8
  8
0
  6
CONTINUOUS
 62
     7
 10
65.68686793423308
 20
228.0924330481198
 30
0.0
 11
65.67308898015726
 21
228.1072738896198
 31
0.0
  0
LINE
  5
1B9
  8
0
  6
CONTINUOUS
 62
     7
 10
65.67308898015726
 20
228.1072738896198
 30
0.0
 11
65.65874161469033
 21
228.1214954221539
 31
0.0
  0
LINE
  5
1BA
  8
0
  6
CONTINUOUS
 62
     7
 10
65.65874161469033
 20
228.1214954221539
 30
0.0
 11
65.64352356924648
 21
228.1353584852287
 31
0.0
  0
LINE
  5
1BB
  8
0
  6
CONTINUOUS
 62
     7
 10
65.64352356924648
 20
228.1353584852287
 30
0.0
 11
65.62776634276783
 21
228.1485255465543
 31
0.0
  0
LINE
  5
1BC
  8
0
  6
CONTINUOUS
 62
     7
 10
65.62776634276783
 20
228.1485255465543
 30
0.0
 11
65.61137803878005
 21
228.1610605608485
 31
0.0
  0
LINE
  5
1BD
  8
0
  6
CONTINUOUS
 62
     7
 10
65.61137803878005
 20
228.1610605608485
 30
0.0
 11
65.5945019505348
 21
228.1728434602833
 31
0.0
  0
LINE
  5
1BE
  8
0
  6
CONTINUOUS
 62
     7
 10
65.5945019505348
 20
228.1728434602833
 30
0.0
 11
65.5777025813767
 21
228.1835291400021
 31
0.0
  0
LINE
  5
1BF
  8
0
  6
CONTINUOUS
 62
     7
 10
65.5777025813767
 20
228.1835291400021
 30
0.0
 11
65.56050273300552
 21
228.1934701323262
 31
0.0
  0
LINE
  5
1C0
  8
0
  6
CONTINUOUS
 62
     7
 10
65.56050273300552
 20
228.1934701323262
 30
0.0
 11
65.54280913561173
 21
228.2027098698501
 31
0.0
  0
LINE
  5
1C1
  8
0
  6
CONTINUOUS
 62
     7
 10
65.54280913561173
 20
228.2027098698501
 30
0.0
 11
65.52477026972218
 21
228.2111621477887
 31
0.0
  0
LINE
  5
1C2
  8
0
  6
CONTINUOUS
 62
     7
 10
65.52477026972218
 20
228.2111621477887
 30
0.0
 11
65.50601772741483
 21
228.2189682019178
 31
0.0
  0
LINE
  5
1C3
  8
0
  6
CONTINUOUS
 62
     7
 10
65.50601772741483
 20
228.2189682019178
 30
0.0
 11
65.48697145839553
 21
228.2259238038038
 31
0.0
  0
LINE
  5
1C4
  8
0
  6
CONTINUOUS
 62
     7
 10
65.48697145839553
 20
228.2259238038038
 30
0.0
 11
65.467524061849
 21
228.2320571435689
 31
0.0
  0
LINE
  5
1C5
  8
0
  6
CONTINUOUS
 62
     7
 10
65.467524061849
 20
228.2320571435689
 30
0.0
 11
65.44784911991663
 21
228.2373042334896
 31
0.0
  0
LINE
  5
1C6
  8
0
  6
CONTINUOUS
 62
     7
 10
65.44784911991663
 20
228.2373042334896
 30
0.0
 11
65.43052948345688
 21
228.241149070529
 31
0.0
  0
LINE
  5
1C7
  8
0
  6
CONTINUOUS
 62
     7
 10
65.43052948345688
 20
228.241149070529
 30
0.0
 11
65.41308208696343
 21
228.2443083742874
 31
0.0
  0
LINE
  5
1C8
  8
0
  6
CONTINUOUS
 62
     7
 10
65.41308208696343
 20
228.2443083742874
 30
0.0
 11
65.39554322654163
 21
228.2467756602308
 31
0.0
  0
LINE
  5
1C9
  8
0
  6
CONTINUOUS
 62
     7
 10
65.39554322654163
 20
228.2467756602308
 30
0.0
 11
65.3777059981155
 21
228.2485654346677
 31
0.0
  0
LINE
  5
1CA
  8
0
  6
CONTINUOUS
 62
     7
 10
65.3777059981155
 20
228.2485654346677
 30
0.0
 11
65.35981271301613
 21
228.2496409773082
 31
0.0
  0
LINE
  5
1CB
  8
0
  6
CONTINUOUS
 62
     7
 10
65.35981271301613
 20
228.2496409773082
 30
0.0
 11
65.34190150751478
 21
228.2499999999999
 31
0.0
  0
LINE
  5
1CC
  8
0
  6
CONTINUOUS
 62
     7
 10
67.17466935951698
 20
202.25
 30
0.0
 11
67.17426115832441
 21
202.2293110372004
 31
0.0
  0
LINE
  5
1CD
  8
0
  6
CONTINUOUS
 62
     7
 10
67.17426115832441
 20
202.2293110372004
 30
0.0
 11
67.17303943609453
 21
202.2086400432938
 31
0.0
  0
LINE
  5
1CE
  8
0
  6
CONTINUOUS
 62
     7
 10
67.17303943609453
 20
202.2086400432938
 30
0.0
 11
67.171008514849
 21
202.1880405211379
 31
0.0
  0
LINE
  5
1CF
  8
0
  6
CONTINUOUS
 62
     7
 10
67.171008514849
 20
202.1880405211379
 30
0.0
 11
67.16817271660956
 21
202.1675659735902
 31
0.0
  0
LINE
  5
1D0
  8
0
  6
CONTINUOUS
 62
     7
 10
67.16817271660956
 20
202.1675659735902
 30
0.0
 11
67.16441420347833
 21
202.1466454659133
 31
0.0
  0
LINE
  5
1D1
  8
0
  6
CONTINUOUS
 62
     7
 10
67.16441420347833
 20
202.1466454659133
 30
0.0
 11
67.15980975637969
 21
202.1258952956899
 31
0.0
  0
LINE
  5
1D2
  8
0
  6
CONTINUOUS
 62
     7
 10
67.15980975637969
 20
202.1258952956899
 30
0.0
 11
67.15437345949137
 21
202.1053719578142
 31
0.0
  0
LINE
  5
1D3
  8
0
  6
CONTINUOUS
 62
     7
 10
67.15437345949137
 20
202.1053719578142
 30
0.0
 11
67.14811939699109
 21
202.0851319471805
 31
0.0
  0
LINE
  5
1D4
  8
0
  6
CONTINUOUS
 62
     7
 10
67.14811939699109
 20
202.0851319471805
 30
0.0
 11
67.14126225377107
 21
202.0657543251147
 31
0.0
  0
LINE
  5
1D5
  8
0
  6
CONTINUOUS
 62
     7
 10
67.14126225377107
 20
202.0657543251147
 30
0.0
 11
67.13364511128273
 21
202.0466782563459
 31
0.0
  0
LINE
  5
1D6
  8
0
  6
CONTINUOUS
 62
     7
 10
67.13364511128273
 20
202.0466782563459
 30
0.0
 11
67.12528900174834
 21
202.0279523302537
 31
0.0
  0
LINE
  5
1D7
  8
0
  6
CONTINUOUS
 62
     7
 10
67.12528900174834
 20
202.0279523302537
 30
0.0
 11
67.11621495739016
 21
202.0096251362177
 31
0.0
  0
LINE
  5
1D8
  8
0
  6
CONTINUOUS
 62
     7
 10
67.11621495739016
 20
202.0096251362177
 30
0.0
 11
67.10613570406115
 21
201.9912022145755
 31
0.0
  0
LINE
  5
1D9
  8
0
  6
CONTINUOUS
 62
     7
 10
67.10613570406115
 20
201.9912022145755
 30
0.0
 11
67.09531485701157
 21
201.9732344751537
 31
0.0
  0
LINE
  5
1DA
  8
0
  6
CONTINUOUS
 62
     7
 10
67.09531485701157
 20
201.9732344751537
 30
0.0
 11
67.0837833261065
 21
201.9557697776868
 31
0.0
  0
LINE
  5
1DB
  8
0
  6
CONTINUOUS
 62
     7
 10
67.0837833261065
 20
201.9557697776868
 30
0.0
 11
67.0715720212109
 21
201.9388559819093
 31
0.0
  0
LINE
  5
1DC
  8
0
  6
CONTINUOUS
 62
     7
 10
67.0715720212109
 20
201.9388559819093
 30
0.0
 11
67.05903002765095
 21
201.9229228983513
 31
0.0
  0
LINE
  5
1DD
  8
0
  6
CONTINUOUS
 62
     7
 10
67.05903002765095
 20
201.9229228983513
 30
0.0
 11
67.04586511770948
 21
201.9075403532219
 31
0.0
  0
LINE
  5
1DE
  8
0
  6
CONTINUOUS
 62
     7
 10
67.04586511770948
 20
201.9075403532219
 30
0.0
 11
67.03211231075582
 21
201.8927467247383
 31
0.0
  0
LINE
  5
1DF
  8
0
  6
CONTINUOUS
 62
     7
 10
67.03211231075582
 20
201.8927467247383
 30
0.0
 11
67.01780662615946
 21
201.8785803911176
 31
0.0
  0
LINE
  5
1E0
  8
0
  6
CONTINUOUS
 62
     7
 10
67.01780662615946
 20
201.8785803911176
 30
0.0
 11
67.00252425474521
 21
201.8646757481858
 31
0.0
  0
LINE
  5
1E1
  8
0
  6
CONTINUOUS
 62
     7
 10
67.00252425474521
 20
201.8646757481858
 30
0.0
 11
66.98668447581828
 21
201.8514596692045
 31
0.0
  0
LINE
  5
1E2
  8
0
  6
CONTINUOUS
 62
     7
 10
66.98668447581828
 20
201.8514596692045
 30
0.0
 11
66.9703312190338
 21
201.8389664875554
 31
0.0
  0
LINE
  5
1E3
  8
0
  6
CONTINUOUS
 62
     7
 10
66.9703312190338
 20
201.8389664875554
 30
0.0
 11
66.9535084140469
 21
201.8272305366204
 31
0.0
  0
LINE
  5
1E4
  8
0
  6
CONTINUOUS
 62
     7
 10
66.9535084140469
 20
201.8272305366204
 30
0.0
 11
66.93663656991798
 21
201.8165101956962
 31
0.0
  0
LINE
  5
1E5
  8
0
  6
CONTINUOUS
 62
     7
 10
66.93663656991798
 20
201.8165101956962
 30
0.0
 11
66.9193464276331
 21
201.8065308453168
 31
0.0
  0
LINE
  5
1E6
  8
0
  6
CONTINUOUS
 62
     7
 10
66.9193464276331
 20
201.8065308453168
 30
0.0
 11
66.90168313780397
 21
201.7973167848596
 31
0.0
  0
LINE
  5
1E7
  8
0
  6
CONTINUOUS
 62
     7
 10
66.90168313780397
 20
201.7973167848596
 30
0.0
 11
66.88369185104236
 21
201.7888923137021
 31
0.0
  0
LINE
  5
1E8
  8
0
  6
CONTINUOUS
 62
     7
 10
66.88369185104236
 20
201.7888923137021
 30
0.0
 11
66.8648557932013
 21
201.7810591436399
 31
0.0
  0
LINE
  5
1E9
  8
0
  6
CONTINUOUS
 62
     7
 10
66.8648557932013
 20
201.7810591436399
 30
0.0
 11
66.84570642725089
 21
201.7740758348975
 31
0.0
  0
LINE
  5
1EA
  8
0
  6
CONTINUOUS
 62
     7
 10
66.84570642725089
 20
201.7740758348975
 30
0.0
 11
66.82629615381407
 21
201.7679598728091
 31
0.0
  0
LINE
  5
1EB
  8
0
  6
CONTINUOUS
 62
     7
 10
66.82629615381407
 20
201.7679598728091
 30
0.0
 11
66.80667737351376
 21
201.7627287427092
 31
0.0
  0
LINE
  5
1EC
  8
0
  6
CONTINUOUS
 62
     7
 10
66.80667737351376
 20
201.7627287427092
 30
0.0
 11
66.78570863202746
 21
201.7581667951572
 31
0.0
  0
LINE
  5
1ED
  8
0
  6
CONTINUOUS
 62
     7
 10
66.78570863202746
 20
201.7581667951572
 30
0.0
 11
66.76453689094257
 21
201.7546052971765
 31
0.0
  0
LINE
  5
1EE
  8
0
  6
CONTINUOUS
 62
     7
 10
66.76453689094257
 20
201.7546052971765
 30
0.0
 11
66.74322669562511
 21
201.752051898701
 31
0.0
  0
LINE
  5
1EF
  8
0
  6
CONTINUOUS
 62
     7
 10
66.74322669562511
 20
201.752051898701
 30
0.0
 11
66.72184259144102
 21
201.7505142496642
 31
0.0
  0
LINE
  5
1F0
  8
0
  6
CONTINUOUS
 62
     7
 10
66.72184259144102
 20
201.7505142496642
 30
0.0
 11
66.70044912375626
 21
201.75
 31
0.0
  0
ARC
  5
1F1
  8
0
  6
CONTINUOUS
 62
     7
 10
157.135186921044
 20
105.1530267355429
 30
0.0
 40
7.999999999999969
 50
205.0
 51
270.0
  0
LINE
  5
1F2
  8
0
  6
CONTINUOUS
 62
     7
 10
340.0
 20
97.15302673554297
 30
0.0
 11
328.0
 21
97.15302673554297
 31
0.0
  0
ARC
  5
1F3
  8
0
  6
CONTINUOUS
 62
     7
 10
100.0
 20
209.153026735543
 30
0.0
 40
99.99999999999997
 50
249.4367719940503
 51
290.5632280059496
  0
LINE
  5
1F4
  8
0
  6
CONTINUOUS
 62
     7
 10
306.75
 20
111.3124430107308
 30
0.0
 11
306.75
 21
116.046973264457
 31
0.0
  0
ARC
  5
1F5
  8
0
  6
CONTINUOUS
 62
     7
 10
61.99574326324115
 20
107.846973264457
 30
0.0
 40
4.999999999999986
 50
69.43677199405037
 51
155.0
  0
ARC
  5
1F6
  8
0
  6
CONTINUOUS
 62
     7
 10
100.0
 20
209.153026735543
 30
0.0
 40
103.2
 50
249.4367719940504
 51
290.5632280059497
  0
LINE
  5
1F7
  8
0
  6
CONTINUOUS
 62
     7
 10
223.0000000000001
 20
93.95302673554295
 30
0.0
 11
235.0000000000001
 21
93.95302673554295
 31
0.0
  0
LINE
  5
1F8
  8
0
  6
CONTINUOUS
 62
     7
 10
135.1240820117919
 20
194.9999999999999
 30
0.0
 11
145.4359805904594
 21
194.9999999999999
 31
0.0
  0
ARC
  5
1F9
  8
0
  6
CONTINUOUS
 62
     7
 10
157.135186921044
 20
105.1530267355429
 30
0.0
 40
11.19999999999999
 50
205.0000000000001
 51
270.0
  0
LINE
  5
1FA
  8
0
  6
CONTINUOUS
 62
     7
 10
-23.00000000000001
 20
93.95302673554295
 30
0.0
 11
-35.00000000000001
 21
93.95302673554295
 31
0.0
  0
LINE
  5
1FB
  8
0
  6
CONTINUOUS
 62
     7
 10
312.0
 20
97.15302673554294
 30
0.0
 11
300.0
 21
97.15302673554294
 31
0.0
  0
LINE
  5
1FC
  8
0
  6
CONTINUOUS
 62
     7
 10
300.0
 20
97.15302673554297
 30
0.0
 11
300.0
 21
93.95302673554295
 31
0.0
  0
LINE
  5
1FD
  8
0
  6
CENTER
 62
     1
 10
225.0000000000001
 20
215.0
 30
0.0
 11
-24.99999999999999
 21
215.0
 31
0.0
  0
LINE
  5
1FE
  8
0
  6
CENTER
 62
     1
 10
100.0
 20
192.9999999999999
 30
0.0
 11
100.0
 21
237.0
 31
0.0
  0
LINE
  5
1FF
  8
0
  6
CONTINUOUS
 62
     7
 10
54.56401940954063
 20
194.9999999999999
 30
0.0
 11
50.11527537524928
 21
194.9999999999999
 31
0.0
  0
ARC
  5
200
  8
0
  6
CONTINUOUS
 62
     7
 10
15.0
 20
215.0
 30
0.0
 40
3.099999999999992
 50
270.0000000000005
 51
90.0
  0
LINE
  5
201
  8
0
  6
CONTINUOUS
 62
     7
 10
306.75
 20
114.8601854831952
 30
0.0
 11
307.25
 21
114.6940532690535
 31
0.0
  0
POLYLINE
  5
202
  8
0
  6
CONTINUOUS
 62
     7
 66
     1
 10
0.0
 20
0.0
 30
0.0
  0
VERTEX
  5
266
  8
0
  6
CONTINUOUS
 62
     7
 10
332.7500000000001
 20
109.3873573179668
 30
0.0
  0
VERTEX
  5
267
  8
0
  6
CONTINUOUS
 62
     7
 10
332.8475451610081
 20
109.3960645429649
 30
0.0
  0
VERTEX
  5
268
  8
0
  6
CONTINUOUS
 62
     7
 10
332.9413417161826
 20
109.4218516041857
 30
0.0
  0
VERTEX
  5
269
  8
0
  6
CONTINUOUS
 62
     7
 10
333.0277851165098
 20
109.463727519328
 30
0.0
  0
VERTEX
  5
26A
  8
0
  6
CONTINUOUS
 62
     7
 10
333.1035533905933
 20
109.5200830204572
 30
0.0
  0
VERTEX
  5
26B
  8
0
  6
CONTINUOUS
 62
     7
 10
333.1657348061513
 20
109.5887523972694
 30
0.0
  0
VERTEX
  5
26C
  8
0
  6
CONTINUOUS
 62
     7
 10
333.2119397662556
 20
109.6670967241239
 30
0.0
  0
VERTEX
  5
26D
  8
0
  6
CONTINUOUS
 62
     7
 10
333.2403926402016
 20
109.7521052724757
 30
0.0
  0
VERTEX
  5
26E
  8
0
  6
CONTINUOUS
 62
     7
 10
333.25
 20
109.8405112114851
 30
0.0
  0
SEQEND
  5
288
  8
0
  6
CONTINUOUS
 62
     7
  0
LINE
  5
203
  8
0
  6
CONTINUOUS
 62
     7
 10
300.0
 20
97.15302673554297
 30
0.0
 11
300.0
 21
101.7720806416174
 31
0.0
  0
LINE
  5
204
  8
0
  6
CONTINUOUS
 62
     7
 10
132.8253306404831
 20
227.7499999999999
 30
0.0
 11
132.8253306404831
 21
202.25
 31
0.0
  0
LINE
  5
205
  8
0
  6
CONTINUOUS
 62
   253
 10
65.81546232868189
 20
202.25
 30
0.0
 11
67.17466935951698
 21
202.25
 31
0.0
  0
LINE
  5
206
  8
0
  6
CONTINUOUS
 62
   253
 10
145.4359805904594
 20
194.9999999999999
 30
0.0
 11
145.4359805904594
 21
201.75
 31
0.0
  0
LINE
  5
207
  8
0
  6
CONTINUOUS
 62
     7
 10
306.75
 20
116.046973264457
 30
0.0
 11
300.0
 21
116.046973264457
 31
0.0
  0
LINE
  5
208
  8
0
  6
CONTINUOUS
 62
     7
 10
64.87591798820812
 20
194.9999999999999
 30
0.0
 11
54.56401940954063
 21
194.9999999999999
 31
0.0
  0
LINE
  5
209
  8
0
  6
CONTINUOUS
 62
     7
 10
64.87591798820812
 20
194.9999999999999
 30
0.0
 11
135.1240820117919
 21
194.9999999999999
 31
0.0
  0
LINE
  5
20A
  8
0
  6
CONTINUOUS
 62
     7
 10
64.87591798820812
 20
235.0
 30
0.0
 11
135.1240820117919
 21
235.0
 31
0.0
  0
LINE
  5
20B
  8
0
  6
CONTINUOUS
 62
     7
 10
300.0
 20
116.046973264457
 30
0.0
 11
300.0
 21
111.3124430107308
 31
0.0
  0
LINE
  5
20C
  8
0
  6
CONTINUOUS
 62
     7
 10
306.75
 20
109.8405112114851
 30
0.0
 11
306.75
 21
111.3124430107308
 31
0.0
  0
LINE
  5
20D
  8
0
  6
CONTINUOUS
 62
     7
 10
328.0
 20
93.95302673554295
 30
0.0
 11
312.0
 21
93.95302673554295
 31
0.0
  0
LINE
  5
20E
  8
0
  6
CONTINUOUS
 62
     7
 10
340.0
 20
111.3124430107308
 30
0.0
 11
340.0
 21
116.0469732644571
 31
0.0
  0
LINE
  5
20F
  8
0
  6
CONTINUOUS
 62
     7
 10
332.75
 20
114.6940532690535
 30
0.0
 11
333.25
 21
114.8601854831952
 31
0.0
  0
LINE
  5
210
  8
0
  6
CONTINUOUS
 62
     7
 10
67.17466935951698
 20
227.7499999999999
 30
0.0
 11
67.17466935951698
 21
202.25
 31
0.0
  0
LINE
  5
211
  8
0
  6
CONTINUOUS
 62
   253
 10
54.56401940954066
 20
228.2499999999999
 30
0.0
 11
54.56401940954063
 21
235.0
 31
0.0
  0
LINE
  5
212
  8
0
  6
CONTINUOUS
 62
     7
 10
66.70044912375626
 20
228.2499999999999
 30
0.0
 11
64.87591798820814
 21
228.2499999999999
 31
0.0
  0
LINE
  5
213
  8
0
  6
CONTINUOUS
 62
     7
 10
332.75
 20
109.3873573179667
 30
0.0
 11
307.25
 21
109.3873573179667
 31
0.0
  0
LINE
  5
214
  8
0
  6
CONTINUOUS
 62
     7
 10
133.2995508762438
 20
228.2499999999999
 30
0.0
 11
135.1240820117919
 21
228.2499999999999
 31
0.0
  0
LINE
  5
215
  8
0
  6
CONTINUOUS
 62
     7
 10
54.56401940954063
 20
235.0
 30
0.0
 11
64.87591798820812
 21
235.0
 31
0.0
  0
LINE
  5
216
  8
0
  6
CONTINUOUS
 62
   253
 10
132.8253306404831
 20
202.25
 30
0.0
 11
134.1845376713182
 21
202.25
 31
0.0
  0
LINE
  5
217
  8
0
  6
CONTINUOUS
 62
     7
 10
340.0
 20
101.7720806416174
 30
0.0
 11
340.0
 21
97.15302673554297
 31
0.0
  0
POLYLINE
  5
218
  8
0
  6
CONTINUOUS
 62
     7
 66
     1
 10
0.0
 20
0.0
 30
0.0
  0
VERTEX
  5
26F
  8
0
  6
CONTINUOUS
 62
     7
 10
146.1223536607296
 20
201.75
 30
0.0
  0
VERTEX
  5
270
  8
0
  6
CONTINUOUS
 62
     7
 10
146.163578027116
 20
201.7596073597984
 30
0.0
  0
VERTEX
  5
271
  8
0
  6
CONTINUOUS
 62
     7
 10
146.2032181642211
 20
201.7880602337443
 30
0.0
  0
VERTEX
  5
272
  8
0
  6
CONTINUOUS
 62
     7
 10
146.2397507238064
 20
201.8342651938487
 30
0.0
  0
VERTEX
  5
273
  8
0
  6
CONTINUOUS
 62
     7
 10
146.2717717800946
 20
201.8964466094067
 30
0.0
  0
VERTEX
  5
274
  8
0
  6
CONTINUOUS
 62
     7
 10
146.2980507818503
 20
201.9722148834902
 30
0.0
  0
VERTEX
  5
275
  8
0
  6
CONTINUOUS
 62
     7
 10
146.3175778417734
 20
202.0586582838175
 30
0.0
  0
VERTEX
  5
276
  8
0
  6
CONTINUOUS
 62
     7
 10
146.329602545902
 20
202.1524548389919
 30
0.0
  0
VERTEX
  5
277
  8
0
  6
CONTINUOUS
 62
     7
 10
146.3336627915999
 20
202.25
 30
0.0
  0
SEQEND
  5
289
  8
0
  6
CONTINUOUS
 62
     7
  0
ARC
  5
219
  8
0
  6
CONTINUOUS
 62
     7
 10
-22.99999999999999
 20
207.0
 30
0.0
 40
12.0
 50
180.0
 51
269.9999999999999
  0
LINE
  5
21A
  8
0
  6
CONTINUOUS
 62
     7
 10
146.1223536607295
 20
201.75
 30
0.0
 11
145.4359805904594
 21
201.75
 31
0.0
  0
LINE
  5
21B
  8
0
  6
CONTINUOUS
 62
     7
 10
328.0
 20
93.95302673554295
 30
0.0
 11
340.0
 21
93.95302673554295
 31
0.0
  0
LINE
  5
21C
  8
0
  6
CONTINUOUS
 62
     7
 10
333.25
 20
116.046973264457
 30
0.0
 11
333.25
 21
111.3124430107308
 31
0.0
  0
POLYLINE
  5
21D
  8
0
  6
CONTINUOUS
 62
     7
 66
     1
 10
0.0
 20
0.0
 30
0.0
  0
VERTEX
  5
278
  8
0
  6
CONTINUOUS
 62
     7
 10
146.3336627916
 20
227.7499999999999
 30
0.0
  0
VERTEX
  5
279
  8
0
  6
CONTINUOUS
 62
     7
 10
146.329602545902
 20
227.847545161008
 30
0.0
  0
VERTEX
  5
27A
  8
0
  6
CONTINUOUS
 62
     7
 10
146.3175778417735
 20
227.9413417161824
 30
0.0
  0
VERTEX
  5
27B
  8
0
  6
CONTINUOUS
 62
     7
 10
146.2980507818504
 20
228.0277851165097
 30
0.0
  0
VERTEX
  5
27C
  8
0
  6
CONTINUOUS
 62
     7
 10
146.2717717800947
 20
228.1035533905932
 30
0.0
  0
VERTEX
  5
27D
  8
0
  6
CONTINUOUS
 62
     7
 10
146.2397507238064
 20
228.1657348061512
 30
0.0
  0
VERTEX
  5
27E
  8
0
  6
CONTINUOUS
 62
     7
 10
146.2032181642211
 20
228.2119397662555
 30
0.0
  0
VERTEX
  5
27F
  8
0
  6
CONTINUOUS
 62
     7
 10
146.163578027116
 20
228.2403926402015
 30
0.0
  0
VERTEX
  5
280
  8
0
  6
CONTINUOUS
 62
     7
 10
146.1223536607296
 20
228.2499999999999
 30
0.0
  0
SEQEND
  5
28A
  8
0
  6
CONTINUOUS
 62
     7
  0
LINE
  5
21E
  8
0
  6
CONTINUOUS
 62
     7
 10
42.86481307895608
 20
235.0
 30
0.0
 11
-23.00000000000001
 21
235.0
 31
0.0
  0
LINE
  5
21F
  8
0
  6
CENTER
 62
     1
 10
320.0
 20
118.046973264457
 30
0.0
 11
320.0
 21
91.95302673554295
 31
0.0
  0
ENDSEC
  0
EOF
