  0
SECTION
  2
HEADER
  9
$ACADVER
  1
AC1004
  9
$INSBASE
 10
0.0
 20
0.0
  9
$EXTMIN
 10
340.4999999999999
 20
253.8
  9
$EXTMAX
 10
440.0
 20
327.0
  9
$LIMMIN
 10
0.0
 20
0.0
  9
$LIMMAX
 10
12.0
 20
9.0
  9
$ORTHOMODE
 70
     0
  9
$REGENMODE
 70
     1
  9
$FILLMODE
 70
     1
  9
$QTEXTMODE
 70
     0
  9
$DRAGMODE
 70
     2
  9
$LTSCALE
 40
1.0
  9
$OSMODE
 70
    37
  9
$ATTMODE
 70
     1
  9
$TEXTSIZE
 40
0.2
  9
$TRACEWID
 40
0.05
  9
$TEXTSTYLE
  7
STANDARD
  9
$CLAYER
  8
0
  9
$CELTYPE
  6
BYLAYER
  9
$CECOLOR
 62
   256
  9
$DIMSCALE
 40
1.0
  9
$DIMASZ
 40
3.0
  9
$DIMEXO
 40
0.0625
  9
$DIMDLI
 40
0.38
  9
$DIMRND
 40
0.0
  9
$DIMDLE
 40
0.0
  9
$DIMEXE
 40
1.5
  9
$DIMTP
 40
0.0
  9
$DIMTM
 40
0.0
  9
$DIMTXT
 40
3.0
  9
$DIMCEN
 40
0.09
  9
$DIMTSZ
 40
0.0
  9
$DIMTOL
 70
     0
  9
$DIMLIM
 70
     0
  9
$DIMTIH
 70
     1
  9
$DIMTOH
 70
     1
  9
$DIMSE1
 70
     0
  9
$DIMSE2
 70
     0
  9
$DIMTAD
 70
     1
  9
$DIMZIN
 70
     0
  9
$DIMBLK
  1

  9
$DIMASO
 70
     1
  9
$DIMSHO
 70
     1
  9
$DIMPOST
  1

  9
$DIMAPOST
  1

  9
$DIMALT
 70
     0
  9
$DIMALTD
 70
     2
  9
$DIMALTF
 40
25.4
  9
$DIMLFAC
 40
1.0
  9
$DIMTOFL
 70
     0
  9
$DIMTVP
 40
0.0
  9
$DIMTIX
 70
     0
  9
$DIMSOXD
 70
     0
  9
$DIMSAH
 70
     0
  9
$DIMBLK1
  1

  9
$DIMBLK2
  1

  9
$LUNITS
 70
     2
  9
$LUPREC
 70
     4
  9
$SKETCHINC
 40
0.1
  9
$FILLETRAD
 40
0.5
  9
$AUNITS
 70
     0
  9
$AUPREC
 70
     0
  9
$MENU
  1
.
  9
$ELEVATION
 40
0.0
  9
$THICKNESS
 40
0.0
  9
$LIMCHECK
 70
     0
  9
$CHAMFERA
 40
0.0
  9
$CHAMFERB
 40
0.0
  9
$SKPOLY
 70
     0
  9
$TDCREATE
 40
2460733.762074178
  9
$TDUPDATE
 40
2460733.762074282
  9
$TDINDWG
 40
0.0000000116
  9
$TDUSRTIMER
 40
0.0000000116
  9
$USRTIMER
 70
     1
  9
$ANGBASE
 50
0.0
  9
$ANGDIR
 70
     0
  9
$PDMODE
 70
     0
  9
$PDSIZE
 40
0.0
  9
$PLINEWID
 40
0.0
  9
$COORDS
 70
     1
  9
$SPLFRAME
 70
     0
  9
$SPLINETYPE
 70
     6
  9
$SPLINESEGS
 70
     8
  9
$ATTDIA
 70
     0
  9
$ATTREQ
 70
     1
  9
$SURFTAB1
 70
     6
  9
$SURFTAB2
 70
     6
  9
$SURFTYPE
 70
     6
  9
$SURFU
 70
     6
  9
$SURFV
 70
     6
  9
$UCSNAME
  2

  9
$UCSORG
 10
0.0
 20
0.0
 30
0.0
  9
$UCSXDIR
 10
1.0
 20
0.0
 30
0.0
  9
$UCSYDIR
 10
0.0
 20
1.0
 30
0.0
  9
$USERI1
 70
     0
  9
$USERI2
 70
     0
  9
$USERI3
 70
     0
  9
$USERI4
 70
     0
  9
$USERI5
 70
     0
  9
$USERR1
 40
0.0
  9
$USERR2
 40
0.0
  9
$USERR3
 40
0.0
  9
$USERR4
 40
0.0
  9
$USERR5
 40
0.0
  9
$WORLDVIEW
 70
     1
  0
ENDSEC
  0
SECTION
  2
TABLES
  0
TABLE
  2
LTYPE
 70
     2
  0
LTYPE
  2
CONTINUOUS
 70
     0
  3
Solid line
 72
    65
 73
     0
 40
0.0
  0
LTYPE
  2
CENTER
 70
     0
  3

 72
    65
 73
     0
 40
0.0
  0
ENDTAB
  0
TABLE
  2
LAYER
 70
     2
  0
LAYER
  2
0
 70
     0
 62
     7
  6
CONTINUOUS
  0
LAYER
  2
1
 70
     0
 62
     7
  6
CONTINUOUS
  0
ENDTAB
  0
TABLE
  2
STYLE
 70
     2
  0
STYLE
  2
STANDARD
 70
     0
 40
0.0
 41
1.0
 50
0.0
 71
     0
 42
0.2
  3
txt
  4

  0
STYLE
  2
ＭＳ_ゴシック
 70
     0
 40
0.0
 41
1.0
 50
0.0
 71
     0
 42
0.2
  3
ＭＳ ゴシック.shx
  4

  0
ENDTAB
  0
TABLE
  2
VIEW
 70
     0
  0
ENDTAB
  0
ENDSEC
  0
SECTION
  2
BLOCKS
  0
BLOCK
  8
0
  2
D_FRAME_VIEW_1905
 70
     0
 10
0.0
 20
0.0
  0
ARC
  8
1
  6
CONTINUOUS
 62
     7
 10
384.0
 20
267.1031258359563
 40
3.5
 50
244.6230664748479
 51
0.0
  0
ARC
  8
1
  6
CONTINUOUS
 62
     7
 10
365.0
 20
246.7944199763057
 40
24.5
 50
44.41530859719308
 51
55.988648641537
  0
LINE
  8
1
  6
CONTINUOUS
 62
     7
 10
378.704249935921
 20
267.1031258359563
 11
387.4999999999999
 21
267.1031258359564
  0
ARC
  8
1
  6
CONTINUOUS
 62
     7
 10
365.0
 20
246.7944199763057
 40
24.5
 50
55.988648641537
 51
124.0113513584629
  0
LINE
  8
1
  6
CONTINUOUS
 62
     7
 10
342.4999999999999
 20
267.1031258359563
 11
351.2957500640788
 21
267.1031258359563
  0
ARC
  8
1
  6
CONTINUOUS
 62
     7
 10
344.504214381928
 20
267.5773194705707
 40
2.0
 50
111.2277974072314
 51
179.5
  0
ARC
  8
1
  6
CONTINUOUS
 62
     7
 10
336.5385236763787
 20
288.0845809060605
 40
20.0
 50
291.227797407231
 51
308.5409499184934
  0
ARC
  8
1
  6
CONTINUOUS
 62
     7
 10
365.0
 20
204.2944199763057
 40
70.0
 50
101.1195709534527
 51
103.2129803601586
  0
LINE
  8
1
  6
CONTINUOUS
 62
     7
 10
351.5121829878915
 20
274.3763313025907
 11
351.5
 21
272.9802991655539
  0
ARC
  8
1
  6
CONTINUOUS
 62
     7
 10
353.5121068340199
 20
274.358878231594
 40
2.0
 50
99.31146630804722
 51
179.5
  0
ARC
  8
1
  6
CONTINUOUS
 62
     7
 10
365.0
 20
204.2944199763057
 40
73.00000000000001
 50
74.4755794541942
 51
99.3114663080472
  0
ARC
  8
1
  6
CONTINUOUS
 62
     7
 10
383.4677857839331
 20
270.7770559667563
 40
4.0
 50
0.500000000000008
 51
74.47557945419403
  0
LINE
  8
1
  6
CONTINUOUS
 62
     7
 10
387.5
 20
267.1031258359563
 11
387.4676334761898
 21
270.8119621087498
  0
LINE
  8
1
  6
CONTINUOUS
 62
     7
 10
342.5042905357996
 20
267.5947725415675
 11
342.4999999999999
 21
267.1031258359563
  0
ARC
  8
1
  6
CONTINUOUS
 62
     7
 10
365.0
 20
246.7944199763057
 40
24.5
 50
124.0113513584629
 51
135.584691402807
  0
ARC
  8
1
  6
CONTINUOUS
 62
     7
 10
345.9999999999999
 20
267.1031258359563
 40
3.5
 50
180.0
 51
295.3769335251525
  0
LINE
  8
1
  6
CONTINUOUS
 62
     7
 10
351.4858107555937
 20
274.6062255284319
 11
349.4999999999999
 21
274.6062255284319
  0
LINE
  8
1
  6
CONTINUOUS
 62
     7
 10
351.4999999999999
 20
272.9802991655641
 11
351.4858107555937
 21
274.6062255284319
  0
LINE
  8
1
  6
CONTINUOUS
 62
     7
 10
344.5412880082249
 20
271.8342629649745
 11
344.5230774929705
 21
269.7475446038128
  0
ARC
  8
1
  6
CONTINUOUS
 62
     7
 10
346.5412644477626
 20
271.8167693839524
 40
2.000052945319954
 50
105.2906884284711
 51
179.4988526960058
  0
LINE
  8
1
  6
CONTINUOUS
 62
     7
 10
349.4999999999999
 20
274.6062255284319
 11
346.0138179073347
 21
273.7460210344826
  0
ARC
  8
1
  6
CONTINUOUS
 62
     7
 10
365.0
 20
246.7944199763057
 40
24.0
 50
47.68547461842973
 51
132.3145253815701
  0
LINE
  8
1
  6
CONTINUOUS
 62
     7
 10
381.4934
 20
264.9112010491122
 11
381.1568
 21
264.5414708231365
  0
LINE
  8
1
  6
CONTINUOUS
 62
     7
 10
348.8432
 20
264.5414708231366
 11
348.5066
 21
264.9112010491123
  0
ENDBLK
  8
0
  0
BLOCK
  8
0
  2
D_FRAME_VIEW_2184
 70
     0
 10
0.0
 20
0.0
  0
LINE
  8
1
  6
CONTINUOUS
 62
     7
 10
349.0000000000001
 20
324.9534142841902
 11
351.4999999999999
 21
324.9487106853692
  0
LINE
  8
1
  6
CONTINUOUS
 62
     7
 10
351.5
 20
324.9487106853692
 11
351.5
 21
322.9199758262413
  0
LINE
  8
1
  6
CONTINUOUS
 62
     7
 10
382.4636128977218
 20
322.9193475481978
 11
351.5
 21
322.9199758262413
  0
LINE
  8
1
  6
CONTINUOUS
 62
     7
 10
382.4636128977218
 20
322.9193475481978
 11
382.4636128977218
 21
319.0000000044421
  0
LINE
  8
1
  6
CONTINUOUS
 62
     7
 10
370.0
 20
319.0
 11
382.4636128977218
 21
319.0
  0
LINE
  8
1
  6
CONTINUOUS
 62
     7
 10
370.0
 20
319.0
 11
370.0
 21
316.4160504355588
  0
LINE
  8
1
  6
CONTINUOUS
 62
     7
 10
370.0
 20
316.4160504355588
 11
364.5
 21
316.4
  0
LINE
  8
1
  6
CONTINUOUS
 62
     7
 10
364.5
 20
320.5
 11
364.5
 21
316.4
  0
LINE
  8
1
  6
CONTINUOUS
 62
     7
 10
351.5
 20
320.5
 11
364.5
 21
320.5
  0
LINE
  8
1
  6
CONTINUOUS
 62
     7
 10
351.5
 20
320.5
 11
351.5
 21
319.85676915012
  0
LINE
  8
1
  6
CONTINUOUS
 62
     7
 10
349.0
 20
319.8575903453571
 11
351.5
 21
319.85676915012
  0
LINE
  8
1
  6
CONTINUOUS
 62
     7
 10
349.0
 20
324.9534142841902
 11
349.0
 21
319.8575903453571
  0
LINE
  8
1
  6
CONTINUOUS
 62
     7
 10
351.4999999999999
 20
310.1432308498805
 11
351.5
 21
309.5
  0
LINE
  8
1
  6
CONTINUOUS
 62
     7
 10
351.5
 20
309.5
 11
364.5
 21
309.5
  0
LINE
  8
1
  6
CONTINUOUS
 62
     7
 10
364.5
 20
313.6
 11
364.5
 21
309.5
  0
LINE
  8
1
  6
CONTINUOUS
 62
     7
 10
370.0
 20
313.5839495644412
 11
364.5
 21
313.6
  0
LINE
  8
1
  6
CONTINUOUS
 62
     7
 10
370.0
 20
311.0
 11
370.0
 21
313.5839495644412
  0
LINE
  8
1
  6
CONTINUOUS
 62
     7
 10
370.0
 20
311.0
 11
382.4636128834059
 21
311.0
  0
LINE
  8
1
  6
CONTINUOUS
 62
     7
 10
382.4636128977218
 20
310.9999999998176
 11
382.4636128977218
 21
307.0806506807526
  0
LINE
  8
1
  6
CONTINUOUS
 62
     7
 10
351.5
 20
307.0800241737584
 11
382.4636128977218
 21
307.0806506807526
  0
LINE
  8
1
  6
CONTINUOUS
 62
     7
 10
351.5
 20
305.0512893146308
 11
351.5
 21
307.0800241737584
  0
LINE
  8
1
  6
CONTINUOUS
 62
     7
 10
351.4999999999999
 20
305.0512893146308
 11
349.0
 21
305.0465857158098
  0
LINE
  8
1
  6
CONTINUOUS
 62
     7
 10
349.0
 20
305.0465857158098
 11
349.0
 21
310.1424096546429
  0
LINE
  8
1
  6
CONTINUOUS
 62
     7
 10
349.0
 20
310.1424096546429
 11
351.4999999999999
 21
310.1432308498805
  0
LINE
  8
1
  6
CONTINUOUS
 62
     7
 10
378.704249935921
 20
305.0
 11
387.5
 21
305.0
  0
POLYLINE
  8
1
  6
CONTINUOUS
 62
     7
 66
     1
  0
VERTEX
  8
1
  6
CONTINUOUS
 62
     7
 10
378.7042499359215
 20
304.9999999999999
  0
VERTEX
  8
1
  6
CONTINUOUS
 62
     7
 10
374.4445329390823
 20
305.0200519579965
  0
VERTEX
  8
1
  6
CONTINUOUS
 62
     7
 10
369.8162433418744
 20
305.032404939513
  0
VERTEX
  8
1
  6
CONTINUOUS
 62
     7
 10
365.0000000000005
 20
305.036576869835
  0
VERTEX
  8
1
  6
CONTINUOUS
 62
     7
 10
360.1837566581266
 20
305.032404939513
  0
VERTEX
  8
1
  6
CONTINUOUS
 62
     7
 10
355.5554670609187
 20
305.0200519579965
  0
VERTEX
  8
1
  6
CONTINUOUS
 62
     7
 10
351.2957500640794
 20
304.9999999999999
  0
SEQEND
  8
1
  6
CONTINUOUS
 62
     7
  0
LINE
  8
1
  6
CONTINUOUS
 62
     7
 10
342.4999999999999
 20
305.0
 11
351.2957500640789
 21
305.0
  0
LINE
  8
1
  6
CONTINUOUS
 62
     7
 10
342.5042905357996
 20
305.0042905357996
 11
342.4999999999999
 21
305.0
  0
LINE
  8
1
  6
CONTINUOUS
 62
     7
 10
343.7800606814235
 20
305.0204076941836
 11
342.5042905357996
 21
305.0042905357996
  0
POLYLINE
  8
1
  6
CONTINUOUS
 62
     7
 66
     1
  0
VERTEX
  8
1
  6
CONTINUOUS
 62
     7
 10
343.7800606814234
 20
305.0204076941836
  0
VERTEX
  8
1
  6
CONTINUOUS
 62
     7
 10
346.5035495078094
 20
305.0317727948677
  0
VERTEX
  8
1
  6
CONTINUOUS
 62
     7
 10
348.9999999999999
 20
305.0465857158098
  0
SEQEND
  8
1
  6
CONTINUOUS
 62
     7
  0
LINE
  8
1
  6
CONTINUOUS
 62
     7
 10
351.5121829878915
 20
305.0634723025223
 11
351.5
 21
305.0512893146308
  0
LINE
  8
1
  6
CONTINUOUS
 62
     7
 10
353.1885042096261
 20
305.0805437457954
 11
351.5121829878915
 21
305.0634723025223
  0
POLYLINE
  8
1
  6
CONTINUOUS
 62
     7
 66
     1
  0
VERTEX
  8
1
  6
CONTINUOUS
 62
     7
 10
384.5383820612627
 20
305.0656958256932
  0
VERTEX
  8
1
  6
CONTINUOUS
 62
     7
 10
368.9559936812987
 20
305.0880019470963
  0
VERTEX
  8
1
  6
CONTINUOUS
 62
     7
 10
353.188504209626
 20
305.0805437457954
  0
SEQEND
  8
1
  6
CONTINUOUS
 62
     7
  0
LINE
  8
1
  6
CONTINUOUS
 62
     7
 10
387.4676334761897
 20
305.0323665238102
 11
384.5383820612625
 21
305.0656958256932
  0
LINE
  8
1
  6
CONTINUOUS
 62
     7
 10
387.5
 20
305.0
 11
387.4676334761897
 21
305.0323665238102
  0
LINE
  8
1
  6
CONTINUOUS
 62
     7
 10
353.1885042096261
 20
306.9734540877677
 11
384.5383820612625
 21
306.9729744706185
  0
LINE
  8
1
  6
CONTINUOUS
 62
     7
 10
351.5121829878915
 20
307.0313533691984
 11
353.1885042096261
 21
306.9734540877677
  0
LINE
  8
1
  6
CONTINUOUS
 62
     7
 10
351.5
 20
307.0800241737584
 11
351.5121829878915
 21
307.0313533691984
  0
LINE
  8
1
  6
CONTINUOUS
 62
     7
 10
382.4636128977218
 20
307.0806506807526
 11
382.5145513876554
 21
306.9783050221199
  0
LINE
  8
1
  6
CONTINUOUS
 62
     7
 10
387.4951345505649
 20
307.1865711336836
 11
387.3732158187889
 21
307.1416642569903
  0
ARC
  8
1
  6
CONTINUOUS
 62
     7
 10
383.1841691269149
 20
359.3977795720724
 40
52.42375129661987
 50
269.2681310905326
 51
274.5832442332304
  0
LINE
  8
1
  6
CONTINUOUS
 62
     7
 10
387.4676334761897
 20
307.0768131898275
 11
387.4951345505649
 21
307.1865711336836
  0
LINE
  8
1
  6
CONTINUOUS
 62
     7
 10
384.5383820612625
 20
306.9729744706185
 11
387.4676334761897
 21
307.0768131898275
  0
LINE
  8
1
  6
CONTINUOUS
 62
     7
 10
351.5121829878915
 20
324.9365276974776
 11
353.1885042096261
 21
324.9194562542046
  0
LINE
  8
1
  6
CONTINUOUS
 62
     7
 10
351.5121829878915
 20
324.9365276974776
 11
351.5
 21
324.9487106853692
  0
POLYLINE
  8
1
  6
CONTINUOUS
 62
     7
 66
     1
  0
VERTEX
  8
1
  6
CONTINUOUS
 62
     7
 10
349.0
 20
324.9534142841902
  0
VERTEX
  8
1
  6
CONTINUOUS
 62
     7
 10
346.5035495078095
 20
324.9682272051323
  0
VERTEX
  8
1
  6
CONTINUOUS
 62
     7
 10
343.7800606814235
 20
324.9795923058164
  0
SEQEND
  8
1
  6
CONTINUOUS
 62
     7
  0
LINE
  8
1
  6
CONTINUOUS
 62
     7
 10
342.5042905357996
 20
324.9957094642003
 11
343.7800606814235
 21
324.9795923058164
  0
LINE
  8
1
  6
CONTINUOUS
 62
     7
 10
342.5042905357996
 20
324.9957094642003
 11
342.4999999999999
 21
325.0
  0
LINE
  8
1
  6
CONTINUOUS
 62
     7
 10
342.4999999999999
 20
325.0
 11
351.2957500640789
 21
325.0
  0
POLYLINE
  8
1
  6
CONTINUOUS
 62
     7
 66
     1
  0
VERTEX
  8
1
  6
CONTINUOUS
 62
     7
 10
351.2957500640786
 20
325.0000000000001
  0
VERTEX
  8
1
  6
CONTINUOUS
 62
     7
 10
355.5554670609179
 20
324.9799480420035
  0
VERTEX
  8
1
  6
CONTINUOUS
 62
     7
 10
360.1837566581258
 20
324.967595060487
  0
VERTEX
  8
1
  6
CONTINUOUS
 62
     7
 10
364.9999999999998
 20
324.963423130165
  0
VERTEX
  8
1
  6
CONTINUOUS
 62
     7
 10
369.8162433418738
 20
324.967595060487
  0
VERTEX
  8
1
  6
CONTINUOUS
 62
     7
 10
374.4445329390817
 20
324.9799480420035
  0
VERTEX
  8
1
  6
CONTINUOUS
 62
     7
 10
378.7042499359211
 20
325.0000000000001
  0
SEQEND
  8
1
  6
CONTINUOUS
 62
     7
  0
LINE
  8
1
  6
CONTINUOUS
 62
     7
 10
378.704249935921
 20
325.0
 11
387.5
 21
325.0
  0
LINE
  8
1
  6
CONTINUOUS
 62
     7
 10
387.5
 20
325.0
 11
387.4676334761897
 21
324.9676334761898
  0
LINE
  8
1
  6
CONTINUOUS
 62
     7
 10
384.5383820612625
 20
324.9343041743068
 11
387.4676334761897
 21
324.9676334761898
  0
POLYLINE
  8
1
  6
CONTINUOUS
 62
     7
 66
     1
  0
VERTEX
  8
1
  6
CONTINUOUS
 62
     7
 10
353.188504209626
 20
324.9194562542046
  0
VERTEX
  8
1
  6
CONTINUOUS
 62
     7
 10
368.9559936812984
 20
324.9119980529036
  0
VERTEX
  8
1
  6
CONTINUOUS
 62
     7
 10
384.5383820612622
 20
324.9343041743068
  0
SEQEND
  8
1
  6
CONTINUOUS
 62
     7
  0
ARC
  8
1
  6
CONTINUOUS
 62
     7
 10
383.2520448374224
 20
274.6594471170345
 40
48.36786893839712
 50
85.04878437618255
 51
90.87365642735551
  0
LINE
  8
1
  6
CONTINUOUS
 62
     7
 10
387.4265548447844
 20
322.8468335562304
 11
387.4951345505649
 21
322.8134288663171
  0
LINE
  8
1
  6
CONTINUOUS
 62
     7
 10
382.5145513876554
 20
323.021693229612
 11
382.4636128977218
 21
322.9193475481978
  0
LINE
  8
1
  6
CONTINUOUS
 62
     7
 10
351.5
 20
322.9199758262413
 11
351.5121829878915
 21
322.9686466308014
  0
LINE
  8
1
  6
CONTINUOUS
 62
     7
 10
353.1885042096261
 20
323.0265462888278
 11
351.5121829878915
 21
322.9686466308014
  0
LINE
  8
1
  6
CONTINUOUS
 62
     7
 10
353.1885042096261
 20
323.0265462888278
 11
384.5383820612624
 21
323.0270247170811
  0
LINE
  8
1
  6
CONTINUOUS
 62
     7
 10
387.4676334761897
 20
322.9231868101734
 11
384.5383820612624
 21
323.0270247170811
  0
LINE
  8
1
  6
CONTINUOUS
 62
     7
 10
387.4676334761897
 20
322.9231868101734
 11
387.4951345505649
 21
322.8134288663171
  0
LINE
  8
1
  6
CONTINUOUS
 62
     7
 10
371.0
 20
311.2576090874937
 11
371.0
 21
313.6
  0
LINE
  8
1
  6
CONTINUOUS
 62
     7
 10
370.0972983166922
 20
313.6
 11
371.0
 21
313.6
  0
LINE
  8
1
  6
CONTINUOUS
 62
     7
 10
364.5
 20
313.6
 11
370.0972983166922
 21
313.6
  0
LINE
  8
1
  6
CONTINUOUS
 62
     7
 10
364.5
 20
316.4
 11
364.5
 21
313.6
  0
LINE
  8
1
  6
CONTINUOUS
 62
     7
 10
364.5
 20
316.4
 11
370.0972983166922
 21
316.4
  0
LINE
  8
1
  6
CONTINUOUS
 62
     7
 10
370.0972983166922
 20
316.4
 11
371.0
 21
316.4
  0
LINE
  8
1
  6
CONTINUOUS
 62
     7
 10
371.0
 20
318.7423909125063
 11
371.0
 21
316.4
  0
LINE
  8
1
  6
CONTINUOUS
 62
     7
 10
381.8605453435093
 20
318.7346061315623
 11
371.0
 21
318.7423909125063
  0
LINE
  8
1
  6
CONTINUOUS
 62
     7
 10
381.8605453435093
 20
311.2653938684376
 11
371.0
 21
311.2576090874937
  0
LINE
  8
1
  6
CONTINUOUS
 62
     7
 10
351.5121829878915
 20
305.0634723025223
 11
351.5121829878915
 21
307.0313533691984
  0
LINE
  8
1
  6
CONTINUOUS
 62
     7
 10
351.5121829878915
 20
322.9686466308014
 11
351.5121829878915
 21
324.9365276974776
  0
LINE
  8
1
  6
CONTINUOUS
 62
     7
 10
371.4546722454672
 20
311.25
 11
382.5
 21
311.25
  0
LINE
  8
1
  6
CONTINUOUS
 62
     7
 10
371.0360524027353
 20
311.2523860440696
 11
371.4546722454672
 21
311.25
  0
LINE
  8
1
  6
CONTINUOUS
 62
     7
 10
371.0
 20
311.2576090874937
 11
371.0
 21
311.253984271816
  0
LINE
  8
1
  6
CONTINUOUS
 62
     7
 10
382.5145513876554
 20
311.2647718251949
 11
381.8605453435093
 21
311.2653938684376
  0
LINE
  8
1
  6
CONTINUOUS
 62
     7
 10
382.4950235739352
 20
311.2549654279133
 11
382.5145513876554
 21
311.2647718251949
  0
LINE
  8
1
  6
CONTINUOUS
 62
     7
 10
371.0
 20
318.7423909125063
 11
371.0
 21
318.7460157281839
  0
LINE
  8
1
  6
CONTINUOUS
 62
     7
 10
371.0
 20
318.7460157281839
 11
371.4546722454672
 21
318.7499999999999
  0
LINE
  8
1
  6
CONTINUOUS
 62
     7
 10
371.4546722454672
 20
318.7499999999999
 11
382.5
 21
318.7499999999999
  0
LINE
  8
1
  6
CONTINUOUS
 62
     7
 10
382.4950235739352
 20
318.7450345720867
 11
382.5145513876554
 21
318.7352281748051
  0
LINE
  8
1
  6
CONTINUOUS
 62
     7
 10
381.8605453435093
 20
318.7346061315623
 11
382.5145513876554
 21
318.7352281748051
  0
LINE
  8
1
  6
CONTINUOUS
 62
     7
 10
370.0972983166922
 20
316.4
 11
370.0
 21
316.4160504355588
  0
LINE
  8
1
  6
CONTINUOUS
 62
     7
 10
370.0972983166922
 20
313.6
 11
370.0
 21
313.5839495644412
  0
LINE
  8
1
  6
CONTINUOUS
 62
     7
 10
382.5145513876554
 20
318.7352281748051
 11
382.5145513876554
 21
323.021693229612
  0
LINE
  8
1
  6
CONTINUOUS
 62
     7
 10
382.5145513876554
 20
306.9783050221199
 11
382.5145513876554
 21
311.2647718251949
  0
LINE
  8
1
  6
CONTINUOUS
 62
     7
 10
382.4950235739346
 20
311.0947418316965
 11
382.4636128988321
 21
310.9999999989069
  0
LINE
  8
1
  6
CONTINUOUS
 62
     7
 10
382.4950235739346
 20
311.0947418316965
 11
382.4950235739352
 21
311.2549654279133
  0
LINE
  8
1
  6
CONTINUOUS
 62
     7
 10
382.4950235739352
 20
318.9052581683019
 11
382.4950235739352
 21
318.7450345720867
  0
LINE
  8
1
  6
CONTINUOUS
 62
     7
 10
382.4636128977218
 20
319.0000000044421
 11
382.4950235739352
 21
318.9052581683019
  0
LINE
  8
1
  6
CONTINUOUS
 62
     7
 10
351.4955612512088
 20
312.5800671641313
 11
351.4858107555937
 21
312.5214115362614
  0
LINE
  8
1
  6
CONTINUOUS
 62
     7
 10
351.4955612512088
 20
312.5800671641313
 11
351.4955612512088
 21
317.4199328358687
  0
LINE
  8
1
  6
CONTINUOUS
 62
     7
 10
351.4955612512088
 20
317.4199328358687
 11
351.4858107555937
 21
317.4785884637386
  0
LINE
  8
1
  6
CONTINUOUS
 62
     7
 10
351.4858107555937
 20
317.4785884637386
 11
351.4858107555937
 21
319.7714115362614
  0
LINE
  8
1
  6
CONTINUOUS
 62
     7
 10
351.5
 20
319.85676915012
 11
351.4858107555937
 21
319.7714115362614
  0
LINE
  8
1
  6
CONTINUOUS
 62
     7
 10
351.5
 20
319.75
 11
351.5
 21
319.85676915012
  0
LINE
  8
1
  6
CONTINUOUS
 62
     7
 10
351.5
 20
319.75
 11
351.5
 21
310.25
  0
LINE
  8
1
  6
CONTINUOUS
 62
     7
 10
351.5
 20
310.25
 11
351.4999999999999
 21
310.1432308498805
  0
LINE
  8
1
  6
CONTINUOUS
 62
     7
 10
351.4999999999999
 20
310.1432308498805
 11
351.4858107555937
 21
310.2285884637386
  0
LINE
  8
1
  6
CONTINUOUS
 62
     7
 10
351.4858107555937
 20
310.2285884637386
 11
351.4858107555937
 21
312.5214115362614
  0
LINE
  8
1
  6
CONTINUOUS
 62
     7
 10
351.4858107555937
 20
310.2285884637386
 11
349.4999999999999
 21
310.2500006311175
  0
LINE
  8
1
  6
CONTINUOUS
 62
     7
 10
344.5230774929705
 20
310.062689961688
 11
349.0
 21
310.1424096546429
  0
LINE
  8
1
  6
CONTINUOUS
 62
     7
 10
344.5412880082249
 20
310.1717807317265
 11
344.5230774929705
 21
310.062689961688
  0
LINE
  8
1
  6
CONTINUOUS
 62
     7
 10
346.0138179073348
 20
310.2500004339237
 11
344.5412880082249
 21
310.1717807317265
  0
LINE
  8
1
  6
CONTINUOUS
 62
     7
 10
349.4999999999999
 20
310.2500006311175
 11
346.0138179073348
 21
310.2500004339237
  0
LINE
  8
1
  6
CONTINUOUS
 62
     7
 10
351.4858107555937
 20
317.4785884637386
 11
349.4999999999847
 21
317.5000006311171
  0
LINE
  8
1
  6
CONTINUOUS
 62
     7
 10
344.5406438223345
 20
317.4179217121521
 11
351.4955612512088
 21
317.4199328358687
  0
LINE
  8
1
  6
CONTINUOUS
 62
     7
 10
344.5412880082249
 20
317.4217807317264
 11
344.5406438223345
 21
317.4179217121521
  0
LINE
  8
1
  6
CONTINUOUS
 62
     7
 10
346.0138179073348
 20
317.5000004339238
 11
344.5412880082249
 21
317.4217807317264
  0
LINE
  8
1
  6
CONTINUOUS
 62
     7
 10
349.4999999999847
 20
317.5000006311171
 11
346.0138179073348
 21
317.5000004339238
  0
LINE
  8
1
  6
CONTINUOUS
 62
     7
 10
344.5230774929705
 20
319.937310038312
 11
349.0
 21
319.8575903453571
  0
LINE
  8
1
  6
CONTINUOUS
 62
     7
 10
351.4858107555937
 20
319.7714115362614
 11
349.4999999999999
 21
319.7499993688825
  0
LINE
  8
1
  6
CONTINUOUS
 62
     7
 10
349.4999999999999
 20
319.7499993688825
 11
346.0138179073348
 21
319.7499995660763
  0
LINE
  8
1
  6
CONTINUOUS
 62
     7
 10
344.5412880082249
 20
319.8282192682735
 11
346.0138179073348
 21
319.7499995660763
  0
LINE
  8
1
  6
CONTINUOUS
 62
     7
 10
344.5412880082249
 20
319.8282192682735
 11
344.5230774929705
 21
319.937310038312
  0
LINE
  8
1
  6
CONTINUOUS
 62
     7
 10
344.5406438223345
 20
312.5820782878479
 11
351.4955612512088
 21
312.5800671641313
  0
LINE
  8
1
  6
CONTINUOUS
 62
     7
 10
351.4858107555937
 20
312.5214115362614
 11
349.4999999999999
 21
312.4999993688834
  0
LINE
  8
1
  6
CONTINUOUS
 62
     7
 10
349.4999999999999
 20
312.4999993688834
 11
346.0138179073348
 21
312.4999995660775
  0
LINE
  8
1
  6
CONTINUOUS
 62
     7
 10
344.5412880082249
 20
312.5782192682735
 11
346.0138179073348
 21
312.4999995660775
  0
LINE
  8
1
  6
CONTINUOUS
 62
     7
 10
344.5412880082249
 20
312.5782192682735
 11
344.5406438223345
 21
312.5820782878479
  0
LINE
  8
1
  6
CONTINUOUS
 62
     7
 10
349.4999999999999
 20
312.4999993688834
 11
349.4999999999999
 21
310.2500006311175
  0
LINE
  8
1
  6
CONTINUOUS
 62
     7
 10
349.4999999999999
 20
319.7499993688825
 11
349.4999999999847
 21
317.5000006311171
  0
LINE
  8
1
  6
CONTINUOUS
 62
     7
 10
351.5788800917597
 20
309.5796943080104
 11
351.5
 21
309.5
  0
LINE
  8
1
  6
CONTINUOUS
 62
     7
 10
364.5
 20
309.5
 11
351.5788800917597
 21
309.5796943080104
  0
LINE
  8
1
  6
CONTINUOUS
 62
     7
 10
364.5
 20
320.5
 11
351.5788800917599
 21
320.4203056919895
  0
LINE
  8
1
  6
CONTINUOUS
 62
     7
 10
351.5788800917599
 20
320.4203056919895
 11
351.5
 21
320.5
  0
LINE
  8
1
  6
CONTINUOUS
 62
     7
 10
351.57888009176
 20
310.25
 11
351.5788800917597
 21
309.5796943080104
  0
LINE
  8
1
  6
CONTINUOUS
 62
     7
 10
351.57888009176
 20
319.75
 11
351.57888009176
 21
310.25
  0
LINE
  8
1
  6
CONTINUOUS
 62
     7
 10
351.5788800917599
 20
320.4203056919895
 11
351.57888009176
 21
319.75
  0
LINE
  8
1
  6
CONTINUOUS
 62
     7
 10
344.5406438223345
 20
317.4179217121521
 11
344.5406438223345
 21
312.5820782878479
  0
LINE
  8
1
  6
CONTINUOUS
 62
     7
 10
344.0212601015114
 20
309.4787589369566
 11
343.7800606814236
 21
309.4795923058164
  0
POLYLINE
  8
1
  6
CONTINUOUS
 62
     7
 66
     1
  0
VERTEX
  8
1
  6
CONTINUOUS
 62
     7
 10
344.5230774929705
 20
309.9769034685616
  0
VERTEX
  8
1
  6
CONTINUOUS
 62
     7
 10
344.5226972940355
 20
309.9574923651049
  0
VERTEX
  8
1
  6
CONTINUOUS
 62
     7
 10
344.5215600886087
 20
309.9380989101584
  0
VERTEX
  8
1
  6
CONTINUOUS
 62
     7
 10
344.5196709637573
 20
309.9187752668282
  0
VERTEX
  8
1
  6
CONTINUOUS
 62
     7
 10
344.5170350065486
 20
309.8995735982203
  0
VERTEX
  8
1
  6
CONTINUOUS
 62
     7
 10
344.5135404111047
 20
309.879940038599
  0
VERTEX
  8
1
  6
CONTINUOUS
 62
     7
 10
344.5092640962948
 20
309.8604719584473
  0
VERTEX
  8
1
  6
CONTINUOUS
 62
     7
 10
344.5042227513451
 20
309.8412222305968
  0
VERTEX
  8
1
  6
CONTINUOUS
 62
     7
 10
344.4984330654813
 20
309.822243727879
  0
VERTEX
  8
1
  6
CONTINUOUS
 62
     7
 10
344.4921056227789
 20
309.8041009246189
  0
VERTEX
  8
1
  6
CONTINUOUS
 62
     7
 10
344.4850925471377
 20
309.7862419033759
  0
VERTEX
  8
1
  6
CONTINUOUS
 62
     7
 10
344.4774169503169
 20
309.7687082459077
  0
VERTEX
  8
1
  6
CONTINUOUS
 62
     7
 10
344.4691019440757
 20
309.7515415339716
  0
VERTEX
  8
1
  6
CONTINUOUS
 62
     7
 10
344.4599055092642
 20
309.7343026918083
  0
VERTEX
  8
1
  6
CONTINUOUS
 62
     7
 10
344.4500602875027
 20
309.7174732697439
  0
VERTEX
  8
1
  6
CONTINUOUS
 62
     7
 10
344.439596691635
 20
309.701089658741
  0
VERTEX
  8
1
  6
CONTINUOUS
 62
     7
 10
344.4285451345049
 20
309.6851882497617
  0
VERTEX
  8
1
  6
CONTINUOUS
 62
     7
 10
344.4126027533538
 20
309.6643758424042
  0
VERTEX
  8
1
  6
CONTINUOUS
 62
     7
 10
344.3956103167255
 20
309.6444676379194
  0
VERTEX
  8
1
  6
CONTINUOUS
 62
     7
 10
344.3776520191503
 20
309.6255238180514
  0
VERTEX
  8
1
  6
CONTINUOUS
 62
     7
 10
344.3588120551585
 20
309.6076045645441
  0
VERTEX
  8
1
  6
CONTINUOUS
 62
     7
 10
344.3391746192805
 20
309.5907700591417
  0
VERTEX
  8
1
  6
CONTINUOUS
 62
     7
 10
344.3188239060465
 20
309.5750804835884
  0
VERTEX
  8
1
  6
CONTINUOUS
 62
     7
 10
344.2960245015526
 20
309.559398340129
  0
VERTEX
  8
1
  6
CONTINUOUS
 62
     7
 10
344.2724108504698
 20
309.545020662109
  0
VERTEX
  8
1
  6
CONTINUOUS
 62
     7
 10
344.248087574045
 20
309.5319840593325
  0
VERTEX
  8
1
  6
CONTINUOUS
 62
     7
 10
344.2231592935255
 20
309.5203251416037
  0
VERTEX
  8
1
  6
CONTINUOUS
 62
     7
 10
344.1977306301583
 20
309.5100805187267
  0
VERTEX
  8
1
  6
CONTINUOUS
 62
     7
 10
344.1719062051907
 20
309.5012868005055
  0
VERTEX
  8
1
  6
CONTINUOUS
 62
     7
 10
344.1473804173794
 20
309.4943688340517
  0
VERTEX
  8
1
  6
CONTINUOUS
 62
     7
 10
344.1225106625544
 20
309.4887033846778
  0
VERTEX
  8
1
  6
CONTINUOUS
 62
     7
 10
344.0973803471352
 20
309.4843000613326
  0
VERTEX
  8
1
  6
CONTINUOUS
 62
     7
 10
344.0720728775419
 20
309.4811684729648
  0
VERTEX
  8
1
  6
CONTINUOUS
 62
     7
 10
344.046671660194
 20
309.4793182285232
  0
VERTEX
  8
1
  6
CONTINUOUS
 62
     7
 10
344.0212601015114
 20
309.4787589369566
  0
SEQEND
  8
1
  6
CONTINUOUS
 62
     7
  0
LINE
  8
1
  6
CONTINUOUS
 62
     7
 10
344.5230774929705
 20
309.9769034685616
 11
344.5230774929705
 21
310.062689961688
  0
LINE
  8
1
  6
CONTINUOUS
 62
     7
 10
344.5230774929705
 20
320.0230965314384
 11
344.5230774929705
 21
319.937310038312
  0
POLYLINE
  8
1
  6
CONTINUOUS
 62
     7
 66
     1
  0
VERTEX
  8
1
  6
CONTINUOUS
 62
     7
 10
344.0212601015114
 20
320.5212410630434
  0
VERTEX
  8
1
  6
CONTINUOUS
 62
     7
 10
344.0435590847063
 20
320.5208241871978
  0
VERTEX
  8
1
  6
CONTINUOUS
 62
     7
 10
344.0658314151162
 20
320.5194193318412
  0
VERTEX
  8
1
  6
CONTINUOUS
 62
     7
 10
344.0880208741166
 20
320.5170306249465
  0
VERTEX
  8
1
  6
CONTINUOUS
 62
     7
 10
344.1100712430833
 20
320.5136621944868
  0
VERTEX
  8
1
  6
CONTINUOUS
 62
     7
 10
344.1325862390314
 20
320.5091739343148
  0
VERTEX
  8
1
  6
CONTINUOUS
 62
     7
 10
344.154913681917
 20
320.5036508923398
  0
VERTEX
  8
1
  6
CONTINUOUS
 62
     7
 10
344.1769921833396
 20
320.4971050001334
  0
VERTEX
  8
1
  6
CONTINUOUS
 62
     7
 10
344.1987603548985
 20
320.4895481892676
  0
VERTEX
  8
1
  6
CONTINUOUS
 62
     7
 10
344.2196109652271
 20
320.48122826235
  0
VERTEX
  8
1
  6
CONTINUOUS
 62
     7
 10
344.2401276222793
 20
320.4719543592331
  0
VERTEX
  8
1
  6
CONTINUOUS
 62
     7
 10
344.2602526970191
 20
320.4617456425521
  0
VERTEX
  8
1
  6
CONTINUOUS
 62
     7
 10
344.2799285604103
 20
320.450621274942
  0
VERTEX
  8
1
  6
CONTINUOUS
 62
     7
 10
344.2997280474285
 20
320.4381873572871
  0
VERTEX
  8
1
  6
CONTINUOUS
 62
     7
 10
344.3190021711086
 20
320.4247842449215
  0
VERTEX
  8
1
  6
CONTINUOUS
 62
     7
 10
344.3376862448468
 20
320.4104449147159
  0
VERTEX
  8
1
  6
CONTINUOUS
 62
     7
 10
344.355715582039
 20
320.3952023435408
  0
VERTEX
  8
1
  6
CONTINUOUS
 62
     7
 10
344.3718556901308
 20
320.3802329190308
  0
VERTEX
  8
1
  6
CONTINUOUS
 62
     7
 10
344.3873864488241
 20
320.3644943691156
  0
VERTEX
  8
1
  6
CONTINUOUS
 62
     7
 10
344.4022561981636
 20
320.3480256430183
  0
VERTEX
  8
1
  6
CONTINUOUS
 62
     7
 10
344.4164132781937
 20
320.3308656899619
  0
VERTEX
  8
1
  6
CONTINUOUS
 62
     7
 10
344.4302830992217
 20
320.3123923951823
  0
VERTEX
  8
1
  6
CONTINUOUS
 62
     7
 10
344.4433418256784
 20
320.2932010845538
  0
VERTEX
  8
1
  6
CONTINUOUS
 62
     7
 10
344.4555363919474
 20
320.2733516294124
  0
VERTEX
  8
1
  6
CONTINUOUS
 62
     7
 10
344.466813732412
 20
320.2529039010947
  0
VERTEX
  8
1
  6
CONTINUOUS
 62
     7
 10
344.4760096004254
 20
320.2343164920303
  0
VERTEX
  8
1
  6
CONTINUOUS
 62
     7
 10
344.4844532900283
 20
320.2152882033274
  0
VERTEX
  8
1
  6
CONTINUOUS
 62
     7
 10
344.4921148870442
 20
320.1958723501386
  0
VERTEX
  8
1
  6
CONTINUOUS
 62
     7
 10
344.4989644772965
 20
320.1761222476164
  0
VERTEX
  8
1
  6
CONTINUOUS
 62
     7
 10
344.5051763684542
 20
320.1553644673304
  0
VERTEX
  8
1
  6
CONTINUOUS
 62
     7
 10
344.5104937257782
 20
320.1342885877463
  0
VERTEX
  8
1
  6
CONTINUOUS
 62
     7
 10
344.5148957542643
 20
320.1129639147277
  0
VERTEX
  8
1
  6
CONTINUOUS
 62
     7
 10
344.5183616589083
 20
320.0914597541379
  0
VERTEX
  8
1
  6
CONTINUOUS
 62
     7
 10
344.5209767091806
 20
320.0687718644465
  0
VERTEX
  8
1
  6
CONTINUOUS
 62
     7
 10
344.522551082638
 20
320.045955664472
  0
VERTEX
  8
1
  6
CONTINUOUS
 62
     7
 10
344.5230774929705
 20
320.0230965314384
  0
SEQEND
  8
1
  6
CONTINUOUS
 62
     7
  0
LINE
  8
1
  6
CONTINUOUS
 62
     7
 10
343.7800606814235
 20
320.5204076941836
 11
344.0212601015112
 21
320.5212410630434
  0
LINE
  8
1
  6
CONTINUOUS
 62
     7
 10
344.4999999999999
 20
309.9999809615321
 11
344.4999999999999
 21
320.0000190384679
  0
LINE
  8
1
  6
CONTINUOUS
 62
     7
 10
387.5
 20
305.0
 11
387.5
 21
325.0
  0
POLYLINE
  8
1
  6
CONTINUOUS
 62
     7
 66
     1
  0
VERTEX
  8
1
  6
CONTINUOUS
 62
     7
 10
344.5
 20
320.0000190384679
  0
VERTEX
  8
1
  6
CONTINUOUS
 62
     7
 10
344.4903932029195
 20
320.097562513719
  0
VERTEX
  8
1
  6
CONTINUOUS
 62
     7
 10
344.4619419598221
 20
320.1913563470399
  0
VERTEX
  8
1
  6
CONTINUOUS
 62
     7
 10
344.4157395303548
 20
320.2777964423723
  0
VERTEX
  8
1
  6
CONTINUOUS
 62
     7
 10
344.3535612763726
 20
320.3535612763726
  0
VERTEX
  8
1
  6
CONTINUOUS
 62
     7
 10
344.2777964423723
 20
320.4157395303548
  0
VERTEX
  8
1
  6
CONTINUOUS
 62
     7
 10
344.1913563470399
 20
320.4619419598221
  0
VERTEX
  8
1
  6
CONTINUOUS
 62
     7
 10
344.097562513719
 20
320.4903932029195
  0
VERTEX
  8
1
  6
CONTINUOUS
 62
     7
 10
344.0000190384679
 20
320.5
  0
SEQEND
  8
1
  6
CONTINUOUS
 62
     7
  0
POLYLINE
  8
1
  6
CONTINUOUS
 62
     7
 66
     1
  0
VERTEX
  8
1
  6
CONTINUOUS
 62
     7
 10
344.0000190384679
 20
309.5
  0
VERTEX
  8
1
  6
CONTINUOUS
 62
     7
 10
344.097562513719
 20
309.5096067970805
  0
VERTEX
  8
1
  6
CONTINUOUS
 62
     7
 10
344.1913563470399
 20
309.5380580401779
  0
VERTEX
  8
1
  6
CONTINUOUS
 62
     7
 10
344.2777964423723
 20
309.5842604696452
  0
VERTEX
  8
1
  6
CONTINUOUS
 62
     7
 10
344.3535612763726
 20
309.6464387236274
  0
VERTEX
  8
1
  6
CONTINUOUS
 62
     7
 10
344.4157395303548
 20
309.7222035576277
  0
VERTEX
  8
1
  6
CONTINUOUS
 62
     7
 10
344.4619419598221
 20
309.8086436529601
  0
VERTEX
  8
1
  6
CONTINUOUS
 62
     7
 10
344.4903932029195
 20
309.902437486281
  0
VERTEX
  8
1
  6
CONTINUOUS
 62
     7
 10
344.5
 20
309.9999809615321
  0
SEQEND
  8
1
  6
CONTINUOUS
 62
     7
  0
LINE
  8
1
  6
CONTINUOUS
 62
     7
 10
342.5042905357996
 20
309.4957094642003
 11
343.7800606814235
 21
309.4795923058164
  0
LINE
  8
1
  6
CONTINUOUS
 62
     7
 10
342.4999999999999
 20
309.5
 11
342.5042905357996
 21
309.4957094642003
  0
LINE
  8
1
  6
CONTINUOUS
 62
     7
 10
344.0000190384679
 20
309.5
 11
342.4999999999999
 21
309.5
  0
LINE
  8
1
  6
CONTINUOUS
 62
     7
 10
342.4999999999999
 20
320.5
 11
342.5042905357996
 21
320.5042905357997
  0
LINE
  8
1
  6
CONTINUOUS
 62
     7
 10
343.7800606814235
 20
320.5204076941836
 11
342.5042905357996
 21
320.5042905357997
  0
LINE
  8
1
  6
CONTINUOUS
 62
     7
 10
344.0000190384679
 20
320.5
 11
342.4999999999999
 21
320.5
  0
LINE
  8
1
  6
CONTINUOUS
 62
     7
 10
342.4999999999999
 20
309.5
 11
342.4999999999999
 21
305.0
  0
LINE
  8
1
  6
CONTINUOUS
 62
     7
 10
342.4999999999999
 20
325.0
 11
342.4999999999999
 21
320.5
  0
LINE
  8
1
  6
CONTINUOUS
 62
     7
 10
381.83
 20
311.0
 11
381.83
 21
311.2500001329008
  0
LINE
  8
1
  6
CONTINUOUS
 62
     7
 10
381.83
 20
318.7499998670991
 11
381.83
 21
319.0
  0
ENDBLK
  8
0
  0
BLOCK
  8
0
  2
D_FRAME_VIEW_2332
 70
     0
 10
0.0
 20
0.0
  0
LINE
  8
1
  6
CONTINUOUS
 62
     7
 10
420.0305440372676
 20
263.6031258359563
 11
420.0
 21
267.1031258359563
  0
LINE
  8
1
  6
CONTINUOUS
 62
     7
 10
420.0
 20
267.1031258359563
 11
440.0
 21
267.1031258359563
  0
LINE
  8
1
  6
CONTINUOUS
 62
     7
 10
440.0
 20
267.1031258359563
 11
439.9694559627324
 21
263.6031258359563
  0
LINE
  8
1
  6
CONTINUOUS
 62
     7
 10
437.9231868101734
 20
270.8119621087498
 11
437.8134288663171
 21
267.6606511189992
  0
LINE
  8
1
  6
CONTINUOUS
 62
     7
 10
420.0
 20
267.1031258359563
 11
420.0323665238102
 21
270.8119621087498
  0
LINE
  8
1
  6
CONTINUOUS
 62
     7
 10
422.0768131898275
 20
270.8119621087498
 11
422.1865711336836
 21
267.6606511189992
  0
LINE
  8
1
  6
CONTINUOUS
 62
     7
 10
440.0
 20
267.1031258359563
 11
439.9676334761897
 21
270.8119621087498
  0
LINE
  8
1
  6
CONTINUOUS
 62
     7
 10
421.9738179397179
 20
277.2944112080808
 11
421.9729744706185
 21
274.6311218212752
  0
LINE
  8
1
  6
CONTINUOUS
 62
     7
 10
422.1865711336836
 20
267.6606511189992
 11
421.9783050221199
 21
274.9992773610014
  0
LINE
  8
1
  6
CONTINUOUS
 62
     7
 10
421.9729744706185
 20
274.6311218212752
 11
422.0768131898275
 21
270.8119621087498
  0
LINE
  8
1
  6
CONTINUOUS
 62
     7
 10
433.7352281748051
 20
274.9992773610014
 11
438.021693229612
 21
274.9992773610014
  0
LINE
  8
1
  6
CONTINUOUS
 62
     7
 10
438.021693229612
 20
274.9992773610014
 11
437.8134288663171
 21
267.6606511189992
  0
LINE
  8
1
  6
CONTINUOUS
 62
     7
 10
421.9783050221199
 20
274.9992773610014
 11
426.2647718251949
 21
274.9992773610014
  0
LINE
  8
1
  6
CONTINUOUS
 62
     7
 10
426.2647718251949
 20
274.9992773610014
 11
426.2653938684376
 21
275.2332385085016
  0
LINE
  8
1
  6
CONTINUOUS
 62
     7
 10
433.7346061315623
 20
275.2332385085016
 11
433.7352281748051
 21
274.9992773610014
  0
LINE
  8
1
  6
CONTINUOUS
 62
     7
 10
438.0261839545912
 20
277.2944113851658
 11
438.0270247170811
 21
274.6311218212752
  0
LINE
  8
1
  6
CONTINUOUS
 62
     7
 10
437.9231868101734
 20
270.8119621087498
 11
438.0270247170811
 21
274.6311218212752
  0
LINE
  8
1
  6
CONTINUOUS
 62
     7
 10
439.9343041743067
 20
274.6311218212752
 11
439.9676334761897
 21
270.8119621087498
  0
LINE
  8
1
  6
CONTINUOUS
 62
     7
 10
420.0323665238102
 20
270.8119621087498
 11
420.0656958256932
 21
274.6311218212752
  0
LINE
  8
1
  6
CONTINUOUS
 62
     7
 10
420.0656958256932
 20
274.6311218212753
 11
420.0889380765796
 21
277.2944199763057
  0
LINE
  8
1
  6
CONTINUOUS
 62
     7
 10
439.9343041743067
 20
274.6311218212753
 11
439.9110619234204
 21
277.2944199763057
  0
LINE
  8
1
  6
CONTINUOUS
 62
     7
 10
426.253984271816
 20
275.6991817222845
 11
426.2502812687615
 21
275.2491847320383
  0
LINE
  8
1
  6
CONTINUOUS
 62
     7
 10
426.2502812687615
 20
275.2491847320383
 11
426.25
 21
275.2012405664548
  0
LINE
  8
1
  6
CONTINUOUS
 62
     7
 10
426.2576090874937
 20
276.1145443266963
 11
426.253984271816
 21
275.6991817222845
  0
LINE
  8
1
  6
CONTINUOUS
 62
     7
 10
426.2653938684376
 20
275.2332385085016
 11
426.2629963096914
 21
276.3534197096342
  0
LINE
  8
1
  6
CONTINUOUS
 62
     7
 10
426.25
 20
275.2012405664548
 11
426.2500002843466
 21
275.0137948755167
  0
LINE
  8
1
  6
CONTINUOUS
 62
     7
 10
433.7423909125063
 20
276.1145443266963
 11
433.7460157281839
 21
275.6991817222845
  0
LINE
  8
1
  6
CONTINUOUS
 62
     7
 10
433.7460157281839
 20
275.6991817222845
 11
433.7499999999999
 21
275.2012405664548
  0
LINE
  8
1
  6
CONTINUOUS
 62
     7
 10
433.7346061315623
 20
275.2332385085016
 11
433.7370036523229
 21
276.3534197096131
  0
LINE
  8
1
  6
CONTINUOUS
 62
     7
 10
433.7499999999999
 20
275.2012405664548
 11
433.7499997156532
 21
275.0137948755167
  0
LINE
  8
1
  6
CONTINUOUS
 62
     7
 10
433.7370036523229
 20
276.3534197096131
 11
433.7423909125063
 21
276.1145443266964
  0
LINE
  8
1
  6
CONTINUOUS
 62
     7
 10
420.0305440372676
 20
263.6031258359563
 11
439.9694559627324
 21
263.6031258359563
  0
LINE
  8
1
  6
CONTINUOUS
 62
     7
 10
422.0539657852786
 20
274.9992773610014
 11
421.9743431740842
 21
277.2793704684594
  0
LINE
  8
1
  6
CONTINUOUS
 62
     7
 10
438.0256587012649
 20
277.2793701026839
 11
437.9460361029211
 21
274.9992773610014
  0
LINE
  8
1
  6
CONTINUOUS
 62
     7
 10
421.973812260111
 20
277.2944199763057
 11
420.0889380765796
 21
277.2944199763057
  0
LINE
  8
1
  6
CONTINUOUS
 62
     7
 10
439.9110619234204
 20
277.2944199763057
 11
438.0261895737802
 21
277.2944199763057
  0
LINE
  8
1
  6
CONTINUOUS
 62
     7
 10
427.3999952040903
 20
276.3534197096342
 11
426.262969070818
 21
276.3534197096342
  0
ENDBLK
  8
0
  0
ENDSEC
  0
SECTION
  2
ENTITIES
  0
TEXT
  8
1
  6
CONTINUOUS
 62
     7
 10
352.0165124421658
 20
253.4727272727273
 40
3.0
  1
ＰＯＢ－Ａ１０
  0
INSERT
  8
1
  6
CONTINUOUS
 62
     7
  2
D_FRAME_VIEW_1905
 10
0.0
 20
0.0
 30
0.0
  0
INSERT
  8
1
  6
CONTINUOUS
 62
     7
  2
D_FRAME_VIEW_2184
 10
0.0
 20
0.0
 30
0.0
  0
INSERT
  8
1
  6
CONTINUOUS
 62
     7
  2
D_FRAME_VIEW_2332
 10
0.0
 20
0.0
 30
0.0
  0
LINE
  8
1
  6
CENTER
 62
     1
 10
365.0
 20
327.0
 11
365.0
 21
303.0
  0
LINE
  8
1
  6
CENTER
 62
     1
 10
364.9999999999997
 20
279.9999999999999
 11
365.0000000000002
 21
259.9999999999999
  0
LINE
  8
1
  6
CENTER
 62
     1
 10
430.0
 20
260.0
 11
430.0
 21
280.0
  0
LINE
  8
1
  6
CONTINUOUS
 62
     7
 10
433.7370265200034
 20
276.3534197096342
 11
427.3999952040903
 21
276.3534197096342
  0
LINE
  8
1
  6
CENTER
 62
     1
 10
340.4999999999999
 20
315.0
 11
390.0
 21
315.0
  0
ENDSEC
  0
EOF
