  0
SECTION
  2
HEADER
  9
$ACADVER
  1
AC1014
  9
$ACADMAINTVER
 70
     9
  9
$DWGCODEPAGE
  3
ANSI_932
  9
$INSBASE
 10
0.0
 20
0.0
 30
0.0
  9
$EXTMIN
 10
-260.0499875000001
 20
0.0
 30
0.0
  9
$EXTMAX
 10
161.048155585661
 20
296.048155585661
 30
10.0
  9
$LIMMIN
 10
0.0
 20
0.0
  9
$LIMMAX
 10
12.0
 20
9.0
  9
$ORTHOMODE
 70
     0
  9
$REGENMODE
 70
     1
  9
$FILLMODE
 70
     1
  9
$QTEXTMODE
 70
     0
  9
$MIRRTEXT
 70
     1
  9
$DRAGMODE
 70
     2
  9
$LTSCALE
 40
1.0
  9
$OSMODE
 70
    37
  9
$ATTMODE
 70
     1
  9
$TEXTSIZE
 40
0.2
  9
$TRACEWID
 40
0.05
  9
$TEXTSTYLE
  7
STANDARD
  9
$CLAYER
  8
0
  9
$CELTYPE
  6
BYLAYER
  9
$CECOLOR
 62
   256
  9
$CELTSCALE
 40
1.0
  9
$DELOBJ
 70
     1
  9
$DISPSILH
 70
     0
  9
$DIMSCALE
 40
1.0
  9
$DIMASZ
 40
3.0
  9
$DIMEXO
 40
0.0625
  9
$DIMDLI
 40
0.38
  9
$DIMRND
 40
0.0
  9
$DIMDLE
 40
0.0
  9
$DIMEXE
 40
1.5
  9
$DIMTP
 40
0.0
  9
$DIMTM
 40
0.0
  9
$DIMTXT
 40
3.0
  9
$DIMCEN
 40
0.09
  9
$DIMTSZ
 40
0.0
  9
$DIMTOL
 70
     0
  9
$DIMLIM
 70
     0
  9
$DIMTIH
 70
     1
  9
$DIMTOH
 70
     1
  9
$DIMSE1
 70
     0
  9
$DIMSE2
 70
     0
  9
$DIMTAD
 70
     1
  9
$DIMZIN
 70
     0
  9
$DIMBLK
  1

  9
$DIMASO
 70
     1
  9
$DIMSHO
 70
     1
  9
$DIMPOST
  1

  9
$DIMAPOST
  1

  9
$DIMALT
 70
     0
  9
$DIMALTD
 70
     2
  9
$DIMALTF
 40
25.4
  9
$DIMLFAC
 40
1.0
  9
$DIMTOFL
 70
     0
  9
$DIMTVP
 40
0.0
  9
$DIMTIX
 70
     0
  9
$DIMSOXD
 70
     0
  9
$DIMSAH
 70
     0
  9
$DIMBLK1
  1

  9
$DIMBLK2
  1

  9
$DIMSTYLE
  2
STANDARD
  9
$DIMCLRD
 70
     0
  9
$DIMCLRE
 70
     0
  9
$DIMCLRT
 70
     0
  9
$DIMTFAC
 40
1.0
  9
$DIMGAP
 40
1.5
  9
$DIMJUST
 70
     0
  9
$DIMSD1
 70
     0
  9
$DIMSD2
 70
     0
  9
$DIMTOLJ
 70
     1
  9
$DIMTZIN
 70
     0
  9
$DIMALTZ
 70
     0
  9
$DIMALTTZ
 70
     0
  9
$DIMFIT
 70
     3
  9
$DIMUPT
 70
     0
  9
$DIMUNIT
 70
     2
  9
$DIMDEC
 70
     2
  9
$DIMTDEC
 70
     4
  9
$DIMALTU
 70
     2
  9
$DIMALTTD
 70
     2
  9
$DIMTXSTY
  7
ＭＳ_ゴシック
  9
$DIMAUNIT
 70
     0
  9
$LUNITS
 70
     2
  9
$LUPREC
 70
     4
  9
$SKETCHINC
 40
0.1
  9
$FILLETRAD
 40
0.5
  9
$AUNITS
 70
     0
  9
$AUPREC
 70
     0
  9
$MENU
  1
.
  9
$ELEVATION
 40
0.0
  9
$PELEVATION
 40
0.0
  9
$THICKNESS
 40
0.0
  9
$LIMCHECK
 70
     0
  9
$CHAMFERA
 40
0.0
  9
$CHAMFERB
 40
0.0
  9
$CHAMFERC
 40
0.0
  9
$CHAMFERD
 40
0.0
  9
$SKPOLY
 70
     0
  9
$TDCREATE
 40
2459033.59692544
  9
$TDUPDATE
 40
2459033.596925613
  9
$TDINDWG
 40
0.0000000116
  9
$TDUSRTIMER
 40
0.0000000116
  9
$USRTIMER
 70
     1
  9
$ANGBASE
 50
0.0
  9
$ANGDIR
 70
     0
  9
$PDMODE
 70
     0
  9
$PDSIZE
 40
0.0
  9
$PLINEWID
 40
0.0
  9
$COORDS
 70
     1
  9
$SPLFRAME
 70
     0
  9
$SPLINETYPE
 70
     6
  9
$SPLINESEGS
 70
     8
  9
$ATTDIA
 70
     0
  9
$ATTREQ
 70
     1
  9
$HANDLING
 70
     1
  9
$HANDSEED
  5
36C
  9
$SURFTAB1
 70
     6
  9
$SURFTAB2
 70
     6
  9
$SURFTYPE
 70
     6
  9
$SURFU
 70
     6
  9
$SURFV
 70
     6
  9
$UCSNAME
  2

  9
$UCSORG
 10
0.0
 20
0.0
 30
0.0
  9
$UCSXDIR
 10
1.0
 20
0.0
 30
0.0
  9
$UCSYDIR
 10
0.0
 20
1.0
 30
0.0
  9
$PUCSNAME
  2

  9
$PUCSORG
 10
0.0
 20
0.0
 30
0.0
  9
$PUCSXDIR
 10
1.0
 20
0.0
 30
0.0
  9
$PUCSYDIR
 10
0.0
 20
1.0
 30
0.0
  9
$USERI1
 70
     0
  9
$USERI2
 70
     0
  9
$USERI3
 70
     0
  9
$USERI4
 70
     0
  9
$USERI5
 70
     0
  9
$USERR1
 40
0.0
  9
$USERR2
 40
0.0
  9
$USERR3
 40
0.0
  9
$USERR4
 40
0.0
  9
$USERR5
 40
0.0
  9
$WORLDVIEW
 70
     1
  9
$SHADEDGE
 70
     3
  9
$SHADEDIF
 70
    70
  9
$TILEMODE
 70
     1
  9
$MAXACTVP
 70
    64
  9
$PINSBASE
 10
0.0
 20
0.0
 30
0.0
  9
$PLIMCHECK
 70
     0
  9
$PEXTMIN
 10
1.000000000000000E+20
 20
1.000000000000000E+20
 30
1.000000000000000E+20
  9
$PEXTMAX
 10
-1.000000000000000E+20
 20
-1.000000000000000E+20
 30
-1.000000000000000E+20
  9
$PLIMMIN
 10
0.0
 20
0.0
  9
$PLIMMAX
 10
12.0
 20
9.0
  9
$UNITMODE
 70
     0
  9
$VISRETAIN
 70
     1
  9
$PLINEGEN
 70
     0
  9
$PSLTSCALE
 70
     1
  9
$TREEDEPTH
 70
  3020
  9
$PICKSTYLE
 70
     1
  9
$CMLSTYLE
  2
STANDARD
  9
$CMLJUST
 70
     0
  9
$CMLSCALE
 40
1.0
  9
$PROXYGRAPHICS
 70
     1
  9
$MEASUREMENT
 70
     1
  0
ENDSEC
  0
SECTION
  2
CLASSES
  0
CLASS
  1
ACDBDICTIONARYWDFLT
  2
AcDbDictionaryWithDefault
  3
ObjectDBX Classes
 90
        0
280
     0
281
     0
  0
CLASS
  1
VISUALSTYLE
  2
AcDbVisualStyle
  3
ObjectDBX Classes
 90
     4095
280
     0
281
     0
  0
CLASS
  1
MATERIAL
  2
AcDbMaterial
  3
ObjectDBX Classes
 90
     1153
280
     0
281
     0
  0
CLASS
  1
SCALE
  2
AcDbScale
  3
ObjectDBX Classes
 90
     1153
280
     0
281
     0
  0
CLASS
  1
TABLESTYLE
  2
AcDbTableStyle
  3
ObjectDBX Classes
 90
     4095
280
     0
281
     0
  0
CLASS
  1
MLEADERSTYLE
  2
AcDbMLeaderStyle
  3
ACDB_MLEADERSTYLE_CLASS
 90
     4095
280
     0
281
     0
  0
CLASS
  1
SUN
  2
AcDbSun
  3
SCENEOE
 90
     1153
280
     0
281
     0
  0
CLASS
  1
DICTIONARYVAR
  2
AcDbDictionaryVar
  3
ObjectDBX Classes
 90
        0
280
     0
281
     0
  0
CLASS
  1
XRECORD
  2
AcDbXrecord
  3
ObjectDBX Classes
 90
        0
280
     0
281
     0
  0
CLASS
  1
LWPOLYLINE
  2
AcDbPolyline
  3
ObjectDBX Classes
 90
        0
280
     0
281
     1
  0
CLASS
  1
HATCH
  2
AcDbHatch
  3
ObjectDBX Classes
 90
        0
280
     0
281
     1
  0
CLASS
  1
ACDBPLACEHOLDER
  2
AcDbPlaceHolder
  3
ObjectDBX Classes
 90
        0
280
     0
281
     0
  0
CLASS
  1
LAYOUT
  2
AcDbLayout
  3
ObjectDBX Classes
 90
        0
280
     0
281
     0
  0
ENDSEC
  0
SECTION
  2
TABLES
  0
TABLE
  2
VPORT
  5
8
102
{ACAD_XDICTIONARY
360
361
102
}
330
0
100
AcDbSymbolTable
 70
     1
  0
VPORT
  5
29
330
8
100
AcDbSymbolTableRecord
100
AcDbViewportTableRecord
  2
*ACTIVE
 70
     0
 10
0.0
 20
0.0
 11
1.0
 21
1.0
 12
-49.50091595716954
 22
148.0240777928305
 13
0.0
 23
0.0
 14
0.5
 24
0.5
 15
0.5
 25
0.5
 16
0.0
 26
0.0
 36
1.0
 17
0.0
 27
0.0
 37
0.0
 40
296.048155585661
 41
1.6
 42
50.0
 43
0.0
 44
0.0
 50
0.0
 51
0.0
 71
     0
 72
   100
 73
     1
 74
     3
 75
     0
 76
     0
 77
     0
 78
     0
  0
ENDTAB
  0
TABLE
  2
LTYPE
  5
5
330
0
100
AcDbSymbolTable
 70
     1
  0
LTYPE
  5
14
330
5
100
AcDbSymbolTableRecord
100
AcDbLinetypeTableRecord
  2
BYBLOCK
 70
     0
  3

 72
    65
 73
     0
 40
0.0
  0
LTYPE
  5
15
330
5
100
AcDbSymbolTableRecord
100
AcDbLinetypeTableRecord
  2
BYLAYER
 70
     0
  3

 72
    65
 73
     0
 40
0.0
  0
LTYPE
  5
16
330
5
100
AcDbSymbolTableRecord
100
AcDbLinetypeTableRecord
  2
CONTINUOUS
 70
     0
  3
Solid line
 72
    65
 73
     0
 40
0.0
  0
ENDTAB
  0
TABLE
  2
LAYER
  5
2
330
0
100
AcDbSymbolTable
 70
     1
  0
LAYER
  5
10
330
2
100
AcDbSymbolTableRecord
100
AcDbLayerTableRecord
  2
0
 70
     0
 62
     7
  6
CONTINUOUS
  0
ENDTAB
  0
TABLE
  2
STYLE
  5
3
330
0
100
AcDbSymbolTable
 70
     2
  0
STYLE
  5
11
330
3
100
AcDbSymbolTableRecord
100
AcDbTextStyleTableRecord
  2
STANDARD
 70
     0
 40
0.0
 41
1.0
 50
0.0
 71
     0
 42
0.2
  3
txt
  4

  0
STYLE
  5
6E
330
3
100
AcDbSymbolTableRecord
100
AcDbTextStyleTableRecord
  2
ＭＳ_ゴシック
 70
     0
 40
0.0
 41
1.0
 50
0.0
 71
     0
 42
0.2
  3
ＭＳ ゴシック.shx
  4

  0
ENDTAB
  0
TABLE
  2
VIEW
  5
6
330
0
100
AcDbSymbolTable
 70
     0
  0
ENDTAB
  0
TABLE
  2
UCS
  5
7
330
0
100
AcDbSymbolTable
 70
     0
  0
ENDTAB
  0
TABLE
  2
APPID
  5
9
330
0
100
AcDbSymbolTable
 70
     2
  0
APPID
  5
12
330
9
100
AcDbSymbolTableRecord
100
AcDbRegAppTableRecord
  2
ACAD
 70
     0
  0
APPID
  5
36B
330
9
100
AcDbSymbolTableRecord
100
AcDbRegAppTableRecord
  2
ACAD_MLEADERVER
 70
     0
  0
ENDTAB
  0
TABLE
  2
DIMSTYLE
  5
A
330
0
100
AcDbSymbolTable
 70
     1
  0
DIMSTYLE
105
27
330
A
100
AcDbSymbolTableRecord
100
AcDbDimStyleTableRecord
  2
STANDARD
 70
     0
  3

  4

  5

  6

  7

 40
1.0
 41
0.18
 42
0.0625
 43
0.38
 44
0.18
 45
0.0
 46
0.0
 47
0.0
 48
0.0
140
0.18
141
0.09
142
0.0
143
25.4
144
1.0
145
0.0
146
1.0
147
0.09
 71
     0
 72
     0
 73
     1
 74
     1
 75
     0
 76
     0
 77
     0
 78
     0
170
     0
171
     2
172
     0
173
     0
174
     0
175
     0
176
     0
177
     0
178
     0
270
     2
271
     4
272
     4
273
     2
274
     2
340
11
275
     0
280
     0
281
     0
282
     0
283
     1
284
     0
285
     0
286
     0
287
     3
288
     0
  0
ENDTAB
  0
TABLE
  2
BLOCK_RECORD
  5
1
330
0
100
AcDbSymbolTable
 70
     0
  0
BLOCK_RECORD
  5
1F
330
1
100
AcDbSymbolTableRecord
100
AcDbBlockTableRecord
  2
*MODEL_SPACE
  0
BLOCK_RECORD
  5
1B
330
1
100
AcDbSymbolTableRecord
100
AcDbBlockTableRecord
  2
*PAPER_SPACE
  0
ENDTAB
  0
ENDSEC
  0
SECTION
  2
BLOCKS
  0
BLOCK
  5
20
330
1F
100
AcDbEntity
  8
0
100
AcDbBlockBegin
  2
*MODEL_SPACE
 70
     0
 10
0.0
 20
0.0
 30
0.0
  3
*MODEL_SPACE
  1

  0
ENDBLK
  5
21
330
1F
100
AcDbEntity
  8
0
100
AcDbBlockEnd
  0
BLOCK
  5
1C
330
1B
100
AcDbEntity
 67
     1
  8
0
100
AcDbBlockBegin
  2
*PAPER_SPACE
 70
     0
 10
0.0
 20
0.0
 30
0.0
  3
*PAPER_SPACE
  1

  0
ENDBLK
  5
1D
330
1B
100
AcDbEntity
 67
     1
  8
0
100
AcDbBlockEnd
  0
ENDSEC
  0
SECTION
  2
ENTITIES
  0
LINE
  5
6F
330
1F
100
AcDbEntity
  8
0
  6
CONTINUOUS
 62
     7
100
AcDbLine
 10
-49.56562760851596
 20
265.4605398482534
 30
0.0
 11
-50.50000000000001
 21
266.0
 31
0.0
  0
LINE
  5
70
330
1F
100
AcDbEntity
  8
0
  6
CONTINUOUS
 62
     7
100
AcDbLine
 10
-51.2105398482533
 20
268.1843723914838
 30
0.0
 11
-51.74999999999999
 21
267.2500000000002
 31
0.0
  0
LINE
  5
71
330
1F
100
AcDbEntity
  8
0
  6
CONTINUOUS
 62
     7
100
AcDbLine
 10
-51.75000000000001
 20
267.2500000000002
 30
0.0
 11
-52.28946015174662
 21
268.1843723914838
 31
0.0
  0
LINE
  5
72
330
1F
100
AcDbEntity
  8
0
  6
CONTINUOUS
 62
     7
100
AcDbLine
 10
12.08073776573565
 20
221.9172065363963
 30
0.0
 11
12.08073776573565
 21
278.082793463604
 31
0.0
  0
ARC
  5
73
330
1F
100
AcDbEntity
  8
0
  6
CONTINUOUS
 62
   253
100
AcDbCircle
 10
-139.2999999999999
 20
264.5
 30
0.0
 40
3.803434191985644
100
AcDbArc
 50
270.0
 51
0.0000000000003411
  0
LINE
  5
74
330
1F
100
AcDbEntity
  8
0
  6
CONTINUOUS
 62
   253
100
AcDbLine
 10
35.55343419198586
 20
264.5
 30
0.0
 11
35.55343419198586
 21
267.5
 31
0.0
  0
LINE
  5
75
330
1F
100
AcDbEntity
  8
0
  6
CONTINUOUS
 62
     7
100
AcDbLine
 10
-22.08073776573555
 20
278.0827934636039
 30
0.0
 11
-22.08073776573555
 21
221.9172065363963
 31
0.0
  0
LINE
  5
76
330
1F
100
AcDbEntity
  8
0
  6
CONTINUOUS
 62
   253
100
AcDbLine
 10
23.35000000000009
 20
260.6965658080143
 30
0.0
 11
31.75000000000008
 21
260.6965658080143
 31
0.0
  0
LINE
  5
77
330
1F
100
AcDbEntity
  8
0
  6
CONTINUOUS
 62
   253
100
AcDbLine
 10
-139.2999999999998
 20
271.3034341919858
 30
0.0
 11
-147.7
 21
271.3034341919858
 31
0.0
  0
LINE
  5
78
330
1F
100
AcDbEntity
  8
0
  6
CONTINUOUS
 62
   253
100
AcDbLine
 10
-135.4965658080142
 20
264.5
 30
0.0
 11
-135.4965658080142
 21
267.5
 31
0.0
  0
ARC
  5
79
330
1F
100
AcDbEntity
  8
0
  6
CONTINUOUS
 62
   253
100
AcDbCircle
 10
-139.3
 20
233.9999999999998
 30
0.0
 40
3.8034341919857
100
AcDbArc
 50
270.0
 51
90.0
  0
LINE
  5
7A
330
1F
100
AcDbEntity
  8
0
  6
CONTINUOUS
 62
   253
100
AcDbLine
 10
-147.6999999999999
 20
260.6965658080143
 30
0.0
 11
-139.2999999999999
 21
260.6965658080143
 31
0.0
  0
ARC
  5
7B
330
1F
100
AcDbEntity
  8
0
  6
CONTINUOUS
 62
   253
100
AcDbCircle
 10
-147.7
 20
264.5
 30
0.0
 40
3.803434191985644
100
AcDbArc
 50
180.0
 51
270.0000000000017
  0
LINE
  5
7C
330
1F
100
AcDbEntity
  8
0
  6
CONTINUOUS
 62
     7
100
AcDbLine
 10
92.51260765266767
 20
221.9172065363963
 30
0.0
 11
92.51260758835369
 21
278.082788978621
 31
0.0
  0
ARC
  5
7D
330
1F
100
AcDbEntity
  8
0
  6
CONTINUOUS
 62
   253
100
AcDbCircle
 10
-51.74999999999996
 20
265.9999999999999
 30
0.0
 40
3.8034341919857
100
AcDbArc
 50
90.00000000000178
 51
270.0
  0
LINE
  5
7E
330
1F
100
AcDbEntity
  8
0
  6
CONTINUOUS
 62
   253
100
AcDbLine
 10
-65.26926223426432
 20
221.9172065363963
 30
0.0
 11
-65.33739234733228
 21
221.9172065363963
 31
0.0
  0
LINE
  5
7F
330
1F
100
AcDbEntity
  8
0
  6
CONTINUOUS
 62
   253
100
AcDbLine
 10
-65.26926230207857
 20
278.0827934635995
 30
0.0
 11
-65.33739241164646
 21
278.082788978621
 31
0.0
  0
LINE
  5
80
330
1F
100
AcDbEntity
  8
0
  6
CONTINUOUS
 62
   253
100
AcDbLine
 10
91.08279346360365
 20
279.5807377657358
 30
0.0
 11
91.08279346360365
 21
279.5126076526676
 31
0.0
  0
LINE
  5
81
330
1F
100
AcDbEntity
  8
0
  6
CONTINUOUS
 62
   253
100
AcDbLine
 10
-147.7
 20
230.1965658080144
 30
0.0
 11
-139.3
 21
230.1965658080144
 31
0.0
  0
LINE
  5
82
330
1F
100
AcDbEntity
  8
0
  6
CONTINUOUS
 62
   253
100
AcDbLine
 10
-66.76720653639617
 20
279.5807377657358
 30
0.0
 11
-66.76720653639617
 21
279.5126076526676
 31
0.0
  0
LINE
  5
83
330
1F
100
AcDbEntity
  8
0
  6
CONTINUOUS
 62
   253
100
AcDbLine
 10
58.91720653639604
 20
220.4192622342644
 30
0.0
 11
58.91720653639604
 21
220.4873923473323
 31
0.0
  0
LINE
  5
84
330
1F
100
AcDbEntity
  8
0
  6
CONTINUOUS
 62
     7
100
AcDbLine
 10
91.08279346360365
 20
279.5126076526676
 30
0.0
 11
58.91721102137931
 21
279.5126075883535
 31
0.0
  0
LINE
  5
85
330
1F
100
AcDbEntity
  8
0
  6
CONTINUOUS
 62
     7
100
AcDbLine
 10
-112.2626076526677
 20
278.0827934636039
 30
0.0
 11
-112.2626075883535
 21
221.9172110213786
 31
0.0
  0
LINE
  5
86
330
1F
100
AcDbEntity
  8
0
  6
CONTINUOUS
 62
   253
100
AcDbLine
 10
19.54656580801434
 20
267.5
 30
0.0
 11
19.54656580801434
 21
264.5
 31
0.0
  0
LINE
  5
87
330
1F
100
AcDbEntity
  8
0
  6
CONTINUOUS
 62
   253
100
AcDbLine
 10
-66.76720653640061
 20
220.4192623020788
 30
0.0
 11
-66.76721102137904
 21
220.4873924116466
 31
0.0
  0
LINE
  5
88
330
1F
100
AcDbEntity
  8
0
  6
CONTINUOUS
 62
   253
100
AcDbLine
 10
-43.34999999999994
 20
269.8034341919858
 30
0.0
 11
-51.75000000000006
 21
269.8034341919858
 31
0.0
  0
LINE
  5
89
330
1F
100
AcDbEntity
  8
0
  6
CONTINUOUS
 62
   253
100
AcDbLine
 10
-112.6755025479404
 20
278.4275582458085
 30
0.0
 11
-112.6755025479404
 21
221.5724417541914
 31
0.0
  0
LINE
  5
8A
330
1F
100
AcDbEntity
  8
0
  6
CONTINUOUS
 62
     7
100
AcDbLine
 10
-51.74999999999996
 20
264.7499999999999
 30
0.0
 11
-51.21053984825331
 21
263.8156276085159
 31
0.0
  0
ARC
  5
8B
330
1F
100
AcDbEntity
  8
0
  6
CONTINUOUS
 62
     7
100
AcDbCircle
 10
178.5511160892696
 20
293.5511160892697
 30
0.0
 40
1.501223440504657
210
0.0
220
0.0
230
-1.0
100
AcDbArc
 50
0.1250154938887436
 51
89.87498450610806
  0
LINE
  5
8C
330
1F
100
AcDbEntity
  8
0
  6
CONTINUOUS
 62
     7
100
AcDbLine
 10
-53.93437239148396
 20
266.5394601517466
 30
0.0
 11
-52.99999999999995
 21
266.0
 31
0.0
  0
ARC
  5
8D
330
1F
100
AcDbEntity
  8
0
  6
CONTINUOUS
 62
     7
100
AcDbCircle
 10
51.74999999999996
 20
265.9999999999999
 30
0.0
 40
2.25000000000003
210
0.0
220
0.0
230
-1.0
100
AcDbArc
 50
76.12762021316011
 51
103.8723797868391
  0
LINE
  5
8E
330
1F
100
AcDbEntity
  8
0
  6
CONTINUOUS
 62
     7
100
AcDbLine
 10
-50.50000000000004
 20
265.9999999999999
 30
0.0
 11
-49.56562760851603
 21
266.5394601517465
 31
0.0
  0
LINE
  5
8F
330
1F
100
AcDbEntity
  8
0
  6
CONTINUOUS
 62
     7
100
AcDbLine
 10
-43.8894601517466
 20
263.8156276085159
 30
0.0
 11
-43.34999999999996
 21
264.7499999999999
 31
0.0
  0
ARC
  5
90
330
1F
100
AcDbEntity
  8
0
  6
CONTINUOUS
 62
     7
100
AcDbCircle
 10
91.43416285603162
 20
221.5658371439684
 30
0.0
 40
1.491354316565663
100
AcDbArc
 50
269.7462591391828
 51
0.2537408608171745
  0
ARC
  5
91
330
1F
100
AcDbEntity
  8
0
  6
CONTINUOUS
 62
     7
100
AcDbCircle
 10
-111.1841628560316
 20
278.4341628560314
 30
0.0
 40
1.491354316565607
100
AcDbArc
 50
89.74625913918284
 51
180.2537408608172
  0
ARC
  5
92
330
1F
100
AcDbEntity
  8
0
  6
CONTINUOUS
 62
   253
100
AcDbCircle
 10
31.75000000000011
 20
264.5
 30
0.0
 40
3.803434191985589
100
AcDbArc
 50
270.0
 51
0.0000000000003411
  0
LINE
  5
93
330
1F
100
AcDbEntity
  8
0
  6
CONTINUOUS
 62
   253
100
AcDbLine
 10
92.92550254794051
 20
221.5724417541914
 30
0.0
 11
92.92550254794051
 21
278.4275582458085
 31
0.0
  0
ARC
  5
94
330
1F
100
AcDbEntity
  8
0
  6
CONTINUOUS
 62
     7
100
AcDbCircle
 10
10.93416285603166
 20
278.4341628560314
 30
0.0
 40
1.491354316565607
100
AcDbArc
 50
359.7462591391828
 51
90.25374086081717
  0
LINE
  5
95
330
1F
100
AcDbEntity
  8
0
  6
CONTINUOUS
 62
   253
100
AcDbLine
 10
10.92755824580871
 20
279.9255025479404
 30
0.0
 11
-20.9275582458085
 21
279.9255025479404
 31
0.0
  0
LINE
  5
96
330
1F
100
AcDbEntity
  8
0
  6
CONTINUOUS
 62
     7
100
AcDbLine
 10
-178.5543916541111
 20
293.9999999999999
 30
0.0
 11
-179.0
 21
293.5543916541109
 31
0.0
  0
LINE
  5
97
330
1F
100
AcDbEntity
  8
0
  6
CONTINUOUS
 62
     7
100
AcDbLine
 10
-44.59999999999997
 20
265.9999999999999
 30
0.0
 11
-45.53437239148398
 21
265.4605398482533
 31
0.0
  0
LINE
  5
98
330
1F
100
AcDbEntity
  8
0
  6
CONTINUOUS
 62
   253
100
AcDbLine
 10
12.42550254794061
 20
221.5724417541914
 30
0.0
 11
12.42550254794061
 21
278.4275582458085
 31
0.0
  0
LINE
  5
99
330
1F
100
AcDbEntity
  8
0
  6
CONTINUOUS
 62
     7
100
AcDbLine
 10
-42.81053984825333
 20
268.1843723914838
 30
0.0
 11
-43.35000000000003
 21
267.2500000000002
 31
0.0
  0
MTEXT
  5
9A
330
1F
100
AcDbEntity
  8
0
 62
     7
100
AcDbMText
 10
101.3599224709266
 20
87.02956733775167
 30
0.0
 40
6.0
 41
0.0
 71
     1
 72
     1
  1
{\fＭＳ ゴシック;POW-0934}
  0
LWPOLYLINE
  5
9B
330
1F
100
AcDbEntity
  8
0
  6
CONTINUOUS
 62
     7
100
AcDbPolyline
 90
        4
 70
     0
 43
0.0
 10
66.76720653086949
 20
278.598312528857
 10
66.4598066418513
 20
278.4961268570089
 10
66.27906212968388
 20
278.2429013260128
 10
66.25168747114282
 20
278.0827932875802
210
0.0
220
0.0
230
-1.0
  0
LWPOLYLINE
  5
9C
330
1F
100
AcDbEntity
  8
0
  6
CONTINUOUS
 62
     7
100
AcDbPolyline
 90
        4
 70
     0
 43
0.0
 10
-58.91720653086957
 20
221.401687471143
 10
-58.60980664184684
 20
221.5038731429948
 10
-58.42906212968485
 20
221.7570986739905
 10
-58.40168747114296
 20
221.9172067124281
210
0.0
220
0.0
230
-1.0
  0
LWPOLYLINE
  5
9D
330
1F
100
AcDbEntity
  8
0
  6
CONTINUOUS
 62
     7
100
AcDbPolyline
 90
        4
 70
     0
 43
0.0
 10
110.8327934691304
 20
221.401687471143
 10
111.1401933581765
 20
221.5038731430118
 10
111.3209378703275
 20
221.7570986740217
 10
111.3483125288572
 20
221.9172067124222
210
0.0
220
0.0
230
-1.0
  0
LWPOLYLINE
  5
9E
330
1F
100
AcDbEntity
  8
0
  6
CONTINUOUS
 62
     7
100
AcDbPolyline
 90
        4
 70
     0
 43
0.0
 10
-91.08279346913001
 20
278.598312528857
 10
-91.39019335814935
 20
278.4961268570042
 10
-91.57093787032183
 20
278.2429013259818
 10
-91.59831252885705
 20
278.0827932875405
210
0.0
220
0.0
230
-1.0
  0
LWPOLYLINE
  5
9F
330
1F
100
AcDbEntity
  8
0
  6
CONTINUOUS
 62
     7
100
AcDbPolyline
 90
        4
 70
     0
 43
0.0
 10
111.3483125288571
 20
278.0827934691321
 10
111.2461268569805
 20
278.3901933581876
 10
110.9929013259767
 20
278.5709378703245
 10
110.8327932875543
 20
278.598312528857
210
0.0
220
0.0
230
-1.0
  0
LWPOLYLINE
  5
A0
330
1F
100
AcDbEntity
  8
0
  6
CONTINUOUS
 62
     7
100
AcDbPolyline
 90
        4
 70
     0
 43
0.0
 10
-91.59831252885708
 20
221.9172065308679
 10
-91.49612685696894
 20
221.6098066417964
 10
-91.24290132595874
 20
221.4290621296706
 10
-91.08279328755314
 20
221.401687471143
210
0.0
220
0.0
230
-1.0
  0
LWPOLYLINE
  5
A1
330
1F
100
AcDbEntity
  8
0
  6
CONTINUOUS
 62
     7
100
AcDbPolyline
 90
        4
 70
     0
 43
0.0
 10
66.25168747114284
 20
221.9172065308692
 10
66.35387314300827
 20
221.6098066418312
 10
66.60709867402298
 20
221.4290621296766
 10
66.76720671244695
 20
221.401687471143
210
0.0
220
0.0
230
-1.0
  0
LWPOLYLINE
  5
A2
330
1F
100
AcDbEntity
  8
0
  6
CONTINUOUS
 62
     7
100
AcDbPolyline
 90
        4
 70
     0
 43
0.0
 10
-58.40168747114299
 20
278.0827934691279
 10
-58.50387314291478
 20
278.3901933580409
 10
-58.75709867389251
 20
278.5709378702821
 10
-58.91720671244516
 20
278.598312528857
210
0.0
220
0.0
230
-1.0
  0
LINE
  5
A3
330
1F
100
AcDbEntity
  8
0
  6
CONTINUOUS
 62
   253
100
AcDbLine
 10
-58.79999999999996
 20
250.8306825211354
 30
0.0
 11
-28.29999999999999
 21
250.8306825211354
 31
0.0
  0
LINE
  5
A4
330
1F
100
AcDbEntity
  8
0
  6
CONTINUOUS
 62
   253
100
AcDbLine
 10
-20.58279346360392
 20
220.4192622342644
 30
0.0
 11
-20.92755824580852
 21
220.0744974520595
 31
0.0
  0
LINE
  5
A5
330
1F
100
AcDbEntity
  8
0
  6
CONTINUOUS
 62
   253
100
AcDbLine
 10
92.58073776573555
 20
221.9172065363963
 30
0.0
 11
92.51260765266764
 21
221.9172065363963
 31
0.0
  0
LINE
  5
A6
330
1F
100
AcDbEntity
  8
0
  6
CONTINUOUS
 62
   253
100
AcDbLine
 10
-112.3307377657356
 20
278.0827934636039
 30
0.0
 11
-112.6755025479404
 21
278.4275582458085
 31
0.0
  0
LINE
  5
A7
330
1F
100
AcDbEntity
  8
0
  6
CONTINUOUS
 62
   253
100
AcDbLine
 10
58.91720653639604
 20
220.4192622342644
 30
0.0
 11
58.57244175419143
 21
220.0744974520595
 31
0.0
  0
LINE
  5
A8
330
1F
100
AcDbEntity
  8
0
  6
CONTINUOUS
 62
   253
100
AcDbLine
 10
57.41926223426447
 20
278.0827934636039
 30
0.0
 11
57.07449745205961
 21
278.4275582458085
 31
0.0
  0
LINE
  5
A9
330
1F
100
AcDbEntity
  8
0
  6
CONTINUOUS
 62
   253
100
AcDbLine
 10
-145.2500000000001
 20
250.8306825211354
 30
0.0
 11
-119.25
 21
250.8306825211354
 31
0.0
  0
ARC
  5
AA
330
1F
100
AcDbEntity
  8
0
  6
CONTINUOUS
 62
   253
100
AcDbCircle
 10
119.25
 20
250.0000000000002
 30
0.0
 40
0.8306825211353841
210
0.0
220
0.0
230
-1.0
100
AcDbArc
 50
90.0
 51
270.0000000000058
  0
ARC
  5
AB
330
1F
100
AcDbEntity
  8
0
  6
CONTINUOUS
 62
   253
100
AcDbCircle
 10
-23.35000000000009
 20
250.0000000000002
 30
0.0
 40
0.8306825211353841
210
0.0
220
0.0
230
-1.0
100
AcDbArc
 50
269.9999999999923
 51
90.00000000000006
  0
LINE
  5
AC
330
1F
100
AcDbEntity
  8
0
  6
CONTINUOUS
 62
     7
100
AcDbLine
 10
-180.9433400270947
 20
280.72347128594
 30
0.0
 11
-180.9433400270947
 21
279.27652871406
 31
0.0
  0
LINE
  5
AD
330
1F
100
AcDbEntity
  8
0
  6
CONTINUOUS
 62
   253
100
AcDbLine
 10
57.41926223426447
 20
278.0827934636039
 30
0.0
 11
57.48739234733238
 21
278.0827934636039
 31
0.0
  0
LINE
  5
AE
330
1F
100
AcDbEntity
  8
0
  6
CONTINUOUS
 62
     7
100
AcDbLine
 10
160.9433400270947
 20
219.2765287140602
 30
0.0
 11
160.9433400270947
 21
220.7234712859401
 31
0.0
  0
ARC
  5
AF
330
1F
100
AcDbEntity
  8
0
  6
CONTINUOUS
 62
   253
100
AcDbCircle
 10
-50.85000000000012
 20
250.0000000000002
 30
0.0
 40
0.8306825211353841
210
0.0
220
0.0
230
-1.0
100
AcDbArc
 50
90.00000000000766
 51
269.9999999999999
  0
ARC
  5
B0
330
1F
100
AcDbEntity
  8
0
  6
CONTINUOUS
 62
   253
100
AcDbCircle
 10
-99.25000000000011
 20
250.0000000000002
 30
0.0
 40
0.8306825211353841
210
0.0
220
0.0
230
-1.0
100
AcDbArc
 50
269.9999999999943
 51
90.00000000000011
  0
LINE
  5
B1
330
1F
100
AcDbEntity
  8
0
  6
CONTINUOUS
 62
   253
100
AcDbLine
 10
-65.26926223426432
 20
221.9172065363963
 30
0.0
 11
-64.92449745205951
 21
221.5724417541914
 31
0.0
  0
LINE
  5
B2
330
1F
100
AcDbEntity
  8
0
  6
CONTINUOUS
 62
     7
100
AcDbLine
 10
-180.9943759306486
 20
281.7231286109156
 30
0.0
 11
-180.9433400270947
 21
280.72347128594
 31
0.0
  0
LINE
  5
B3
330
1F
100
AcDbEntity
  8
0
  6
CONTINUOUS
 62
     7
100
AcDbLine
 10
141.7231286109155
 20
295.9943759306486
 30
0.0
 11
140.7234712859399
 21
295.9433400270947
 31
0.0
  0
LINE
  5
B4
330
1F
100
AcDbEntity
  8
0
  6
CONTINUOUS
 62
   253
100
AcDbLine
 10
92.92550254794051
 20
278.4275582458085
 30
0.0
 11
92.58073776573558
 21
278.0827934636039
 31
0.0
  0
LINE
  5
B5
330
1F
100
AcDbEntity
  8
0
  6
CONTINUOUS
 62
   253
100
AcDbLine
 10
-66.76720653639617
 20
279.5807377657358
 30
0.0
 11
-66.4224417541914
 21
279.9255025479404
 31
0.0
  0
LWPOLYLINE
  5
B6
330
1F
100
AcDbEntity
  8
0
  6
CONTINUOUS
 62
     7
100
AcDbPolyline
 90
        5
 70
     0
 43
0.0
 10
22.08073611795552
 20
278.082793462286
 42
0.0978717801867279
 10
21.96714469447725
 20
278.6551351265117
 42
0.0989091949166061
 10
21.64224861189129
 20
279.1422486118913
 42
0.0989091949166158
 10
21.1551351265114
 20
279.4671446944772
 42
0.0978717801867167
 10
20.58279346228598
 20
279.5807361179555
210
0.0
220
0.0
230
-1.0
  0
LWPOLYLINE
  5
B7
330
1F
100
AcDbEntity
  8
0
  6
CONTINUOUS
 62
     7
100
AcDbPolyline
 90
        5
 70
     0
 43
0.0
 10
-12.0807361179554
 20
221.9172065377142
 42
0.0978717801867183
 10
-11.9671446944774
 20
221.3448648734885
 42
0.0989091949165855
 10
-11.64224861189123
 20
220.8577513881086
 42
0.0989091949166287
 10
-11.15513512651156
 20
220.5328553055227
 42
0.0978717801867192
 10
-10.58279346228585
 20
220.4192638820448
210
0.0
220
0.0
230
-1.0
  0
LINE
  5
B8
330
1F
100
AcDbEntity
  8
0
  6
CONTINUOUS
 62
   253
100
AcDbLine
 10
23.35000000000009
 20
250.8306825211354
 30
0.0
 11
50.85000000000014
 21
250.8306825211354
 31
0.0
  0
LINE
  5
B9
330
1F
100
AcDbEntity
  8
0
  6
CONTINUOUS
 62
     7
100
AcDbLine
 10
159.5502112835288
 20
296.048155585661
 30
0.0
 11
141.7499999999999
 21
296.048155585661
 31
0.0
  0
LINE
  5
BA
330
1F
100
AcDbEntity
  8
0
  6
CONTINUOUS
 62
   253
100
AcDbLine
 10
12.08073776573565
 20
221.9172065363963
 30
0.0
 11
12.42550254794059
 21
221.5724417541914
 31
0.0
  0
ARC
  5
BB
330
1F
100
AcDbEntity
  8
0
  6
CONTINUOUS
 62
   253
100
AcDbCircle
 10
58.79999999999996
 20
250.0000000000002
 30
0.0
 40
0.8306825211353841
210
0.0
220
0.0
230
-1.0
100
AcDbArc
 50
269.9999999999966
 51
90.00000000000011
  0
LINE
  5
BC
330
1F
100
AcDbEntity
  8
0
  6
CONTINUOUS
 62
     7
100
AcDbLine
 10
-181.0481555856608
 20
281.75
 30
0.0
 11
-180.9943759306485
 21
281.7231286109155
 31
0.0
  0
ARC
  5
BD
330
1F
100
AcDbEntity
  8
0
  6
CONTINUOUS
 62
   253
100
AcDbCircle
 10
-125.2499999999999
 20
250.0000000000002
 30
0.0
 40
0.8306825211353841
210
0.0
220
0.0
230
-1.0
100
AcDbArc
 50
90.00000000000958
 51
270.0
  0
LWPOLYLINE
  5
BE
330
1F
100
AcDbEntity
  8
0
  6
CONTINUOUS
 62
     7
100
AcDbPolyline
 90
        5
 70
     0
 43
0.0
 10
20.58279346228603
 20
220.4192638820447
 42
0.0978717801867193
 10
21.1551351265114
 20
220.5328553055227
 42
0.0989091949166158
 10
21.64224861189129
 20
220.8577513881086
 42
0.0989091949166048
 10
21.96714469447725
 20
221.3448648734885
 42
0.0978717801867426
 10
22.08073611795555
 20
221.9172065377139
210
0.0
220
0.0
230
-1.0
  0
LINE
  5
BF
330
1F
100
AcDbEntity
  8
0
  6
CONTINUOUS
 62
     7
100
AcDbLine
 10
160.9943759306486
 20
221.7231286109156
 30
0.0
 11
161.048155585661
 21
221.75
 31
0.0
  0
LINE
  5
C0
330
1F
100
AcDbEntity
  8
0
  6
CONTINUOUS
 62
   253
100
AcDbLine
 10
-22.08073776573555
 20
278.0827934636039
 30
0.0
 11
-22.42550254794044
 21
278.4275582458085
 31
0.0
  0
LINE
  5
C1
330
1F
100
AcDbEntity
  8
0
  6
CONTINUOUS
 62
   253
100
AcDbLine
 10
-66.42244175419137
 20
220.0744974520595
 30
0.0
 11
-66.76720653639619
 21
220.4192622342644
 31
0.0
  0
LINE
  5
C2
330
1F
100
AcDbEntity
  8
0
  6
CONTINUOUS
 62
   253
100
AcDbLine
 10
57.41926230207866
 20
221.9172065364005
 30
0.0
 11
57.48739241164646
 21
221.9172110213786
 31
0.0
  0
LINE
  5
C3
330
1F
100
AcDbEntity
  8
0
  6
CONTINUOUS
 62
   253
100
AcDbLine
 10
50.85000000000012
 20
249.1693174788647
 30
0.0
 11
23.35000000000007
 21
249.1693174788647
 31
0.0
  0
LINE
  5
C4
330
1F
100
AcDbEntity
  8
0
  6
CONTINUOUS
 62
   253
100
AcDbLine
 10
125.2499999999999
 20
249.1693174788647
 30
0.0
 11
99.25000000000014
 21
249.1693174788647
 31
0.0
  0
LINE
  5
C5
330
1F
100
AcDbEntity
  8
0
  6
CONTINUOUS
 62
   253
100
AcDbLine
 10
10.92755824580871
 20
220.0744974520595
 30
0.0
 11
10.58279346360377
 21
220.4192622342644
 31
0.0
  0
LINE
  5
C6
330
1F
100
AcDbEntity
  8
0
  6
CONTINUOUS
 62
   253
100
AcDbLine
 10
-112.6755025479404
 20
221.5724417541914
 30
0.0
 11
-112.3307377657356
 21
221.9172065363963
 31
0.0
  0
ARC
  5
C7
330
1F
100
AcDbEntity
  8
0
  6
CONTINUOUS
 62
   253
100
AcDbCircle
 10
28.29999999999999
 20
250.0000000000002
 30
0.0
 40
0.8306825211353841
210
0.0
220
0.0
230
-1.0
100
AcDbArc
 50
90.0000000000036
 51
269.9999999999999
  0
LINE
  5
C8
330
1F
100
AcDbEntity
  8
0
  6
CONTINUOUS
 62
   253
100
AcDbLine
 10
-22.4255025479404
 20
221.5724417541914
 30
0.0
 11
-22.08073776573551
 21
221.9172065363963
 31
0.0
  0
LINE
  5
C9
330
1F
100
AcDbEntity
  8
0
  6
CONTINUOUS
 62
   253
100
AcDbLine
 10
92.58073776573555
 20
221.9172065363963
 30
0.0
 11
92.9255025479405
 21
221.5724417541914
 31
0.0
  0
LINE
  5
CA
330
1F
100
AcDbEntity
  8
0
  6
CONTINUOUS
 62
     7
100
AcDbLine
 10
140.7234712859399
 20
295.9433400270947
 30
0.0
 11
139.2765287140601
 21
295.9433400270947
 31
0.0
  0
LINE
  5
CB
330
1F
100
AcDbEntity
  8
0
  6
CONTINUOUS
 62
     7
100
AcDbLine
 10
-181.0481555856608
 20
294.5502112835288
 30
0.0
 11
-181.0481555856608
 21
281.7499999999999
 31
0.0
  0
LINE
  5
CC
330
1F
100
AcDbEntity
  8
0
  6
CONTINUOUS
 62
     7
100
AcDbLine
 10
-159.27652871406
 20
204.0566599729052
 30
0.0
 11
-158.2768713890845
 21
204.0056240693516
 31
0.0
  0
LINE
  5
CD
330
1F
100
AcDbEntity
  8
0
  6
CONTINUOUS
 62
   253
100
AcDbLine
 10
-64.92449745205947
 20
278.4275582458085
 30
0.0
 11
-65.26926223426427
 21
278.082793463604
 31
0.0
  0
LWPOLYLINE
  5
CE
330
1F
100
AcDbEntity
  8
0
  6
CONTINUOUS
 62
     7
100
AcDbPolyline
 90
        5
 70
     0
 43
0.0
 10
-10.58279346228585
 20
279.5807361179555
 42
0.0978717801867157
 10
-11.15513512651156
 20
279.4671446944772
 42
0.0989091949166206
 10
-11.6422486118915
 20
279.1422486118913
 42
0.0989091949166034
 10
-11.9671446944774
 20
278.6551351265117
 42
0.0978717801867309
 10
-12.08073611795542
 20
278.082793462286
210
0.0
220
0.0
230
-1.0
  0
LINE
  5
CF
330
1F
100
AcDbEntity
  8
0
  6
CONTINUOUS
 62
   253
100
AcDbLine
 10
57.07449745205961
 20
221.5724417541914
 30
0.0
 11
57.41926223426447
 21
221.9172065363963
 31
0.0
  0
LINE
  5
D0
330
1F
100
AcDbEntity
  8
0
  6
CONTINUOUS
 62
   253
100
AcDbLine
 10
-111.1775582458085
 20
279.9255025479404
 30
0.0
 11
-110.8327934636037
 21
279.5807377657358
 31
0.0
  0
LINE
  5
D1
330
1F
100
AcDbEntity
  8
0
  6
CONTINUOUS
 62
   253
100
AcDbLine
 10
12.42550254794061
 20
278.4275582458085
 30
0.0
 11
12.08073776573568
 21
278.0827934636039
 31
0.0
  0
LINE
  5
D2
330
1F
100
AcDbEntity
  8
0
  6
CONTINUOUS
 62
   253
100
AcDbLine
 10
58.57244175419146
 20
279.9255025479404
 30
0.0
 11
58.91720653639607
 21
279.5807377657358
 31
0.0
  0
LINE
  5
D3
330
1F
100
AcDbEntity
  8
0
  6
CONTINUOUS
 62
   253
100
AcDbLine
 10
-110.8327934636038
 20
220.4192622342644
 30
0.0
 11
-111.1775582458086
 21
220.0744974520595
 31
0.0
  0
LINE
  5
D4
330
1F
100
AcDbEntity
  8
0
  6
CONTINUOUS
 62
     7
100
AcDbLine
 10
57.48739234733241
 20
278.0827934636039
 30
0.0
 11
57.48739241164646
 21
221.9172110213786
 31
0.0
  0
ARC
  5
D5
330
1F
100
AcDbEntity
  8
0
  6
CONTINUOUS
 62
   253
100
AcDbCircle
 10
145.2499999999999
 20
250.0000000000002
 30
0.0
 40
0.8306825211353841
210
0.0
220
0.0
230
-1.0
100
AcDbArc
 50
270.0
 51
89.9999999999904
  0
LINE
  5
D6
330
1F
100
AcDbEntity
  8
0
  6
CONTINUOUS
 62
   253
100
AcDbLine
 10
99.25000000000011
 20
250.8306825211354
 30
0.0
 11
125.2500000000002
 21
250.8306825211354
 31
0.0
  0
LINE
  5
D7
330
1F
100
AcDbEntity
  8
0
  6
CONTINUOUS
 62
   253
100
AcDbLine
 10
10.58279346360375
 20
279.5807377657358
 30
0.0
 11
10.92755824580868
 21
279.9255025479404
 31
0.0
  0
LINE
  5
D8
330
1F
100
AcDbEntity
  8
0
  6
CONTINUOUS
 62
   253
100
AcDbLine
 10
-20.9275582458085
 20
279.9255025479404
 30
0.0
 11
-20.58279346360389
 21
279.5807377657358
 31
0.0
  0
LINE
  5
D9
330
1F
100
AcDbEntity
  8
0
  6
CONTINUOUS
 62
   253
100
AcDbLine
 10
-28.29999999999999
 20
249.1693174788647
 30
0.0
 11
-58.79999999999992
 21
249.1693174788647
 31
0.0
  0
LINE
  5
DA
330
1F
100
AcDbEntity
  8
0
  6
CONTINUOUS
 62
   253
100
AcDbLine
 10
91.08279346360365
 20
279.5807377657358
 30
0.0
 11
91.4275582458085
 21
279.9255025479404
 31
0.0
  0
LINE
  5
DB
330
1F
100
AcDbEntity
  8
0
  6
CONTINUOUS
 62
     7
100
AcDbLine
 10
160.9433400270947
 20
220.72347128594
 30
0.0
 11
160.9943759306486
 21
221.7231286109156
 31
0.0
  0
LWPOLYLINE
  5
DC
330
1F
100
AcDbEntity
  8
0
  6
CONTINUOUS
 62
     7
100
AcDbPolyline
 90
        5
 70
     0
 43
0.0
 10
179.5502112822111
 20
203.9518460621195
 42
0.0978717801866331
 10
180.1225529464367
 20
204.0654374855975
 42
0.0989091949165904
 10
180.6096664318165
 20
204.3903335681837
 42
0.0989091949166285
 10
180.9345625144024
 20
204.8774470535633
 42
0.0978717801866976
 10
181.0481539378806
 20
205.449788717789
210
0.0
220
0.0
230
-1.0
  0
LINE
  5
DD
330
1F
100
AcDbEntity
  8
0
  6
CONTINUOUS
 62
     7
100
AcDbLine
 10
160.9943759306486
 20
218.2768713890846
 30
0.0
 11
160.9433400270947
 21
219.2765287140602
 31
0.0
  0
LINE
  5
DE
330
1F
100
AcDbEntity
  8
0
  6
CONTINUOUS
 62
   253
100
AcDbLine
 10
-179.550211283529
 20
296.048155585661
 30
0.0
 11
-178.5543916541111
 21
295.0523359562429
 31
0.0
  0
ARC
  5
DF
330
1F
100
AcDbEntity
  8
0
  6
CONTINUOUS
 62
     7
100
AcDbCircle
 10
-111.1841628560316
 20
221.5658371439684
 30
0.0
 40
1.491354316565552
100
AcDbArc
 50
179.7462591391828
 51
270.2537408608156
  0
LINE
  5
E0
330
1F
100
AcDbEntity
  8
0
  6
CONTINUOUS
 62
   253
100
AcDbLine
 10
57.07449745205961
 20
278.4275582458085
 30
0.0
 11
57.07449745205961
 21
221.5724417541914
 31
0.0
  0
ARC
  5
E1
330
1F
100
AcDbEntity
  8
0
  6
CONTINUOUS
 62
     7
100
AcDbCircle
 10
-66.41583714396832
 20
278.4341628560314
 30
0.0
 40
1.491354316565607
100
AcDbArc
 50
359.7462591391828
 51
90.25374086081717
  0
LINE
  5
E2
330
1F
100
AcDbEntity
  8
0
  6
CONTINUOUS
 62
     7
100
AcDbLine
 10
-158.2768713890845
 20
204.0056240693516
 30
0.0
 11
-158.25
 21
203.9518444143392
 31
0.0
  0
LINE
  5
E3
330
1F
100
AcDbEntity
  8
0
  6
CONTINUOUS
 62
     7
100
AcDbLine
 10
-161.7499999999999
 20
203.9518444143391
 30
0.0
 11
-161.7231286109155
 21
204.0056240693515
 31
0.0
  0
LINE
  5
E4
330
1F
100
AcDbEntity
  8
0
  6
CONTINUOUS
 62
     7
100
AcDbLine
 10
-180.9943759306485
 20
278.2768713890842
 30
0.0
 11
-181.0481555856608
 21
278.2499999999999
 31
0.0
  0
LINE
  5
E5
330
1F
100
AcDbEntity
  8
0
  6
CONTINUOUS
 62
     7
100
AcDbLine
 10
138.2768713890844
 20
295.9943759306486
 30
0.0
 11
138.2500000000001
 21
296.048155585661
 31
0.0
  0
LINE
  5
E6
330
1F
100
AcDbEntity
  8
0
  6
CONTINUOUS
 62
   253
100
AcDbLine
 10
-178.5543916541111
 20
204.947664043757
 30
0.0
 11
-179.550211283529
 21
203.9518444143391
 31
0.0
  0
LINE
  5
E7
330
1F
100
AcDbEntity
  8
0
  6
CONTINUOUS
 62
   253
100
AcDbLine
 10
-20.9275582458085
 20
220.0744974520595
 30
0.0
 11
10.92755824580871
 21
220.0744974520595
 31
0.0
  0
CIRCLE
  5
E8
330
1F
100
AcDbEntity
  8
0
  6
CONTINUOUS
 62
   253
100
AcDbCircle
 10
136.0000000000001
 20
277.4999999999999
 30
0.0
 40
4.487249772973101
  0
LINE
  5
E9
330
1F
100
AcDbEntity
  8
0
  6
CONTINUOUS
 62
   253
100
AcDbLine
 10
-22.4255025479404
 20
278.4275582458085
 30
0.0
 11
-22.4255025479404
 21
221.5724417541914
 31
0.0
  0
LINE
  5
EA
330
1F
100
AcDbEntity
  8
0
  6
CONTINUOUS
 62
   253
100
AcDbLine
 10
-119.2500000000001
 20
249.1693174788647
 30
0.0
 11
-145.25
 21
249.1693174788647
 31
0.0
  0
LINE
  5
EB
330
1F
100
AcDbEntity
  8
0
  6
CONTINUOUS
 62
   253
100
AcDbLine
 10
-180.052335956243
 20
293.5543916541109
 30
0.0
 11
-181.0481555856608
 21
294.5502112835288
 31
0.0
  0
LINE
  5
EC
330
1F
100
AcDbEntity
  8
0
  6
CONTINUOUS
 62
     7
100
AcDbLine
 10
-161.7231286109155
 20
204.0056240693516
 30
0.0
 11
-160.7234712859399
 21
204.0566599729052
 31
0.0
  0
ARC
  5
ED
330
1F
100
AcDbEntity
  8
0
  6
CONTINUOUS
 62
     7
100
AcDbCircle
 10
-66.41583714396832
 20
221.5658371439684
 30
0.0
 40
1.491354316565663
100
AcDbArc
 50
269.7462591391828
 51
0.2537408608171745
  0
LINE
  5
EE
330
1F
100
AcDbEntity
  8
0
  6
CONTINUOUS
 62
     7
100
AcDbLine
 10
139.2765287140601
 20
295.9433400270947
 30
0.0
 11
138.2768713890845
 21
295.9943759306486
 31
0.0
  0
LINE
  5
EF
330
1F
100
AcDbEntity
  8
0
  6
CONTINUOUS
 62
     7
100
AcDbLine
 10
-158.25
 20
203.9518444143391
 30
0.0
 11
159.5502112835288
 21
203.9518444143391
 31
0.0
  0
LINE
  5
F0
330
1F
100
AcDbEntity
  8
0
  6
CONTINUOUS
 62
     7
100
AcDbLine
 10
-179.550211283529
 20
203.9518444143391
 30
0.0
 11
-161.7499999999999
 21
203.9518444143391
 31
0.0
  0
LINE
  5
F1
330
1F
100
AcDbEntity
  8
0
  6
CONTINUOUS
 62
     7
100
AcDbLine
 10
138.2500000000001
 20
296.048155585661
 30
0.0
 11
-179.5502112835289
 21
296.048155585661
 31
0.0
  0
LINE
  5
F2
330
1F
100
AcDbEntity
  8
0
  6
CONTINUOUS
 62
     7
100
AcDbLine
 10
161.0481555856609
 20
221.7500000000001
 30
0.0
 11
161.0481555856609
 21
294.5502112835289
 31
0.0
  0
LINE
  5
F3
330
1F
100
AcDbEntity
  8
0
  6
CONTINUOUS
 62
     7
100
AcDbLine
 10
141.7499999999999
 20
296.048155585661
 30
0.0
 11
141.7231286109155
 21
295.9943759306486
 31
0.0
  0
LINE
  5
F4
330
1F
100
AcDbEntity
  8
0
  6
CONTINUOUS
 62
     7
100
AcDbLine
 10
161.0481555856609
 20
218.2499999999998
 30
0.0
 11
160.9943759306485
 21
218.2768713890846
 31
0.0
  0
LINE
  5
F5
330
1F
100
AcDbEntity
  8
0
  6
CONTINUOUS
 62
     7
100
AcDbLine
 10
161.0481555856609
 20
205.4497887164712
 30
0.0
 11
161.0481555856609
 21
218.2499999999999
 31
0.0
  0
LWPOLYLINE
  5
F6
330
1F
100
AcDbEntity
  8
0
  6
CONTINUOUS
 62
     7
100
AcDbPolyline
 90
        5
 70
     0
 43
0.0
 10
181.0481539378806
 20
294.5502112822109
 42
0.0978717801867243
 10
180.9345625144024
 20
295.1225529464366
 42
0.098909194916683
 10
180.6096664318165
 20
295.6096664318164
 42
0.0989091949165911
 10
180.1225529464367
 20
295.9345625144024
 42
0.0978717801866386
 10
179.5502112822111
 20
296.0481539378804
210
0.0
220
0.0
230
-1.0
  0
LINE
  5
F7
330
1F
100
AcDbEntity
  8
0
  6
CONTINUOUS
 62
     7
100
AcDbLine
 10
-181.0481555856608
 20
278.2499999999999
 30
0.0
 11
-181.0481555856608
 21
205.4497887164711
 31
0.0
  0
LINE
  5
F8
330
1F
100
AcDbEntity
  8
0
  6
CONTINUOUS
 62
     7
100
AcDbLine
 10
-180.9433400270947
 20
279.27652871406
 30
0.0
 11
-180.9943759306486
 21
278.2768713890842
 31
0.0
  0
ARC
  5
F9
330
1F
100
AcDbEntity
  8
0
  6
CONTINUOUS
 62
     7
100
AcDbCircle
 10
-20.9341628560315
 20
278.4341628560314
 30
0.0
 40
1.491354316565607
100
AcDbArc
 50
89.74625913918284
 51
180.2537408608172
  0
LINE
  5
FA
330
1F
100
AcDbEntity
  8
0
  6
CONTINUOUS
 62
   253
100
AcDbLine
 10
160.0523359562428
 20
206.4456083458889
 30
0.0
 11
161.048155585661
 21
205.4497887164711
 31
0.0
  0
LINE
  5
FB
330
1F
100
AcDbEntity
  8
0
  6
CONTINUOUS
 62
   253
100
AcDbLine
 10
159.5502112835291
 20
203.9518444143391
 30
0.0
 11
158.5543916541112
 21
204.947664043757
 31
0.0
  0
LINE
  5
FC
330
1F
100
AcDbEntity
  8
0
  6
CONTINUOUS
 62
   253
100
AcDbLine
 10
-111.1775582458085
 20
220.0744974520595
 30
0.0
 11
-66.42244175419138
 21
220.0744974520595
 31
0.0
  0
LINE
  5
FD
330
1F
100
AcDbEntity
  8
0
  6
CONTINUOUS
 62
   253
100
AcDbLine
 10
-64.92449745205947
 20
221.5724417541914
 30
0.0
 11
-64.92449745205947
 21
278.4275582458085
 31
0.0
  0
LWPOLYLINE
  5
FE
330
1F
100
AcDbEntity
  8
0
  6
CONTINUOUS
 62
     7
100
AcDbPolyline
 90
        5
 70
     0
 43
0.0
 10
-159.5502112822112
 20
296.0481539378804
 42
0.0978717801866677
 10
-160.1225529464369
 20
295.9345625144024
 42
0.0989091949165455
 10
-160.6096664318165
 20
295.6096664318164
 42
0.0989091949166294
 10
-160.9345625144024
 20
295.1225529464366
 42
0.097871780186733
 10
-161.0481539378807
 20
294.5502112822112
210
0.0
220
0.0
230
-1.0
  0
ARC
  5
FF
330
1F
100
AcDbEntity
  8
0
  6
CONTINUOUS
 62
     7
100
AcDbCircle
 10
-20.9341628560315
 20
221.5658371439684
 30
0.0
 40
1.491354316565552
100
AcDbArc
 50
179.7462591391828
 51
270.2537408608172
  0
ARC
  5
100
330
1F
100
AcDbEntity
  8
0
  6
CONTINUOUS
 62
     7
100
AcDbCircle
 10
58.56583714396852
 20
221.5658371439684
 30
0.0
 40
1.491354316565663
100
AcDbArc
 50
179.7462591391828
 51
270.253740860814
  0
LINE
  5
101
330
1F
100
AcDbEntity
  8
0
  6
CONTINUOUS
 62
   253
100
AcDbLine
 10
161.0481555856609
 20
294.5502112835291
 30
0.0
 11
160.0523359562428
 21
293.554391654111
 31
0.0
  0
LINE
  5
102
330
1F
100
AcDbEntity
  8
0
  6
CONTINUOUS
 62
     7
100
AcDbLine
 10
-160.7234712859399
 20
204.0566599729052
 30
0.0
 11
-159.27652871406
 21
204.0566599729052
 31
0.0
  0
ARC
  5
103
330
1F
100
AcDbEntity
  8
0
  6
CONTINUOUS
 62
     7
100
AcDbCircle
 10
91.43416285603162
 20
278.4341628560314
 30
0.0
 40
1.491354316565663
100
AcDbArc
 50
359.7462591391828
 51
90.25374086081717
  0
LINE
  5
104
330
1F
100
AcDbEntity
  8
0
  6
CONTINUOUS
 62
   253
100
AcDbLine
 10
-66.42244175419137
 20
279.9255025479404
 30
0.0
 11
-111.1775582458085
 21
279.9255025479404
 31
0.0
  0
LINE
  5
105
330
1F
100
AcDbEntity
  8
0
  6
CONTINUOUS
 62
   253
100
AcDbLine
 10
158.5543916541112
 20
295.0523359562429
 30
0.0
 11
159.5502112835291
 21
296.048155585661
 31
0.0
  0
LWPOLYLINE
  5
106
330
1F
100
AcDbEntity
  8
0
  6
CONTINUOUS
 62
     7
100
AcDbPolyline
 90
        5
 70
     0
 43
0.0
 10
-161.0481539378804
 20
205.449788717789
 42
0.0978717801866605
 10
-160.9345625144024
 20
204.8774470535633
 42
0.0989091949165729
 10
-160.6096664318165
 20
204.3903335681837
 42
0.098909194916573
 10
-160.1225529464366
 20
204.0654374855975
 42
0.0978717801866677
 10
-159.5502112822109
 20
203.9518460621195
210
0.0
220
0.0
230
-1.0
  0
LINE
  5
107
330
1F
100
AcDbEntity
  8
0
  6
CONTINUOUS
 62
   253
100
AcDbLine
 10
-181.0481555856608
 20
205.4497887164712
 30
0.0
 11
-180.0523359562429
 21
206.445608345889
 31
0.0
  0
LINE
  5
108
330
1F
100
AcDbEntity
  8
0
  6
CONTINUOUS
 62
     7
100
AcDbLine
 10
30.49999999999997
 20
267.5
 30
0.0
 11
29.56562760851596
 21
268.0394601517466
 31
0.0
  0
LINE
  5
109
330
1F
100
AcDbEntity
  8
0
  6
CONTINUOUS
 62
     7
100
AcDbLine
 10
133.815627608516
 20
276.9605398482533
 30
0.0
 11
134.75
 21
277.4999999999998
 31
0.0
  0
LINE
  5
10A
330
1F
100
AcDbEntity
  8
0
  6
CONTINUOUS
 62
     7
100
AcDbLine
 10
-147.1605398482534
 20
269.6843723914839
 30
0.0
 11
-147.7
 21
268.7500000000002
 31
0.0
  0
LINE
  5
10B
330
1F
100
AcDbEntity
  8
0
  6
CONTINUOUS
 62
     7
100
AcDbLine
 10
24.60000000000023
 20
264.5
 30
0.0
 11
25.5343723914842
 21
263.9605398482534
 31
0.0
  0
LINE
  5
10C
330
1F
100
AcDbEntity
  8
0
  6
CONTINUOUS
 62
     7
100
AcDbLine
 10
-156.0
 20
278.75
 30
0.0
 11
-156.5394601517466
 21
279.684372391484
 31
0.0
  0
LINE
  5
10D
330
1F
100
AcDbEntity
  8
0
  6
CONTINUOUS
 62
     7
100
AcDbLine
 10
-138.0499999999999
 20
267.5
 30
0.0
 11
-137.115627608516
 21
268.0394601517466
 31
0.0
  0
LINE
  5
10E
330
1F
100
AcDbEntity
  8
0
  6
CONTINUOUS
 62
     7
100
AcDbLine
 10
-140.55
 20
233.9999999999998
 30
0.0
 11
-141.484372391484
 21
233.4605398482533
 31
0.0
  0
LINE
  5
10F
330
1F
100
AcDbEntity
  8
0
  6
CONTINUOUS
 62
     7
100
AcDbLine
 10
-139.3
 20
263.2499999999999
 30
0.0
 11
-139.8394601517467
 21
262.3156276085159
 31
0.0
  0
LINE
  5
110
330
1F
100
AcDbEntity
  8
0
  6
CONTINUOUS
 62
     7
100
AcDbLine
 10
136.5394601517467
 20
224.6843723914838
 30
0.0
 11
136.0000000000001
 21
223.7500000000002
 31
0.0
  0
LINE
  5
111
330
1F
100
AcDbEntity
  8
0
  6
CONTINUOUS
 62
     7
100
AcDbLine
 10
30.49999999999997
 20
264.5
 30
0.0
 11
29.56562760851596
 21
263.9605398482534
 31
0.0
  0
LINE
  5
112
330
1F
100
AcDbEntity
  8
0
  6
CONTINUOUS
 62
     7
100
AcDbLine
 10
23.35000000000009
 20
263.2499999999999
 30
0.0
 11
22.81053984825348
 21
262.3156276085159
 31
0.0
  0
LINE
  5
113
330
1F
100
AcDbEntity
  8
0
  6
CONTINUOUS
 62
     7
100
AcDbLine
 10
-153.815627608516
 20
276.9605398482533
 30
0.0
 11
-154.75
 21
277.4999999999998
 31
0.0
  0
LINE
  5
114
330
1F
100
AcDbEntity
  8
0
  6
CONTINUOUS
 62
     7
100
AcDbLine
 10
23.88946015174664
 20
262.3156276085163
 30
0.0
 11
23.35000000000008
 21
263.2499999999999
 31
0.0
  0
LINE
  5
115
330
1F
100
AcDbEntity
  8
0
  6
CONTINUOUS
 62
     7
100
AcDbLine
 10
-158.184372391484
 20
278.0394601517468
 30
0.0
 11
-157.2499999999999
 21
277.4999999999998
 31
0.0
  0
LINE
  5
116
330
1F
100
AcDbEntity
  8
0
  6
CONTINUOUS
 62
     7
100
AcDbLine
 10
136.0000000000001
 20
221.2499999999998
 30
0.0
 11
136.5394601517467
 21
220.3156276085162
 31
0.0
  0
LINE
  5
117
330
1F
100
AcDbEntity
  8
0
  6
CONTINUOUS
 62
     7
100
AcDbLine
 10
137.2499999999999
 20
222.5
 30
0.0
 11
138.1843723914839
 21
223.0394601517466
 31
0.0
  0
LINE
  5
118
330
1F
100
AcDbEntity
  8
0
  6
CONTINUOUS
 62
     7
100
AcDbLine
 10
23.88946015174664
 20
269.6843723914839
 30
0.0
 11
23.35000000000008
 21
268.7500000000002
 31
0.0
  0
LINE
  5
119
330
1F
100
AcDbEntity
  8
0
  6
CONTINUOUS
 62
     7
100
AcDbLine
 10
-147.1605398482534
 20
262.3156276085163
 30
0.0
 11
-147.7
 21
263.2499999999999
 31
0.0
  0
LINE
  5
11A
330
1F
100
AcDbEntity
  8
0
  6
CONTINUOUS
 62
     7
100
AcDbLine
 10
138.1843723914839
 20
221.9605398482533
 30
0.0
 11
137.2499999999998
 21
222.5
 31
0.0
  0
LINE
  5
11B
330
1F
100
AcDbEntity
  8
0
  6
CONTINUOUS
 62
     7
100
AcDbLine
 10
136.0000000000001
 20
251.2499999999999
 30
0.0
 11
136.5394601517467
 21
252.1843723914839
 31
0.0
  0
LINE
  5
11C
330
1F
100
AcDbEntity
  8
0
  6
CONTINUOUS
 62
     7
100
AcDbLine
 10
-147.7
 20
268.7500000000002
 30
0.0
 11
-148.2394601517467
 21
269.6843723914839
 31
0.0
  0
LINE
  5
11D
330
1F
100
AcDbEntity
  8
0
  6
CONTINUOUS
 62
     7
100
AcDbLine
 10
-146.45
 20
233.9999999999998
 30
0.0
 11
-145.515627608516
 21
234.5394601517469
 31
0.0
  0
LINE
  5
11E
330
1F
100
AcDbEntity
  8
0
  6
CONTINUOUS
 62
     7
100
AcDbLine
 10
-140.5500000000001
 20
264.5
 30
0.0
 11
-141.484372391484
 21
263.9605398482534
 31
0.0
  0
LINE
  5
11F
330
1F
100
AcDbEntity
  8
0
  6
CONTINUOUS
 62
     7
100
AcDbLine
 10
-153.8156276085159
 20
249.4605398482532
 30
0.0
 11
-154.75
 21
250.0000000000002
 31
0.0
  0
LINE
  5
120
330
1F
100
AcDbEntity
  8
0
  6
CONTINUOUS
 62
     7
100
AcDbLine
 10
-154.75
 20
222.5
 30
0.0
 11
-153.8156276085159
 21
221.9605398482533
 31
0.0
  0
LINE
  5
121
330
1F
100
AcDbEntity
  8
0
  6
CONTINUOUS
 62
     7
100
AcDbLine
 10
31.75000000000011
 20
263.2499999999999
 30
0.0
 11
31.21053984825321
 21
262.3156276085159
 31
0.0
  0
LINE
  5
122
330
1F
100
AcDbEntity
  8
0
  6
CONTINUOUS
 62
     7
100
AcDbLine
 10
135.4605398482532
 20
279.684372391484
 30
0.0
 11
136.0000000000001
 21
278.75
 31
0.0
  0
LINE
  5
123
330
1F
100
AcDbEntity
  8
0
  6
CONTINUOUS
 62
     7
100
AcDbLine
 10
136.0000000000001
 20
248.75
 30
0.0
 11
135.4605398482535
 21
247.815627608516
 31
0.0
  0
LINE
  5
124
330
1F
100
AcDbEntity
  8
0
  6
CONTINUOUS
 62
     7
100
AcDbLine
 10
135.4605398482532
 20
252.1843723914839
 30
0.0
 11
136.0000000000001
 21
251.2499999999999
 31
0.0
  0
LINE
  5
125
330
1F
100
AcDbEntity
  8
0
  6
CONTINUOUS
 62
     7
100
AcDbLine
 10
-158.184372391484
 20
221.9605398482533
 30
0.0
 11
-157.2499999999999
 21
222.5
 31
0.0
  0
LINE
  5
126
330
1F
100
AcDbEntity
  8
0
  6
CONTINUOUS
 62
     7
100
AcDbLine
 10
-147.7
 20
263.2499999999999
 30
0.0
 11
-148.2394601517466
 21
262.3156276085159
 31
0.0
  0
LINE
  5
127
330
1F
100
AcDbEntity
  8
0
  6
CONTINUOUS
 62
     7
100
AcDbLine
 10
-154.75
 20
277.4999999999999
 30
0.0
 11
-153.815627608516
 21
278.0394601517468
 31
0.0
  0
LINE
  5
128
330
1F
100
AcDbEntity
  8
0
  6
CONTINUOUS
 62
     7
100
AcDbLine
 10
-148.95
 20
267.5
 30
0.0
 11
-149.884372391484
 21
268.0394601517466
 31
0.0
  0
LINE
  5
129
330
1F
100
AcDbEntity
  8
0
  6
CONTINUOUS
 62
     7
100
AcDbLine
 10
135.4605398482532
 20
220.3156276085162
 30
0.0
 11
136.0000000000001
 21
221.2499999999998
 31
0.0
  0
LINE
  5
12A
330
1F
100
AcDbEntity
  8
0
  6
CONTINUOUS
 62
     7
100
AcDbLine
 10
-147.7
 20
235.25
 30
0.0
 11
-148.2394601517466
 21
236.184372391484
 31
0.0
  0
LINE
  5
12B
330
1F
100
AcDbEntity
  8
0
  6
CONTINUOUS
 62
     7
100
AcDbLine
 10
-147.1605398482533
 20
236.184372391484
 30
0.0
 11
-147.7
 21
235.25
 31
0.0
  0
LINE
  5
12C
330
1F
100
AcDbEntity
  8
0
  6
CONTINUOUS
 62
     7
100
AcDbLine
 10
-140.55
 20
267.5
 30
0.0
 11
-141.484372391484
 21
268.0394601517466
 31
0.0
  0
LINE
  5
12D
330
1F
100
AcDbEntity
  8
0
  6
CONTINUOUS
 62
     7
100
AcDbLine
 10
22.09999999999995
 20
264.5
 30
0.0
 11
21.16562760851594
 21
263.9605398482534
 31
0.0
  0
LINE
  5
12E
330
1F
100
AcDbEntity
  8
0
  6
CONTINUOUS
 62
     7
100
AcDbLine
 10
133.815627608516
 20
223.0394601517466
 30
0.0
 11
134.75
 21
222.5
 31
0.0
  0
LINE
  5
12F
330
1F
100
AcDbEntity
  8
0
  6
CONTINUOUS
 62
     7
100
AcDbLine
 10
-157.2499999999999
 20
222.5
 30
0.0
 11
-158.184372391484
 21
223.0394601517466
 31
0.0
  0
LINE
  5
130
330
1F
100
AcDbEntity
  8
0
  6
CONTINUOUS
 62
     7
100
AcDbLine
 10
33.00000000000019
 20
267.5
 30
0.0
 11
33.93437239148392
 21
268.0394601517466
 31
0.0
  0
LINE
  5
131
330
1F
100
AcDbEntity
  8
0
  6
CONTINUOUS
 62
     7
100
AcDbLine
 10
-148.95
 20
264.5
 30
0.0
 11
-149.8843723914839
 21
263.9605398482534
 31
0.0
  0
LINE
  5
132
330
1F
100
AcDbEntity
  8
0
  6
CONTINUOUS
 62
     7
100
AcDbLine
 10
-149.884372391484
 20
234.5394601517469
 30
0.0
 11
-148.95
 21
233.9999999999998
 31
0.0
  0
LINE
  5
133
330
1F
100
AcDbEntity
  8
0
  6
CONTINUOUS
 62
     7
100
AcDbLine
 10
-156.0
 20
223.7500000000002
 30
0.0
 11
-155.4605398482533
 21
224.6843723914838
 31
0.0
  0
LINE
  5
134
330
1F
100
AcDbEntity
  8
0
  6
CONTINUOUS
 62
     7
100
AcDbLine
 10
22.09999999999995
 20
267.5
 30
0.0
 11
21.16562760851594
 21
268.0394601517466
 31
0.0
  0
LINE
  5
135
330
1F
100
AcDbEntity
  8
0
  6
CONTINUOUS
 62
     7
100
AcDbLine
 10
-154.75
 20
250.0000000000002
 30
0.0
 11
-153.815627608516
 21
250.5394601517467
 31
0.0
  0
LINE
  5
136
330
1F
100
AcDbEntity
  8
0
  6
CONTINUOUS
 62
     7
100
AcDbLine
 10
-156.5394601517466
 20
224.6843723914841
 30
0.0
 11
-156.0
 21
223.7500000000002
 31
0.0
  0
LINE
  5
137
330
1F
100
AcDbEntity
  8
0
  6
CONTINUOUS
 62
     7
100
AcDbLine
 10
136.0000000000001
 20
278.75
 30
0.0
 11
136.5394601517467
 21
279.684372391484
 31
0.0
  0
LINE
  5
138
330
1F
100
AcDbEntity
  8
0
  6
CONTINUOUS
 62
     7
100
AcDbLine
 10
134.75
 20
222.5
 30
0.0
 11
133.815627608516
 21
221.9605398482533
 31
0.0
  0
LINE
  5
139
330
1F
100
AcDbEntity
  8
0
  6
CONTINUOUS
 62
     7
100
AcDbLine
 10
-148.95
 20
233.9999999999998
 30
0.0
 11
-149.884372391484
 21
233.4605398482533
 31
0.0
  0
LINE
  5
13A
330
1F
100
AcDbEntity
  8
0
  6
CONTINUOUS
 62
     7
100
AcDbLine
 10
136.5394601517467
 20
247.815627608516
 30
0.0
 11
136.0000000000001
 21
248.75
 31
0.0
  0
LINE
  5
13B
330
1F
100
AcDbEntity
  8
0
  6
CONTINUOUS
 62
     7
100
AcDbLine
 10
-155.4605398482533
 20
279.684372391484
 30
0.0
 11
-156.0
 21
278.75
 31
0.0
  0
LINE
  5
13C
330
1F
100
AcDbEntity
  8
0
  6
CONTINUOUS
 62
     7
100
AcDbLine
 10
-138.7605398482534
 20
269.6843723914839
 30
0.0
 11
-139.3
 21
268.7500000000002
 31
0.0
  0
LINE
  5
13D
330
1F
100
AcDbEntity
  8
0
  6
CONTINUOUS
 62
     7
100
AcDbLine
 10
-145.515627608516
 20
233.4605398482533
 30
0.0
 11
-146.45
 21
233.9999999999998
 31
0.0
  0
LINE
  5
13E
330
1F
100
AcDbEntity
  8
0
  6
CONTINUOUS
 62
     7
100
AcDbLine
 10
-138.05
 20
264.5
 30
0.0
 11
-137.115627608516
 21
263.9605398482534
 31
0.0
  0
LINE
  5
13F
330
1F
100
AcDbEntity
  8
0
  6
CONTINUOUS
 62
     7
100
AcDbLine
 10
134.75
 20
277.4999999999999
 30
0.0
 11
133.815627608516
 21
278.0394601517468
 31
0.0
  0
LINE
  5
140
330
1F
100
AcDbEntity
  8
0
  6
CONTINUOUS
 62
     7
100
AcDbLine
 10
-157.2499999999999
 20
277.4999999999999
 30
0.0
 11
-158.184372391484
 21
276.9605398482534
 31
0.0
  0
LINE
  5
141
330
1F
100
AcDbEntity
  8
0
  6
CONTINUOUS
 62
     7
100
AcDbLine
 10
-146.4499999999999
 20
264.5
 30
0.0
 11
-145.515627608516
 21
263.9605398482534
 31
0.0
  0
LINE
  5
142
330
1F
100
AcDbEntity
  8
0
  6
CONTINUOUS
 62
     7
100
AcDbLine
 10
33.00000000000019
 20
264.5
 30
0.0
 11
33.93437239148421
 21
263.9605398482534
 31
0.0
  0
LINE
  5
143
330
1F
100
AcDbEntity
  8
0
  6
CONTINUOUS
 62
     7
100
AcDbLine
 10
-139.3
 20
268.7500000000002
 30
0.0
 11
-139.8394601517467
 21
269.6843723914839
 31
0.0
  0
LINE
  5
144
330
1F
100
AcDbEntity
  8
0
  6
CONTINUOUS
 62
     7
100
AcDbLine
 10
-146.4499999999999
 20
267.5
 30
0.0
 11
-145.515627608516
 21
268.0394601517466
 31
0.0
  0
LINE
  5
145
330
1F
100
AcDbEntity
  8
0
  6
CONTINUOUS
 62
     7
100
AcDbLine
 10
-156.0
 20
251.2499999999999
 30
0.0
 11
-156.5394601517466
 21
252.1843723914839
 31
0.0
  0
LINE
  5
146
330
1F
100
AcDbEntity
  8
0
  6
CONTINUOUS
 62
     7
100
AcDbLine
 10
-138.7605398482534
 20
262.3156276085159
 30
0.0
 11
-139.3
 21
263.2499999999999
 31
0.0
  0
LINE
  5
147
330
1F
100
AcDbEntity
  8
0
  6
CONTINUOUS
 62
     7
100
AcDbLine
 10
23.35000000000009
 20
268.7500000000002
 30
0.0
 11
22.81053984825348
 21
269.6843723914839
 31
0.0
  0
CIRCLE
  5
148
330
1F
100
AcDbEntity
  8
0
  6
CONTINUOUS
 62
     7
100
AcDbCircle
 10
-4.999999999999893
 20
250.0000000000002
 30
0.0
 40
11.14999999999994
  0
LINE
  5
149
330
1F
100
AcDbEntity
  8
0
  6
CONTINUOUS
 62
     7
100
AcDbLine
 10
-138.7605398482533
 20
236.184372391484
 30
0.0
 11
-139.3
 21
235.25
 31
0.0
  0
LINE
  5
14A
330
1F
100
AcDbEntity
  8
0
  6
CONTINUOUS
 62
     7
100
AcDbLine
 10
-156.0
 20
276.2500000000002
 30
0.0
 11
-155.4605398482533
 21
275.315627608516
 31
0.0
  0
LINE
  5
14B
330
1F
100
AcDbEntity
  8
0
  6
CONTINUOUS
 62
     7
100
AcDbLine
 10
137.2499999999999
 20
277.4999999999999
 30
0.0
 11
138.1843723914839
 21
276.9605398482534
 31
0.0
  0
LINE
  5
14C
330
1F
100
AcDbEntity
  8
0
  6
CONTINUOUS
 62
     7
100
AcDbLine
 10
-147.7
 20
232.7500000000002
 30
0.0
 11
-147.1605398482534
 21
231.8156276085161
 31
0.0
  0
LINE
  5
14D
330
1F
100
AcDbEntity
  8
0
  6
CONTINUOUS
 62
     7
100
AcDbLine
 10
-157.2499999999999
 20
250.0000000000002
 30
0.0
 11
-158.184372391484
 21
249.4605398482531
 31
0.0
  0
LINE
  5
14E
330
1F
100
AcDbEntity
  8
0
  6
CONTINUOUS
 62
     7
100
AcDbLine
 10
-141.484372391484
 20
234.5394601517469
 30
0.0
 11
-140.55
 21
233.9999999999998
 31
0.0
  0
LINE
  5
14F
330
1F
100
AcDbEntity
  8
0
  6
CONTINUOUS
 62
     7
100
AcDbLine
 10
133.815627608516
 20
249.4605398482532
 30
0.0
 11
134.75
 21
250.0000000000002
 31
0.0
  0
LINE
  5
150
330
1F
100
AcDbEntity
  8
0
  6
CONTINUOUS
 62
     7
100
AcDbLine
 10
-138.05
 20
233.9999999999998
 30
0.0
 11
-137.115627608516
 21
234.5394601517469
 31
0.0
  0
LINE
  5
151
330
1F
100
AcDbEntity
  8
0
  6
CONTINUOUS
 62
     7
100
AcDbLine
 10
138.1843723914839
 20
250.5394601517467
 30
0.0
 11
137.2499999999998
 21
250.0000000000002
 31
0.0
  0
LINE
  5
152
330
1F
100
AcDbEntity
  8
0
  6
CONTINUOUS
 62
     7
100
AcDbLine
 10
-139.8394601517467
 20
231.8156276085161
 30
0.0
 11
-139.3
 21
232.7500000000001
 31
0.0
  0
LINE
  5
153
330
1F
100
AcDbEntity
  8
0
  6
CONTINUOUS
 62
     7
100
AcDbLine
 10
-155.4605398482533
 20
220.3156276085162
 30
0.0
 11
-156.0
 21
221.2499999999998
 31
0.0
  0
ARC
  5
154
330
1F
100
AcDbEntity
  8
0
  6
CONTINUOUS
 62
   253
100
AcDbCircle
 10
-58.79999999999996
 20
250.0000000000002
 30
0.0
 40
0.3308538586475063
100
AcDbArc
 50
90.0
 51
270.0000000000037
  0
LINE
  5
155
330
1F
100
AcDbEntity
  8
0
  6
CONTINUOUS
 62
     7
100
AcDbLine
 10
-156.5394601517466
 20
275.3156276085161
 30
0.0
 11
-156.0
 21
276.2500000000002
 31
0.0
  0
LINE
  5
156
330
1F
100
AcDbEntity
  8
0
  6
CONTINUOUS
 62
     7
100
AcDbLine
 10
136.0000000000001
 20
276.2500000000002
 30
0.0
 11
135.4605398482535
 21
275.315627608516
 31
0.0
  0
LINE
  5
157
330
1F
100
AcDbEntity
  8
0
  6
CONTINUOUS
 62
     7
100
AcDbLine
 10
136.5394601517467
 20
275.3156276085161
 30
0.0
 11
136.0000000000001
 21
276.2500000000002
 31
0.0
  0
LINE
  5
158
330
1F
100
AcDbEntity
  8
0
  6
CONTINUOUS
 62
     7
100
AcDbLine
 10
31.75000000000011
 20
268.7500000000002
 30
0.0
 11
31.21053984825321
 21
269.6843723914839
 31
0.0
  0
LINE
  5
159
330
1F
100
AcDbEntity
  8
0
  6
CONTINUOUS
 62
     7
100
AcDbLine
 10
137.2499999999999
 20
250.0000000000002
 30
0.0
 11
138.1843723914839
 21
249.4605398482531
 31
0.0
  0
LINE
  5
15A
330
1F
100
AcDbEntity
  8
0
  6
CONTINUOUS
 62
     7
100
AcDbLine
 10
-155.4605398482533
 20
252.1843723914839
 30
0.0
 11
-156.0
 21
251.2499999999999
 31
0.0
  0
LINE
  5
15B
330
1F
100
AcDbEntity
  8
0
  6
CONTINUOUS
 62
     7
100
AcDbLine
 10
-156.5394601517466
 20
247.815627608516
 30
0.0
 11
-156.0
 21
248.75
 31
0.0
  0
LINE
  5
15C
330
1F
100
AcDbEntity
  8
0
  6
CONTINUOUS
 62
     7
100
AcDbLine
 10
-139.3
 20
232.7500000000002
 30
0.0
 11
-138.7605398482534
 21
231.8156276085161
 31
0.0
  0
LINE
  5
15D
330
1F
100
AcDbEntity
  8
0
  6
CONTINUOUS
 62
     7
100
AcDbLine
 10
-139.3
 20
235.25
 30
0.0
 11
-139.8394601517466
 21
236.184372391484
 31
0.0
  0
LINE
  5
15E
330
1F
100
AcDbEntity
  8
0
  6
CONTINUOUS
 62
     7
100
AcDbLine
 10
134.75
 20
250.0000000000002
 30
0.0
 11
133.815627608516
 21
250.5394601517467
 31
0.0
  0
LINE
  5
15F
330
1F
100
AcDbEntity
  8
0
  6
CONTINUOUS
 62
     7
100
AcDbLine
 10
-156.0
 20
221.2499999999998
 30
0.0
 11
-156.5394601517466
 21
220.3156276085162
 31
0.0
  0
LINE
  5
160
330
1F
100
AcDbEntity
  8
0
  6
CONTINUOUS
 62
     7
100
AcDbLine
 10
138.1843723914839
 20
278.0394601517468
 30
0.0
 11
137.2499999999998
 21
277.4999999999998
 31
0.0
  0
LINE
  5
161
330
1F
100
AcDbEntity
  8
0
  6
CONTINUOUS
 62
     7
100
AcDbLine
 10
-158.184372391484
 20
250.5394601517467
 30
0.0
 11
-157.2499999999999
 21
250.0000000000002
 31
0.0
  0
LINE
  5
162
330
1F
100
AcDbEntity
  8
0
  6
CONTINUOUS
 62
     7
100
AcDbLine
 10
32.28946015174666
 20
269.6843723914839
 30
0.0
 11
31.7500000000001
 21
268.7500000000002
 31
0.0
  0
LINE
  5
163
330
1F
100
AcDbEntity
  8
0
  6
CONTINUOUS
 62
     7
100
AcDbLine
 10
-148.2394601517467
 20
231.8156276085161
 30
0.0
 11
-147.7
 21
232.7500000000001
 31
0.0
  0
LINE
  5
164
330
1F
100
AcDbEntity
  8
0
  6
CONTINUOUS
 62
     7
100
AcDbLine
 10
-156.0
 20
248.75
 30
0.0
 11
-155.4605398482533
 21
247.815627608516
 31
0.0
  0
LINE
  5
165
330
1F
100
AcDbEntity
  8
0
  6
CONTINUOUS
 62
   253
100
AcDbLine
 10
-58.79999999999996
 20
250.8306825211354
 30
0.0
 11
-58.79999999999996
 21
250.3308538586477
 31
0.0
  0
LINE
  5
166
330
1F
100
AcDbEntity
  8
0
  6
CONTINUOUS
 62
     7
100
AcDbLine
 10
-137.115627608516
 20
233.4605398482533
 30
0.0
 11
-138.0500000000001
 21
233.9999999999998
 31
0.0
  0
LINE
  5
167
330
1F
100
AcDbEntity
  8
0
  6
CONTINUOUS
 62
     7
100
AcDbLine
 10
-66.76720653639617
 20
279.5126076526676
 30
0.0
 11
-110.8327889786208
 21
279.5126075883535
 31
0.0
  0
LINE
  5
168
330
1F
100
AcDbEntity
  8
0
  6
CONTINUOUS
 62
   253
100
AcDbLine
 10
-112.3307376979214
 20
221.9172065364005
 30
0.0
 11
-112.2626075883535
 21
221.9172110213786
 31
0.0
  0
LINE
  5
169
330
1F
100
AcDbEntity
  8
0
  6
CONTINUOUS
 62
   253
100
AcDbLine
 10
92.58073769792146
 20
278.082793463599
 30
0.0
 11
92.51260758835366
 21
278.082788978621
 31
0.0
  0
ARC
  5
16A
330
1F
100
AcDbEntity
  8
0
  6
CONTINUOUS
 62
   253
100
AcDbCircle
 10
23.35000000000009
 20
267.5
 30
0.0
 40
3.8034341919857
100
AcDbArc
 50
90.0
 51
179.9999999999995
  0
ARC
  5
16B
330
1F
100
AcDbEntity
  8
0
  6
CONTINUOUS
 62
   253
100
AcDbCircle
 10
-43.34999999999994
 20
265.9999999999999
 30
0.0
 40
3.803434191985589
100
AcDbArc
 50
269.9999999999983
 51
90.0
  0
LINE
  5
16C
330
1F
100
AcDbEntity
  8
0
  6
CONTINUOUS
 62
   253
100
AcDbLine
 10
-139.3
 20
237.8034341919857
 30
0.0
 11
-147.7
 21
237.8034341919857
 31
0.0
  0
ARC
  5
16D
330
1F
100
AcDbEntity
  8
0
  6
CONTINUOUS
 62
   253
100
AcDbCircle
 10
-147.7
 20
233.9999999999998
 30
0.0
 40
3.803434191985589
100
AcDbArc
 50
90.0
 51
270.0
  0
ARC
  5
16E
330
1F
100
AcDbEntity
  8
0
  6
CONTINUOUS
 62
   253
100
AcDbCircle
 10
31.75000000000011
 20
267.5
 30
0.0
 40
3.8034341919857
100
AcDbArc
 50
0.0
 51
89.99999999999854
  0
LINE
  5
16F
330
1F
100
AcDbEntity
  8
0
  6
CONTINUOUS
 62
     7
100
AcDbLine
 10
58.91720653639604
 20
220.4873923473323
 30
0.0
 11
91.08278897862104
 21
220.4873924116466
 31
0.0
  0
LINE
  5
170
330
1F
100
AcDbEntity
  8
0
  6
CONTINUOUS
 62
     7
100
AcDbLine
 10
-110.8327934636038
 20
220.4873923473323
 30
0.0
 11
-66.76721102137907
 21
220.4873924116466
 31
0.0
  0
LINE
  5
171
330
1F
100
AcDbEntity
  8
0
  6
CONTINUOUS
 62
     7
100
AcDbLine
 10
-65.33739234733227
 20
221.9172065363963
 30
0.0
 11
-65.33739241164649
 21
278.082788978621
 31
0.0
  0
LINE
  5
172
330
1F
100
AcDbEntity
  8
0
  6
CONTINUOUS
 62
   253
100
AcDbLine
 10
-110.8327934635993
 20
279.5807376979213
 30
0.0
 11
-110.8327889786208
 21
279.5126075883535
 31
0.0
  0
LINE
  5
173
330
1F
100
AcDbEntity
  8
0
  6
CONTINUOUS
 62
     7
100
AcDbLine
 10
-20.58279346360392
 20
220.4192622342644
 30
0.0
 11
10.58279346360374
 21
220.4192622342644
 31
0.0
  0
LINE
  5
174
330
1F
100
AcDbEntity
  8
0
  6
CONTINUOUS
 62
     7
100
AcDbLine
 10
10.58279346360375
 20
279.5807377657358
 30
0.0
 11
-20.58279346360392
 21
279.5807377657358
 31
0.0
  0
LINE
  5
175
330
1F
100
AcDbEntity
  8
0
  6
CONTINUOUS
 62
   253
100
AcDbLine
 10
91.08279346359943
 20
220.4192623020788
 30
0.0
 11
91.08278897862104
 21
220.4873924116466
 31
0.0
  0
LINE
  5
176
330
1F
100
AcDbEntity
  8
0
  6
CONTINUOUS
 62
   253
100
AcDbLine
 10
91.42755824580856
 20
220.0744974520595
 30
0.0
 11
91.0827934636037
 21
220.4192622342644
 31
0.0
  0
LINE
  5
177
330
1F
100
AcDbEntity
  8
0
  6
CONTINUOUS
 62
   253
100
AcDbLine
 10
-151.5034341919857
 20
267.5
 30
0.0
 11
-151.5034341919857
 21
264.5
 31
0.0
  0
LINE
  5
178
330
1F
100
AcDbEntity
  8
0
  6
CONTINUOUS
 62
   253
100
AcDbLine
 10
58.91720653640087
 20
279.5807376979213
 30
0.0
 11
58.91721102137934
 21
279.5126075883535
 31
0.0
  0
LINE
  5
179
330
1F
100
AcDbEntity
  8
0
  6
CONTINUOUS
 62
   253
100
AcDbLine
 10
-110.8327934636038
 20
220.4192622342644
 30
0.0
 11
-110.8327934636038
 21
220.4873923473323
 31
0.0
  0
LINE
  5
17A
330
1F
100
AcDbEntity
  8
0
  6
CONTINUOUS
 62
   253
100
AcDbLine
 10
-51.74999999999996
 20
262.1965658080143
 30
0.0
 11
-43.35000000000009
 21
262.1965658080143
 31
0.0
  0
LINE
  5
17B
330
1F
100
AcDbEntity
  8
0
  6
CONTINUOUS
 62
   253
100
AcDbLine
 10
31.75000000000039
 20
271.3034341919858
 30
0.0
 11
23.35000000000011
 21
271.3034341919858
 31
0.0
  0
LINE
  5
17C
330
1F
100
AcDbEntity
  8
0
  6
CONTINUOUS
 62
   253
100
AcDbLine
 10
-112.3307377657356
 20
278.0827934636039
 30
0.0
 11
-112.2626076526676
 21
278.0827934636039
 31
0.0
  0
ARC
  5
17D
330
1F
100
AcDbEntity
  8
0
  6
CONTINUOUS
 62
   253
100
AcDbCircle
 10
-139.2999999999999
 20
267.5
 30
0.0
 40
3.8034341919857
100
AcDbArc
 50
0.0
 51
89.99999999999834
  0
LINE
  5
17E
330
1F
100
AcDbEntity
  8
0
  6
CONTINUOUS
 62
     7
100
AcDbLine
 10
24.60000000000023
 20
267.5
 30
0.0
 11
25.53437239148391
 21
268.0394601517466
 31
0.0
  0
LINE
  5
17F
330
1F
100
AcDbEntity
  8
0
  6
CONTINUOUS
 62
     7
100
AcDbLine
 10
-89.38207508478862
 20
260.4838537091885
 30
0.0
 11
-89.30000200802938
 21
260.9493107276564
 31
0.0
  0
ARC
  5
180
330
1F
100
AcDbEntity
  8
0
  6
CONTINUOUS
 62
     7
100
AcDbCircle
 10
-43.34999999999994
 20
265.9999999999999
 30
0.0
 40
2.249999999999974
100
AcDbArc
 50
76.12762021316065
 51
103.8723797868397
  0
LINE
  5
181
330
1F
100
AcDbEntity
  8
0
  6
CONTINUOUS
 62
     7
100
AcDbLine
 10
-137.05
 20
264.5
 30
0.0
 11
-137.05
 21
265.0773502691897
 31
0.0
  0
ARC
  5
182
330
1F
100
AcDbEntity
  8
0
  6
CONTINUOUS
 62
     7
100
AcDbCircle
 10
-51.74999999999996
 20
265.9999999999999
 30
0.0
 40
2.25000000000003
100
AcDbArc
 50
283.8723797868397
 51
346.1276202131607
  0
LINE
  5
183
330
1F
100
AcDbEntity
  8
0
  6
CONTINUOUS
 62
     7
100
AcDbLine
 10
-137.05
 20
265.0773502691897
 30
0.0
 11
-137.0117234250361
 21
265.1436472417668
 31
0.0
  0
LINE
  5
184
330
1F
100
AcDbEntity
  8
0
  6
CONTINUOUS
 62
     7
100
AcDbLine
 10
-137.0499999999998
 20
266.9226497308103
 30
0.0
 11
-137.0117234250361
 21
266.8563527582332
 31
0.0
  0
ARC
  5
185
330
1F
100
AcDbEntity
  8
0
  6
CONTINUOUS
 62
     7
100
AcDbCircle
 10
136.0000000000001
 20
277.4999999999999
 30
0.0
 40
2.25000000000003
100
AcDbArc
 50
76.12762021316016
 51
103.8723797868391
  0
ARC
  5
186
330
1F
100
AcDbEntity
  8
0
  6
CONTINUOUS
 62
     7
100
AcDbCircle
 10
136.0000000000001
 20
277.4999999999999
 30
0.0
 40
2.25000000000003
100
AcDbArc
 50
103.8723797868398
 51
166.1276202131605
  0
ARC
  5
187
330
1F
100
AcDbEntity
  8
0
  6
CONTINUOUS
 62
     7
100
AcDbCircle
 10
31.75000000000011
 20
264.5
 30
0.0
 40
2.249999999999974
100
AcDbArc
 50
256.12762021316
 51
283.8723797868391
  0
CIRCLE
  5
188
330
1F
100
AcDbEntity
  8
0
  6
CONTINUOUS
 62
   253
100
AcDbCircle
 10
136.0000000000001
 20
222.5
 30
0.0
 40
3.8034341919857
  0
ARC
  5
189
330
1F
100
AcDbEntity
  8
0
  6
CONTINUOUS
 62
     7
100
AcDbCircle
 10
-43.34999999999994
 20
265.9999999999999
 30
0.0
 40
2.249999999999974
100
AcDbArc
 50
346.1276202131606
 51
13.87237978683965
  0
LINE
  5
18A
330
1F
100
AcDbEntity
  8
0
  6
CONTINUOUS
 62
     7
100
AcDbLine
 10
33.93437239148422
 20
263.9605398482533
 30
0.0
 11
33.95881831070326
 21
263.9022280084934
 31
0.0
  0
ARC
  5
18B
330
1F
100
AcDbEntity
  8
0
  6
CONTINUOUS
 62
     7
100
AcDbCircle
 10
136.0000000000001
 20
277.4999999999999
 30
0.0
 40
2.25000000000003
100
AcDbArc
 50
166.12762021316
 51
193.8723797868391
  0
ARC
  5
18C
330
1F
100
AcDbEntity
  8
0
  6
CONTINUOUS
 62
     7
100
AcDbCircle
 10
-43.34999999999994
 20
265.9999999999999
 30
0.0
 40
2.249999999999974
100
AcDbArc
 50
13.8723797868396
 51
76.12762021316065
  0
LINE
  5
18D
330
1F
100
AcDbEntity
  8
0
  6
CONTINUOUS
 62
     7
100
AcDbLine
 10
-137.0117234250361
 20
265.1436472417667
 30
0.0
 11
-137.0117234250361
 21
266.8563527582332
 31
0.0
  0
LINE
  5
18E
330
1F
100
AcDbEntity
  8
0
  6
CONTINUOUS
 62
     7
100
AcDbLine
 10
29.50000000000008
 20
265.0773502691897
 30
0.0
 11
29.46172342503617
 21
265.1436472417667
 31
0.0
  0
ARC
  5
18F
330
1F
100
AcDbEntity
  8
0
  6
CONTINUOUS
 62
     7
100
AcDbCircle
 10
31.75000000000011
 20
264.5
 30
0.0
 40
2.288276574963777
100
AcDbArc
 50
195.1432012235981
 51
255.4883894435318
  0
ARC
  5
190
330
1F
100
AcDbEntity
  8
0
  6
CONTINUOUS
 62
     7
100
AcDbCircle
 10
31.75000000000011
 20
264.5
 30
0.0
 40
2.25000000000003
100
AcDbArc
 50
346.1276202131614
 51
0.0000000000000568
  0
LINE
  5
191
330
1F
100
AcDbEntity
  8
0
  6
CONTINUOUS
 62
     7
100
AcDbLine
 10
85.48385370918854
 20
250.5820750847888
 30
0.0
 11
85.9493107276565
 21
250.5000020080295
 31
0.0
  0
ARC
  5
192
330
1F
100
AcDbEntity
  8
0
  6
CONTINUOUS
 62
     7
100
AcDbCircle
 10
-43.34999999999994
 20
265.9999999999999
 30
0.0
 40
2.249999999999974
100
AcDbArc
 50
103.8723797868397
 51
166.1276202131606
  0
ARC
  5
193
330
1F
100
AcDbEntity
  8
0
  6
CONTINUOUS
 62
     7
100
AcDbCircle
 10
-51.74999999999996
 20
265.9999999999999
 30
0.0
 40
2.25000000000003
100
AcDbArc
 50
180.0
 51
193.8723797868397
  0
ARC
  5
194
330
1F
100
AcDbEntity
  8
0
  6
CONTINUOUS
 62
     7
100
AcDbCircle
 10
-51.74999999999996
 20
265.9999999999999
 30
0.0
 40
2.25000000000003
100
AcDbArc
 50
193.8723797868397
 51
256.1276202131608
  0
LINE
  5
195
330
1F
100
AcDbEntity
  8
0
  6
CONTINUOUS
 62
     7
100
AcDbLine
 10
29.50000000000008
 20
267.5
 30
0.0
 11
29.50000000000008
 21
266.9226497308103
 31
0.0
  0
LINE
  5
196
330
1F
100
AcDbEntity
  8
0
  6
CONTINUOUS
 62
     7
100
AcDbLine
 10
29.50000000000008
 20
266.9226497308103
 30
0.0
 11
29.46172342503617
 21
266.8563527582333
 31
0.0
  0
ARC
  5
197
330
1F
100
AcDbEntity
  8
0
  6
CONTINUOUS
 62
     7
100
AcDbCircle
 10
-51.74999999999996
 20
265.9999999999999
 30
0.0
 40
2.25000000000003
100
AcDbArc
 50
256.1276202131608
 51
283.8723797868397
  0
LINE
  5
198
330
1F
100
AcDbEntity
  8
0
  6
CONTINUOUS
 62
     7
100
AcDbLine
 10
29.56562760851594
 20
263.9605398482533
 30
0.0
 11
29.54118168929654
 21
263.9022280084934
 31
0.0
  0
ARC
  5
199
330
1F
100
AcDbEntity
  8
0
  6
CONTINUOUS
 62
     7
100
AcDbCircle
 10
-51.74999999999996
 20
265.9999999999999
 30
0.0
 40
2.25000000000003
100
AcDbArc
 50
13.8723797868395
 51
76.12762021316047
  0
LINE
  5
19A
330
1F
100
AcDbEntity
  8
0
  6
CONTINUOUS
 62
   253
100
AcDbLine
 10
-137.05
 20
267.5
 30
0.0
 11
-135.55
 21
267.5
 31
0.0
  0
LINE
  5
19B
330
1F
100
AcDbEntity
  8
0
  6
CONTINUOUS
 62
   253
100
AcDbLine
 10
35.50000000000009
 20
264.5
 30
0.0
 11
34.00000000000009
 21
264.5
 31
0.0
  0
LINE
  5
19C
330
1F
100
AcDbEntity
  8
0
  6
CONTINUOUS
 62
     7
100
AcDbLine
 10
74.41792491521154
 20
260.4838537091885
 30
0.0
 11
74.49999799197049
 21
260.9493107276564
 31
0.0
  0
LINE
  5
19D
330
1F
100
AcDbEntity
  8
0
  6
CONTINUOUS
 62
     7
100
AcDbLine
 10
74.50000592227313
 20
239.0506889102075
 30
0.0
 11
74.41793114180625
 21
239.5161459451057
 31
0.0
  0
ARC
  5
19E
330
1F
100
AcDbEntity
  8
0
  6
CONTINUOUS
 62
     7
100
AcDbCircle
 10
136.0000000000001
 20
250.0000000000002
 30
0.0
 40
2.25000000000003
100
AcDbArc
 50
103.8723797868398
 51
166.1276202131608
  0
LINE
  5
19F
330
1F
100
AcDbEntity
  8
0
  6
CONTINUOUS
 62
     7
100
AcDbLine
 10
64.05068891020754
 20
250.4999940777269
 30
0.0
 11
64.51614594510585
 21
250.582068858194
 31
0.0
  0
ARC
  5
1A0
330
1F
100
AcDbEntity
  8
0
  6
CONTINUOUS
 62
     7
100
AcDbCircle
 10
136.0000000000001
 20
222.5
 30
0.0
 40
2.249999999999974
100
AcDbArc
 50
103.8723797868393
 51
166.12762021316
  0
ARC
  5
1A1
330
1F
100
AcDbEntity
  8
0
  6
CONTINUOUS
 62
     7
100
AcDbCircle
 10
-51.74999999999996
 20
265.9999999999999
 30
0.0
 40
2.25000000000003
100
AcDbArc
 50
76.12762021316047
 51
103.8723797868395
  0
ARC
  5
1A2
330
1F
100
AcDbEntity
  8
0
  6
CONTINUOUS
 62
     7
100
AcDbCircle
 10
31.75000000000011
 20
264.5
 30
0.0
 40
2.249999999999974
100
AcDbArc
 50
180.0
 51
193.8723797868389
  0
ARC
  5
1A3
330
1F
100
AcDbEntity
  8
0
  6
CONTINUOUS
 62
     7
100
AcDbCircle
 10
136.0000000000001
 20
250.0000000000002
 30
0.0
 40
2.25000000000003
100
AcDbArc
 50
76.12762021316016
 51
103.8723797868391
  0
CIRCLE
  5
1A4
330
1F
100
AcDbEntity
  8
0
  6
CONTINUOUS
 62
     7
100
AcDbCircle
 10
4.999999999999893
 20
250.0000000000002
 30
0.0
 40
14.65
210
0.0
220
0.0
230
-1.0
  0
LINE
  5
1A5
330
1F
100
AcDbEntity
  8
0
  6
CONTINUOUS
 62
     7
100
AcDbLine
 10
31.21053984825317
 20
262.3156276085159
 30
0.0
 11
31.17661238170578
 21
262.2847265805966
 31
0.0
  0
ARC
  5
1A6
330
1F
100
AcDbEntity
  8
0
  6
CONTINUOUS
 62
     7
100
AcDbCircle
 10
31.75000000000011
 20
264.5
 30
0.0
 40
2.288276574963777
100
AcDbArc
 50
284.5116105564674
 51
344.8567987764023
  0
LINE
  5
1A7
330
1F
100
AcDbEntity
  8
0
  6
CONTINUOUS
 62
     7
100
AcDbLine
 10
-77.85068891020741
 20
249.5000059222733
 30
0.0
 11
-78.3161459451058
 21
249.4179311418063
 31
0.0
  0
LINE
  5
1A8
330
1F
100
AcDbEntity
  8
0
  6
CONTINUOUS
 62
     7
100
AcDbLine
 10
-78.31614629081146
 20
250.5820750847888
 30
0.0
 11
-77.85068927234367
 21
250.5000020080295
 31
0.0
  0
CIRCLE
  5
1A9
330
1F
100
AcDbEntity
  8
0
  6
CONTINUOUS
 62
   253
100
AcDbCircle
 10
-156.0
 20
222.5
 30
0.0
 40
3.8034341919857
  0
CIRCLE
  5
1AA
330
1F
100
AcDbEntity
  8
0
  6
CONTINUOUS
 62
     7
100
AcDbCircle
 10
-4.999999999999893
 20
250.0000000000002
 30
0.0
 40
13.56272467535891
  0
LINE
  5
1AB
330
1F
100
AcDbEntity
  8
0
  6
CONTINUOUS
 62
     7
100
AcDbLine
 10
-88.30000592227316
 20
260.9493110897924
 30
0.0
 11
-88.21793114180608
 21
260.4838540548941
 31
0.0
  0
ARC
  5
1AC
330
1F
100
AcDbEntity
  8
0
  6
CONTINUOUS
 62
     7
100
AcDbCircle
 10
-43.34999999999994
 20
265.9999999999999
 30
0.0
 40
2.249999999999974
100
AcDbArc
 50
166.1276202131606
 51
180.0
  0
LINE
  5
1AD
330
1F
100
AcDbEntity
  8
0
  6
CONTINUOUS
 62
     7
100
AcDbLine
 10
29.46172342503617
 20
266.8563527582332
 30
0.0
 11
29.46172342503617
 21
265.1436472417667
 31
0.0
  0
LINE
  5
1AE
330
1F
100
AcDbEntity
  8
0
  6
CONTINUOUS
 62
     7
100
AcDbLine
 10
29.50000000000008
 20
264.5
 30
0.0
 11
29.50000000000008
 21
265.0773502691897
 31
0.0
  0
ARC
  5
1AF
330
1F
100
AcDbEntity
  8
0
  6
CONTINUOUS
 62
     7
100
AcDbCircle
 10
-51.74999999999996
 20
265.9999999999999
 30
0.0
 40
2.249999999999974
100
AcDbArc
 50
346.1276202131607
 51
13.87237978683947
  0
LINE
  5
1B0
330
1F
100
AcDbEntity
  8
0
  6
CONTINUOUS
 62
     7
100
AcDbLine
 10
32.28946015174666
 20
262.3156276085159
 30
0.0
 11
32.32338761829409
 21
262.2847265805966
 31
0.0
  0
ARC
  5
1B1
330
1F
100
AcDbEntity
  8
0
  6
CONTINUOUS
 62
     7
100
AcDbCircle
 10
136.0000000000001
 20
250.0000000000002
 30
0.0
 40
2.25000000000003
100
AcDbArc
 50
166.1276202131601
 51
193.8723797868391
  0
LINE
  5
1B2
330
1F
100
AcDbEntity
  8
0
  6
CONTINUOUS
 62
     7
100
AcDbLine
 10
64.51614629081153
 20
249.4179249152114
 30
0.0
 11
64.05068927234367
 21
249.4999979919706
 31
0.0
  0
ARC
  5
1B3
330
1F
100
AcDbEntity
  8
0
  6
CONTINUOUS
 62
     7
100
AcDbCircle
 10
-51.74999999999996
 20
265.9999999999999
 30
0.0
 40
2.25000000000003
100
AcDbArc
 50
103.8723797868395
 51
166.1276202131606
  0
LINE
  5
1B4
330
1F
100
AcDbEntity
  8
0
  6
CONTINUOUS
 62
     7
100
AcDbLine
 10
-137.05
 20
267.5
 30
0.0
 11
-137.0499999999998
 21
266.9226497308103
 31
0.0
  0
ARC
  5
1B5
330
1F
100
AcDbEntity
  8
0
  6
CONTINUOUS
 62
     7
100
AcDbCircle
 10
-51.74999999999996
 20
265.9999999999999
 30
0.0
 40
2.25000000000003
100
AcDbArc
 50
166.1276202131606
 51
180.0
  0
LINE
  5
1B6
330
1F
100
AcDbEntity
  8
0
  6
CONTINUOUS
 62
   253
100
AcDbLine
 10
-135.55
 20
264.5
 30
0.0
 11
-137.05
 21
264.5
 31
0.0
  0
LINE
  5
1B7
330
1F
100
AcDbEntity
  8
0
  6
CONTINUOUS
 62
     7
100
AcDbLine
 10
-99.74931108979251
 20
250.4999940777269
 30
0.0
 11
-99.28385405489416
 21
250.582068858194
 31
0.0
  0
LINE
  5
1B8
330
1F
100
AcDbEntity
  8
0
  6
CONTINUOUS
 62
     7
100
AcDbLine
 10
75.49999407772701
 20
260.9493110897924
 30
0.0
 11
75.58206885819413
 21
260.4838540548941
 31
0.0
  0
LINE
  5
1B9
330
1F
100
AcDbEntity
  8
0
  6
CONTINUOUS
 62
     7
100
AcDbLine
 10
85.94931108979247
 20
249.5000059222733
 30
0.0
 11
85.48385405489425
 21
249.4179311418063
 31
0.0
  0
ARC
  5
1BA
330
1F
100
AcDbEntity
  8
0
  6
CONTINUOUS
 62
     7
100
AcDbCircle
 10
136.0000000000001
 20
222.5
 30
0.0
 40
2.25000000000003
100
AcDbArc
 50
13.8723797868396
 51
76.12762021316009
  0
ARC
  5
1BB
330
1F
100
AcDbEntity
  8
0
  6
CONTINUOUS
 62
     7
100
AcDbCircle
 10
-43.34999999999994
 20
265.9999999999999
 30
0.0
 40
2.249999999999974
100
AcDbArc
 50
180.0
 51
193.8723797868396
  0
CIRCLE
  5
1BC
330
1F
100
AcDbEntity
  8
0
  6
CONTINUOUS
 62
   253
100
AcDbCircle
 10
-156.0
 20
250.0000000000002
 30
0.0
 40
3.8034341919857
  0
ARC
  5
1BD
330
1F
100
AcDbEntity
  8
0
  6
CONTINUOUS
 62
     7
100
AcDbCircle
 10
139.3
 20
233.9999999999998
 30
0.0
 40
2.250000000000002
210
0.0
220
0.0
230
-1.0
100
AcDbArc
 50
166.12762021316
 51
193.8723797868393
  0
ARC
  5
1BE
330
1F
100
AcDbEntity
  8
0
  6
CONTINUOUS
 62
     7
100
AcDbCircle
 10
-43.34999999999994
 20
265.9999999999999
 30
0.0
 40
2.249999999999974
100
AcDbArc
 50
283.8723797868395
 51
346.1276202131606
  0
ARC
  5
1BF
330
1F
100
AcDbEntity
  8
0
  6
CONTINUOUS
 62
     7
100
AcDbCircle
 10
58.91685762613069
 20
278.0831423106725
 30
0.0
 40
1.429465321364509
100
AcDbArc
 50
89.98583522373639
 51
180.0139824762716
  0
ARC
  5
1C0
330
1F
100
AcDbEntity
  8
0
  6
CONTINUOUS
 62
   253
100
AcDbCircle
 10
-147.7
 20
267.5
 30
0.0
 40
3.8034341919857
100
AcDbArc
 50
90.0
 51
179.9999999999995
  0
ARC
  5
1C1
330
1F
100
AcDbEntity
  8
0
  6
CONTINUOUS
 62
     7
100
AcDbCircle
 10
139.3
 20
233.9999999999998
 30
0.0
 40
2.250000000000002
210
0.0
220
0.0
230
-1.0
100
AcDbArc
 50
346.12762021316
 51
13.87237978683902
  0
ARC
  5
1C2
330
1F
100
AcDbEntity
  8
0
  6
CONTINUOUS
 62
     7
100
AcDbCircle
 10
147.7
 20
233.9999999999998
 30
0.0
 40
2.250000000000002
210
0.0
220
0.0
230
-1.0
100
AcDbArc
 50
256.1276202131601
 51
283.8723797868398
  0
ARC
  5
1C3
330
1F
100
AcDbEntity
  8
0
  6
CONTINUOUS
 62
     7
100
AcDbCircle
 10
10.93416285603166
 20
221.5658371439684
 30
0.0
 40
1.491354316565607
100
AcDbArc
 50
269.7462591391828
 51
0.2537408608171745
  0
LINE
  5
1C4
330
1F
100
AcDbEntity
  8
0
  6
CONTINUOUS
 62
   253
100
AcDbLine
 10
58.57244175419146
 20
220.0744974520595
 30
0.0
 11
91.42755824580856
 21
220.0744974520595
 31
0.0
  0
ARC
  5
1C5
330
1F
100
AcDbEntity
  8
0
  6
CONTINUOUS
 62
     7
100
AcDbCircle
 10
-66.76685762613037
 20
221.9168576893274
 30
0.0
 40
1.429465321364509
100
AcDbArc
 50
269.9858352237347
 51
0.013982476268211
  0
CIRCLE
  5
1C6
330
1F
100
AcDbEntity
  8
0
  6
CONTINUOUS
 62
   253
100
AcDbCircle
 10
-156.0
 20
277.4999999999999
 30
0.0
 40
3.8034341919857
  0
ARC
  5
1C7
330
1F
100
AcDbEntity
  8
0
  6
CONTINUOUS
 62
     7
100
AcDbCircle
 10
136.0000000000001
 20
277.4999999999999
 30
0.0
 40
2.25000000000003
100
AcDbArc
 50
346.1276202131603
 51
13.87237978683913
  0
ARC
  5
1C8
330
1F
100
AcDbEntity
  8
0
  6
CONTINUOUS
 62
     7
100
AcDbCircle
 10
136.0000000000001
 20
277.4999999999999
 30
0.0
 40
2.249999999999974
100
AcDbArc
 50
256.1276202131601
 51
283.8723797868391
  0
ARC
  5
1C9
330
1F
100
AcDbEntity
  8
0
  6
CONTINUOUS
 62
     7
100
AcDbCircle
 10
-66.76685768932727
 20
278.0831423738696
 30
0.0
 40
1.429465321364343
100
AcDbArc
 50
359.985835223733
 51
90.01398247627492
  0
ARC
  5
1CA
330
1F
100
AcDbEntity
  8
0
  6
CONTINUOUS
 62
     7
100
AcDbCircle
 10
139.3
 20
233.9999999999998
 30
0.0
 40
2.249999999999974
210
0.0
220
0.0
230
-1.0
100
AcDbArc
 50
256.1276202131601
 51
283.8723797868392
  0
ARC
  5
1CB
330
1F
100
AcDbEntity
  8
0
  6
CONTINUOUS
 62
     7
100
AcDbCircle
 10
147.7
 20
233.9999999999998
 30
0.0
 40
2.250000000000002
210
0.0
220
0.0
230
-1.0
100
AcDbArc
 50
76.12762021316011
 51
103.8723797868398
  0
ARC
  5
1CC
330
1F
100
AcDbEntity
  8
0
  6
CONTINUOUS
 62
     7
100
AcDbCircle
 10
-147.7
 20
233.9999999999998
 30
0.0
 40
2.249999999999946
100
AcDbArc
 50
13.87237978683896
 51
76.12762021315959
  0
ARC
  5
1CD
330
1F
100
AcDbEntity
  8
0
  6
CONTINUOUS
 62
     7
100
AcDbCircle
 10
91.0831423738696
 20
221.9168576893274
 30
0.0
 40
1.429465321364509
100
AcDbArc
 50
269.9858352237397
 51
0.013982476268211
  0
ARC
  5
1CE
330
1F
100
AcDbEntity
  8
0
  6
CONTINUOUS
 62
     7
100
AcDbCircle
 10
-136.0000000000001
 20
222.5
 30
0.0
 40
2.249999999999974
210
0.0
220
0.0
230
-1.0
100
AcDbArc
 50
166.12762021316
 51
193.8723797868391
  0
ARC
  5
1CF
330
1F
100
AcDbEntity
  8
0
  6
CONTINUOUS
 62
     7
100
AcDbCircle
 10
-139.3
 20
233.9999999999998
 30
0.0
 40
2.250000000000002
100
AcDbArc
 50
283.8723797868392
 51
346.1276202131597
  0
ARC
  5
1D0
330
1F
100
AcDbEntity
  8
0
  6
CONTINUOUS
 62
     7
100
AcDbCircle
 10
-147.7
 20
233.9999999999998
 30
0.0
 40
2.249999999999974
100
AcDbArc
 50
283.8723797868392
 51
346.1276202131595
  0
ARC
  5
1D1
330
1F
100
AcDbEntity
  8
0
  6
CONTINUOUS
 62
     7
100
AcDbCircle
 10
-147.7
 20
233.9999999999998
 30
0.0
 40
2.249999999999974
100
AcDbArc
 50
103.8723797868392
 51
166.1276202131598
  0
ARC
  5
1D2
330
1F
100
AcDbEntity
  8
0
  6
CONTINUOUS
 62
     7
100
AcDbCircle
 10
-139.3
 20
233.9999999999998
 30
0.0
 40
2.250000000000002
100
AcDbArc
 50
103.8723797868392
 51
166.1276202131603
  0
ARC
  5
1D3
330
1F
100
AcDbEntity
  8
0
  6
CONTINUOUS
 62
     7
100
AcDbCircle
 10
136.0000000000001
 20
277.4999999999999
 30
0.0
 40
2.25000000000003
100
AcDbArc
 50
193.87237978684
 51
256.1276202131608
  0
ARC
  5
1D4
330
1F
100
AcDbEntity
  8
0
  6
CONTINUOUS
 62
   253
100
AcDbCircle
 10
23.35000000000009
 20
264.5
 30
0.0
 40
3.803434191985644
100
AcDbArc
 50
180.0
 51
270.0000000000015
  0
ARC
  5
1D5
330
1F
100
AcDbEntity
  8
0
  6
CONTINUOUS
 62
     7
100
AcDbCircle
 10
-136.0000000000001
 20
222.5
 30
0.0
 40
2.249999999999974
210
0.0
220
0.0
230
-1.0
100
AcDbArc
 50
346.1276202131601
 51
13.87237978683919
  0
ARC
  5
1D6
330
1F
100
AcDbEntity
  8
0
  6
CONTINUOUS
 62
     7
100
AcDbCircle
 10
58.91685768932747
 20
221.9168576261304
 30
0.0
 40
1.429465321364509
100
AcDbArc
 50
179.9858352237564
 51
270.0139824762649
  0
ARC
  5
1D7
330
1F
100
AcDbEntity
  8
0
  6
CONTINUOUS
 62
     7
100
AcDbCircle
 10
136.0000000000001
 20
222.5
 30
0.0
 40
2.25000000000003
100
AcDbArc
 50
193.8723797868392
 51
256.1276202131601
  0
ARC
  5
1D8
330
1F
100
AcDbEntity
  8
0
  6
CONTINUOUS
 62
     7
100
AcDbCircle
 10
-43.34999999999994
 20
265.9999999999999
 30
0.0
 40
2.249999999999974
100
AcDbArc
 50
193.8723797868396
 51
256.1276202131606
  0
ARC
  5
1D9
330
1F
100
AcDbEntity
  8
0
  6
CONTINUOUS
 62
     7
100
AcDbCircle
 10
-110.8331423738698
 20
278.0831423106728
 30
0.0
 40
1.429465321364287
100
AcDbArc
 50
89.98583522372135
 51
180.0139824762816
  0
ARC
  5
1DA
330
1F
100
AcDbEntity
  8
0
  6
CONTINUOUS
 62
     7
100
AcDbCircle
 10
58.56583714396852
 20
278.4341628560314
 30
0.0
 40
1.491354316565663
100
AcDbArc
 50
89.74625913918602
 51
180.2537408608172
  0
ARC
  5
1DB
330
1F
100
AcDbEntity
  8
0
  6
CONTINUOUS
 62
     7
100
AcDbCircle
 10
139.3
 20
233.9999999999998
 30
0.0
 40
2.250000000000002
210
0.0
220
0.0
230
-1.0
100
AcDbArc
 50
76.12762021316011
 51
103.8723797868392
  0
ARC
  5
1DC
330
1F
100
AcDbEntity
  8
0
  6
CONTINUOUS
 62
     7
100
AcDbCircle
 10
-139.3
 20
233.9999999999998
 30
0.0
 40
2.250000000000002
100
AcDbArc
 50
193.8723797868392
 51
256.1276202131601
  0
ARC
  5
1DD
330
1F
100
AcDbEntity
  8
0
  6
CONTINUOUS
 62
     7
100
AcDbCircle
 10
147.7
 20
233.9999999999998
 30
0.0
 40
2.25000000000003
210
0.0
220
0.0
230
-1.0
100
AcDbArc
 50
346.12762021316
 51
13.87237978683953
  0
LINE
  5
1DE
330
1F
100
AcDbEntity
  8
0
  6
CONTINUOUS
 62
   253
100
AcDbLine
 10
91.42755824580856
 20
279.9255025479404
 30
0.0
 11
58.57244175419147
 21
279.9255025479404
 31
0.0
  0
ARC
  5
1DF
330
1F
100
AcDbEntity
  8
0
  6
CONTINUOUS
 62
     7
100
AcDbCircle
 10
91.08314231067288
 20
278.0831423738696
 30
0.0
 40
1.429465321364454
100
AcDbArc
 50
359.9858352237297
 51
90.01398247627492
  0
ARC
  5
1E0
330
1F
100
AcDbEntity
  8
0
  6
CONTINUOUS
 62
     7
100
AcDbCircle
 10
-139.3
 20
233.9999999999998
 30
0.0
 40
2.249999999999974
100
AcDbArc
 50
13.87237978683896
 51
76.12762021316014
  0
ARC
  5
1E1
330
1F
100
AcDbEntity
  8
0
  6
CONTINUOUS
 62
     7
100
AcDbCircle
 10
-110.8331423106725
 20
221.9168576261304
 30
0.0
 40
1.429465321364565
100
AcDbArc
 50
179.9858352237564
 51
270.0139824762682
  0
ARC
  5
1E2
330
1F
100
AcDbEntity
  8
0
  6
CONTINUOUS
 62
     7
100
AcDbCircle
 10
-147.7
 20
233.9999999999998
 30
0.0
 40
2.249999999999974
100
AcDbArc
 50
193.8723797868392
 51
256.1276202131595
  0
ARC
  5
1E3
330
1F
100
AcDbEntity
  8
0
  6
CONTINUOUS
 62
     7
100
AcDbCircle
 10
-43.34999999999994
 20
265.9999999999999
 30
0.0
 40
2.249999999999974
100
AcDbArc
 50
256.1276202131606
 51
283.8723797868395
  0
ARC
  5
1E4
330
1F
100
AcDbEntity
  8
0
  6
CONTINUOUS
 62
     7
100
AcDbCircle
 10
136.0000000000001
 20
277.4999999999999
 30
0.0
 40
2.249999999999974
100
AcDbArc
 50
283.8723797868398
 51
346.1276202131607
  0
CIRCLE
  5
1E5
330
1F
100
AcDbEntity
  8
0
  6
CONTINUOUS
 62
   253
100
AcDbCircle
 10
136.0000000000001
 20
250.0000000000002
 30
0.0
 40
3.8034341919857
  0
ARC
  5
1E6
330
1F
100
AcDbEntity
  8
0
  6
CONTINUOUS
 62
     7
100
AcDbCircle
 10
-136.0000000000001
 20
222.5
 30
0.0
 40
2.249999999999974
210
0.0
220
0.0
230
-1.0
100
AcDbArc
 50
76.12762021316011
 51
103.8723797868391
  0
ARC
  5
1E7
330
1F
100
AcDbEntity
  8
0
  6
CONTINUOUS
 62
     7
100
AcDbCircle
 10
136.0000000000001
 20
222.5
 30
0.0
 40
2.25000000000003
100
AcDbArc
 50
283.8723797868392
 51
346.1276202131607
  0
ARC
  5
1E8
330
1F
100
AcDbEntity
  8
0
  6
CONTINUOUS
 62
     7
100
AcDbCircle
 10
147.7
 20
233.9999999999998
 30
0.0
 40
2.25000000000003
210
0.0
220
0.0
230
-1.0
100
AcDbArc
 50
166.12762021316
 51
193.8723797868394
  0
ARC
  5
1E9
330
1F
100
AcDbEntity
  8
0
  6
CONTINUOUS
 62
     7
100
AcDbCircle
 10
-136.0000000000001
 20
222.5
 30
0.0
 40
2.249999999999974
210
0.0
220
0.0
230
-1.0
100
AcDbArc
 50
256.1276202131601
 51
283.8723797868391
  0
ARC
  5
1EA
330
1F
100
AcDbEntity
  8
0
  6
CONTINUOUS
 62
     7
100
AcDbCircle
 10
136.0000000000001
 20
277.4999999999999
 30
0.0
 40
2.25000000000003
100
AcDbArc
 50
13.87237978683945
 51
76.1276202131608
  0
LINE
  5
1EB
330
1F
100
AcDbEntity
  8
0
  6
CONTINUOUS
 62
   253
100
AcDbLine
 10
58.40168747114299
 20
278.0827934691279
 30
0.0
 11
57.6511321211963
 21
278.0827934691279
 31
0.0
  0
LINE
  5
1EC
330
1F
100
AcDbEntity
  8
0
  6
CONTINUOUS
 62
     7
100
AcDbLine
 10
75.64422822385158
 20
240.2214268130339
 30
0.0
 11
75.58207508478864
 21
239.5161462908114
 31
0.0
  0
LINE
  5
1ED
330
1F
100
AcDbEntity
  8
0
  6
CONTINUOUS
 62
   253
100
AcDbLine
 10
58.40168747114299
 20
221.9172067124281
 30
0.0
 11
57.6511321211963
 21
221.9172065363963
 31
0.0
  0
LINE
  5
1EE
330
1F
100
AcDbEntity
  8
0
  6
CONTINUOUS
 62
     7
100
AcDbLine
 10
-66.7672067124469
 20
221.401687471143
 30
0.0
 11
-110.8327934691304
 21
221.401687471143
 31
0.0
  0
LINE
  5
1EF
330
1F
100
AcDbEntity
  8
0
  6
CONTINUOUS
 62
     7
100
AcDbLine
 10
-98.5785733301584
 20
250.6442261503163
 30
0.0
 11
-98.57857318696607
 21
249.3557717761484
 31
0.0
  0
LINE
  5
1F0
330
1F
100
AcDbEntity
  8
0
  6
CONTINUOUS
 62
     7
100
AcDbLine
 10
-89.44422822385151
 20
259.778573186966
 30
0.0
 11
-89.38207508478857
 21
260.4838537091886
 31
0.0
  0
LINE
  5
1F1
330
1F
100
AcDbEntity
  8
0
  6
CONTINUOUS
 62
     7
100
AcDbLine
 10
-89.25357582026899
 20
239.0357509712394
 30
0.0
 11
-89.29999407772672
 21
239.0506889102075
 31
0.0
  0
CIRCLE
  5
1F2
330
1F
100
AcDbEntity
  8
0
  6
CONTINUOUS
 62
   253
100
AcDbCircle
 10
-74.99999999999979
 20
250.0000000000002
 30
0.0
 40
11.48707843546082
210
0.0
220
0.0
230
-1.0
  0
LINE
  5
1F3
330
1F
100
AcDbEntity
  8
0
  6
CONTINUOUS
 62
     7
100
AcDbLine
 10
-88.1557738496836
 20
259.7785733301585
 30
0.0
 11
-89.44422822385157
 21
259.778573186966
 31
0.0
  0
LINE
  5
1F4
330
1F
100
AcDbEntity
  8
0
  6
CONTINUOUS
 62
     7
100
AcDbLine
 10
64.03575097123937
 20
250.4535758202688
 30
0.0
 11
64.05068891020757
 21
250.4999940777269
 31
0.0
  0
LINE
  5
1F5
330
1F
100
AcDbEntity
  8
0
  6
CONTINUOUS
 62
     7
100
AcDbLine
 10
74.54642417973118
 20
239.0357509712394
 30
0.0
 11
74.50000592227315
 21
239.0506889102075
 31
0.0
  0
LINE
  5
1F6
330
1F
100
AcDbEntity
  8
0
  6
CONTINUOUS
 62
     7
100
AcDbLine
 10
-79.02142666984152
 20
249.3557738496836
 30
0.0
 11
-79.02142681303386
 21
250.6442282238516
 31
0.0
  0
LINE
  5
1F7
330
1F
100
AcDbEntity
  8
0
  6
CONTINUOUS
 62
     7
100
AcDbLine
 10
85.9493107276565
 20
250.5000020080295
 30
0.0
 11
85.96424869811418
 21
250.4535838083272
 31
0.0
  0
LINE
  5
1F8
330
1F
100
AcDbEntity
  8
0
  6
CONTINUOUS
 62
     7
100
AcDbLine
 10
74.41793114180622
 20
239.5161459451057
 30
0.0
 11
74.35577384968364
 21
240.2214266698415
 31
0.0
  0
ARC
  5
1F9
330
1F
100
AcDbEntity
  8
0
  6
CONTINUOUS
 62
     7
100
AcDbCircle
 10
66.76775405857605
 20
278.0822459414264
 30
0.0
 40
1.266622055718314
210
0.0
220
0.0
230
-1.0
100
AcDbArc
 50
90.0247674731283
 51
179.975232776982
  0
CIRCLE
  5
1FA
330
1F
100
AcDbEntity
  8
0
  6
CONTINUOUS
 62
     7
100
AcDbCircle
 10
74.99999999999979
 20
250.0000000000002
 30
0.0
 40
9.500000000000064
  0
LINE
  5
1FB
330
1F
100
AcDbEntity
  8
0
  6
CONTINUOUS
 62
     7
100
AcDbLine
 10
-77.85068927234367
 20
250.5000020080295
 30
0.0
 11
-77.83575130188595
 21
250.4535838083272
 31
0.0
  0
LINE
  5
1FC
330
1F
100
AcDbEntity
  8
0
  6
CONTINUOUS
 62
     7
100
AcDbLine
 10
-99.28385405489415
 20
250.5820688581939
 30
0.0
 11
-98.5785733301584
 21
250.6442261503163
 31
0.0
  0
LINE
  5
1FD
330
1F
100
AcDbEntity
  8
0
  6
CONTINUOUS
 62
     7
100
AcDbLine
 10
-98.57857318696605
 20
249.3557717761484
 30
0.0
 11
-99.2838537091885
 21
249.4179249152114
 31
0.0
  0
LINE
  5
1FE
330
1F
100
AcDbEntity
  8
0
  6
CONTINUOUS
 62
   253
100
AcDbLine
 10
-110.8327934691304
 20
221.401687471143
 30
0.0
 11
-110.8327934691304
 21
220.6511321211964
 31
0.0
  0
LINE
  5
1FF
330
1F
100
AcDbEntity
  8
0
  6
CONTINUOUS
 62
     7
100
AcDbLine
 10
-88.21793114180603
 20
260.4838540548941
 30
0.0
 11
-88.15577384968354
 21
259.7785733301584
 31
0.0
  0
LINE
  5
200
330
1F
100
AcDbEntity
  8
0
  6
CONTINUOUS
 62
     7
100
AcDbLine
 10
75.64422615031636
 20
259.7785733301585
 30
0.0
 11
74.35577177614839
 21
259.778573186966
 31
0.0
  0
LINE
  5
201
330
1F
100
AcDbEntity
  8
0
  6
CONTINUOUS
 62
     7
100
AcDbLine
 10
84.77857333015854
 20
249.3557738496836
 30
0.0
 11
84.77857318696607
 21
250.6442282238516
 31
0.0
  0
LINE
  5
202
330
1F
100
AcDbEntity
  8
0
  6
CONTINUOUS
 62
     7
100
AcDbLine
 10
-88.15577177614836
 20
240.2214268130339
 30
0.0
 11
-88.2179249152113
 21
239.5161462908114
 31
0.0
  0
CIRCLE
  5
203
330
1F
100
AcDbEntity
  8
0
  6
CONTINUOUS
 62
   253
100
AcDbCircle
 10
-88.79999999999993
 20
250.0000000000002
 30
0.0
 40
10.987249772973
  0
LINE
  5
204
330
1F
100
AcDbEntity
  8
0
  6
CONTINUOUS
 62
     7
100
AcDbLine
 10
75.58207508478858
 20
239.5161462908115
 30
0.0
 11
75.50000200802931
 21
239.0506892723435
 31
0.0
  0
LINE
  5
205
330
1F
100
AcDbEntity
  8
0
  6
CONTINUOUS
 62
     7
100
AcDbLine
 10
-99.28385370918852
 20
249.4179249152114
 30
0.0
 11
-99.74931072765631
 21
249.4999979919706
 31
0.0
  0
LINE
  5
206
330
1F
100
AcDbEntity
  8
0
  6
CONTINUOUS
 62
     7
100
AcDbLine
 10
-88.21792491521136
 20
239.5161462908115
 30
0.0
 11
-88.2999979919706
 21
239.0506892723435
 31
0.0
  0
LINE
  5
207
330
1F
100
AcDbEntity
  8
0
  6
CONTINUOUS
 62
     7
100
AcDbLine
 10
-111.3483125288572
 20
221.9172067124223
 30
0.0
 11
-111.3483125288571
 21
278.0827934691321
 31
0.0
  0
LINE
  5
208
330
1F
100
AcDbEntity
  8
0
  6
CONTINUOUS
 62
   253
100
AcDbLine
 10
-111.3483125288572
 20
221.9172067124223
 30
0.0
 11
-112.0988678788036
 21
221.9172065363963
 31
0.0
  0
LINE
  5
209
330
1F
100
AcDbEntity
  8
0
  6
CONTINUOUS
 62
     7
100
AcDbLine
 10
-89.29999407772677
 20
239.0506889102075
 30
0.0
 11
-89.38206885819389
 21
239.5161459451057
 31
0.0
  0
LINE
  5
20A
330
1F
100
AcDbEntity
  8
0
  6
CONTINUOUS
 62
     7
100
AcDbLine
 10
-78.31614594510583
 20
249.4179311418063
 30
0.0
 11
-79.02142666984153
 21
249.3557738496836
 31
0.0
  0
ARC
  5
20B
330
1F
100
AcDbEntity
  8
0
  6
CONTINUOUS
 62
     7
100
AcDbCircle
 10
-91.08224594142261
 20
278.0822459414249
 30
0.0
 40
1.266622055719702
210
0.0
220
0.0
230
-1.0
100
AcDbArc
 50
90.02476747316406
 51
179.9752327769179
  0
LINE
  5
20C
330
1F
100
AcDbEntity
  8
0
  6
CONTINUOUS
 62
     7
100
AcDbLine
 10
58.9172067124451
 20
278.598312528857
 30
0.0
 11
91.08279346912998
 21
278.598312528857
 31
0.0
  0
LINE
  5
20D
330
1F
100
AcDbEntity
  8
0
  6
CONTINUOUS
 62
     7
100
AcDbLine
 10
58.40168747114299
 20
221.9172067124281
 30
0.0
 11
58.40168747114299
 21
278.0827934691279
 31
0.0
  0
LINE
  5
20E
330
1F
100
AcDbEntity
  8
0
  6
CONTINUOUS
 62
     7
100
AcDbLine
 10
-99.76424902876052
 20
250.4535758202688
 30
0.0
 11
-99.74931108979249
 21
250.4999940777268
 31
0.0
  0
LINE
  5
20F
330
1F
100
AcDbEntity
  8
0
  6
CONTINUOUS
 62
     7
100
AcDbLine
 10
85.9642490287607
 20
249.546424179731
 30
0.0
 11
85.9493110897925
 21
249.5000059222733
 31
0.0
  0
ARC
  5
210
330
1F
100
AcDbEntity
  8
0
  6
CONTINUOUS
 62
     7
100
AcDbCircle
 10
-58.91775405857685
 20
221.9177540585744
 30
0.0
 40
1.266622055719091
210
0.0
220
0.0
230
-1.0
100
AcDbArc
 50
270.0247674731678
 51
359.9752327769444
  0
LINE
  5
211
330
1F
100
AcDbEntity
  8
0
  6
CONTINUOUS
 62
     7
100
AcDbLine
 10
-88.29999799197059
 20
239.0506892723434
 30
0.0
 11
-88.3464161916728
 21
239.035751301886
 31
0.0
  0
LINE
  5
212
330
1F
100
AcDbEntity
  8
0
  6
CONTINUOUS
 62
     7
100
AcDbLine
 10
64.51614594510585
 20
250.5820688581939
 30
0.0
 11
65.22142666984159
 21
250.6442261503163
 31
0.0
  0
LINE
  5
213
330
1F
100
AcDbEntity
  8
0
  6
CONTINUOUS
 62
     7
100
AcDbLine
 10
84.77857318696607
 20
250.6442282238516
 30
0.0
 11
85.48385370918857
 21
250.5820750847888
 31
0.0
  0
LINE
  5
214
330
1F
100
AcDbEntity
  8
0
  6
CONTINUOUS
 62
     7
100
AcDbLine
 10
-89.30000200802934
 20
260.9493107276564
 30
0.0
 11
-89.25358380832712
 21
260.9642486981141
 31
0.0
  0
LINE
  5
215
330
1F
100
AcDbEntity
  8
0
  6
CONTINUOUS
 62
     7
100
AcDbLine
 10
-89.38206885819383
 20
239.5161459451057
 30
0.0
 11
-89.44422615031637
 21
240.2214266698415
 31
0.0
  0
LINE
  5
216
330
1F
100
AcDbEntity
  8
0
  6
CONTINUOUS
 62
     7
100
AcDbLine
 10
-112.0988678788036
 20
221.9172065363963
 30
0.0
 11
-112.0988678788036
 21
278.082793469132
 31
0.0
  0
LINE
  5
217
330
1F
100
AcDbEntity
  8
0
  6
CONTINUOUS
 62
     7
100
AcDbLine
 10
-66.76720653639617
 20
220.6511321211964
 30
0.0
 11
-110.8327934691304
 21
220.6511321211964
 31
0.0
  0
LINE
  5
218
330
1F
100
AcDbEntity
  8
0
  6
CONTINUOUS
 62
     7
100
AcDbLine
 10
74.35577384968367
 20
240.2214266698415
 30
0.0
 11
75.64422822385156
 21
240.2214268130339
 31
0.0
  0
LINE
  5
219
330
1F
100
AcDbEntity
  8
0
  6
CONTINUOUS
 62
   253
100
AcDbLine
 10
-111.3483125288571
 20
278.0827934691321
 30
0.0
 11
-112.0988678788036
 21
278.0827934691321
 31
0.0
  0
LINE
  5
21A
330
1F
100
AcDbEntity
  8
0
  6
CONTINUOUS
 62
     7
100
AcDbLine
 10
65.22142666984159
 20
250.6442261503163
 30
0.0
 11
65.22142681303397
 21
249.3557717761484
 31
0.0
  0
LINE
  5
21B
330
1F
100
AcDbEntity
  8
0
  6
CONTINUOUS
 62
     7
100
AcDbLine
 10
-110.8327934636037
 20
279.3488678788037
 30
0.0
 11
-66.76720653086952
 21
279.3488678788037
 31
0.0
  0
LINE
  5
21C
330
1F
100
AcDbEntity
  8
0
  6
CONTINUOUS
 62
     7
100
AcDbLine
 10
75.50000200802937
 20
239.0506892723434
 30
0.0
 11
75.45358380832731
 21
239.035751301886
 31
0.0
  0
LINE
  5
21D
330
1F
100
AcDbEntity
  8
0
  6
CONTINUOUS
 62
     7
100
AcDbLine
 10
-79.02142681303387
 20
250.6442282238516
 30
0.0
 11
-78.31614629081146
 21
250.5820750847889
 31
0.0
  0
LINE
  5
21E
330
1F
100
AcDbEntity
  8
0
  6
CONTINUOUS
 62
     7
100
AcDbLine
 10
75.45357582026895
 20
260.9642490287607
 30
0.0
 11
75.49999407772698
 21
260.9493110897924
 31
0.0
  0
LINE
  5
21F
330
1F
100
AcDbEntity
  8
0
  6
CONTINUOUS
 62
     7
100
AcDbLine
 10
65.221426813034
 20
249.3557717761484
 30
0.0
 11
64.5161462908115
 21
249.4179249152114
 31
0.0
  0
LINE
  5
220
330
1F
100
AcDbEntity
  8
0
  6
CONTINUOUS
 62
     7
100
AcDbLine
 10
-99.74931072765631
 20
249.4999979919706
 30
0.0
 11
-99.76424869811402
 21
249.5464161916728
 31
0.0
  0
LINE
  5
221
330
1F
100
AcDbEntity
  8
0
  6
CONTINUOUS
 62
     7
100
AcDbLine
 10
85.48385405489428
 20
249.4179311418063
 30
0.0
 11
84.77857333015854
 21
249.3557738496836
 31
0.0
  0
CIRCLE
  5
222
330
1F
100
AcDbEntity
  8
0
  6
CONTINUOUS
 62
     7
100
AcDbCircle
 10
-88.79999999999993
 20
250.0000000000002
 30
0.0
 40
9.499999999999952
  0
LINE
  5
223
330
1F
100
AcDbEntity
  8
0
  6
CONTINUOUS
 62
     7
100
AcDbLine
 10
74.35577177614843
 20
259.778573186966
 30
0.0
 11
74.41792491521154
 21
260.4838537091886
 31
0.0
  0
LINE
  5
224
330
1F
100
AcDbEntity
  8
0
  6
CONTINUOUS
 62
     7
100
AcDbLine
 10
74.49999799197043
 20
260.9493107276564
 30
0.0
 11
74.54641619167273
 21
260.9642486981141
 31
0.0
  0
CIRCLE
  5
225
330
1F
100
AcDbEntity
  8
0
  6
CONTINUOUS
 62
   253
100
AcDbCircle
 10
88.79999999999993
 20
250.0000000000002
 30
0.0
 40
11.48707843546082
210
0.0
220
0.0
230
-1.0
  0
LINE
  5
226
330
1F
100
AcDbEntity
  8
0
  6
CONTINUOUS
 62
     7
100
AcDbLine
 10
75.58206885819413
 20
260.4838540548941
 30
0.0
 11
75.64422615031637
 21
259.7785733301584
 31
0.0
  0
LINE
  5
227
330
1F
100
AcDbEntity
  8
0
  6
CONTINUOUS
 62
     7
100
AcDbLine
 10
-88.34642417973099
 20
260.9642490287607
 30
0.0
 11
-88.30000592227317
 21
260.9493110897924
 31
0.0
  0
LINE
  5
228
330
1F
100
AcDbEntity
  8
0
  6
CONTINUOUS
 62
     7
100
AcDbLine
 10
-77.83575097123946
 20
249.546424179731
 30
0.0
 11
-77.85068891020745
 21
249.5000059222733
 31
0.0
  0
LINE
  5
229
330
1F
100
AcDbEntity
  8
0
  6
CONTINUOUS
 62
     7
100
AcDbLine
 10
-89.44422615031638
 20
240.2214266698415
 30
0.0
 11
-88.15577177614837
 21
240.2214268130339
 31
0.0
  0
LINE
  5
22A
330
1F
100
AcDbEntity
  8
0
  6
CONTINUOUS
 62
     7
100
AcDbLine
 10
64.05068927234365
 20
249.4999979919706
 30
0.0
 11
64.03575130188588
 21
249.5464161916728
 31
0.0
  0
LINE
  5
22B
330
1F
100
AcDbEntity
  8
0
  6
CONTINUOUS
 62
     7
100
AcDbLine
 10
32.28946015174666
 20
269.6843723914839
 30
0.0
 11
32.32338761829409
 21
269.7152734194032
 31
0.0
  0
ARC
  5
22C
330
1F
100
AcDbEntity
  8
0
  6
CONTINUOUS
 62
     7
100
AcDbCircle
 10
-156.0
 20
222.5
 30
0.0
 40
2.249999999999946
100
AcDbArc
 50
76.12762021316014
 51
103.8723797868391
  0
LINE
  5
22D
330
1F
100
AcDbEntity
  8
0
  6
CONTINUOUS
 62
   253
100
AcDbLine
 10
19.60000000000012
 20
264.5
 30
0.0
 11
21.10000000000012
 21
264.5
 31
0.0
  0
LINE
  5
22E
330
1F
100
AcDbEntity
  8
0
  6
CONTINUOUS
 62
     7
100
AcDbLine
 10
-145.4117234250361
 20
265.1436472417667
 30
0.0
 11
-145.4117234250361
 21
266.8563527582332
 31
0.0
  0
ARC
  5
22F
330
1F
100
AcDbEntity
  8
0
  6
CONTINUOUS
 62
     7
100
AcDbCircle
 10
136.0000000000001
 20
250.0000000000002
 30
0.0
 40
2.25000000000003
100
AcDbArc
 50
13.87237978683981
 51
76.12762021316084
  0
LINE
  5
230
330
1F
100
AcDbEntity
  8
0
  6
CONTINUOUS
 62
     7
100
AcDbLine
 10
21.10000000000006
 20
266.9226497308103
 30
0.0
 11
21.06172342503615
 21
266.8563527582333
 31
0.0
  0
ARC
  5
231
330
1F
100
AcDbEntity
  8
0
  6
CONTINUOUS
 62
     7
100
AcDbCircle
 10
-31.75000000000011
 20
267.5
 30
0.0
 40
2.25000000000003
210
0.0
220
0.0
230
-1.0
100
AcDbArc
 50
76.12762021316007
 51
103.8723797868392
  0
ARC
  5
232
330
1F
100
AcDbEntity
  8
0
  6
CONTINUOUS
 62
     7
100
AcDbCircle
 10
31.75000000000011
 20
267.5
 30
0.0
 40
2.288276574963832
100
AcDbArc
 50
15.14320122359755
 51
75.48838944353264
  0
LINE
  5
233
330
1F
100
AcDbEntity
  8
0
  6
CONTINUOUS
 62
     7
100
AcDbLine
 10
31.21053984825317
 20
269.6843723914839
 30
0.0
 11
31.17661238170578
 21
269.7152734194032
 31
0.0
  0
ARC
  5
234
330
1F
100
AcDbEntity
  8
0
  6
CONTINUOUS
 62
     7
100
AcDbCircle
 10
-139.3
 20
267.5
 30
0.0
 40
2.250000000000002
100
AcDbArc
 50
166.1276202131613
 51
180.0000000000001
  0
LINE
  5
235
330
1F
100
AcDbEntity
  8
0
  6
CONTINUOUS
 62
   253
100
AcDbLine
 10
34.00000000000009
 20
267.5
 30
0.0
 11
35.50000000000009
 21
267.5
 31
0.0
  0
LINE
  5
236
330
1F
100
AcDbEntity
  8
0
  6
CONTINUOUS
 62
     7
100
AcDbLine
 10
-138.7605398482534
 20
269.6843723914839
 30
0.0
 11
-138.7266123817058
 21
269.7152734194032
 31
0.0
  0
ARC
  5
237
330
1F
100
AcDbEntity
  8
0
  6
CONTINUOUS
 62
     7
100
AcDbCircle
 10
-139.3
 20
267.5
 30
0.0
 40
2.250000000000002
100
AcDbArc
 50
0.0000000000000883
 51
13.87237978683852
  0
ARC
  5
238
330
1F
100
AcDbEntity
  8
0
  6
CONTINUOUS
 62
     7
100
AcDbCircle
 10
-156.0
 20
222.5
 30
0.0
 40
2.250000000000002
100
AcDbArc
 50
103.8723797868398
 51
166.1276202131606
  0
ARC
  5
239
330
1F
100
AcDbEntity
  8
0
  6
CONTINUOUS
 62
     7
100
AcDbCircle
 10
23.35000000000009
 20
264.5
 30
0.0
 40
2.288276574963832
100
AcDbArc
 50
195.1432012235985
 51
255.4883894435318
  0
ARC
  5
23A
330
1F
100
AcDbEntity
  8
0
  6
CONTINUOUS
 62
     7
100
AcDbCircle
 10
-156.0
 20
222.5
 30
0.0
 40
2.25000000000003
100
AcDbArc
 50
283.8723797868398
 51
346.1276202131605
  0
ARC
  5
23B
330
1F
100
AcDbEntity
  8
0
  6
CONTINUOUS
 62
     7
100
AcDbCircle
 10
23.35000000000009
 20
267.5
 30
0.0
 40
2.25000000000003
100
AcDbArc
 50
166.1276202131613
 51
180.0
  0
LINE
  5
23C
330
1F
100
AcDbEntity
  8
0
  6
CONTINUOUS
 62
   253
100
AcDbLine
 10
-141.55
 20
267.5
 30
0.0
 11
-143.05
 21
267.5
 31
0.0
  0
ARC
  5
23D
330
1F
100
AcDbEntity
  8
0
  6
CONTINUOUS
 62
     7
100
AcDbCircle
 10
-156.0
 20
222.5
 30
0.0
 40
2.249999999999974
100
AcDbArc
 50
13.87237978683997
 51
76.12762021316084
  0
LINE
  5
23E
330
1F
100
AcDbEntity
  8
0
  6
CONTINUOUS
 62
     7
100
AcDbLine
 10
25.60000000000012
 20
266.9226497308103
 30
0.0
 11
25.638276574964
 21
266.8563527582332
 31
0.0
  0
ARC
  5
23F
330
1F
100
AcDbEntity
  8
0
  6
CONTINUOUS
 62
     7
100
AcDbCircle
 10
139.3
 20
267.5
 30
0.0
 40
2.250000000000002
210
0.0
220
0.0
230
-1.0
100
AcDbArc
 50
76.12762021316007
 51
103.8723797868392
  0
ARC
  5
240
330
1F
100
AcDbEntity
  8
0
  6
CONTINUOUS
 62
     7
100
AcDbCircle
 10
-139.3
 20
267.5
 30
0.0
 40
2.288276574963832
100
AcDbArc
 50
104.5116105564681
 51
164.8567987764021
  0
LINE
  5
241
330
1F
100
AcDbEntity
  8
0
  6
CONTINUOUS
 62
     7
100
AcDbLine
 10
25.60000000000012
 20
267.5
 30
0.0
 11
25.60000000000012
 21
266.9226497308103
 31
0.0
  0
LINE
  5
242
330
1F
100
AcDbEntity
  8
0
  6
CONTINUOUS
 62
   253
100
AcDbLine
 10
21.10000000000006
 20
267.5
 30
0.0
 11
19.60000000000006
 21
267.5
 31
0.0
  0
LINE
  5
243
330
1F
100
AcDbEntity
  8
0
  6
CONTINUOUS
 62
   253
100
AcDbLine
 10
-145.45
 20
267.5
 30
0.0
 11
-143.95
 21
267.5
 31
0.0
  0
LINE
  5
244
330
1F
100
AcDbEntity
  8
0
  6
CONTINUOUS
 62
   253
100
AcDbLine
 10
-143.05
 20
264.5
 30
0.0
 11
-141.55
 21
264.5
 31
0.0
  0
LINE
  5
245
330
1F
100
AcDbEntity
  8
0
  6
CONTINUOUS
 62
   253
100
AcDbLine
 10
-143.95
 20
264.5
 30
0.0
 11
-145.45
 21
264.5
 31
0.0
  0
LINE
  5
246
330
1F
100
AcDbEntity
  8
0
  6
CONTINUOUS
 62
     7
100
AcDbLine
 10
-145.45
 20
264.5
 30
0.0
 11
-145.45
 21
265.0773502691897
 31
0.0
  0
LINE
  5
247
330
1F
100
AcDbEntity
  8
0
  6
CONTINUOUS
 62
     7
100
AcDbLine
 10
25.60000000000012
 20
265.0773502691897
 30
0.0
 11
25.638276574964
 21
265.1436472417668
 31
0.0
  0
LINE
  5
248
330
1F
100
AcDbEntity
  8
0
  6
CONTINUOUS
 62
     7
100
AcDbLine
 10
-145.4499999999998
 20
266.9226497308103
 30
0.0
 11
-145.4117234250362
 21
266.8563527582332
 31
0.0
  0
LINE
  5
249
330
1F
100
AcDbEntity
  8
0
  6
CONTINUOUS
 62
     7
100
AcDbLine
 10
33.93437239148395
 20
268.0394601517465
 30
0.0
 11
33.95881831070327
 21
268.0977719915066
 31
0.0
  0
ARC
  5
24A
330
1F
100
AcDbEntity
  8
0
  6
CONTINUOUS
 62
     7
100
AcDbCircle
 10
-155.9999999999999
 20
222.5
 30
0.0
 40
2.250000000000002
100
AcDbArc
 50
256.1276202131601
 51
283.8723797868391
  0
ARC
  5
24B
330
1F
100
AcDbEntity
  8
0
  6
CONTINUOUS
 62
     7
100
AcDbCircle
 10
136.0000000000001
 20
250.0000000000002
 30
0.0
 40
2.25000000000003
100
AcDbArc
 50
193.8723797868398
 51
256.1276202131609
  0
ARC
  5
24C
330
1F
100
AcDbEntity
  8
0
  6
CONTINUOUS
 62
     7
100
AcDbCircle
 10
-139.3
 20
267.5
 30
0.0
 40
2.288276574963832
100
AcDbArc
 50
15.14320122359755
 51
75.48838944353271
  0
ARC
  5
24D
330
1F
100
AcDbEntity
  8
0
  6
CONTINUOUS
 62
     7
100
AcDbCircle
 10
23.35000000000009
 20
267.5
 30
0.0
 40
2.288276574963888
100
AcDbArc
 50
15.14320122359809
 51
75.4883894435321
  0
LINE
  5
24E
330
1F
100
AcDbEntity
  8
0
  6
CONTINUOUS
 62
     7
100
AcDbLine
 10
-137.115627608516
 20
268.0394601517465
 30
0.0
 11
-137.0911816892966
 21
268.0977719915066
 31
0.0
  0
ARC
  5
24F
330
1F
100
AcDbEntity
  8
0
  6
CONTINUOUS
 62
     7
100
AcDbCircle
 10
-147.7
 20
264.5
 30
0.0
 40
2.250000000000002
100
AcDbArc
 50
256.1276202131601
 51
283.8723797868394
  0
LINE
  5
250
330
1F
100
AcDbEntity
  8
0
  6
CONTINUOUS
 62
     7
100
AcDbLine
 10
-139.8394601517467
 20
269.6843723914839
 30
0.0
 11
-139.8733876182942
 21
269.7152734194032
 31
0.0
  0
LINE
  5
251
330
1F
100
AcDbEntity
  8
0
  6
CONTINUOUS
 62
     7
100
AcDbLine
 10
-141.484372391484
 20
268.0394601517465
 30
0.0
 11
-141.5088183107034
 21
268.0977719915066
 31
0.0
  0
LINE
  5
252
330
1F
100
AcDbEntity
  8
0
  6
CONTINUOUS
 62
     7
100
AcDbLine
 10
21.10000000000006
 20
267.5
 30
0.0
 11
21.10000000000006
 21
266.9226497308103
 31
0.0
  0
ARC
  5
253
330
1F
100
AcDbEntity
  8
0
  6
CONTINUOUS
 62
     7
100
AcDbCircle
 10
31.75000000000011
 20
267.5
 30
0.0
 40
2.288276574963777
100
AcDbArc
 50
104.5116105564681
 51
164.8567987764018
  0
LINE
  5
254
330
1F
100
AcDbEntity
  8
0
  6
CONTINUOUS
 62
     7
100
AcDbLine
 10
25.60000000000012
 20
264.5
 30
0.0
 11
25.60000000000012
 21
265.0773502691897
 31
0.0
  0
ARC
  5
255
330
1F
100
AcDbEntity
  8
0
  6
CONTINUOUS
 62
     7
100
AcDbCircle
 10
136.0000000000001
 20
250.0000000000002
 30
0.0
 40
2.25000000000003
100
AcDbArc
 50
346.1276202131601
 51
13.87237978683913
  0
ARC
  5
256
330
1F
100
AcDbEntity
  8
0
  6
CONTINUOUS
 62
     7
100
AcDbCircle
 10
136.0000000000001
 20
250.0000000000002
 30
0.0
 40
2.25000000000003
100
AcDbArc
 50
283.8723797868398
 51
346.1276202131608
  0
ARC
  5
257
330
1F
100
AcDbEntity
  8
0
  6
CONTINUOUS
 62
     7
100
AcDbCircle
 10
-156.0
 20
222.5
 30
0.0
 40
2.25000000000003
100
AcDbArc
 50
193.8723797868394
 51
256.1276202131608
  0
ARC
  5
258
330
1F
100
AcDbEntity
  8
0
  6
CONTINUOUS
 62
     7
100
AcDbCircle
 10
31.75000000000011
 20
267.5
 30
0.0
 40
2.249999999999974
100
AcDbArc
 50
0.0000000000000883
 51
13.87237978683844
  0
ARC
  5
259
330
1F
100
AcDbEntity
  8
0
  6
CONTINUOUS
 62
     7
100
AcDbCircle
 10
23.35000000000009
 20
267.5
 30
0.0
 40
2.25000000000003
100
AcDbArc
 50
0.0000000000000883
 51
13.87237978683842
  0
LINE
  5
25A
330
1F
100
AcDbEntity
  8
0
  6
CONTINUOUS
 62
     7
100
AcDbLine
 10
21.10000000000006
 20
265.0773502691897
 30
0.0
 11
21.06172342503615
 21
265.1436472417667
 31
0.0
  0
ARC
  5
25B
330
1F
100
AcDbEntity
  8
0
  6
CONTINUOUS
 62
     7
100
AcDbCircle
 10
23.35000000000009
 20
267.5
 30
0.0
 40
2.288276574963832
100
AcDbArc
 50
104.5116105564683
 51
164.8567987764016
  0
LINE
  5
25C
330
1F
100
AcDbEntity
  8
0
  6
CONTINUOUS
 62
     7
100
AcDbLine
 10
21.10000000000006
 20
264.5
 30
0.0
 11
21.10000000000006
 21
265.0773502691897
 31
0.0
  0
LINE
  5
25D
330
1F
100
AcDbEntity
  8
0
  6
CONTINUOUS
 62
     7
100
AcDbLine
 10
22.81053984825348
 20
269.6843723914839
 30
0.0
 11
22.77661238170581
 21
269.7152734194032
 31
0.0
  0
ARC
  5
25E
330
1F
100
AcDbEntity
  8
0
  6
CONTINUOUS
 62
     7
100
AcDbCircle
 10
-156.0
 20
222.5
 30
0.0
 40
2.25000000000003
100
AcDbArc
 50
346.12762021316
 51
13.87237978683908
  0
LINE
  5
25F
330
1F
100
AcDbEntity
  8
0
  6
CONTINUOUS
 62
     7
100
AcDbLine
 10
25.63827657496398
 20
265.1436472417667
 30
0.0
 11
25.63827657496398
 21
266.8563527582332
 31
0.0
  0
LINE
  5
260
330
1F
100
AcDbEntity
  8
0
  6
CONTINUOUS
 62
     7
100
AcDbLine
 10
23.88946015174664
 20
269.6843723914839
 30
0.0
 11
23.92338761829407
 21
269.7152734194032
 31
0.0
  0
LINE
  5
261
330
1F
100
AcDbEntity
  8
0
  6
CONTINUOUS
 62
     7
100
AcDbLine
 10
-145.45
 20
265.0773502691897
 30
0.0
 11
-145.4117234250361
 21
265.1436472417668
 31
0.0
  0
LINE
  5
262
330
1F
100
AcDbEntity
  8
0
  6
CONTINUOUS
 62
     7
100
AcDbLine
 10
21.06172342503615
 20
266.8563527582332
 30
0.0
 11
21.06172342503615
 21
265.1436472417667
 31
0.0
  0
ARC
  5
263
330
1F
100
AcDbEntity
  8
0
  6
CONTINUOUS
 62
     7
100
AcDbCircle
 10
31.75000000000011
 20
267.5
 30
0.0
 40
2.25000000000003
100
AcDbArc
 50
166.1276202131613
 51
180.0000000000001
  0
LINE
  5
264
330
1F
100
AcDbEntity
  8
0
  6
CONTINUOUS
 62
     7
100
AcDbLine
 10
29.56562760851594
 20
268.0394601517465
 30
0.0
 11
29.54118168929654
 21
268.0977719915066
 31
0.0
  0
LINE
  5
265
330
1F
100
AcDbEntity
  8
0
  6
CONTINUOUS
 62
     7
100
AcDbLine
 10
21.16562760851598
 20
268.0394601517465
 30
0.0
 11
21.14118168929657
 21
268.0977719915066
 31
0.0
  0
LINE
  5
266
330
1F
100
AcDbEntity
  8
0
  6
CONTINUOUS
 62
     7
100
AcDbLine
 10
-145.45
 20
267.5
 30
0.0
 11
-145.4499999999998
 21
266.9226497308103
 31
0.0
  0
ARC
  5
267
330
1F
100
AcDbEntity
  8
0
  6
CONTINUOUS
 62
     7
100
AcDbCircle
 10
-23.35000000000009
 20
267.5
 30
0.0
 40
2.25000000000003
210
0.0
220
0.0
230
-1.0
100
AcDbArc
 50
76.1276202131603
 51
103.8723797868391
  0
LINE
  5
268
330
1F
100
AcDbEntity
  8
0
  6
CONTINUOUS
 62
     7
100
AcDbLine
 10
25.53437239148387
 20
268.0394601517465
 30
0.0
 11
25.55881831070324
 21
268.0977719915066
 31
0.0
  0
ARC
  5
269
330
1F
100
AcDbEntity
  8
0
  6
CONTINUOUS
 62
     7
100
AcDbCircle
 10
-156.0
 20
222.5
 30
0.0
 40
2.25000000000003
100
AcDbArc
 50
166.1276202131603
 51
193.8723797868391
  0
ARC
  5
26A
330
1F
100
AcDbEntity
  8
0
  6
CONTINUOUS
 62
     7
100
AcDbCircle
 10
136.0000000000001
 20
250.0000000000002
 30
0.0
 40
2.25000000000003
100
AcDbArc
 50
256.1276202131601
 51
283.8723797868391
  0
LINE
  5
26B
330
1F
100
AcDbEntity
  8
0
  6
CONTINUOUS
 62
     7
100
AcDbLine
 10
34.00000000000009
 20
266.9226497308103
 30
0.0
 11
34.038276574964
 21
266.8563527582333
 31
0.0
  0
LINE
  5
26C
330
1F
100
AcDbEntity
  8
0
  6
CONTINUOUS
 62
     7
100
AcDbLine
 10
-149.95
 20
267.5
 30
0.0
 11
-149.95
 21
266.9226497308103
 31
0.0
  0
LINE
  5
26D
330
1F
100
AcDbEntity
  8
0
  6
CONTINUOUS
 62
     7
100
AcDbLine
 10
34.00000000000009
 20
264.5
 30
0.0
 11
34.00000000000009
 21
265.0773502691897
 31
0.0
  0
ARC
  5
26E
330
1F
100
AcDbEntity
  8
0
  6
CONTINUOUS
 62
     7
100
AcDbCircle
 10
-156.0
 20
277.4999999999999
 30
0.0
 40
2.249999999999946
100
AcDbArc
 50
283.8723797868392
 51
346.1276202131599
  0
LINE
  5
26F
330
1F
100
AcDbEntity
  8
0
  6
CONTINUOUS
 62
   253
100
AcDbLine
 10
-149.95
 20
267.5
 30
0.0
 11
-151.4499999999999
 21
267.5
 31
0.0
  0
ARC
  5
270
330
1F
100
AcDbEntity
  8
0
  6
CONTINUOUS
 62
     7
100
AcDbCircle
 10
-147.7
 20
267.5
 30
0.0
 40
2.288276574963832
100
AcDbArc
 50
15.14320122359816
 51
75.48838944353201
  0
ARC
  5
271
330
1F
100
AcDbEntity
  8
0
  6
CONTINUOUS
 62
     7
100
AcDbCircle
 10
-147.7
 20
267.5
 30
0.0
 40
2.250000000000002
100
AcDbArc
 50
166.1276202131613
 51
180.0
  0
LINE
  5
272
330
1F
100
AcDbEntity
  8
0
  6
CONTINUOUS
 62
     7
100
AcDbLine
 10
-141.55
 20
265.0773502691897
 30
0.0
 11
-141.5882765749638
 21
265.1436472417668
 31
0.0
  0
LINE
  5
273
330
1F
100
AcDbEntity
  8
0
  6
CONTINUOUS
 62
     7
100
AcDbLine
 10
-137.115627608516
 20
263.9605398482533
 30
0.0
 11
-137.0911816892966
 21
263.9022280084934
 31
0.0
  0
ARC
  5
274
330
1F
100
AcDbEntity
  8
0
  6
CONTINUOUS
 62
     7
100
AcDbCircle
 10
-147.7
 20
264.5
 30
0.0
 40
2.250000000000002
100
AcDbArc
 50
180.0000000000002
 51
193.8723797868386
  0
LINE
  5
275
330
1F
100
AcDbEntity
  8
0
  6
CONTINUOUS
 62
     7
100
AcDbLine
 10
-145.515627608516
 20
268.0394601517465
 30
0.0
 11
-145.4911816892966
 21
268.0977719915066
 31
0.0
  0
LINE
  5
276
330
1F
100
AcDbEntity
  8
0
  6
CONTINUOUS
 62
     7
100
AcDbLine
 10
-141.5882765749638
 20
266.8563527582332
 30
0.0
 11
-141.5882765749638
 21
265.1436472417667
 31
0.0
  0
LINE
  5
277
330
1F
100
AcDbEntity
  8
0
  6
CONTINUOUS
 62
     7
100
AcDbLine
 10
-141.484372391484
 20
263.9605398482533
 30
0.0
 11
-141.5088183107034
 21
263.9022280084934
 31
0.0
  0
ARC
  5
278
330
1F
100
AcDbEntity
  8
0
  6
CONTINUOUS
 62
     7
100
AcDbCircle
 10
155.9999999999999
 20
277.4999999999999
 30
0.0
 40
2.25000000000003
210
0.0
220
0.0
230
-1.0
100
AcDbArc
 50
76.12762021316011
 51
103.8723797868392
  0
LINE
  5
279
330
1F
100
AcDbEntity
  8
0
  6
CONTINUOUS
 62
     7
100
AcDbLine
 10
-139.8394601517467
 20
262.3156276085159
 30
0.0
 11
-139.8733876182942
 21
262.2847265805966
 31
0.0
  0
ARC
  5
27A
330
1F
100
AcDbEntity
  8
0
  6
CONTINUOUS
 62
     7
100
AcDbCircle
 10
-139.3
 20
264.5
 30
0.0
 40
2.288276574963888
100
AcDbArc
 50
195.143201223598
 51
255.4883894435312
  0
LINE
  5
27B
330
1F
100
AcDbEntity
  8
0
  6
CONTINUOUS
 62
     7
100
AcDbLine
 10
-141.55
 20
266.9226497308103
 30
0.0
 11
-141.5882765749638
 21
266.8563527582332
 31
0.0
  0
LINE
  5
27C
330
1F
100
AcDbEntity
  8
0
  6
CONTINUOUS
 62
     7
100
AcDbLine
 10
-141.55
 20
264.5
 30
0.0
 11
-141.55
 21
265.0773502691897
 31
0.0
  0
ARC
  5
27D
330
1F
100
AcDbEntity
  8
0
  6
CONTINUOUS
 62
     7
100
AcDbCircle
 10
-156.0
 20
277.4999999999999
 30
0.0
 40
2.250000000000002
100
AcDbArc
 50
193.8723797868396
 51
256.1276202131601
  0
ARC
  5
27E
330
1F
100
AcDbEntity
  8
0
  6
CONTINUOUS
 62
     7
100
AcDbCircle
 10
156.0
 20
277.4999999999999
 30
0.0
 40
2.250000000000002
210
0.0
220
0.0
230
-1.0
100
AcDbArc
 50
166.1276202131602
 51
193.8723797868392
  0
LINE
  5
27F
330
1F
100
AcDbEntity
  8
0
  6
CONTINUOUS
 62
     7
100
AcDbLine
 10
34.00000000000009
 20
265.0773502691897
 30
0.0
 11
34.038276574964
 21
265.1436472417667
 31
0.0
  0
ARC
  5
280
330
1F
100
AcDbEntity
  8
0
  6
CONTINUOUS
 62
     7
100
AcDbCircle
 10
-139.3
 20
264.5
 30
0.0
 40
2.288276574963832
100
AcDbArc
 50
284.5116105564674
 51
344.8567987764026
  0
ARC
  5
281
330
1F
100
AcDbEntity
  8
0
  6
CONTINUOUS
 62
     7
100
AcDbCircle
 10
-156.0
 20
250.0000000000002
 30
0.0
 40
2.250000000000002
100
AcDbArc
 50
193.8723797868391
 51
256.1276202131601
  0
ARC
  5
282
330
1F
100
AcDbEntity
  8
0
  6
CONTINUOUS
 62
     7
100
AcDbCircle
 10
156.0
 20
277.4999999999999
 30
0.0
 40
2.25000000000003
210
0.0
220
0.0
230
-1.0
100
AcDbArc
 50
346.12762021316
 51
13.87237978683902
  0
LINE
  5
283
330
1F
100
AcDbEntity
  8
0
  6
CONTINUOUS
 62
     7
100
AcDbLine
 10
-138.7605398482534
 20
262.3156276085159
 30
0.0
 11
-138.7266123817058
 21
262.2847265805966
 31
0.0
  0
LINE
  5
284
330
1F
100
AcDbEntity
  8
0
  6
CONTINUOUS
 62
     7
100
AcDbLine
 10
-148.2394601517467
 20
269.6843723914839
 30
0.0
 11
-148.2733876182942
 21
269.7152734194032
 31
0.0
  0
LINE
  5
285
330
1F
100
AcDbEntity
  8
0
  6
CONTINUOUS
 62
   253
100
AcDbLine
 10
-151.4499999999999
 20
264.5
 30
0.0
 11
-149.95
 21
264.5
 31
0.0
  0
ARC
  5
286
330
1F
100
AcDbEntity
  8
0
  6
CONTINUOUS
 62
     7
100
AcDbCircle
 10
155.9999999999999
 20
250.0000000000002
 30
0.0
 40
2.25000000000003
210
0.0
220
0.0
230
-1.0
100
AcDbArc
 50
76.12762021316011
 51
103.8723797868392
  0
LINE
  5
287
330
1F
100
AcDbEntity
  8
0
  6
CONTINUOUS
 62
     7
100
AcDbLine
 10
-147.1605398482534
 20
262.3156276085163
 30
0.0
 11
-147.1266123817059
 21
262.2847265805965
 31
0.0
  0
ARC
  5
288
330
1F
100
AcDbEntity
  8
0
  6
CONTINUOUS
 62
     7
100
AcDbCircle
 10
-147.7
 20
264.5
 30
0.0
 40
2.250000000000002
100
AcDbArc
 50
346.1276202131614
 51
0.0000000000001137
  0
LINE
  5
289
330
1F
100
AcDbEntity
  8
0
  6
CONTINUOUS
 62
     7
100
AcDbLine
 10
34.038276574964
 20
265.1436472417667
 30
0.0
 11
34.038276574964
 21
266.8563527582332
 31
0.0
  0
ARC
  5
28A
330
1F
100
AcDbEntity
  8
0
  6
CONTINUOUS
 62
     7
100
AcDbCircle
 10
-139.3
 20
264.5
 30
0.0
 40
2.250000000000002
100
AcDbArc
 50
180.0
 51
193.8723797868388
  0
ARC
  5
28B
330
1F
100
AcDbEntity
  8
0
  6
CONTINUOUS
 62
     7
100
AcDbCircle
 10
-147.7
 20
264.5
 30
0.0
 40
2.288276574963832
100
AcDbArc
 50
284.5116105564674
 51
344.8567987764012
  0
LINE
  5
28C
330
1F
100
AcDbEntity
  8
0
  6
CONTINUOUS
 62
     7
100
AcDbLine
 10
-141.55
 20
267.5
 30
0.0
 11
-141.55
 21
266.9226497308103
 31
0.0
  0
LINE
  5
28D
330
1F
100
AcDbEntity
  8
0
  6
CONTINUOUS
 62
     7
100
AcDbLine
 10
-148.2394601517467
 20
262.3156276085159
 30
0.0
 11
-148.2733876182942
 21
262.2847265805966
 31
0.0
  0
ARC
  5
28E
330
1F
100
AcDbEntity
  8
0
  6
CONTINUOUS
 62
     7
100
AcDbCircle
 10
156.0
 20
250.0000000000002
 30
0.0
 40
2.250000000000002
210
0.0
220
0.0
230
-1.0
100
AcDbArc
 50
256.1276202131601
 51
283.8723797868391
  0
LINE
  5
28F
330
1F
100
AcDbEntity
  8
0
  6
CONTINUOUS
 62
     7
100
AcDbLine
 10
-149.95
 20
266.9226497308103
 30
0.0
 11
-149.9882765749638
 21
266.8563527582332
 31
0.0
  0
ARC
  5
290
330
1F
100
AcDbEntity
  8
0
  6
CONTINUOUS
 62
     7
100
AcDbCircle
 10
-147.7
 20
264.5
 30
0.0
 40
2.28827657496386
100
AcDbArc
 50
195.1432012235985
 51
255.4883894435313
  0
LINE
  5
291
330
1F
100
AcDbEntity
  8
0
  6
CONTINUOUS
 62
     7
100
AcDbLine
 10
-149.9882765749638
 20
266.8563527582332
 30
0.0
 11
-149.9882765749638
 21
265.1436472417667
 31
0.0
  0
ARC
  5
292
330
1F
100
AcDbEntity
  8
0
  6
CONTINUOUS
 62
     7
100
AcDbCircle
 10
156.0
 20
277.4999999999999
 30
0.0
 40
2.249999999999946
210
0.0
220
0.0
230
-1.0
100
AcDbArc
 50
256.1276202131601
 51
283.8723797868392
  0
ARC
  5
293
330
1F
100
AcDbEntity
  8
0
  6
CONTINUOUS
 62
     7
100
AcDbCircle
 10
-156.0
 20
250.0000000000002
 30
0.0
 40
2.249999999999974
100
AcDbArc
 50
13.87237978683926
 51
76.12762021316007
  0
ARC
  5
294
330
1F
100
AcDbEntity
  8
0
  6
CONTINUOUS
 62
     7
100
AcDbCircle
 10
-139.3
 20
264.5
 30
0.0
 40
2.250000000000002
100
AcDbArc
 50
346.1276202131614
 51
0.0000000000001137
  0
ARC
  5
295
330
1F
100
AcDbEntity
  8
0
  6
CONTINUOUS
 62
     7
100
AcDbCircle
 10
-139.3
 20
264.5
 30
0.0
 40
2.250000000000002
100
AcDbArc
 50
256.1276202131601
 51
283.8723797868391
  0
ARC
  5
296
330
1F
100
AcDbEntity
  8
0
  6
CONTINUOUS
 62
     7
100
AcDbCircle
 10
156.0
 20
250.0000000000002
 30
0.0
 40
2.250000000000002
210
0.0
220
0.0
230
-1.0
100
AcDbArc
 50
166.12762021316
 51
193.872379786839
  0
LINE
  5
297
330
1F
100
AcDbEntity
  8
0
  6
CONTINUOUS
 62
     7
100
AcDbLine
 10
-149.95
 20
264.5
 30
0.0
 11
-149.95
 21
265.0773502691897
 31
0.0
  0
LINE
  5
298
330
1F
100
AcDbEntity
  8
0
  6
CONTINUOUS
 62
     7
100
AcDbLine
 10
-149.95
 20
265.0773502691897
 30
0.0
 11
-149.9882765749638
 21
265.1436472417668
 31
0.0
  0
LINE
  5
299
330
1F
100
AcDbEntity
  8
0
  6
CONTINUOUS
 62
     7
100
AcDbLine
 10
-149.884372391484
 20
268.0394601517465
 30
0.0
 11
-149.9088183107033
 21
268.0977719915066
 31
0.0
  0
LINE
  5
29A
330
1F
100
AcDbEntity
  8
0
  6
CONTINUOUS
 62
     7
100
AcDbLine
 10
-149.884372391484
 20
263.9605398482533
 30
0.0
 11
-149.9088183107034
 21
263.9022280084934
 31
0.0
  0
LINE
  5
29B
330
1F
100
AcDbEntity
  8
0
  6
CONTINUOUS
 62
     7
100
AcDbLine
 10
-145.515627608516
 20
263.9605398482533
 30
0.0
 11
-145.4911816892966
 21
263.9022280084934
 31
0.0
  0
ARC
  5
29C
330
1F
100
AcDbEntity
  8
0
  6
CONTINUOUS
 62
     7
100
AcDbCircle
 10
156.0
 20
250.0000000000002
 30
0.0
 40
2.250000000000002
210
0.0
220
0.0
230
-1.0
100
AcDbArc
 50
346.1276202131601
 51
13.87237978683868
  0
ARC
  5
29D
330
1F
100
AcDbEntity
  8
0
  6
CONTINUOUS
 62
     7
100
AcDbCircle
 10
147.7
 20
267.5
 30
0.0
 40
2.250000000000002
210
0.0
220
0.0
230
-1.0
100
AcDbArc
 50
76.12762021315993
 51
103.8723797868391
  0
ARC
  5
29E
330
1F
100
AcDbEntity
  8
0
  6
CONTINUOUS
 62
     7
100
AcDbCircle
 10
-147.7
 20
267.5
 30
0.0
 40
2.288276574963832
100
AcDbArc
 50
104.5116105564681
 51
164.8567987764015
  0
LINE
  5
29F
330
1F
100
AcDbEntity
  8
0
  6
CONTINUOUS
 62
     7
100
AcDbLine
 10
-147.1605398482534
 20
269.6843723914839
 30
0.0
 11
-147.1266123817058
 21
269.7152734194032
 31
0.0
  0
LINE
  5
2A0
330
1F
100
AcDbEntity
  8
0
  6
CONTINUOUS
 62
     7
100
AcDbLine
 10
34.00000000000009
 20
267.5
 30
0.0
 11
34.00000000000009
 21
266.9226497308103
 31
0.0
  0
ARC
  5
2A1
330
1F
100
AcDbEntity
  8
0
  6
CONTINUOUS
 62
     7
100
AcDbCircle
 10
-147.7
 20
267.5
 30
0.0
 40
2.250000000000002
100
AcDbArc
 50
0.0000000000000883
 51
13.87237978683842
  0
ARC
  5
2A2
330
1F
100
AcDbEntity
  8
0
  6
CONTINUOUS
 62
     7
100
AcDbCircle
 10
23.35000000000009
 20
264.5
 30
0.0
 40
2.25000000000003
100
AcDbArc
 50
180.0000000000002
 51
193.8723797868388
  0
ARC
  5
2A3
330
1F
100
AcDbEntity
  8
0
  6
CONTINUOUS
 62
     7
100
AcDbCircle
 10
-156.0
 20
250.0000000000002
 30
0.0
 40
2.250000000000002
100
AcDbArc
 50
283.8723797868392
 51
346.1276202131603
  0
ARC
  5
2A4
330
1F
100
AcDbEntity
  8
0
  6
CONTINUOUS
 62
     7
100
AcDbCircle
 10
-156.0
 20
250.0000000000002
 30
0.0
 40
2.250000000000002
100
AcDbArc
 50
103.8723797868392
 51
166.1276202131606
  0
LINE
  5
2A5
330
1F
100
AcDbEntity
  8
0
  6
CONTINUOUS
 62
   253
100
AcDbLine
 10
-66.76720653086949
 20
278.598312528857
 30
0.0
 11
-66.76720653086949
 21
279.3488678788037
 31
0.0
  0
ARC
  5
2A6
330
1F
100
AcDbEntity
  8
0
  6
CONTINUOUS
 62
     7
100
AcDbCircle
 10
-156.0
 20
277.4999999999999
 30
0.0
 40
2.250000000000002
100
AcDbArc
 50
103.8723797868392
 51
166.1276202131606
  0
CIRCLE
  5
2A7
330
1F
100
AcDbEntity
  8
0
  6
CONTINUOUS
 62
   253
100
AcDbCircle
 10
74.99999999999979
 20
250.0000000000002
 30
0.0
 40
10.98724977297316
  0
LINE
  5
2A8
330
1F
100
AcDbEntity
  8
0
  6
CONTINUOUS
 62
     7
100
AcDbLine
 10
91.08279328755314
 20
221.401687471143
 30
0.0
 11
58.91720653086951
 21
221.401687471143
 31
0.0
  0
ARC
  5
2A9
330
1F
100
AcDbEntity
  8
0
  6
CONTINUOUS
 62
     7
100
AcDbCircle
 10
110.8322459414235
 20
221.9177540585741
 30
0.0
 40
1.266622055718702
210
0.0
220
0.0
230
-1.0
100
AcDbArc
 50
270.0247674731453
 51
359.9752327769632
  0
LINE
  5
2AA
330
1F
100
AcDbEntity
  8
0
  6
CONTINUOUS
 62
     7
100
AcDbLine
 10
-65.50113212119635
 20
278.0827934636039
 30
0.0
 11
-65.50113212119635
 21
221.9172065308691
 31
0.0
  0
LINE
  5
2AB
330
1F
100
AcDbEntity
  8
0
  6
CONTINUOUS
 62
     7
100
AcDbLine
 10
91.08279346360365
 20
220.6511321211964
 30
0.0
 11
58.91720653086952
 21
220.6511321211964
 31
0.0
  0
LINE
  5
2AC
330
1F
100
AcDbEntity
  8
0
  6
CONTINUOUS
 62
     7
100
AcDbLine
 10
21.16562760851598
 20
263.9605398482533
 30
0.0
 11
21.14118168929657
 21
263.9022280084934
 31
0.0
  0
LINE
  5
2AD
330
1F
100
AcDbEntity
  8
0
  6
CONTINUOUS
 62
     7
100
AcDbLine
 10
-66.25168747114284
 20
278.0827932875802
 30
0.0
 11
-66.25168747114284
 21
221.9172065308691
 31
0.0
  0
ARC
  5
2AE
330
1F
100
AcDbEntity
  8
0
  6
CONTINUOUS
 62
     7
100
AcDbCircle
 10
-156.0
 20
277.4999999999999
 30
0.0
 40
2.250000000000002
100
AcDbArc
 50
13.87237978683926
 51
76.12762021316007
  0
LINE
  5
2AF
330
1F
100
AcDbEntity
  8
0
  6
CONTINUOUS
 62
   253
100
AcDbLine
 10
-110.8327932875543
 20
278.598312528857
 30
0.0
 11
-110.8327934636037
 21
279.3488678788037
 31
0.0
  0
LINE
  5
2B0
330
1F
100
AcDbEntity
  8
0
  6
CONTINUOUS
 62
   253
100
AcDbLine
 10
91.59831252885708
 20
278.0827932875404
 30
0.0
 11
92.34886787880377
 21
278.0827934636039
 31
0.0
  0
LINE
  5
2B1
330
1F
100
AcDbEntity
  8
0
  6
CONTINUOUS
 62
   253
100
AcDbLine
 10
58.9172067124451
 20
278.598312528857
 30
0.0
 11
58.91720653639601
 21
279.3488678788037
 31
0.0
  0
LINE
  5
2B2
330
1F
100
AcDbEntity
  8
0
  6
CONTINUOUS
 62
   253
100
AcDbLine
 10
91.59831252885708
 20
221.9172065308679
 30
0.0
 11
92.34886787880377
 21
221.9172065308679
 31
0.0
  0
LINE
  5
2B3
330
1F
100
AcDbEntity
  8
0
  6
CONTINUOUS
 62
     7
100
AcDbLine
 10
58.91720653639604
 20
279.3488678788037
 30
0.0
 11
91.08279346913001
 21
279.3488678788037
 31
0.0
  0
ARC
  5
2B4
330
1F
100
AcDbEntity
  8
0
  6
CONTINUOUS
 62
     7
100
AcDbCircle
 10
-91.08224594142582
 20
221.9177540585765
 30
0.0
 40
1.266622055718813
210
0.0
220
0.0
230
-1.0
100
AcDbArc
 50
180.0247674732243
 51
269.9752327769593
  0
LINE
  5
2B5
330
1F
100
AcDbEntity
  8
0
  6
CONTINUOUS
 62
     7
100
AcDbLine
 10
57.65113212119627
 20
221.9172065363963
 30
0.0
 11
57.65113212119627
 21
278.0827934691279
 31
0.0
  0
LINE
  5
2B6
330
1F
100
AcDbEntity
  8
0
  6
CONTINUOUS
 62
     7
100
AcDbLine
 10
91.59831252885708
 20
278.0827932875404
 30
0.0
 11
91.59831252885708
 21
221.9172065308679
 31
0.0
  0
ARC
  5
2B7
330
1F
100
AcDbEntity
  8
0
  6
CONTINUOUS
 62
     7
100
AcDbCircle
 10
66.76775405857488
 20
221.9177540585774
 30
0.0
 40
1.266622055719535
210
0.0
220
0.0
230
-1.0
100
AcDbArc
 50
180.0247674732055
 51
269.9752327769236
  0
ARC
  5
2B8
330
1F
100
AcDbEntity
  8
0
  6
CONTINUOUS
 62
     7
100
AcDbCircle
 10
110.8322459414247
 20
278.0822459414226
 30
0.0
 40
1.26662205571984
210
0.0
220
0.0
230
-1.0
100
AcDbArc
 50
0.0247674732695189
 51
89.97523277691047
  0
LINE
  5
2B9
330
1F
100
AcDbEntity
  8
0
  6
CONTINUOUS
 62
     7
100
AcDbLine
 10
23.88946015174664
 20
262.3156276085163
 30
0.0
 11
23.92338761829407
 21
262.2847265805966
 31
0.0
  0
LINE
  5
2BA
330
1F
100
AcDbEntity
  8
0
  6
CONTINUOUS
 62
     7
100
AcDbLine
 10
25.5343723914842
 20
263.9605398482533
 30
0.0
 11
25.55881831070328
 21
263.9022280084934
 31
0.0
  0
ARC
  5
2BB
330
1F
100
AcDbEntity
  8
0
  6
CONTINUOUS
 62
     7
100
AcDbCircle
 10
23.35000000000009
 20
264.5
 30
0.0
 40
2.25000000000003
100
AcDbArc
 50
256.12762021316
 51
283.8723797868389
  0
ARC
  5
2BC
330
1F
100
AcDbEntity
  8
0
  6
CONTINUOUS
 62
     7
100
AcDbCircle
 10
23.35000000000009
 20
264.5
 30
0.0
 40
2.288276574963832
100
AcDbArc
 50
284.5116105564675
 51
344.8567987764015
  0
LINE
  5
2BD
330
1F
100
AcDbEntity
  8
0
  6
CONTINUOUS
 62
   253
100
AcDbLine
 10
91.08279346913001
 20
278.598312528857
 30
0.0
 11
91.08279346913001
 21
279.3488678788037
 31
0.0
  0
LINE
  5
2BE
330
1F
100
AcDbEntity
  8
0
  6
CONTINUOUS
 62
   253
100
AcDbLine
 10
-66.25168747114284
 20
278.0827932875802
 30
0.0
 11
-65.50113212119636
 21
278.082793463604
 31
0.0
  0
LINE
  5
2BF
330
1F
100
AcDbEntity
  8
0
  6
CONTINUOUS
 62
     7
100
AcDbLine
 10
22.81053984825348
 20
262.3156276085159
 30
0.0
 11
22.77661238170581
 21
262.2847265805966
 31
0.0
  0
LINE
  5
2C0
330
1F
100
AcDbEntity
  8
0
  6
CONTINUOUS
 62
   253
100
AcDbLine
 10
-66.25168747114284
 20
221.9172065308692
 30
0.0
 11
-65.50113212119636
 21
221.9172065308692
 31
0.0
  0
ARC
  5
2C1
330
1F
100
AcDbEntity
  8
0
  6
CONTINUOUS
 62
     7
100
AcDbCircle
 10
-58.91775405857119
 20
278.0822459414264
 30
0.0
 40
1.266622055715816
210
0.0
220
0.0
230
-1.0
100
AcDbArc
 50
0.0247674729004715
 51
89.97523277708741
  0
LINE
  5
2C2
330
1F
100
AcDbEntity
  8
0
  6
CONTINUOUS
 62
     7
100
AcDbLine
 10
-110.8327932875543
 20
278.598312528857
 30
0.0
 11
-66.76720653086952
 21
278.598312528857
 31
0.0
  0
LINE
  5
2C3
330
1F
100
AcDbEntity
  8
0
  6
CONTINUOUS
 62
   253
100
AcDbLine
 10
91.08279328755314
 20
221.401687471143
 30
0.0
 11
91.08279346360365
 21
220.6511321211964
 31
0.0
  0
LINE
  5
2C4
330
1F
100
AcDbEntity
  8
0
  6
CONTINUOUS
 62
   253
100
AcDbLine
 10
-66.7672067124469
 20
221.401687471143
 30
0.0
 11
-66.76720653639615
 21
220.6511321211964
 31
0.0
  0
LINE
  5
2C5
330
1F
100
AcDbEntity
  8
0
  6
CONTINUOUS
 62
     7
100
AcDbLine
 10
92.34886787880374
 20
278.0827934636039
 30
0.0
 11
92.34886787880374
 21
221.9172065308679
 31
0.0
  0
ARC
  5
2C6
330
1F
100
AcDbEntity
  8
0
  6
CONTINUOUS
 62
     7
100
AcDbCircle
 10
23.35000000000009
 20
264.5
 30
0.0
 40
2.25000000000003
100
AcDbArc
 50
346.1276202131614
 51
0.0000000000000568
  0
LINE
  5
2C7
330
1F
100
AcDbEntity
  8
0
  6
CONTINUOUS
 62
   253
100
AcDbLine
 10
58.91720653086957
 20
221.401687471143
 30
0.0
 11
58.91720653086957
 21
220.6511321211964
 31
0.0
  0
LINE
  5
2C8
330
1F
100
AcDbEntity
  8
0
  6
CONTINUOUS
 62
     7
100
AcDbLine
 10
158.5543916541112
 20
204.947664043757
 30
0.0
 11
-178.554391654111
 21
204.947664043757
 31
0.0
  0
LINE
  5
2C9
330
1F
100
AcDbEntity
  8
0
  6
CONTINUOUS
 62
   253
100
AcDbLine
 10
125.2499999999999
 20
250.3308538586477
 30
0.0
 11
99.25000000000014
 21
250.3308538586477
 31
0.0
  0
ARC
  5
2CA
330
1F
100
AcDbEntity
  8
0
  6
CONTINUOUS
 62
   253
100
AcDbCircle
 10
23.35000000000009
 20
250.0000000000002
 30
0.0
 40
0.3308538586475618
100
AcDbArc
 50
90.0
 51
270.0000000000072
  0
LINE
  5
2CB
330
1F
100
AcDbEntity
  8
0
  6
CONTINUOUS
 62
     7
100
AcDbLine
 10
-45.534372391484
 20
266.5394601517466
 30
0.0
 11
-44.59999999999999
 21
266.0
 31
0.0
  0
ARC
  5
2CC
330
1F
100
AcDbEntity
  8
0
  6
CONTINUOUS
 62
     7
100
AcDbCircle
 10
-158.5511161614388
 20
293.5511161614389
 30
0.0
 40
1.501223368177984
210
0.0
220
0.0
230
-1.0
100
AcDbArc
 50
90.12501274549179
 51
179.8749872545115
  0
LINE
  5
2CD
330
1F
100
AcDbEntity
  8
0
  6
CONTINUOUS
 62
   253
100
AcDbLine
 10
-119.25
 20
249.6691461413524
 30
0.0
 11
-119.2500000000001
 21
249.1693174788647
 31
0.0
  0
LINE
  5
2CE
330
1F
100
AcDbEntity
  8
0
  6
CONTINUOUS
 62
     7
100
AcDbLine
 10
160.0523359562428
 20
293.5543916541109
 30
0.0
 11
160.0523359562428
 21
206.4456083458889
 31
0.0
  0
LINE
  5
2CF
330
1F
100
AcDbEntity
  8
0
  6
CONTINUOUS
 62
     7
100
AcDbLine
 10
-43.34999999999994
 20
264.7499999999999
 30
0.0
 11
-42.81053984825329
 21
263.8156276085159
 31
0.0
  0
LINE
  5
2D0
330
1F
100
AcDbEntity
  8
0
  6
CONTINUOUS
 62
     7
100
AcDbLine
 10
-41.165627608516
 20
265.4605398482534
 30
0.0
 11
-42.10000000000005
 21
266.0
 31
0.0
  0
LINE
  5
2D1
330
1F
100
AcDbEntity
  8
0
  6
CONTINUOUS
 62
   253
100
AcDbLine
 10
125.2499999999999
 20
249.1693174788647
 30
0.0
 11
125.2499999999999
 21
249.6691461413524
 31
0.0
  0
LINE
  5
2D2
330
1F
100
AcDbEntity
  8
0
  6
CONTINUOUS
 62
     7
100
AcDbLine
 10
158.554391654111
 20
134.9500124999999
 30
0.0
 11
158.9999999999998
 21
134.9500124999999
 31
0.0
  0
LINE
  5
2D3
330
1F
100
AcDbEntity
  8
0
  6
CONTINUOUS
 62
     7
100
AcDbLine
 10
-179.0
 20
206.4456083458889
 30
0.0
 11
-180.0523359562429
 21
206.4456083458889
 31
0.0
  0
LINE
  5
2D4
330
1F
100
AcDbEntity
  8
0
  6
CONTINUOUS
 62
     7
100
AcDbLine
 10
-146.4499999999999
 20
267.5
 30
0.0
 11
-146.45
 21
264.5
 31
0.0
  0
ARC
  5
2D5
330
1F
100
AcDbEntity
  8
0
  6
CONTINUOUS
 62
     7
100
AcDbCircle
 10
43.34999999999994
 20
265.9999999999999
 30
0.0
 40
2.25000000000003
210
0.0
220
0.0
230
-1.0
100
AcDbArc
 50
166.1276202131601
 51
193.8723797868392
  0
ARC
  5
2D6
330
1F
100
AcDbEntity
  8
0
  6
CONTINUOUS
 62
   253
100
AcDbCircle
 10
-28.29999999999999
 20
250.0000000000002
 30
0.0
 40
0.3308538586475063
100
AcDbArc
 50
270.0
 51
89.99999999999103
  0
ARC
  5
2D7
330
1F
100
AcDbEntity
  8
0
  6
CONTINUOUS
 62
   253
100
AcDbCircle
 10
99.25000000000011
 20
250.0000000000002
 30
0.0
 40
0.3308538586475618
100
AcDbArc
 50
90.0
 51
270.0000000000145
  0
LINE
  5
2D8
330
1F
100
AcDbEntity
  8
0
  6
CONTINUOUS
 62
     7
100
AcDbLine
 10
-178.5543916541111
 20
134.9500124999999
 30
0.0
 11
158.554391654111
 21
134.9500124999999
 31
0.0
  0
ARC
  5
2D9
330
1F
100
AcDbEntity
  8
0
  6
CONTINUOUS
 62
     7
100
AcDbCircle
 10
51.75000000000001
 20
265.9999999999999
 30
0.0
 40
2.249999999999974
210
0.0
220
0.0
230
-1.0
100
AcDbArc
 50
256.1276202131601
 51
283.8723797868391
  0
LINE
  5
2DA
330
1F
100
AcDbEntity
  8
0
  6
CONTINUOUS
 62
     7
100
AcDbLine
 10
-179.550211283529
 20
114.9500124999999
 30
0.0
 11
-161.7499999999999
 21
114.9500124999999
 31
0.0
  0
LINE
  5
2DB
330
1F
100
AcDbEntity
  8
0
  6
CONTINUOUS
 62
     7
100
AcDbLine
 10
-42.10000000000002
 20
265.9999999999999
 30
0.0
 11
-41.16562760851601
 21
266.5394601517465
 31
0.0
  0
LINE
  5
2DC
330
1F
100
AcDbEntity
  8
0
  6
CONTINUOUS
 62
     7
100
AcDbLine
 10
158.5543916541112
 20
204.947664043757
 30
0.0
 11
158.5543916541112
 21
206.0
 31
0.0
  0
LINE
  5
2DD
330
1F
100
AcDbEntity
  8
0
  6
CONTINUOUS
 62
   253
100
AcDbLine
 10
-28.29999999999999
 20
250.8306825211354
 30
0.0
 11
-28.29999999999999
 21
250.3308538586473
 31
0.0
  0
LINE
  5
2DE
330
1F
100
AcDbEntity
  8
0
  6
CONTINUOUS
 62
     7
100
AcDbLine
 10
-138.0499999999999
 20
267.5
 30
0.0
 11
-138.05
 21
264.5
 31
0.0
  0
LINE
  5
2DF
330
1F
100
AcDbEntity
  8
0
  6
CONTINUOUS
 62
   253
100
AcDbLine
 10
-145.2499999999999
 20
249.6691461413524
 30
0.0
 11
-119.25
 21
249.6691461413524
 31
0.0
  0
LINE
  5
2E0
330
1F
100
AcDbEntity
  8
0
  6
CONTINUOUS
 62
     7
100
AcDbLine
 10
-179.0
 20
134.9500124999999
 30
0.0
 11
-180.0523359562429
 21
133.9513829652452
 31
0.0
  0
LINE
  5
2E1
330
1F
100
AcDbEntity
  8
0
  6
CONTINUOUS
 62
   253
100
AcDbLine
 10
-58.7999999999999
 20
249.6691461413524
 30
0.0
 11
-58.7999999999999
 21
249.1693174788647
 31
0.0
  0
LINE
  5
2E2
330
1F
100
AcDbEntity
  8
0
  6
CONTINUOUS
 62
     7
100
AcDbLine
 10
158.554391654111
 20
206.0
 30
0.0
 11
158.9999999999998
 21
206.4456083458889
 31
0.0
  0
LINE
  5
2E3
330
1F
100
AcDbEntity
  8
0
  6
CONTINUOUS
 62
   253
100
AcDbLine
 10
-58.7999999999999
 20
249.6691461413524
 30
0.0
 11
-28.29999999999998
 21
249.6691461413524
 31
0.0
  0
LINE
  5
2E4
330
1F
100
AcDbEntity
  8
0
  6
CONTINUOUS
 62
     7
100
AcDbLine
 10
-180.0523359562429
 20
206.4456083458889
 30
0.0
 11
-180.0523359562429
 21
293.554391654111
 31
0.0
  0
LINE
  5
2E5
330
1F
100
AcDbEntity
  8
0
  6
CONTINUOUS
 62
     7
100
AcDbLine
 10
-161.7499999999999
 20
114.9500124999999
 30
0.0
 11
-158.25
 21
114.9500124999999
 31
0.0
  0
LINE
  5
2E6
330
1F
100
AcDbEntity
  8
0
  6
CONTINUOUS
 62
     7
100
AcDbLine
 10
-178.5543916541111
 20
206.0
 30
0.0
 11
158.554391654111
 21
206.0
 31
0.0
  0
LINE
  5
2E7
330
1F
100
AcDbEntity
  8
0
  6
CONTINUOUS
 62
     7
100
AcDbLine
 10
158.5543916541112
 20
293.9999999999999
 30
0.0
 11
158.5543916541112
 21
295.0523359562429
 31
0.0
  0
LINE
  5
2E8
330
1F
100
AcDbEntity
  8
0
  6
CONTINUOUS
 62
     7
100
AcDbLine
 10
-178.5543916541111
 20
295.0523359562429
 30
0.0
 11
158.554391654111
 21
295.0523359562429
 31
0.0
  0
LINE
  5
2E9
330
1F
100
AcDbEntity
  8
0
  6
CONTINUOUS
 62
   253
100
AcDbLine
 10
-119.25
 20
250.8306825211354
 30
0.0
 11
-119.25
 21
250.3308538586477
 31
0.0
  0
LINE
  5
2EA
330
1F
100
AcDbEntity
  8
0
  6
CONTINUOUS
 62
   253
100
AcDbLine
 10
-145.2499999999999
 20
249.6691461413524
 30
0.0
 11
-145.2499999999999
 21
249.1693174788647
 31
0.0
  0
ARC
  5
2EB
330
1F
100
AcDbEntity
  8
0
  6
CONTINUOUS
 62
     7
100
AcDbCircle
 10
43.34999999999994
 20
265.9999999999999
 30
0.0
 40
2.25000000000003
210
0.0
220
0.0
230
-1.0
100
AcDbArc
 50
76.12762021316011
 51
103.8723797868391
  0
LINE
  5
2EC
330
1F
100
AcDbEntity
  8
0
  6
CONTINUOUS
 62
     7
100
AcDbLine
 10
-178.5543916541111
 20
293.9999999999999
 30
0.0
 11
-178.5543916541111
 21
295.0523359562429
 31
0.0
  0
LINE
  5
2ED
330
1F
100
AcDbEntity
  8
0
  6
CONTINUOUS
 62
     7
100
AcDbLine
 10
-179.0
 20
206.4456083458889
 30
0.0
 11
-178.5543916541111
 21
206.0
 31
0.0
  0
ARC
  5
2EE
330
1F
100
AcDbEntity
  8
0
  6
CONTINUOUS
 62
     7
100
AcDbCircle
 10
178.5511160892695
 20
206.4488839107305
 30
0.0
 40
1.501223440504684
210
0.0
220
0.0
230
-1.0
100
AcDbArc
 50
270.1250154938934
 51
359.874984506108
  0
LINE
  5
2EF
330
1F
100
AcDbEntity
  8
0
  6
CONTINUOUS
 62
   253
100
AcDbLine
 10
99.25000000000011
 20
250.3308538586477
 30
0.0
 11
99.25000000000011
 21
250.8306825211354
 31
0.0
  0
LINE
  5
2F0
330
1F
100
AcDbEntity
  8
0
  6
CONTINUOUS
 62
     7
100
AcDbLine
 10
-179.0
 20
134.9500124999999
 30
0.0
 11
-178.5543916541111
 21
134.9500124999999
 31
0.0
  0
LINE
  5
2F1
330
1F
100
AcDbEntity
  8
0
  6
CONTINUOUS
 62
     7
100
AcDbLine
 10
-52.99999999999994
 20
265.9999999999999
 30
0.0
 11
-53.93437239148395
 21
265.4605398482533
 31
0.0
  0
LINE
  5
2F2
330
1F
100
AcDbEntity
  8
0
  6
CONTINUOUS
 62
     7
100
AcDbLine
 10
-52.28946015174662
 20
263.8156276085159
 30
0.0
 11
-51.74999999999998
 21
264.7499999999999
 31
0.0
  0
LINE
  5
2F3
330
1F
100
AcDbEntity
  8
0
  6
CONTINUOUS
 62
     7
100
AcDbLine
 10
-43.35
 20
267.2500000000002
 30
0.0
 11
-43.8894601517466
 21
268.1843723914838
 31
0.0
  0
LINE
  5
2F4
330
1F
100
AcDbEntity
  8
0
  6
CONTINUOUS
 62
     7
100
AcDbLine
 10
159.0000000000002
 20
293.5543916541109
 30
0.0
 11
158.5543916541112
 21
293.9999999999999
 31
0.0
  0
LINE
  5
2F5
330
1F
100
AcDbEntity
  8
0
  6
CONTINUOUS
 62
   253
100
AcDbLine
 10
99.25000000000011
 20
249.1693174788647
 30
0.0
 11
99.25000000000011
 21
249.6691461413524
 31
0.0
  0
ARC
  5
2F6
330
1F
100
AcDbEntity
  8
0
  6
CONTINUOUS
 62
     7
100
AcDbCircle
 10
43.35
 20
265.9999999999999
 30
0.0
 40
2.25000000000003
210
0.0
220
0.0
230
-1.0
100
AcDbArc
 50
256.1276202131601
 51
283.8723797868391
  0
LINE
  5
2F7
330
1F
100
AcDbEntity
  8
0
  6
CONTINUOUS
 62
     7
100
AcDbLine
 10
158.5543916541112
 20
293.9999999999999
 30
0.0
 11
-178.554391654111
 21
293.9999999999999
 31
0.0
  0
ARC
  5
2F8
330
1F
100
AcDbEntity
  8
0
  6
CONTINUOUS
 62
     7
100
AcDbCircle
 10
-158.5511161614392
 20
206.4488838385608
 30
0.0
 40
1.501223368177595
210
0.0
220
0.0
230
-1.0
100
AcDbArc
 50
180.1250127454727
 51
269.8749872545241
  0
LINE
  5
2F9
330
1F
100
AcDbEntity
  8
0
  6
CONTINUOUS
 62
     7
100
AcDbLine
 10
-158.25
 20
114.9500124999999
 30
0.0
 11
159.5502112835288
 21
114.9500124999999
 31
0.0
  0
ARC
  5
2FA
330
1F
100
AcDbEntity
  8
0
  6
CONTINUOUS
 62
     7
100
AcDbCircle
 10
160.72347128594
 20
115.9500125
 30
0.0
 40
0.9999999999999731
210
0.0
220
0.0
230
-1.0
100
AcDbArc
 50
1.499999999998805
 51
90.0000000000024
  0
ARC
  5
2FB
330
1F
100
AcDbEntity
  8
0
  6
CONTINUOUS
 62
     7
100
AcDbCircle
 10
51.74999999999996
 20
265.9999999999999
 30
0.0
 40
2.25000000000003
210
0.0
220
0.0
230
-1.0
100
AcDbArc
 50
166.1276202131601
 51
193.8723797868391
  0
LINE
  5
2FC
330
1F
100
AcDbEntity
  8
0
  6
CONTINUOUS
 62
     7
100
AcDbLine
 10
160.0523359562428
 20
293.5543916541113
 30
0.0
 11
159.0000000000002
 21
293.5543916541113
 31
0.0
  0
LINE
  5
2FD
330
1F
100
AcDbEntity
  8
0
  6
CONTINUOUS
 62
     7
100
AcDbLine
 10
-178.5543916541111
 20
204.947664043757
 30
0.0
 11
-178.5543916541111
 21
206.0
 31
0.0
  0
ARC
  5
2FE
330
1F
100
AcDbEntity
  8
0
  6
CONTINUOUS
 62
     7
100
AcDbCircle
 10
43.34999999999994
 20
265.9999999999999
 30
0.0
 40
2.25000000000003
210
0.0
220
0.0
230
-1.0
100
AcDbArc
 50
346.1276202131601
 51
13.87237978683913
  0
LINE
  5
2FF
330
1F
100
AcDbEntity
  8
0
  6
CONTINUOUS
 62
     7
100
AcDbLine
 10
-179.0
 20
293.5543916541109
 30
0.0
 11
-179.0
 21
206.4456083458889
 31
0.0
  0
LINE
  5
300
330
1F
100
AcDbEntity
  8
0
  6
CONTINUOUS
 62
     7
100
AcDbLine
 10
-179.0
 20
293.5543916541109
 30
0.0
 11
-180.0523359562429
 21
293.5543916541109
 31
0.0
  0
LINE
  5
301
330
1F
100
AcDbEntity
  8
0
  6
CONTINUOUS
 62
     7
100
AcDbLine
 10
24.60000000000023
 20
267.5
 30
0.0
 11
24.60000000000023
 21
264.5
 31
0.0
  0
LINE
  5
302
330
1F
100
AcDbEntity
  8
0
  6
CONTINUOUS
 62
     7
100
AcDbLine
 10
160.0523359562428
 20
206.4456083458889
 30
0.0
 11
158.9999999999998
 21
206.4456083458889
 31
0.0
  0
ARC
  5
303
330
1F
100
AcDbEntity
  8
0
  6
CONTINUOUS
 62
   253
100
AcDbCircle
 10
-119.25
 20
250.0000000000002
 30
0.0
 40
0.3308538586475063
100
AcDbArc
 50
269.9999999999855
 51
90.0
  0
LINE
  5
304
330
1F
100
AcDbEntity
  8
0
  6
CONTINUOUS
 62
   253
100
AcDbLine
 10
23.35000000000009
 20
249.6691461413524
 30
0.0
 11
23.35000000000009
 21
249.1693174788647
 31
0.0
  0
LINE
  5
305
330
1F
100
AcDbEntity
  8
0
  6
CONTINUOUS
 62
     7
100
AcDbLine
 10
-161.7499999999999
 20
114.9500124999999
 30
0.0
 11
-161.7231286109155
 21
115.9761894483077
 31
0.0
  0
LINE
  5
306
330
1F
100
AcDbEntity
  8
0
  6
CONTINUOUS
 62
     7
100
AcDbLine
 10
-179.550211283529
 20
114.9500124999999
 30
0.0
 11
-181.0481555856608
 21
114.9500124999999
 31
0.0
  0
LINE
  5
307
330
1F
100
AcDbEntity
  8
0
  6
CONTINUOUS
 62
     7
100
AcDbLine
 10
159.0000000000002
 20
206.4456083458889
 30
0.0
 11
159.0000000000002
 21
293.554391654111
 31
0.0
  0
ARC
  5
308
330
1F
100
AcDbEntity
  8
0
  6
CONTINUOUS
 62
     7
100
AcDbCircle
 10
259.0499875000002
 20
280.72347128594
 30
0.0
 40
1.000000000000056
210
0.0
220
0.0
230
-1.0
100
AcDbArc
 50
91.50000000000583
 51
180.0
  0
LINE
  5
309
330
1F
100
AcDbEntity
  8
0
  6
CONTINUOUS
 62
   253
100
AcDbLine
 10
50.85000000000012
 20
250.3308538586473
 30
0.0
 11
23.35000000000007
 21
250.3308538586477
 31
0.0
  0
LINE
  5
30A
330
1F
100
AcDbEntity
  8
0
  6
CONTINUOUS
 62
     7
100
AcDbLine
 10
-260.0499875000001
 20
281.75
 30
0.0
 11
-259.0238105516922
 21
281.7231286109155
 31
0.0
  0
ARC
  5
30B
330
1F
100
AcDbEntity
  8
0
  6
CONTINUOUS
 62
   253
100
AcDbCircle
 10
-145.2499999999999
 20
250.0000000000002
 30
0.0
 40
0.3308538586475063
100
AcDbArc
 50
90.00000000000963
 51
270.0
  0
LINE
  5
30C
330
1F
100
AcDbEntity
  8
0
  6
CONTINUOUS
 62
     7
100
AcDbLine
 10
-260.0499875000001
 20
294.5502112835288
 30
0.0
 11
-260.0499875000001
 21
296.048155585661
 31
0.0
  0
LINE
  5
30D
330
1F
100
AcDbEntity
  8
0
  6
CONTINUOUS
 62
     7
100
AcDbLine
 10
160.0523359562428
 20
133.9513829652452
 30
0.0
 11
158.9999999999998
 21
134.9500124999999
 31
0.0
  0
LINE
  5
30E
330
1F
100
AcDbEntity
  8
0
  6
CONTINUOUS
 62
     7
100
AcDbLine
 10
136.0000000000001
 20
223.7500000000002
 30
0.0
 11
135.4605398482535
 21
224.6843723914838
 31
0.0
  0
LINE
  5
30F
330
1F
100
AcDbEntity
  8
0
  6
CONTINUOUS
 62
     7
100
AcDbLine
 10
-153.815627608516
 20
223.0394601517466
 30
0.0
 11
-154.75
 21
222.5
 31
0.0
  0
ARC
  5
310
330
1F
100
AcDbEntity
  8
0
  6
CONTINUOUS
 62
   253
100
AcDbCircle
 10
125.2499999999999
 20
250.0000000000002
 30
0.0
 40
0.3308538586475618
100
AcDbArc
 50
270.0
 51
89.9999999999904
  0
LINE
  5
311
330
1F
100
AcDbEntity
  8
0
  6
CONTINUOUS
 62
     7
100
AcDbLine
 10
33.00000000000019
 20
267.5
 30
0.0
 11
33.00000000000019
 21
264.5
 31
0.0
  0
LINE
  5
312
330
1F
100
AcDbEntity
  8
0
  6
CONTINUOUS
 62
     7
100
AcDbLine
 10
-260.0499875000001
 20
294.5502112835288
 30
0.0
 11
-260.0499875000001
 21
281.7499999999999
 31
0.0
  0
LINE
  5
313
330
1F
100
AcDbEntity
  8
0
  6
CONTINUOUS
 62
     7
100
AcDbLine
 10
32.28946015174666
 20
262.3156276085159
 30
0.0
 11
31.7500000000001
 21
263.2499999999999
 31
0.0
  0
LINE
  5
314
330
1F
100
AcDbEntity
  8
0
  6
CONTINUOUS
 62
     7
100
AcDbLine
 10
-241.0486170347546
 20
204.947664043757
 30
0.0
 11
-240.0499875
 21
206.0
 31
0.0
  0
LINE
  5
315
330
1F
100
AcDbEntity
  8
0
  6
CONTINUOUS
 62
     7
100
AcDbLine
 10
-158.2768713890845
 20
115.9761894483077
 30
0.0
 11
-158.25
 21
114.9500124999998
 31
0.0
  0
LINE
  5
316
330
1F
100
AcDbEntity
  8
0
  6
CONTINUOUS
 62
     7
100
AcDbLine
 10
-158.2761859215692
 20
115.9500125
 30
0.0
 11
-160.2643267058774
 21
115.9500125
 31
0.0
  0
LINE
  5
317
330
1F
100
AcDbEntity
  8
0
  6
CONTINUOUS
 62
     7
100
AcDbLine
 10
-160.7234712859399
 20
116.9500124999999
 30
0.0
 11
-159.27652871406
 21
116.9500124999999
 31
0.0
  0
ARC
  5
318
330
1F
100
AcDbEntity
  8
0
  6
CONTINUOUS
 62
     7
100
AcDbCircle
 10
259.0499875000001
 20
279.27652871406
 30
0.0
 40
0.9999999999999454
210
0.0
220
0.0
230
-1.0
100
AcDbArc
 50
180.0
 51
268.5
  0
LINE
  5
319
330
1F
100
AcDbEntity
  8
0
  6
CONTINUOUS
 62
     7
100
AcDbLine
 10
-258.0499875000001
 20
280.72347128594
 30
0.0
 11
-258.0499875000001
 21
279.27652871406
 31
0.0
  0
LINE
  5
31A
330
1F
100
AcDbEntity
  8
0
  6
CONTINUOUS
 62
   253
100
AcDbLine
 10
23.35000000000009
 20
250.8306825211354
 30
0.0
 11
23.35000000000009
 21
250.3308538586477
 31
0.0
  0
LINE
  5
31B
330
1F
100
AcDbEntity
  8
0
  6
CONTINUOUS
 62
     7
100
AcDbLine
 10
-240.0499875
 20
293.5543916541109
 30
0.0
 11
-240.0499875
 21
206.4456083458889
 31
0.0
  0
LINE
  5
31C
330
1F
100
AcDbEntity
  8
0
  6
CONTINUOUS
 62
   253
100
AcDbLine
 10
-145.2500000000001
 20
250.8306825211354
 30
0.0
 11
-145.25
 21
250.3308538586477
 31
0.0
  0
LINE
  5
31D
330
1F
100
AcDbEntity
  8
0
  6
CONTINUOUS
 62
     7
100
AcDbLine
 10
-241.0486170347546
 20
204.947664043757
 30
0.0
 11
-260.0499875000001
 21
203.9518444143391
 31
0.0
  0
LINE
  5
31E
330
1F
100
AcDbEntity
  8
0
  6
CONTINUOUS
 62
     7
100
AcDbLine
 10
-160.2905126274465
 20
116.9500124999999
 30
0.0
 11
-160.2643267058774
 21
115.9500125
 31
0.0
  0
LINE
  5
31F
330
1F
100
AcDbEntity
  8
0
  6
CONTINUOUS
 62
   253
100
AcDbLine
 10
99.25000000000011
 20
249.6691461413524
 30
0.0
 11
125.2499999999998
 21
249.6691461413524
 31
0.0
  0
LINE
  5
320
330
1F
100
AcDbEntity
  8
0
  6
CONTINUOUS
 62
     7
100
AcDbLine
 10
-140.5500000000001
 20
264.5
 30
0.0
 11
-140.55
 21
267.5
 31
0.0
  0
LINE
  5
321
330
1F
100
AcDbEntity
  8
0
  6
CONTINUOUS
 62
     7
100
AcDbLine
 10
-240.0499875
 20
293.9999999999999
 30
0.0
 11
-240.0499875
 21
293.5543916541109
 31
0.0
  0
LINE
  5
322
330
1F
100
AcDbEntity
  8
0
  6
CONTINUOUS
 62
     7
100
AcDbLine
 10
-148.95
 20
264.5
 30
0.0
 11
-148.95
 21
267.5
 31
0.0
  0
LINE
  5
323
330
1F
100
AcDbEntity
  8
0
  6
CONTINUOUS
 62
     7
100
AcDbLine
 10
-240.0499875
 20
293.9999999999999
 30
0.0
 11
-241.0486170347546
 21
295.0523359562429
 31
0.0
  0
LINE
  5
324
330
1F
100
AcDbEntity
  8
0
  6
CONTINUOUS
 62
     7
100
AcDbLine
 10
-260.0499875
 20
281.75
 30
0.0
 11
-260.0499875
 21
278.2499999999999
 31
0.0
  0
LINE
  5
325
330
1F
100
AcDbEntity
  8
0
  6
CONTINUOUS
 62
     7
100
AcDbLine
 10
-260.0499875000001
 20
296.048155585661
 30
0.0
 11
-241.0486170347546
 21
295.0523359562429
 31
0.0
  0
LINE
  5
326
330
1F
100
AcDbEntity
  8
0
  6
CONTINUOUS
 62
     7
100
AcDbLine
 10
-240.0499875
 20
206.4456083458889
 30
0.0
 11
-240.0499875
 21
206.0
 31
0.0
  0
LINE
  5
327
330
1F
100
AcDbEntity
  8
0
  6
CONTINUOUS
 62
   253
100
AcDbLine
 10
23.35000000000009
 20
249.6691461413524
 30
0.0
 11
50.85000000000014
 21
249.6691461413524
 31
0.0
  0
LINE
  5
328
330
1F
100
AcDbEntity
  8
0
  6
CONTINUOUS
 62
     7
100
AcDbLine
 10
-181.0481555856608
 20
114.9500124999999
 30
0.0
 11
-180.0523359562429
 21
133.9513829652452
 31
0.0
  0
LINE
  5
329
330
1F
100
AcDbEntity
  8
0
  6
CONTINUOUS
 62
     7
100
AcDbLine
 10
160.0523359562428
 20
133.9513829652452
 30
0.0
 11
161.048155585661
 21
114.9500124999998
 31
0.0
  0
LINE
  5
32A
330
1F
100
AcDbEntity
  8
0
  6
CONTINUOUS
 62
     7
100
AcDbLine
 10
-259.0238105516922
 20
278.2768713890842
 30
0.0
 11
-260.0499875000001
 21
278.2499999999999
 31
0.0
  0
ARC
  5
32B
330
1F
100
AcDbEntity
  8
0
  6
CONTINUOUS
 62
     7
100
AcDbCircle
 10
51.74999999999996
 20
265.9999999999999
 30
0.0
 40
2.25000000000003
210
0.0
220
0.0
230
-1.0
100
AcDbArc
 50
346.1276202131601
 51
13.87237978683919
  0
ARC
  5
32C
330
1F
100
AcDbEntity
  8
0
  6
CONTINUOUS
 62
   253
100
AcDbCircle
 10
50.85000000000012
 20
250.0000000000002
 30
0.0
 40
0.3308538586475618
100
AcDbArc
 50
270.0
 51
89.99999999998079
  0
LINE
  5
32D
330
1F
100
AcDbEntity
  8
0
  6
CONTINUOUS
 62
     7
100
AcDbLine
 10
30.49999999999997
 20
264.5
 30
0.0
 11
30.49999999999997
 21
267.5
 31
0.0
  0
LINE
  5
32E
330
1F
100
AcDbEntity
  8
0
  6
CONTINUOUS
 62
     7
100
AcDbLine
 10
22.09999999999995
 20
264.5
 30
0.0
 11
22.09999999999995
 21
267.5
 31
0.0
  0
LINE
  5
32F
330
1F
100
AcDbEntity
  8
0
  6
CONTINUOUS
 62
   253
100
AcDbLine
 10
-28.29999999999999
 20
249.6691461413524
 30
0.0
 11
-28.29999999999999
 21
249.1693174788647
 31
0.0
  0
LINE
  5
330
330
1F
100
AcDbEntity
  8
0
  6
CONTINUOUS
 62
   253
100
AcDbLine
 10
50.85000000000012
 20
249.6691461413524
 30
0.0
 11
50.85000000000012
 21
249.1693174788647
 31
0.0
  0
LINE
  5
331
330
1F
100
AcDbEntity
  8
0
  6
CONTINUOUS
 62
   253
100
AcDbLine
 10
-119.25
 20
250.3308538586477
 30
0.0
 11
-145.25
 21
250.3308538586477
 31
0.0
  0
LINE
  5
332
330
1F
100
AcDbEntity
  8
0
  6
CONTINUOUS
 62
     7
100
AcDbLine
 10
161.0481555856609
 20
114.9500124999999
 30
0.0
 11
159.5502112835288
 21
114.9500124999999
 31
0.0
  0
LINE
  5
333
330
1F
100
AcDbEntity
  8
0
  6
CONTINUOUS
 62
   253
100
AcDbLine
 10
-28.29999999999999
 20
250.3308538586473
 30
0.0
 11
-58.79999999999996
 21
250.3308538586477
 31
0.0
  0
LINE
  5
334
330
1F
100
AcDbEntity
  8
0
  6
CONTINUOUS
 62
     7
100
AcDbLine
 10
-260.0499875000001
 20
278.2499999999999
 30
0.0
 11
-260.0499875000001
 21
205.4497887164711
 31
0.0
  0
LINE
  5
335
330
1F
100
AcDbEntity
  8
0
  6
CONTINUOUS
 62
     7
100
AcDbLine
 10
-260.0499875000001
 20
203.9518444143391
 30
0.0
 11
-260.0499875000001
 21
205.4497887164711
 31
0.0
  0
LINE
  5
336
330
1F
100
AcDbEntity
  8
0
  6
CONTINUOUS
 62
   253
100
AcDbLine
 10
125.2500000000002
 20
250.3308538586477
 30
0.0
 11
125.2500000000002
 21
250.8306825211354
 31
0.0
  0
ARC
  5
337
330
1F
100
AcDbEntity
  8
0
  6
CONTINUOUS
 62
     7
100
AcDbCircle
 10
159.27652871406
 20
115.9500125
 30
0.0
 40
1.000000000000029
210
0.0
220
0.0
230
-1.0
100
AcDbArc
 50
90.0
 51
178.4999999999989
  0
LINE
  5
338
330
1F
100
AcDbEntity
  8
0
  6
CONTINUOUS
 62
   253
100
AcDbLine
 10
50.85000000000012
 20
250.8306825211354
 30
0.0
 11
50.85000000000012
 21
250.3308538586473
 31
0.0
  0
ENDSEC
  0
SECTION
  2
OBJECTS
  0
DICTIONARY
  5
C
330
0
100
AcDbDictionary
  3
ACAD_GROUP
350
D
  3
ACAD_LAYOUT
350
1A
  3
ACAD_MATERIAL
350
43
  3
ACAD_MLEADERSTYLE
350
6B
  3
ACAD_MLINESTYLE
350
17
  3
ACAD_PLOTSETTINGS
350
19
  3
ACAD_SCALELIST
350
47
  3
ACAD_VISUALSTYLE
350
2A
  3
ACDBHEADERROUNDTRIPXREC
350
339
  3
ACDBVARIABLEDICTIONARY
350
35A
  0
DICTIONARY
  5
361
330
8
100
AcDbDictionary
280
     1
  3
ACAD_XREC_ROUNDTRIP
360
362
  0
DICTIONARY
  5
D
102
{ACAD_REACTORS
330
C
102
}
330
C
100
AcDbDictionary
  0
DICTIONARY
  5
1A
102
{ACAD_REACTORS
330
C
102
}
330
C
100
AcDbDictionary
  0
DICTIONARY
  5
43
102
{ACAD_REACTORS
330
C
102
}
330
C
100
AcDbDictionary
  3
BYBLOCK
350
45
  3
BYLAYER
350
44
  3
GLOBAL
350
46
  0
DICTIONARY
  5
6B
102
{ACAD_REACTORS
330
C
102
}
330
C
100
AcDbDictionary
  3
STANDARD
350
6C
  0
DICTIONARY
  5
17
102
{ACAD_REACTORS
330
C
102
}
330
C
100
AcDbDictionary
  3
STANDARD
350
18
  0
DICTIONARY
  5
19
102
{ACAD_REACTORS
330
C
102
}
330
C
100
AcDbDictionary
  0
DICTIONARY
  5
47
102
{ACAD_REACTORS
330
C
102
}
330
C
100
AcDbDictionary
  3
A0
350
48
  3
A1
350
49
  3
A2
350
4A
  3
A3
350
4B
  3
A4
350
4C
  3
A5
350
4D
  3
A6
350
4E
  3
A7
350
4F
  3
A8
350
50
  3
A9
350
51
  3
B0
350
52
  3
B1
350
53
  3
B2
350
54
  3
B3
350
55
  3
B4
350
56
  3
B5
350
57
  3
B6
350
58
  3
B7
350
59
  3
B8
350
5A
  3
B9
350
5B
  3
C0
350
5C
  3
C1
350
5D
  3
C2
350
5E
  3
C3
350
5F
  3
C4
350
60
  3
C5
350
61
  3
C6
350
62
  3
C7
350
63
  3
C8
350
64
  3
C9
350
65
  3
D0
350
66
  3
D1
350
67
  3
D2
350
68
  0
DICTIONARY
  5
2A
102
{ACAD_REACTORS
330
C
102
}
330
C
100
AcDbDictionary
  3
2DWIREFRAME
350
2F
  3
BASIC
350
32
  3
BRIGHTEN
350
36
  3
COLORCHANGE
350
3A
  3
CONCEPTUAL
350
34
  3
DIM
350
35
  3
EDGECOLOROFF
350
3D
  3
FACEPATTERN
350
39
  3
FLAT
350
2B
  3
FLATWITHEDGES
350
2C
  3
GOURAUD
350
2D
  3
GOURAUDWITHEDGES
350
2E
  3
HIDDEN
350
31
  3
JITTEROFF
350
3B
  3
LINEPATTERN
350
38
  3
OVERHANGOFF
350
3C
  3
REALISTIC
350
33
  3
SHADED
350
42
  3
SHADED_WITH_EDGES
350
41
  3
SHADES_OF_GRAY
350
3E
  3
SKETCHY
350
3F
  3
THICKEN
350
37
  3
WIREFRAME
350
30
  3
X-RAY
350
40
  0
DICTIONARY
  5
339
102
{ACAD_REACTORS
330
C
102
}
330
C
100
AcDbDictionary
  3
CEPSNID
350
343
  3
CEPSNTYPE
350
342
  3
DIMSTYLEDATA
350
359
  3
FINGERPRINTGUID
350
344
  3
HYPERLINKBASE
350
33C
  3
INSUNITS
350
341
  3
LAYOUTDICT
350
33E
  3
LWETCUNION
350
340
  3
PLOTSETDICT
350
33F
  3
PSVPSCALE
350
346
  3
PUCSBASE
350
349
  3
PUCSORGBACK
350
34F
  3
PUCSORGBOTTOM
350
34B
  3
PUCSORGFRONT
350
34E
  3
PUCSORGLEFT
350
34C
  3
PUCSORGRIGHT
350
34D
  3
PUCSORGTOP
350
34A
  3
PUCSORTHOREF
350
347
  3
PUCSORTHOVIEW
350
348
  3
STYLESHEET
350
33D
  3
TSTACKALIGN
350
33A
  3
TSTACKSIZE
350
33B
  3
UCSBASE
350
352
  3
UCSORGBACK
350
358
  3
UCSORGBOTTOM
350
354
  3
UCSORGFRONT
350
357
  3
UCSORGLEFT
350
355
  3
UCSORGRIGHT
350
356
  3
UCSORGTOP
350
353
  3
UCSORTHOREF
350
350
  3
UCSORTHOVIEW
350
351
  3
VERSIONGUID
350
345
  0
DICTIONARY
  5
35A
102
{ACAD_REACTORS
330
C
102
}
330
C
100
AcDbDictionary
  3
CANNOSCALE
350
363
  3
CMLEADERSTYLE
350
35C
  3
CTABLESTYLE
350
35B
  3
DIMASSOC
350
35F
  3
HIDETEXT
350
360
  3
MSLTSCALE
350
364
  0
XRECORD
  5
362
102
{ACAD_REACTORS
330
361
102
}
330
361
100
AcDbXrecord
102
VTR_0.000_0.000_1.000_1.000_VISUALSTYLE
340
2F
102
VTR_0.000_0.000_1.000_1.000_GRIDDISPLAY
 70
     3
102
VTR_0.000_0.000_1.000_1.000_GRIDMAJOR
 70
     5
102
VTR_0.000_0.000_1.000_1.000_DEFAULTLIGHTING
280
     1
102
VTR_0.000_0.000_1.000_1.000_DEFAULTLIGHTINGTYPE
 70
     1
102
VTR_0.000_0.000_1.000_1.000_BRIGHTNESS
141
0.0
102
VTR_0.000_0.000_1.000_1.000_CONTRAST
142
0.0
  0
MATERIAL
  5
45
102
{ACAD_REACTORS
330
43
102
}
102
{ACAD_XDICTIONARY
360
367
102
}
330
43
100
AcDbMaterial
  1
BYBLOCK
  0
MATERIAL
  5
44
102
{ACAD_REACTORS
330
43
102
}
102
{ACAD_XDICTIONARY
360
365
102
}
330
43
100
AcDbMaterial
  1
BYLAYER
  0
MATERIAL
  5
46
102
{ACAD_REACTORS
330
43
102
}
102
{ACAD_XDICTIONARY
360
369
102
}
330
43
100
AcDbMaterial
  1
GLOBAL
  0
ACAD_PROXY_OBJECT
  5
6C
102
{ACAD_REACTORS
330
6B
102
}
330
6B
100
AcDbProxyObject
 90
      499
 91
      505
 93
      610
310
40901902A4063FBFFFFFE056BD1B81E855B9FC0AD7A3703D0AD73F4214DD185B99185C9900AD7A3703D0AC73F90141901A02B5E8DC0F42B1CFC02B5E8DC0F42B1CFE5764000000000000300FC0
340
14
340
0
340
11
340
0
 94
        0
1001
ACAD_MLEADERVER
1070
     2
  0
MLINESTYLE
  5
18
102
{ACAD_REACTORS
330
17
102
}
330
17
100
AcDbMlineStyle
  2
Standard
 70
     0
  3

 62
   256
 51
90.0
 52
90.0
 71
     2
 49
0.5
 62
   256
  6
BYLAYER
 49
-0.5
 62
   256
  6
BYLAYER
  0
ACAD_PROXY_OBJECT
  5
48
102
{ACAD_REACTORS
330
47
102
}
330
47
100
AcDbProxyObject
 90
      499
 91
      503
 93
       41
310
903313A31580
  0
ACAD_PROXY_OBJECT
  5
49
102
{ACAD_REACTORS
330
47
102
}
330
47
100
AcDbProxyObject
 90
      499
 91
      503
 93
      105
310
903313A324000000000000004000
  0
ACAD_PROXY_OBJECT
  5
4A
102
{ACAD_REACTORS
330
47
102
}
330
47
100
AcDbProxyObject
 90
      499
 91
      503
 93
      105
310
903313A344000000000000104000
  0
ACAD_PROXY_OBJECT
  5
4B
102
{ACAD_REACTORS
330
47
102
}
330
47
100
AcDbProxyObject
 90
      499
 91
      503
 93
      105
310
903313A354000000000000144000
  0
ACAD_PROXY_OBJECT
  5
4C
102
{ACAD_REACTORS
330
47
102
}
330
47
100
AcDbProxyObject
 90
      499
 91
      503
 93
      105
310
903313A384000000000000204000
  0
ACAD_PROXY_OBJECT
  5
4D
102
{ACAD_REACTORS
330
47
102
}
330
47
100
AcDbProxyObject
 90
      499
 91
      503
 93
      113
310
904313A31304000000000000244000
  0
ACAD_PROXY_OBJECT
  5
4E
102
{ACAD_REACTORS
330
47
102
}
330
47
100
AcDbProxyObject
 90
      499
 91
      503
 93
      113
310
904313A31364000000000000304000
  0
ACAD_PROXY_OBJECT
  5
4F
102
{ACAD_REACTORS
330
47
102
}
330
47
100
AcDbProxyObject
 90
      499
 91
      503
 93
      113
310
904313A32304000000000000344000
  0
ACAD_PROXY_OBJECT
  5
50
102
{ACAD_REACTORS
330
47
102
}
330
47
100
AcDbProxyObject
 90
      499
 91
      503
 93
      113
310
904313A333040000000000003E4000
  0
ACAD_PROXY_OBJECT
  5
51
102
{ACAD_REACTORS
330
47
102
}
330
47
100
AcDbProxyObject
 90
      499
 91
      503
 93
      113
310
904313A34304000000000000444000
  0
ACAD_PROXY_OBJECT
  5
52
102
{ACAD_REACTORS
330
47
102
}
330
47
100
AcDbProxyObject
 90
      499
 91
      503
 93
      113
310
904313A35304000000000000494000
  0
ACAD_PROXY_OBJECT
  5
53
102
{ACAD_REACTORS
330
47
102
}
330
47
100
AcDbProxyObject
 90
      499
 91
      503
 93
      121
310
905313A3130304000000000000594000
  0
ACAD_PROXY_OBJECT
  5
54
102
{ACAD_REACTORS
330
47
102
}
330
47
100
AcDbProxyObject
 90
      499
 91
      503
 93
      105
310
903323A310000000000000010100
  0
ACAD_PROXY_OBJECT
  5
55
102
{ACAD_REACTORS
330
47
102
}
330
47
100
AcDbProxyObject
 90
      499
 91
      503
 93
      105
310
903343A310000000000000410100
  0
ACAD_PROXY_OBJECT
  5
56
102
{ACAD_REACTORS
330
47
102
}
330
47
100
AcDbProxyObject
 90
      499
 91
      503
 93
      105
310
903383A310000000000000810100
  0
ACAD_PROXY_OBJECT
  5
57
102
{ACAD_REACTORS
330
47
102
}
330
47
100
AcDbProxyObject
 90
      499
 91
      503
 93
      113
310
90431303A310000000000000910100
  0
ACAD_PROXY_OBJECT
  5
58
102
{ACAD_REACTORS
330
47
102
}
330
47
100
AcDbProxyObject
 90
      499
 91
      503
 93
      121
310
9053130303A310000000000001650100
  0
ACAD_PROXY_OBJECT
  5
59
102
{ACAD_REACTORS
330
47
102
}
330
47
100
AcDbProxyObject
 90
      499
 91
      503
 93
      257
310
90E312F31323822203D2031272D3022000000000000200FC000000000000284000
  0
ACAD_PROXY_OBJECT
  5
5A
102
{ACAD_REACTORS
330
47
102
}
330
47
100
AcDbProxyObject
 90
      499
 91
      503
 93
      249
310
90D312F363422203D2031272D3022000000000000240FC000000000000284000
  0
ACAD_PROXY_OBJECT
  5
5B
102
{ACAD_REACTORS
330
47
102
}
330
47
100
AcDbProxyObject
 90
      499
 91
      503
 93
      249
310
90D312F333222203D2031272D3022000000000000280FC000000000000284000
  0
ACAD_PROXY_OBJECT
  5
5C
102
{ACAD_REACTORS
330
47
102
}
330
47
100
AcDbProxyObject
 90
      499
 91
      503
 93
      249
310
90D312F313622203D2031272D30220000000000002C0FC000000000000284000
  0
ACAD_PROXY_OBJECT
  5
5D
102
{ACAD_REACTORS
330
47
102
}
330
47
100
AcDbProxyObject
 90
      499
 91
      503
 93
      249
310
90D332F333222203D2031272D30220000000000002E0FC000000000000284000
  0
ACAD_PROXY_OBJECT
  5
5E
102
{ACAD_REACTORS
330
47
102
}
330
47
100
AcDbProxyObject
 90
      499
 91
      503
 93
      241
310
90C312F3822203D2031272D3022000000000000300FC000000000000284000
  0
ACAD_PROXY_OBJECT
  5
5F
102
{ACAD_REACTORS
330
47
102
}
330
47
100
AcDbProxyObject
 90
      499
 91
      503
 93
      249
310
90D332F313622203D2031272D3022000000000000320FC000000000000284000
  0
ACAD_PROXY_OBJECT
  5
60
102
{ACAD_REACTORS
330
47
102
}
330
47
100
AcDbProxyObject
 90
      499
 91
      503
 93
      241
310
90C312F3422203D2031272D3022000000000000340FC000000000000284000
  0
ACAD_PROXY_OBJECT
  5
61
102
{ACAD_REACTORS
330
47
102
}
330
47
100
AcDbProxyObject
 90
      499
 91
      503
 93
      241
310
90C332F3822203D2031272D3022000000000000360FC000000000000284000
  0
ACAD_PROXY_OBJECT
  5
62
102
{ACAD_REACTORS
330
47
102
}
330
47
100
AcDbProxyObject
 90
      499
 91
      503
 93
      241
310
90C312F3222203D2031272D3022000000000000380FC000000000000284000
  0
ACAD_PROXY_OBJECT
  5
63
102
{ACAD_REACTORS
330
47
102
}
330
47
100
AcDbProxyObject
 90
      499
 91
      503
 93
      241
310
90C332F3422203D2031272D30220000000000003A0FC000000000000284000
  0
ACAD_PROXY_OBJECT
  5
64
102
{ACAD_REACTORS
330
47
102
}
330
47
100
AcDbProxyObject
 90
      499
 91
      503
 93
      161
310
90A3122203D2031272D30224000000000000284000
  0
ACAD_PROXY_OBJECT
  5
65
102
{ACAD_REACTORS
330
47
102
}
330
47
100
AcDbProxyObject
 90
      499
 91
      503
 93
      257
310
90E312D312F3222203D2031272D30220000000000003E0FC000000000000284000
  0
ACAD_PROXY_OBJECT
  5
66
102
{ACAD_REACTORS
330
47
102
}
330
47
100
AcDbProxyObject
 90
      499
 91
      503
 93
      225
310
90A3322203D2031272D302200000000000002100000000000000284000
  0
ACAD_PROXY_OBJECT
  5
67
102
{ACAD_REACTORS
330
47
102
}
330
47
100
AcDbProxyObject
 90
      499
 91
      503
 93
      225
310
90A3622203D2031272D302200000000000006100000000000000284000
  0
ACAD_PROXY_OBJECT
  5
68
102
{ACAD_REACTORS
330
47
102
}
330
47
100
AcDbProxyObject
 90
      499
 91
      503
 93
      249
310
90D31272D3022203D2031272D30220000000000000A100000000000000284000
  0
ACAD_PROXY_OBJECT
  5
2F
102
{ACAD_REACTORS
330
2A
102
}
330
2A
100
AcDbProxyObject
 90
      499
 91
      501
 93
      436
310
42CC9915DA5C99599C985B595049028333333333333E33F0000000000000F90107901411070040501600405405064090741402480A0340
1001
ACAD
1000
AcDbSavedByObjectVersion
1070
     0
  0
ACAD_PROXY_OBJECT
  5
32
102
{ACAD_REACTORS
330
2A
102
}
330
2A
100
AcDbProxyObject
 90
      499
 91
      501
 93
      388
310
4150985CDA58D07406404333333333333E33F0000000000000F90107A41107004050150841D405064090741402480A0350
1001
ACAD
1000
AcDbSavedByObjectVersion
1070
     0
  0
ACAD_PROXY_OBJECT
  5
36
102
{ACAD_REACTORS
330
2A
102
}
330
2A
100
AcDbProxyObject
 90
      499
 91
      501
 93
      428
310
42109C9A59DA1D195B90C409028333333333333E33F0000000000000F9010790141107004050150841D405064090741402480A029950
1001
ACAD
1000
AcDbSavedByObjectVersion
1070
     0
  0
ACAD_PROXY_OBJECT
  5
3A
102
{ACAD_REACTORS
330
2A
102
}
330
2A
100
AcDbProxyObject
 90
      499
 91
      501
 93
      452
310
42D0DBDB1BDC90DA185B99D95104090240C333333333333E33F0000000000000F90108901411070040501508421405064090741402480A0350
1001
ACAD
1000
AcDbSavedByObjectVersion
1070
     0
  0
ACAD_PROXY_OBJECT
  5
34
102
{ACAD_REACTORS
330
2A
102
}
330
2A
100
AcDbProxyObject
 90
      499
 91
      501
 93
      500
310
4290DBDB98D95C1D1D585B10940D028333333333333E33F0000000000000F90107902409070040501000000000018199010841D405064090740C02480A0340
1001
ACAD
1000
AcDbSavedByObjectVersion
1070
     0
  0
ACAD_PROXY_OBJECT
  5
35
102
{ACAD_REACTORS
330
2A
102
}
330
2A
100
AcDbProxyObject
 90
      499
 91
      501
 93
      412
310
40D11A5B50B409028333333333333E33F0000000000000F9010790141107004050150841D405064090741402480A02677FFFFFD0
1001
ACAD
1000
AcDbSavedByObjectVersion
1070
     0
  0
ACAD_PROXY_OBJECT
  5
3D
102
{ACAD_REACTORS
330
2A
102
}
330
2A
100
AcDbProxyObject
 90
      499
 91
      501
 93
      452
310
43115919D950DBDB1BDC93D999916409028333333333333E33F0000000000000F9010790141107004050150841D405064090741402480A0350
1001
ACAD
1000
AcDbSavedByObjectVersion
1070
     0
  0
ACAD_PROXY_OBJECT
  5
39
102
{ACAD_REACTORS
330
2A
102
}
330
2A
100
AcDbProxyObject
 90
      499
 91
      501
 93
      444
310
42D19858D95C185D1D195C9B90F409028333333333333E33F0000000000000F9010790141107004050150841D405064090741402480A0350
1001
ACAD
1000
AcDbSavedByObjectVersion
1070
     0
  0
ACAD_PROXY_OBJECT
  5
2B
102
{ACAD_REACTORS
330
2A
102
}
330
2A
100
AcDbProxyObject
 90
      499
 91
      501
 93
      380
310
41119B185D240901404333333333333E33F0000000000000F9010740A907004050150841D405064090741402480A1B50
1001
ACAD
1000
AcDbSavedByObjectVersion
1070
     0
  0
ACAD_PROXY_OBJECT
  5
2C
102
{ACAD_REACTORS
330
2A
102
}
330
2A
100
AcDbProxyObject
 90
      499
 91
      501
 93
      468
310
43519B185D15DA5D1A115919D95CD0140901404333333333333E33F0000000000000F90107409019070040501600405405064090741402480A1B50
1001
ACAD
1000
AcDbSavedByObjectVersion
1070
     0
  0
ACAD_PROXY_OBJECT
  5
2D
102
{ACAD_REACTORS
330
2A
102
}
330
2A
100
AcDbProxyObject
 90
      499
 91
      501
 93
      404
310
41D1DBDD5C985D5910240902404333333333333E33F0000000000000F9010740A9070040501641D405064090741402480A1B50
1001
ACAD
1000
AcDbSavedByObjectVersion
1070
     0
  0
ACAD_PROXY_OBJECT
  5
2E
102
{ACAD_REACTORS
330
2A
102
}
330
2A
100
AcDbProxyObject
 90
      499
 91
      501
 93
      492
310
4411DBDD5C985D5915DA5D1A115919D95CD0340902404333333333333E33F0000000000000F90107409019070040501600405405064090741402480A1B50
1001
ACAD
1000
AcDbSavedByObjectVersion
1070
     0
  0
ACAD_PROXY_OBJECT
  5
31
102
{ACAD_REACTORS
330
2A
102
}
330
2A
100
AcDbProxyObject
 90
      499
 91
      501
 93
      476
310
41921A5919195B90640502408333333333333E33F0000000000000F901079024090700405020000000000001110200405405064090740C02480A0340
1001
ACAD
1000
AcDbSavedByObjectVersion
1070
     0
  0
ACAD_PROXY_OBJECT
  5
3B
102
{ACAD_REACTORS
330
2A
102
}
330
2A
100
AcDbProxyObject
 90
      499
 91
      501
 93
      428
310
42529A5D1D195C93D999914409028333333333333E33F0000000000000F9010790141107004050150A41D405064090741402480A0350
1001
ACAD
1000
AcDbSavedByObjectVersion
1070
     0
  0
ACAD_PROXY_OBJECT
  5
38
102
{ACAD_REACTORS
330
2A
102
}
330
2A
100
AcDbProxyObject
 90
      499
 91
      501
 93
      444
310
42D31A5B995C185D1D195C9B90E409028333333333333E33F0000000000000F9010790141107004050750841D405064090741402483A0350
1001
ACAD
1000
AcDbSavedByObjectVersion
1070
     0
  0
ACAD_PROXY_OBJECT
  5
3C
102
{ACAD_REACTORS
330
2A
102
}
330
2A
100
AcDbProxyObject
 90
      499
 91
      501
 93
      444
310
42D3DD995C9A185B99D3D999915409028333333333333E33F0000000000000F9010790141107004050150941D405064090741402480A0350
1001
ACAD
1000
AcDbSavedByObjectVersion
1070
     0
  0
ACAD_PROXY_OBJECT
  5
33
102
{ACAD_REACTORS
330
2A
102
}
330
2A
100
AcDbProxyObject
 90
      499
 91
      501
 93
      428
310
425499585B1A5CDD1A58D08409038333333333333E33F0000000000000F9010740A907004050150800405405064090740C02480A1B40
1001
ACAD
1000
AcDbSavedByObjectVersion
1070
     0
  0
ACAD_PROXY_OBJECT
  5
42
102
{ACAD_REACTORS
330
2A
102
}
330
2A
100
AcDbProxyObject
 90
      499
 91
      501
 93
      420
310
4194DA1859195911B40902404333333333333E33F0000000000000F9010740A41107004050150800405405064090840C02480A0B40
1001
ACAD
1000
AcDbSavedByObjectVersion
1070
     0
  0
ACAD_PROXY_OBJECT
  5
41
102
{ACAD_REACTORS
330
2A
102
}
330
2A
100
AcDbProxyObject
 90
      499
 91
      501
 93
      516
310
4454DA18591959081DDA5D1A08195919D95CD1A40902404333333333333E33F0000000000000F901074090142907004050250800405405064090740C02480A0B40
1001
ACAD
1000
AcDbSavedByObjectVersion
1070
     0
  0
ACAD_PROXY_OBJECT
  5
3E
102
{ACAD_REACTORS
330
2A
102
}
330
2A
100
AcDbProxyObject
 90
      499
 91
      501
 93
      532
310
4394DA1859195CC81BD98811DC985E5174090240C333333333333E33F0000000000000F901079024090741D01000000000000111010841D405064090740C02480A0340
1001
ACAD
1000
AcDbSavedByObjectVersion
1070
     0
  0
ACAD_PROXY_OBJECT
  5
3F
102
{ACAD_REACTORS
330
2A
102
}
330
2A
100
AcDbProxyObject
 90
      499
 91
      501
 93
      476
310
41D4DAD95D18DA1E51840502408333333333333E33F0000000000000F901079024090741D01000000000000111010B41D405064090741802480A0340
1001
ACAD
1000
AcDbSavedByObjectVersion
1070
     0
  0
ACAD_PROXY_OBJECT
  5
37
102
{ACAD_REACTORS
330
2A
102
}
330
2A
100
AcDbProxyObject
 90
      499
 91
      501
 93
      412
310
41D51A1A58DAD95B90D409028333333333333E33F0000000000000F9010790141107004050150C41D405064090741402480A0350
1001
ACAD
1000
AcDbSavedByObjectVersion
1070
     0
  0
ACAD_PROXY_OBJECT
  5
30
102
{ACAD_REACTORS
330
2A
102
}
330
2A
100
AcDbProxyObject
 90
      499
 91
      501
 93
      420
310
4255DA5C99599C985B595059028333333333333E33F0000000000000F90107901411070040501600405405064090740C02480A0340
1001
ACAD
1000
AcDbSavedByObjectVersion
1070
     0
  0
ACAD_PROXY_OBJECT
  5
40
102
{ACAD_REACTORS
330
2A
102
}
330
2A
100
AcDbProxyObject
 90
      499
 91
      501
 93
      404
310
41560B54985E51940902404000000000000E03F0000000000000F9010740501907004050150841D405064090740C02480A1B40
1001
ACAD
1000
AcDbSavedByObjectVersion
1070
     0
  0
XRECORD
  5
343
102
{ACAD_REACTORS
330
339
102
}
330
339
100
AcDbXrecord
340
0
  0
XRECORD
  5
342
102
{ACAD_REACTORS
330
339
102
}
330
339
100
AcDbXrecord
 90
        0
  0
XRECORD
  5
359
102
{ACAD_REACTORS
330
339
102
}
330
339
100
AcDbXrecord
1000
DSTYLE
1002
{
1070
   179
 70
     2
1070
   171
 70
     2
1070
   143
 40
25.4
1070
   274
 70
     2
1070
    41
 40
3.0
1070
   141
 40
0.09
1070
    43
 40
0.38
1070
   278
 70
    46
1070
    44
 40
1.5
1070
    42
 40
0.0625
1070
   147
 40
1.5
1070
   272
 70
     4
1070
    73
 70
     1
1070
   172
 70
     0
1070
    74
 70
     1
1070
   283
 70
     1
1070
   340
340
6E
1070
   140
 40
3.0
1070
   284
 70
     0
1070
    78
 70
     0
1002
}
  0
XRECORD
  5
344
102
{ACAD_REACTORS
330
339
102
}
330
339
100
AcDbXrecord
  1
{D40C61DF-290A-47A4-B723-0D93DDC44AB1}
  0
XRECORD
  5
33C
102
{ACAD_REACTORS
330
339
102
}
330
339
100
AcDbXrecord
  1

  0
XRECORD
  5
341
102
{ACAD_REACTORS
330
339
102
}
330
339
100
AcDbXrecord
 90
        4
  0
XRECORD
  5
33E
102
{ACAD_REACTORS
330
339
102
}
330
339
100
AcDbXrecord
340
1A
  0
XRECORD
  5
340
102
{ACAD_REACTORS
330
339
102
}
330
339
100
AcDbXrecord
 90
    10269
  0
XRECORD
  5
33F
102
{ACAD_REACTORS
330
339
102
}
330
339
100
AcDbXrecord
340
19
  0
XRECORD
  5
346
102
{ACAD_REACTORS
330
339
102
}
330
339
100
AcDbXrecord
 40
0.0
  0
XRECORD
  5
349
102
{ACAD_REACTORS
330
339
102
}
330
339
100
AcDbXrecord
340
0
  0
XRECORD
  5
34F
102
{ACAD_REACTORS
330
339
102
}
330
339
100
AcDbXrecord
 10
0.0
 20
0.0
 30
0.0
  0
XRECORD
  5
34B
102
{ACAD_REACTORS
330
339
102
}
330
339
100
AcDbXrecord
 10
0.0
 20
0.0
 30
0.0
  0
XRECORD
  5
34E
102
{ACAD_REACTORS
330
339
102
}
330
339
100
AcDbXrecord
 10
0.0
 20
0.0
 30
0.0
  0
XRECORD
  5
34C
102
{ACAD_REACTORS
330
339
102
}
330
339
100
AcDbXrecord
 10
0.0
 20
0.0
 30
0.0
  0
XRECORD
  5
34D
102
{ACAD_REACTORS
330
339
102
}
330
339
100
AcDbXrecord
 10
0.0
 20
0.0
 30
0.0
  0
XRECORD
  5
34A
102
{ACAD_REACTORS
330
339
102
}
330
339
100
AcDbXrecord
 10
0.0
 20
0.0
 30
0.0
  0
XRECORD
  5
347
102
{ACAD_REACTORS
330
339
102
}
330
339
100
AcDbXrecord
340
0
  0
XRECORD
  5
348
102
{ACAD_REACTORS
330
339
102
}
330
339
100
AcDbXrecord
 70
     0
  0
XRECORD
  5
33D
102
{ACAD_REACTORS
330
339
102
}
330
339
100
AcDbXrecord
  1

  0
XRECORD
  5
33A
102
{ACAD_REACTORS
330
339
102
}
330
339
100
AcDbXrecord
 90
        1
  0
XRECORD
  5
33B
102
{ACAD_REACTORS
330
339
102
}
330
339
100
AcDbXrecord
 90
       70
  0
XRECORD
  5
352
102
{ACAD_REACTORS
330
339
102
}
330
339
100
AcDbXrecord
340
0
  0
XRECORD
  5
358
102
{ACAD_REACTORS
330
339
102
}
330
339
100
AcDbXrecord
 10
0.0
 20
0.0
 30
0.0
  0
XRECORD
  5
354
102
{ACAD_REACTORS
330
339
102
}
330
339
100
AcDbXrecord
 10
0.0
 20
0.0
 30
0.0
  0
XRECORD
  5
357
102
{ACAD_REACTORS
330
339
102
}
330
339
100
AcDbXrecord
 10
0.0
 20
0.0
 30
0.0
  0
XRECORD
  5
355
102
{ACAD_REACTORS
330
339
102
}
330
339
100
AcDbXrecord
 10
0.0
 20
0.0
 30
0.0
  0
XRECORD
  5
356
102
{ACAD_REACTORS
330
339
102
}
330
339
100
AcDbXrecord
 10
0.0
 20
0.0
 30
0.0
  0
XRECORD
  5
353
102
{ACAD_REACTORS
330
339
102
}
330
339
100
AcDbXrecord
 10
0.0
 20
0.0
 30
0.0
  0
XRECORD
  5
350
102
{ACAD_REACTORS
330
339
102
}
330
339
100
AcDbXrecord
340
0
  0
XRECORD
  5
351
102
{ACAD_REACTORS
330
339
102
}
330
339
100
AcDbXrecord
 70
     0
  0
XRECORD
  5
345
102
{ACAD_REACTORS
330
339
102
}
330
339
100
AcDbXrecord
  1
{FAEB1C32-E019-11D5-929B-00C0DF256EC4}
  0
DICTIONARYVAR
  5
363
102
{ACAD_REACTORS
330
35A
102
}
330
35A
100
DictionaryVariables
280
     0
  1
1:1
  0
DICTIONARYVAR
  5
35C
102
{ACAD_REACTORS
330
35A
102
}
330
35A
100
DictionaryVariables
280
     0
  1
Standard
  0
DICTIONARYVAR
  5
35B
102
{ACAD_REACTORS
330
35A
102
}
330
35A
100
DictionaryVariables
280
     0
  1
Standard
  0
DICTIONARYVAR
  5
35F
102
{ACAD_REACTORS
330
35A
102
}
330
35A
100
DictionaryVariables
280
     0
  1
2
  0
DICTIONARYVAR
  5
360
102
{ACAD_REACTORS
330
35A
102
}
330
35A
100
DictionaryVariables
280
     0
  1
1
  0
DICTIONARYVAR
  5
364
102
{ACAD_REACTORS
330
35A
102
}
330
35A
100
DictionaryVariables
280
     0
  1
1
  0
DICTIONARY
  5
367
330
45
100
AcDbDictionary
280
     1
  3
ACAD_XREC_ROUNDTRIP
360
368
  0
DICTIONARY
  5
365
330
44
100
AcDbDictionary
280
     1
  3
ACAD_XREC_ROUNDTRIP
360
366
  0
DICTIONARY
  5
369
330
46
100
AcDbDictionary
280
     1
  3
ACAD_XREC_ROUNDTRIP
360
36A
  0
XRECORD
  5
368
102
{ACAD_REACTORS
330
367
102
}
330
367
100
AcDbXrecord
102
MATERIAL
148
0.0
149
0.0
149
0.0
 93
        0
 94
      127
282
     0
 72
     1
 77
     1
171
     1
175
     1
179
     1
273
     0
  0
XRECORD
  5
366
102
{ACAD_REACTORS
330
365
102
}
330
365
100
AcDbXrecord
102
MATERIAL
148
0.0
149
0.0
149
0.0
 93
        0
 94
      127
282
     0
 72
     1
 77
     1
171
     1
175
     1
179
     1
273
     0
  0
XRECORD
  5
36A
102
{ACAD_REACTORS
330
369
102
}
330
369
100
AcDbXrecord
102
MATERIAL
148
0.0
149
0.0
149
0.0
 93
        0
 94
      127
282
     0
 72
     1
 77
     1
171
     1
175
     1
179
     1
273
     0
  0
ENDSEC
  0
EOF
