  0
SECTION
  2
HEADER
  9
$ACADVER
  1
AC1014
  9
$ACADMAINTVER
 70
     9
  9
$DWGCODEPAGE
  3
ANSI_932
  9
$INSBASE
 10
0.0
 20
0.0
 30
0.0
  9
$EXTMIN
 10
-631.728511968529
 20
0.0
 30
0.0
  9
$EXTMAX
 10
180.4196311171322
 20
337.4214789189941
 30
10.0
  9
$LIMMIN
 10
0.0
 20
0.0
  9
$LIMMAX
 10
12.0
 20
9.0
  9
$ORTHOMODE
 70
     0
  9
$REGENMODE
 70
     1
  9
$FILLMODE
 70
     1
  9
$QTEXTMODE
 70
     0
  9
$MIRRTEXT
 70
     1
  9
$DRAGMODE
 70
     2
  9
$LTSCALE
 40
1.0
  9
$OSMODE
 70
    37
  9
$ATTMODE
 70
     1
  9
$TEXTSIZE
 40
0.2
  9
$TRACEWID
 40
0.05
  9
$TEXTSTYLE
  7
STANDARD
  9
$CLAYER
  8
0
  9
$CELTYPE
  6
BYLAYER
  9
$CECOLOR
 62
   256
  9
$CELTSCALE
 40
1.0
  9
$DELOBJ
 70
     1
  9
$DISPSILH
 70
     0
  9
$DIMSCALE
 40
1.0
  9
$DIMASZ
 40
3.0
  9
$DIMEXO
 40
0.0625
  9
$DIMDLI
 40
0.38
  9
$DIMRND
 40
0.0
  9
$DIMDLE
 40
0.0
  9
$DIMEXE
 40
1.5
  9
$DIMTP
 40
0.0
  9
$DIMTM
 40
0.0
  9
$DIMTXT
 40
3.0
  9
$DIMCEN
 40
0.09
  9
$DIMTSZ
 40
0.0
  9
$DIMTOL
 70
     0
  9
$DIMLIM
 70
     0
  9
$DIMTIH
 70
     1
  9
$DIMTOH
 70
     1
  9
$DIMSE1
 70
     0
  9
$DIMSE2
 70
     0
  9
$DIMTAD
 70
     1
  9
$DIMZIN
 70
     0
  9
$DIMBLK
  1

  9
$DIMASO
 70
     1
  9
$DIMSHO
 70
     1
  9
$DIMPOST
  1

  9
$DIMAPOST
  1

  9
$DIMALT
 70
     0
  9
$DIMALTD
 70
     2
  9
$DIMALTF
 40
25.4
  9
$DIMLFAC
 40
1.0
  9
$DIMTOFL
 70
     0
  9
$DIMTVP
 40
0.0
  9
$DIMTIX
 70
     0
  9
$DIMSOXD
 70
     0
  9
$DIMSAH
 70
     0
  9
$DIMBLK1
  1

  9
$DIMBLK2
  1

  9
$DIMSTYLE
  2
STANDARD
  9
$DIMCLRD
 70
     0
  9
$DIMCLRE
 70
     0
  9
$DIMCLRT
 70
     0
  9
$DIMTFAC
 40
1.0
  9
$DIMGAP
 40
1.5
  9
$DIMJUST
 70
     0
  9
$DIMSD1
 70
     0
  9
$DIMSD2
 70
     0
  9
$DIMTOLJ
 70
     1
  9
$DIMTZIN
 70
     0
  9
$DIMALTZ
 70
     0
  9
$DIMALTTZ
 70
     0
  9
$DIMFIT
 70
     3
  9
$DIMUPT
 70
     0
  9
$DIMUNIT
 70
     2
  9
$DIMDEC
 70
     2
  9
$DIMTDEC
 70
     4
  9
$DIMALTU
 70
     2
  9
$DIMALTTD
 70
     2
  9
$DIMTXSTY
  7
ＭＳ_ゴシック
  9
$DIMAUNIT
 70
     0
  9
$LUNITS
 70
     2
  9
$LUPREC
 70
     4
  9
$SKETCHINC
 40
0.1
  9
$FILLETRAD
 40
0.5
  9
$AUNITS
 70
     0
  9
$AUPREC
 70
     0
  9
$MENU
  1
.
  9
$ELEVATION
 40
0.0
  9
$PELEVATION
 40
0.0
  9
$THICKNESS
 40
0.0
  9
$LIMCHECK
 70
     0
  9
$CHAMFERA
 40
0.0
  9
$CHAMFERB
 40
0.0
  9
$CHAMFERC
 40
0.0
  9
$CHAMFERD
 40
0.0
  9
$SKPOLY
 70
     0
  9
$TDCREATE
 40
2459033.486789109
  9
$TDUPDATE
 40
2459033.486789468
  9
$TDINDWG
 40
0.0000000116
  9
$TDUSRTIMER
 40
0.0000000116
  9
$USRTIMER
 70
     1
  9
$ANGBASE
 50
0.0
  9
$ANGDIR
 70
     0
  9
$PDMODE
 70
     0
  9
$PDSIZE
 40
0.0
  9
$PLINEWID
 40
0.0
  9
$COORDS
 70
     1
  9
$SPLFRAME
 70
     0
  9
$SPLINETYPE
 70
     6
  9
$SPLINESEGS
 70
     8
  9
$ATTDIA
 70
     0
  9
$ATTREQ
 70
     1
  9
$HANDLING
 70
     1
  9
$HANDSEED
  5
627
  9
$SURFTAB1
 70
     6
  9
$SURFTAB2
 70
     6
  9
$SURFTYPE
 70
     6
  9
$SURFU
 70
     6
  9
$SURFV
 70
     6
  9
$UCSNAME
  2

  9
$UCSORG
 10
0.0
 20
0.0
 30
0.0
  9
$UCSXDIR
 10
1.0
 20
0.0
 30
0.0
  9
$UCSYDIR
 10
0.0
 20
1.0
 30
0.0
  9
$PUCSNAME
  2

  9
$PUCSORG
 10
0.0
 20
0.0
 30
0.0
  9
$PUCSXDIR
 10
1.0
 20
0.0
 30
0.0
  9
$PUCSYDIR
 10
0.0
 20
1.0
 30
0.0
  9
$USERI1
 70
     0
  9
$USERI2
 70
     0
  9
$USERI3
 70
     0
  9
$USERI4
 70
     0
  9
$USERI5
 70
     0
  9
$USERR1
 40
0.0
  9
$USERR2
 40
0.0
  9
$USERR3
 40
0.0
  9
$USERR4
 40
0.0
  9
$USERR5
 40
0.0
  9
$WORLDVIEW
 70
     1
  9
$SHADEDGE
 70
     3
  9
$SHADEDIF
 70
    70
  9
$TILEMODE
 70
     1
  9
$MAXACTVP
 70
    64
  9
$PINSBASE
 10
0.0
 20
0.0
 30
0.0
  9
$PLIMCHECK
 70
     0
  9
$PEXTMIN
 10
1.000000000000000E+20
 20
1.000000000000000E+20
 30
1.000000000000000E+20
  9
$PEXTMAX
 10
-1.000000000000000E+20
 20
-1.000000000000000E+20
 30
-1.000000000000000E+20
  9
$PLIMMIN
 10
0.0
 20
0.0
  9
$PLIMMAX
 10
12.0
 20
9.0
  9
$UNITMODE
 70
     0
  9
$VISRETAIN
 70
     1
  9
$PLINEGEN
 70
     0
  9
$PSLTSCALE
 70
     1
  9
$TREEDEPTH
 70
  3020
  9
$PICKSTYLE
 70
     1
  9
$CMLSTYLE
  2
STANDARD
  9
$CMLJUST
 70
     0
  9
$CMLSCALE
 40
1.0
  9
$PROXYGRAPHICS
 70
     1
  9
$MEASUREMENT
 70
     1
  0
ENDSEC
  0
SECTION
  2
CLASSES
  0
CLASS
  1
ACDBDICTIONARYWDFLT
  2
AcDbDictionaryWithDefault
  3
ObjectDBX Classes
 90
        0
280
     0
281
     0
  0
CLASS
  1
VISUALSTYLE
  2
AcDbVisualStyle
  3
ObjectDBX Classes
 90
     4095
280
     0
281
     0
  0
CLASS
  1
MATERIAL
  2
AcDbMaterial
  3
ObjectDBX Classes
 90
     1153
280
     0
281
     0
  0
CLASS
  1
SCALE
  2
AcDbScale
  3
ObjectDBX Classes
 90
     1153
280
     0
281
     0
  0
CLASS
  1
TABLESTYLE
  2
AcDbTableStyle
  3
ObjectDBX Classes
 90
     4095
280
     0
281
     0
  0
CLASS
  1
MLEADERSTYLE
  2
AcDbMLeaderStyle
  3
ACDB_MLEADERSTYLE_CLASS
 90
     4095
280
     0
281
     0
  0
CLASS
  1
SUN
  2
AcDbSun
  3
SCENEOE
 90
     1153
280
     0
281
     0
  0
CLASS
  1
DICTIONARYVAR
  2
AcDbDictionaryVar
  3
ObjectDBX Classes
 90
        0
280
     0
281
     0
  0
CLASS
  1
XRECORD
  2
AcDbXrecord
  3
ObjectDBX Classes
 90
        0
280
     0
281
     0
  0
CLASS
  1
LWPOLYLINE
  2
AcDbPolyline
  3
ObjectDBX Classes
 90
        0
280
     0
281
     1
  0
CLASS
  1
HATCH
  2
AcDbHatch
  3
ObjectDBX Classes
 90
        0
280
     0
281
     1
  0
CLASS
  1
ACDBPLACEHOLDER
  2
AcDbPlaceHolder
  3
ObjectDBX Classes
 90
        0
280
     0
281
     0
  0
CLASS
  1
LAYOUT
  2
AcDbLayout
  3
ObjectDBX Classes
 90
        0
280
     0
281
     0
  0
ENDSEC
  0
SECTION
  2
TABLES
  0
TABLE
  2
VPORT
  5
8
102
{ACAD_XDICTIONARY
360
61C
102
}
330
0
100
AcDbSymbolTable
 70
     1
  0
VPORT
  5
29
330
8
100
AcDbSymbolTableRecord
100
AcDbViewportTableRecord
  2
*ACTIVE
 70
     0
 10
0.0
 20
0.0
 11
1.0
 21
1.0
 12
-225.6544404256984
 22
168.710739459497
 13
0.0
 23
0.0
 14
0.5
 24
0.5
 15
0.5
 25
0.5
 16
0.0
 26
0.0
 36
1.0
 17
0.0
 27
0.0
 37
0.0
 40
337.4214789189941
 41
1.6
 42
50.0
 43
0.0
 44
0.0
 50
0.0
 51
0.0
 71
     0
 72
   100
 73
     1
 74
     3
 75
     0
 76
     0
 77
     0
 78
     0
  0
ENDTAB
  0
TABLE
  2
LTYPE
  5
5
330
0
100
AcDbSymbolTable
 70
     1
  0
LTYPE
  5
14
330
5
100
AcDbSymbolTableRecord
100
AcDbLinetypeTableRecord
  2
BYBLOCK
 70
     0
  3

 72
    65
 73
     0
 40
0.0
  0
LTYPE
  5
15
330
5
100
AcDbSymbolTableRecord
100
AcDbLinetypeTableRecord
  2
BYLAYER
 70
     0
  3

 72
    65
 73
     0
 40
0.0
  0
LTYPE
  5
16
330
5
100
AcDbSymbolTableRecord
100
AcDbLinetypeTableRecord
  2
CONTINUOUS
 70
     0
  3
Solid line
 72
    65
 73
     0
 40
0.0
  0
ENDTAB
  0
TABLE
  2
LAYER
  5
2
330
0
100
AcDbSymbolTable
 70
     1
  0
LAYER
  5
10
330
2
100
AcDbSymbolTableRecord
100
AcDbLayerTableRecord
  2
0
 70
     0
 62
     7
  6
CONTINUOUS
  0
ENDTAB
  0
TABLE
  2
STYLE
  5
3
330
0
100
AcDbSymbolTable
 70
     2
  0
STYLE
  5
11
330
3
100
AcDbSymbolTableRecord
100
AcDbTextStyleTableRecord
  2
STANDARD
 70
     0
 40
0.0
 41
1.0
 50
0.0
 71
     0
 42
0.2
  3
txt
  4

  0
STYLE
  5
6E
330
3
100
AcDbSymbolTableRecord
100
AcDbTextStyleTableRecord
  2
ＭＳ_ゴシック
 70
     0
 40
0.0
 41
1.0
 50
0.0
 71
     0
 42
0.2
  3
ＭＳ ゴシック.shx
  4

  0
ENDTAB
  0
TABLE
  2
VIEW
  5
6
330
0
100
AcDbSymbolTable
 70
     0
  0
ENDTAB
  0
TABLE
  2
UCS
  5
7
330
0
100
AcDbSymbolTable
 70
     0
  0
ENDTAB
  0
TABLE
  2
APPID
  5
9
330
0
100
AcDbSymbolTable
 70
     2
  0
APPID
  5
12
330
9
100
AcDbSymbolTableRecord
100
AcDbRegAppTableRecord
  2
ACAD
 70
     0
  0
APPID
  5
626
330
9
100
AcDbSymbolTableRecord
100
AcDbRegAppTableRecord
  2
ACAD_MLEADERVER
 70
     0
  0
ENDTAB
  0
TABLE
  2
DIMSTYLE
  5
A
330
0
100
AcDbSymbolTable
 70
     1
  0
DIMSTYLE
105
27
330
A
100
AcDbSymbolTableRecord
100
AcDbDimStyleTableRecord
  2
STANDARD
 70
     0
  3

  4

  5

  6

  7

 40
1.0
 41
0.18
 42
0.0625
 43
0.38
 44
0.18
 45
0.0
 46
0.0
 47
0.0
 48
0.0
140
0.18
141
0.09
142
0.0
143
25.4
144
1.0
145
0.0
146
1.0
147
0.09
 71
     0
 72
     0
 73
     1
 74
     1
 75
     0
 76
     0
 77
     0
 78
     0
170
     0
171
     2
172
     0
173
     0
174
     0
175
     0
176
     0
177
     0
178
     0
270
     2
271
     4
272
     4
273
     2
274
     2
340
11
275
     0
280
     0
281
     0
282
     0
283
     1
284
     0
285
     0
286
     0
287
     3
288
     0
  0
ENDTAB
  0
TABLE
  2
BLOCK_RECORD
  5
1
330
0
100
AcDbSymbolTable
 70
     0
  0
BLOCK_RECORD
  5
1F
330
1
100
AcDbSymbolTableRecord
100
AcDbBlockTableRecord
  2
*MODEL_SPACE
  0
BLOCK_RECORD
  5
1B
330
1
100
AcDbSymbolTableRecord
100
AcDbBlockTableRecord
  2
*PAPER_SPACE
  0
ENDTAB
  0
ENDSEC
  0
SECTION
  2
BLOCKS
  0
BLOCK
  5
20
330
1F
100
AcDbEntity
  8
0
100
AcDbBlockBegin
  2
*MODEL_SPACE
 70
     0
 10
0.0
 20
0.0
 30
0.0
  3
*MODEL_SPACE
  1

  0
ENDBLK
  5
21
330
1F
100
AcDbEntity
  8
0
100
AcDbBlockEnd
  0
BLOCK
  5
1C
330
1B
100
AcDbEntity
 67
     1
  8
0
100
AcDbBlockBegin
  2
*PAPER_SPACE
 70
     0
 10
0.0
 20
0.0
 30
0.0
  3
*PAPER_SPACE
  1

  0
ENDBLK
  5
1D
330
1B
100
AcDbEntity
 67
     1
  8
0
100
AcDbBlockEnd
  0
ENDSEC
  0
SECTION
  2
ENTITIES
  0
LINE
  5
6F
330
1F
100
AcDbEntity
  8
0
  6
CONTINUOUS
 62
     7
100
AcDbLine
 10
95.01570375532265
 20
281.5947501463669
 30
0.0
 11
94.95355061626026
 21
280.8894696241451
 31
0.0
  0
LINE
  5
70
330
1F
100
AcDbEntity
  8
0
  6
CONTINUOUS
 62
     7
100
AcDbLine
 10
93.72724938115462
 20
281.5947500031749
 30
0.0
 11
95.01570375532262
 21
281.5947501463669
 31
0.0
  0
LINE
  5
71
330
1F
100
AcDbEntity
  8
0
  6
CONTINUOUS
 62
   253
100
AcDbLine
 10
-46.88021193967185
 20
319.4561166209135
 30
0.0
 11
-46.12965658972534
 21
319.4561167969369
 31
0.0
  0
ARC
  5
72
330
1F
100
AcDbEntity
  8
0
  6
CONTINUOUS
 62
     7
100
AcDbCircle
 10
-128.3285244685288
 20
305.8733233333331
 30
0.0
 40
2.249999999999863
100
AcDbArc
 50
346.12762021316
 51
359.9999999999987
  0
ARC
  5
73
330
1F
100
AcDbEntity
  8
0
  6
CONTINUOUS
 62
     7
100
AcDbCircle
 10
136.6285244685288
 20
318.8733233333336
 30
0.0
 40
2.249999999999974
210
0.0
220
0.0
230
-1.0
100
AcDbArc
 50
256.12762021316
 51
283.8723797868391
  0
LINE
  5
74
330
1F
100
AcDbEntity
  8
0
  6
CONTINUOUS
 62
     7
100
AcDbLine
 10
-92.7273923473324
 20
263.2905298697294
 30
0.0
 11
-92.7273923473324
 21
319.4561168024655
 31
0.0
  0
LINE
  5
75
330
1F
100
AcDbEntity
  8
0
  6
CONTINUOUS
 62
     7
100
AcDbLine
 10
77.02260765266766
 20
263.2905298697294
 30
0.0
 11
77.02260765266766
 21
319.456116802461
 31
0.0
  0
LINE
  5
76
330
1F
100
AcDbEntity
  8
0
  6
CONTINUOUS
 62
     7
100
AcDbLine
 10
-130.5128968600129
 20
305.3338631815864
 30
0.0
 11
-130.5373427792324
 21
305.2755513418264
 31
0.0
  0
LINE
  5
77
330
1F
100
AcDbEntity
  8
0
  6
CONTINUOUS
 62
     7
100
AcDbLine
 10
-122.1785244685288
 20
305.8733233333331
 30
0.0
 11
-122.1785244685288
 21
306.4506736025228
 31
0.0
  0
ARC
  5
78
330
1F
100
AcDbEntity
  8
0
  6
CONTINUOUS
 62
     7
100
AcDbCircle
 10
136.6285244685288
 20
318.8733233333336
 30
0.0
 40
2.249999999999974
210
0.0
220
0.0
230
-1.0
100
AcDbArc
 50
76.12762021316003
 51
103.8723797868391
  0
ARC
  5
79
330
1F
100
AcDbEntity
  8
0
  6
CONTINUOUS
 62
     7
100
AcDbCircle
 10
-128.3285244685288
 20
305.8733233333331
 30
0.0
 40
2.249999999999863
100
AcDbArc
 50
256.12762021316
 51
283.8723797868392
  0
LINE
  5
7A
330
1F
100
AcDbEntity
  8
0
  6
CONTINUOUS
 62
     7
100
AcDbLine
 10
-122.2168010434929
 20
308.2296760915664
 30
0.0
 11
-122.2168010434929
 21
306.5169705751001
 31
0.0
  0
LINE
  5
7B
330
1F
100
AcDbEntity
  8
0
  6
CONTINUOUS
 62
     7
100
AcDbLine
 10
-117.6785244685289
 20
305.8733233333331
 30
0.0
 11
-117.6785244685289
 21
306.4506736025228
 31
0.0
  0
LINE
  5
7C
330
1F
100
AcDbEntity
  8
0
  6
CONTINUOUS
 62
     7
100
AcDbLine
 10
110.9697880603286
 20
319.4561166208736
 30
0.0
 11
110.9697880603286
 21
263.2905298642009
 31
0.0
  0
LINE
  5
7D
330
1F
100
AcDbEntity
  8
0
  6
CONTINUOUS
 62
   253
100
AcDbLine
 10
77.77316300261417
 20
319.456116802461
 30
0.0
 11
77.02260765266766
 21
319.456116802461
 31
0.0
  0
LINE
  5
7E
330
1F
100
AcDbEntity
  8
0
  6
CONTINUOUS
 62
     7
100
AcDbLine
 10
-130.5785244685288
 20
305.8733233333331
 30
0.0
 11
-130.5785244685288
 21
306.4506736025228
 31
0.0
  0
LINE
  5
7F
330
1F
100
AcDbEntity
  8
0
  6
CONTINUOUS
 62
     7
100
AcDbLine
 10
104.1500487184377
 20
292.017551557185
 30
0.0
 11
104.8553292406597
 21
291.9553984181221
 31
0.0
  0
ARC
  5
80
330
1F
100
AcDbEntity
  8
0
  6
CONTINUOUS
 62
     7
100
AcDbCircle
 10
-136.6285244685288
 20
318.8733233333336
 30
0.0
 40
2.249999999999863
100
AcDbArc
 50
193.87237978684
 51
256.1276202131604
  0
LINE
  5
81
330
1F
100
AcDbEntity
  8
0
  6
CONTINUOUS
 62
     7
100
AcDbLine
 10
104.8553295863651
 20
290.7912544751396
 30
0.0
 11
104.1500488616297
 21
290.729097183017
 31
0.0
  0
ARC
  5
82
330
1F
100
AcDbEntity
  8
0
  6
CONTINUOUS
 62
     7
100
AcDbCircle
 10
94.37147553147129
 20
291.3733233333335
 30
0.0
 40
10.49999999999995
100
AcDbArc
 50
3.177862003190014
 51
86.82217202605166
  0
ARC
  5
83
330
1F
100
AcDbEntity
  8
0
  6
CONTINUOUS
 62
     7
100
AcDbCircle
 10
-136.6285244685288
 20
318.8733233333336
 30
0.0
 40
2.249999999999863
100
AcDbArc
 50
103.87237978684
 51
166.1276202131614
  0
LINE
  5
84
330
1F
100
AcDbEntity
  8
0
  6
CONTINUOUS
 62
   253
100
AcDbLine
 10
-47.39573099939842
 20
319.9716358621906
 30
0.0
 11
-47.39573099939842
 21
320.722191212137
 31
0.0
  0
LINE
  5
85
330
1F
100
AcDbEntity
  8
0
  6
CONTINUOUS
 62
   253
100
AcDbLine
 10
-91.46131793765932
 20
262.775010804476
 30
0.0
 11
-91.46131793765932
 21
262.0244554545295
 31
0.0
  0
LINE
  5
86
330
1F
100
AcDbEntity
  8
0
  6
CONTINUOUS
 62
     7
100
AcDbLine
 10
-46.88021193967185
 20
319.4561166209135
 30
0.0
 11
-46.88021193967185
 21
263.2905298642025
 31
0.0
  0
LINE
  5
87
330
1F
100
AcDbEntity
  8
0
  6
CONTINUOUS
 62
     7
100
AcDbLine
 10
-91.97683699738579
 20
319.4561168024655
 30
0.0
 11
-91.46131775608337
 21
319.9716358621906
 31
0.0
  0
ARC
  5
88
330
1F
100
AcDbEntity
  8
0
  6
CONTINUOUS
 62
     7
100
AcDbCircle
 10
-128.3285244685288
 20
305.8733233333331
 30
0.0
 40
2.288276574963777
100
AcDbArc
 50
284.5116105564679
 51
344.8567987764018
  0
LINE
  5
89
330
1F
100
AcDbEntity
  8
0
  6
CONTINUOUS
 62
     7
100
AcDbLine
 10
-91.46131793765932
 20
262.775010804476
 30
0.0
 11
-91.97683699738573
 21
263.2905300457556
 31
0.0
  0
LINE
  5
8A
330
1F
100
AcDbEntity
  8
0
  6
CONTINUOUS
 62
     7
100
AcDbLine
 10
110.9697880603286
 20
263.290529864201
 30
0.0
 11
110.4542688190242
 21
262.775010804476
 31
0.0
  0
CIRCLE
  5
8B
330
1F
100
AcDbEntity
  8
0
  6
CONTINUOUS
 62
   253
100
AcDbCircle
 10
-69.42852446852898
 20
291.3733233333335
 30
0.0
 40
10.98724977297316
  0
LINE
  5
8C
330
1F
100
AcDbEntity
  8
0
  6
CONTINUOUS
 62
     7
100
AcDbLine
 10
110.4542688190242
 20
262.775010804476
 30
0.0
 11
78.28868206234071
 21
262.775010804476
 31
0.0
  0
LINE
  5
8D
330
1F
100
AcDbEntity
  8
0
  6
CONTINUOUS
 62
     7
100
AcDbLine
 10
-47.39573118097595
 20
262.775010804476
 30
0.0
 11
-91.4613179376594
 21
262.775010804476
 31
0.0
  0
LINE
  5
8E
330
1F
100
AcDbEntity
  8
0
  6
CONTINUOUS
 62
     7
100
AcDbLine
 10
-47.39573100492478
 20
262.0244554545295
 30
0.0
 11
-91.46131793765935
 21
262.0244554545295
 31
0.0
  0
LINE
  5
8F
330
1F
100
AcDbEntity
  8
0
  6
CONTINUOUS
 62
   253
100
AcDbLine
 10
-91.46131775608335
 20
319.9716358621906
 30
0.0
 11
-91.4613179321328
 21
320.722191212137
 31
0.0
  0
LINE
  5
90
330
1F
100
AcDbEntity
  8
0
  6
CONTINUOUS
 62
   253
100
AcDbLine
 10
110.4542688190242
 20
262.775010804476
 30
0.0
 11
110.4542689950752
 21
262.0244554545295
 31
0.0
  0
LINE
  5
91
330
1F
100
AcDbEntity
  8
0
  6
CONTINUOUS
 62
     7
100
AcDbLine
 10
-46.12965658972534
 20
319.456116796937
 30
0.0
 11
-46.12965658972534
 21
263.2905298642025
 31
0.0
  0
LINE
  5
92
330
1F
100
AcDbEntity
  8
0
  6
CONTINUOUS
 62
     7
100
AcDbLine
 10
-47.39573099939842
 20
319.9716358621906
 30
0.0
 11
-46.88021193967187
 21
319.4561166209135
 31
0.0
  0
LINE
  5
93
330
1F
100
AcDbEntity
  8
0
  6
CONTINUOUS
 62
     7
100
AcDbLine
 10
-91.46131775608335
 20
319.9716358621906
 30
0.0
 11
-47.39573099939837
 21
319.9716358621906
 31
0.0
  0
ARC
  5
94
330
1F
100
AcDbEntity
  8
0
  6
CONTINUOUS
 62
     7
100
AcDbCircle
 10
94.37147553147129
 20
291.3733233333335
 30
0.0
 40
10.49999999999995
100
AcDbArc
 50
273.1778620031902
 51
356.8221720260519
  0
LINE
  5
95
330
1F
100
AcDbEntity
  8
0
  6
CONTINUOUS
 62
     7
100
AcDbLine
 10
110.4542689950752
 20
262.0244554545295
 30
0.0
 11
78.28868206234068
 21
262.0244554545295
 31
0.0
  0
LINE
  5
96
330
1F
100
AcDbEntity
  8
0
  6
CONTINUOUS
 62
   253
100
AcDbLine
 10
110.4542690006012
 20
319.9716358621906
 30
0.0
 11
110.4542690006012
 21
320.722191212137
 31
0.0
  0
LINE
  5
97
330
1F
100
AcDbEntity
  8
0
  6
CONTINUOUS
 62
     7
100
AcDbLine
 10
110.4542690006012
 20
319.9716358621906
 30
0.0
 11
110.9697880603287
 21
319.4561166208736
 31
0.0
  0
LINE
  5
98
330
1F
100
AcDbEntity
  8
0
  6
CONTINUOUS
 62
   253
100
AcDbLine
 10
77.77316300261417
 20
263.2905300457615
 30
0.0
 11
77.02260765266766
 21
263.2905298697294
 31
0.0
  0
CIRCLE
  5
99
330
1F
100
AcDbEntity
  8
0
  6
CONTINUOUS
 62
   253
100
AcDbCircle
 10
94.37147553147129
 20
291.3733233333335
 30
0.0
 40
10.98724977297305
  0
MTEXT
  5
9A
330
1F
100
AcDbEntity
  8
0
 62
   253
100
AcDbMText
 10
101.4144679254721
 20
77.02956733775167
 30
0.0
 40
6.0
 41
0.0
 71
     1
 72
     1
  1
{\fＭＳ ゴシック;POW-0968}
  0
LWPOLYLINE
  5
9B
330
1F
100
AcDbEntity
  8
0
  6
CONTINUOUS
 62
     7
100
AcDbPolyline
 90
        4
 70
     0
 43
0.0
 10
482.0050531825889
 20
94.9900025
 10
481.4986901555953
 20
94.8523229073277
 10
481.1317588392033
 20
94.47719546978766
 10
481.0053958576135
 20
94.0161794483079
210
0.0
220
0.0
230
-1.0
  0
LWPOLYLINE
  5
9C
330
1F
100
AcDbEntity
  8
0
  6
CONTINUOUS
 62
     7
100
AcDbPolyline
 90
        4
 70
     0
 43
0.0
 10
629.728511968529
 20
320.6498520473936
 10
629.8661915612012
 20
320.1434890203999
 10
630.2413189987411
 20
319.7765577040076
 10
630.702335020221
 20
319.6501947224181
210
0.0
220
0.0
230
-1.0
  0
LWPOLYLINE
  5
9D
330
1F
100
AcDbEntity
  8
0
  6
CONTINUOUS
 62
     7
100
AcDbPolyline
 90
        4
 70
     0
 43
0.0
 10
484.4516530794443
 20
94.01617944830787
 10
484.3007656273472
 20
94.51876492575845
 10
483.9161615945093
 20
94.87575081241134
 10
483.4519957544688
 20
94.99000249999997
210
0.0
220
0.0
230
-1.0
  0
LWPOLYLINE
  5
9E
330
1F
100
AcDbEntity
  8
0
  6
CONTINUOUS
 62
     7
100
AcDbPolyline
 90
        4
 70
     0
 43
0.0
 10
630.702335020221
 20
323.0964519442489
 10
630.1997495427704
 20
322.9455644921515
 10
629.8427636561177
 20
322.5609604593141
 10
629.728511968529
 20
322.0967946192734
210
0.0
220
0.0
230
-1.0
  0
LWPOLYLINE
  5
9F
330
1F
100
AcDbEntity
  8
0
  6
CONTINUOUS
 62
     7
100
AcDbPolyline
 90
        4
 70
     0
 43
0.0
 10
142.3516530794444
 20
94.01617944830787
 10
142.2007656273473
 20
94.51876492575839
 10
141.8161615945094
 20
94.87575081241128
 10
141.3519957544689
 20
94.99000249999999
210
0.0
220
0.0
230
-1.0
  0
LWPOLYLINE
  5
A0
330
1F
100
AcDbEntity
  8
0
  6
CONTINUOUS
 62
     7
100
AcDbPolyline
 90
        4
 70
     0
 43
0.0
 10
139.9050531825888
 20
94.9900025
 10
139.3986901555953
 20
94.8523229073277
 10
139.0317588392034
 20
94.47719546978766
 10
138.9053958576133
 20
94.0161794483079
210
0.0
220
0.0
230
-1.0
  0
LINE
  5
A1
330
1F
100
AcDbEntity
  8
0
  6
CONTINUOUS
 62
     7
100
AcDbLine
 10
-120.4679846202753
 20
303.6889509418491
 30
0.0
 11
-120.5019120868229
 21
303.65804991393
 31
0.0
  0
LINE
  5
A2
330
1F
100
AcDbEntity
  8
0
  6
CONTINUOUS
 62
     7
100
AcDbLine
 10
-135.3785244685288
 20
291.3733233333335
 30
0.0
 11
-134.4441520770448
 21
291.9127834850801
 31
0.0
  0
ARC
  5
A3
330
1F
100
AcDbEntity
  8
0
  6
CONTINUOUS
 62
     7
100
AcDbCircle
 10
-119.9285244685289
 20
305.8733233333331
 30
0.0
 40
2.249999999999974
100
AcDbArc
 50
180.0
 51
193.8723797868388
  0
ARC
  5
A4
330
1F
100
AcDbEntity
  8
0
  6
CONTINUOUS
 62
     7
100
AcDbCircle
 10
-136.6285244685288
 20
291.3733233333335
 30
0.0
 40
2.249999999999863
100
AcDbArc
 50
13.87237978683997
 51
76.1276202131608
  0
LINE
  5
A5
330
1F
100
AcDbEntity
  8
0
  6
CONTINUOUS
 62
     7
100
AcDbLine
 10
-119.9285244685289
 20
274.1233233333331
 30
0.0
 11
-119.3890643167823
 21
273.1889509418492
 31
0.0
  0
LINE
  5
A6
330
1F
100
AcDbEntity
  8
0
  6
CONTINUOUS
 62
     7
100
AcDbLine
 10
-116.1785244685288
 20
308.8733233333336
 30
0.0
 11
-116.1785244685288
 21
305.8733233333331
 31
0.0
  0
ARC
  5
A7
330
1F
100
AcDbEntity
  8
0
  6
CONTINUOUS
 62
     7
100
AcDbCircle
 10
128.3285244685288
 20
308.8733233333336
 30
0.0
 40
3.750000000000031
210
0.0
220
0.0
230
-1.0
100
AcDbArc
 50
0.0
 51
179.9999999999999
  0
LINE
  5
A8
330
1F
100
AcDbEntity
  8
0
  6
CONTINUOUS
 62
     7
100
AcDbLine
 10
-134.4441520770449
 20
264.41278348508
 30
0.0
 11
-135.3785244685289
 21
263.873323333333
 31
0.0
  0
LINE
  5
A9
330
1F
100
AcDbEntity
  8
0
  6
CONTINUOUS
 62
     7
100
AcDbLine
 10
-123.6785244685289
 20
305.8733233333331
 30
0.0
 11
-123.6785244685289
 21
308.8733233333335
 31
0.0
  0
LINE
  5
AA
330
1F
100
AcDbEntity
  8
0
  6
CONTINUOUS
 62
     7
100
AcDbLine
 10
-121.1785244685288
 20
275.3733233333331
 30
0.0
 11
-122.1128968600129
 21
274.8338631815864
 31
0.0
  0
LINE
  5
AB
330
1F
100
AcDbEntity
  8
0
  6
CONTINUOUS
 62
     7
100
AcDbLine
 10
-137.8785244685289
 20
291.3733233333335
 30
0.0
 11
-138.8128968600128
 21
290.8338631815866
 31
0.0
  0
ARC
  5
AC
330
1F
100
AcDbEntity
  8
0
  6
CONTINUOUS
 62
     7
100
AcDbCircle
 10
-136.6285244685288
 20
291.3733233333335
 30
0.0
 40
2.249999999999863
100
AcDbArc
 50
103.87237978684
 51
166.1276202131614
  0
ARC
  5
AD
330
1F
100
AcDbEntity
  8
0
  6
CONTINUOUS
 62
     7
100
AcDbCircle
 10
-136.6285244685288
 20
291.3733233333335
 30
0.0
 40
2.249999999999863
100
AcDbArc
 50
283.87237978684
 51
346.1276202131611
  0
LINE
  5
AE
330
1F
100
AcDbEntity
  8
0
  6
CONTINUOUS
 62
     7
100
AcDbLine
 10
-135.3785244685288
 20
263.873323333333
 30
0.0
 11
-134.4441520770448
 21
263.3338631815865
 31
0.0
  0
LINE
  5
AF
330
1F
100
AcDbEntity
  8
0
  6
CONTINUOUS
 62
   253
100
AcDbLine
 10
-128.3285244685288
 20
302.0698891413475
 30
0.0
 11
-119.9285244685288
 21
302.0698891413475
 31
0.0
  0
ARC
  5
B0
330
1F
100
AcDbEntity
  8
0
  6
CONTINUOUS
 62
     7
100
AcDbCircle
 10
-119.9285244685289
 20
305.8733233333331
 30
0.0
 40
2.249999999999974
100
AcDbArc
 50
346.12762021316
 51
359.9999999999987
  0
ARC
  5
B1
330
1F
100
AcDbEntity
  8
0
  6
CONTINUOUS
 62
     7
100
AcDbCircle
 10
136.6285244685288
 20
291.3733233333335
 30
0.0
 40
2.249999999999974
210
0.0
220
0.0
230
-1.0
100
AcDbArc
 50
76.12762021316003
 51
103.8723797868391
  0
LINE
  5
B2
330
1F
100
AcDbEntity
  8
0
  6
CONTINUOUS
 62
     7
100
AcDbLine
 10
-138.8128968600128
 20
263.3338631815865
 30
0.0
 11
-137.8785244685289
 21
263.873323333333
 31
0.0
  0
ARC
  5
B3
330
1F
100
AcDbEntity
  8
0
  6
CONTINUOUS
 62
     7
100
AcDbCircle
 10
136.6285244685288
 20
291.3733233333335
 30
0.0
 40
2.249999999999974
210
0.0
220
0.0
230
-1.0
100
AcDbArc
 50
166.12762021316
 51
193.8723797868391
  0
LINE
  5
B4
330
1F
100
AcDbEntity
  8
0
  6
CONTINUOUS
 62
     7
100
AcDbLine
 10
-136.6285244685288
 20
262.6233233333329
 30
0.0
 11
-137.1679846202753
 21
261.6889509418495
 31
0.0
  0
LINE
  5
B5
330
1F
100
AcDbEntity
  8
0
  6
CONTINUOUS
 62
     7
100
AcDbLine
 10
-132.0785244685289
 20
305.8733233333331
 30
0.0
 11
-132.0785244685289
 21
308.8733233333335
 31
0.0
  0
LINE
  5
B6
330
1F
100
AcDbEntity
  8
0
  6
CONTINUOUS
 62
     7
100
AcDbLine
 10
-136.0890643167819
 20
293.5576957248174
 30
0.0
 11
-136.6285244685289
 21
292.6233233333335
 31
0.0
  0
LINE
  5
B7
330
1F
100
AcDbEntity
  8
0
  6
CONTINUOUS
 62
     7
100
AcDbLine
 10
-138.8128968600128
 20
291.9127834850801
 30
0.0
 11
-137.8785244685289
 21
291.3733233333335
 31
0.0
  0
ARC
  5
B8
330
1F
100
AcDbEntity
  8
0
  6
CONTINUOUS
 62
     7
100
AcDbCircle
 10
136.6285244685288
 20
291.3733233333335
 30
0.0
 40
2.249999999999974
210
0.0
220
0.0
230
-1.0
100
AcDbArc
 50
346.12762021316
 51
13.87237978683851
  0
LINE
  5
B9
330
1F
100
AcDbEntity
  8
0
  6
CONTINUOUS
 62
     7
100
AcDbLine
 10
-136.6285244685288
 20
292.6233233333335
 30
0.0
 11
-137.1679846202753
 21
293.5576957248174
 31
0.0
  0
ARC
  5
BA
330
1F
100
AcDbEntity
  8
0
  6
CONTINUOUS
 62
     7
100
AcDbCircle
 10
128.3285244685288
 20
305.8733233333331
 30
0.0
 40
3.750000000000031
210
0.0
220
0.0
230
-1.0
100
AcDbArc
 50
180.0
 51
0.0
  0
CIRCLE
  5
BB
330
1F
100
AcDbEntity
  8
0
  6
CONTINUOUS
 62
     7
100
AcDbCircle
 10
136.6285244685288
 20
291.3733233333335
 30
0.0
 40
3.750000000000031
210
0.0
220
0.0
230
-1.0
  0
ARC
  5
BC
330
1F
100
AcDbEntity
  8
0
  6
CONTINUOUS
 62
     7
100
AcDbCircle
 10
-136.6285244685288
 20
291.3733233333335
 30
0.0
 40
2.249999999999863
100
AcDbArc
 50
193.87237978684
 51
256.127620213161
  0
LINE
  5
BD
330
1F
100
AcDbEntity
  8
0
  6
CONTINUOUS
 62
     7
100
AcDbLine
 10
-126.0785244685289
 20
308.2959730641436
 30
0.0
 11
-126.0402478935649
 21
308.2296760915664
 31
0.0
  0
LINE
  5
BE
330
1F
100
AcDbEntity
  8
0
  6
CONTINUOUS
 62
     7
100
AcDbLine
 10
-117.7441520770449
 20
305.3338631815864
 30
0.0
 11
-117.7197061578254
 21
305.2755513418264
 31
0.0
  0
LINE
  5
BF
330
1F
100
AcDbEntity
  8
0
  6
CONTINUOUS
 62
     7
100
AcDbLine
 10
-136.6285244685288
 20
290.1233233333336
 30
0.0
 11
-136.0890643167818
 21
289.1889509418496
 31
0.0
  0
LINE
  5
C0
330
1F
100
AcDbEntity
  8
0
  6
CONTINUOUS
 62
     7
100
AcDbLine
 10
-126.1441520770449
 20
274.8338631815864
 30
0.0
 11
-127.0785244685289
 21
275.3733233333331
 31
0.0
  0
LINE
  5
C1
330
1F
100
AcDbEntity
  8
0
  6
CONTINUOUS
 62
     7
100
AcDbLine
 10
-117.7441520770449
 20
274.8338631815864
 30
0.0
 11
-118.6785244685289
 21
275.3733233333331
 31
0.0
  0
LINE
  5
C2
330
1F
100
AcDbEntity
  8
0
  6
CONTINUOUS
 62
     7
100
AcDbLine
 10
-134.4441520770449
 20
290.8338631815865
 30
0.0
 11
-135.3785244685289
 21
291.3733233333335
 31
0.0
  0
LINE
  5
C3
330
1F
100
AcDbEntity
  8
0
  6
CONTINUOUS
 62
     7
100
AcDbLine
 10
-118.6785244685289
 20
275.3733233333331
 30
0.0
 11
-117.7441520770449
 21
275.9127834850798
 31
0.0
  0
CIRCLE
  5
C4
330
1F
100
AcDbEntity
  8
0
  6
CONTINUOUS
 62
   253
100
AcDbCircle
 10
-136.6285244685288
 20
318.8733233333336
 30
0.0
 40
3.8034341919857
  0
LINE
  5
C5
330
1F
100
AcDbEntity
  8
0
  6
CONTINUOUS
 62
     7
100
AcDbLine
 10
-122.1128968600129
 20
305.3338631815864
 30
0.0
 11
-122.1373427792324
 21
305.2755513418264
 31
0.0
  0
LINE
  5
C6
330
1F
100
AcDbEntity
  8
0
  6
CONTINUOUS
 62
     7
100
AcDbLine
 10
-124.5785244685289
 20
308.8733233333336
 30
0.0
 11
-124.5785244685289
 21
305.8733233333331
 31
0.0
  0
LINE
  5
C7
330
1F
100
AcDbEntity
  8
0
  6
CONTINUOUS
 62
     7
100
AcDbLine
 10
-129.5785244685289
 20
275.3733233333331
 30
0.0
 11
-130.5128968600129
 21
274.8338631815864
 31
0.0
  0
LINE
  5
C8
330
1F
100
AcDbEntity
  8
0
  6
CONTINUOUS
 62
     7
100
AcDbLine
 10
-120.4679846202753
 20
273.1889509418492
 30
0.0
 11
-119.9285244685288
 21
274.1233233333331
 31
0.0
  0
ARC
  5
C9
330
1F
100
AcDbEntity
  8
0
  6
CONTINUOUS
 62
     7
100
AcDbCircle
 10
136.6285244685288
 20
291.3733233333335
 30
0.0
 40
2.249999999999974
210
0.0
220
0.0
230
-1.0
100
AcDbArc
 50
256.12762021316
 51
283.8723797868391
  0
LINE
  5
CA
330
1F
100
AcDbEntity
  8
0
  6
CONTINUOUS
 62
     7
100
AcDbLine
 10
-119.3890643167823
 20
303.6889509418491
 30
0.0
 11
-119.3551368502348
 21
303.65804991393
 31
0.0
  0
ARC
  5
CB
330
1F
100
AcDbEntity
  8
0
  6
CONTINUOUS
 62
     7
100
AcDbCircle
 10
119.9285244685289
 20
305.8733233333331
 30
0.0
 40
3.750000000000031
210
0.0
220
0.0
230
-1.0
100
AcDbArc
 50
180.0
 51
0.0
  0
ARC
  5
CC
330
1F
100
AcDbEntity
  8
0
  6
CONTINUOUS
 62
     7
100
AcDbCircle
 10
119.9285244685289
 20
308.8733233333336
 30
0.0
 40
3.750000000000031
210
0.0
220
0.0
230
-1.0
100
AcDbArc
 50
0.0
 51
179.9999999999999
  0
LINE
  5
CD
330
1F
100
AcDbEntity
  8
0
  6
CONTINUOUS
 62
     7
100
AcDbLine
 10
-137.1679846202753
 20
289.1889509418496
 30
0.0
 11
-136.6285244685288
 21
290.1233233333336
 31
0.0
  0
LINE
  5
CE
330
1F
100
AcDbEntity
  8
0
  6
CONTINUOUS
 62
     7
100
AcDbLine
 10
-122.1785244685288
 20
308.8733233333336
 30
0.0
 11
-122.1785244685288
 21
308.2959730641437
 31
0.0
  0
LINE
  5
CF
330
1F
100
AcDbEntity
  8
0
  6
CONTINUOUS
 62
     7
100
AcDbLine
 10
-122.1128968600129
 20
275.9127834850798
 30
0.0
 11
-121.1785244685289
 21
275.3733233333331
 31
0.0
  0
ARC
  5
D0
330
1F
100
AcDbEntity
  8
0
  6
CONTINUOUS
 62
     7
100
AcDbCircle
 10
-119.9285244685289
 20
305.8733233333331
 30
0.0
 40
2.288276574963888
100
AcDbArc
 50
284.5116105564679
 51
344.8567987764032
  0
LINE
  5
D1
330
1F
100
AcDbEntity
  8
0
  6
CONTINUOUS
 62
     7
100
AcDbLine
 10
-126.0785244685289
 20
305.8733233333331
 30
0.0
 11
-126.0785244685289
 21
306.4506736025228
 31
0.0
  0
LINE
  5
D2
330
1F
100
AcDbEntity
  8
0
  6
CONTINUOUS
 62
     7
100
AcDbLine
 10
-126.0402478935649
 20
306.5169705751001
 30
0.0
 11
-126.0402478935649
 21
308.2296760915664
 31
0.0
  0
ARC
  5
D3
330
1F
100
AcDbEntity
  8
0
  6
CONTINUOUS
 62
     7
100
AcDbCircle
 10
-119.9285244685289
 20
305.8733233333331
 30
0.0
 40
2.288276574963888
100
AcDbArc
 50
195.1432012235972
 51
255.4883894435304
  0
LINE
  5
D4
330
1F
100
AcDbEntity
  8
0
  6
CONTINUOUS
 62
     7
100
AcDbLine
 10
-122.1785244685288
 20
308.2959730641436
 30
0.0
 11
-122.2168010434929
 21
308.2296760915664
 31
0.0
  0
ARC
  5
D5
330
1F
100
AcDbEntity
  8
0
  6
CONTINUOUS
 62
     7
100
AcDbCircle
 10
-119.9285244685289
 20
305.8733233333331
 30
0.0
 40
2.249999999999974
100
AcDbArc
 50
256.12762021316
 51
283.8723797868391
  0
LINE
  5
D6
330
1F
100
AcDbEntity
  8
0
  6
CONTINUOUS
 62
     7
100
AcDbLine
 10
-127.0785244685289
 20
275.3733233333331
 30
0.0
 11
-126.1441520770448
 21
275.9127834850798
 31
0.0
  0
LINE
  5
D7
330
1F
100
AcDbEntity
  8
0
  6
CONTINUOUS
 62
     7
100
AcDbLine
 10
-137.8785244685289
 20
263.873323333333
 30
0.0
 11
-138.8128968600128
 21
264.4127834850801
 31
0.0
  0
LINE
  5
D8
330
1F
100
AcDbEntity
  8
0
  6
CONTINUOUS
 62
     7
100
AcDbLine
 10
-136.0890643167819
 20
261.6889509418495
 30
0.0
 11
-136.6285244685289
 21
262.6233233333329
 31
0.0
  0
LINE
  5
D9
330
1F
100
AcDbEntity
  8
0
  6
CONTINUOUS
 62
     7
100
AcDbLine
 10
-117.7441520770449
 20
309.4127834850795
 30
0.0
 11
-117.7197061578254
 21
309.4710953248395
 31
0.0
  0
ARC
  5
DA
330
1F
100
AcDbEntity
  8
0
  6
CONTINUOUS
 62
     7
100
AcDbCircle
 10
-136.6285244685288
 20
263.873323333333
 30
0.0
 40
2.249999999999863
100
AcDbArc
 50
103.87237978684
 51
166.1276202131608
  0
LINE
  5
DB
330
1F
100
AcDbEntity
  8
0
  6
CONTINUOUS
 62
     7
100
AcDbLine
 10
-117.6785244685289
 20
308.8733233333336
 30
0.0
 11
-117.6785244685289
 21
308.2959730641437
 31
0.0
  0
ARC
  5
DC
330
1F
100
AcDbEntity
  8
0
  6
CONTINUOUS
 62
     7
100
AcDbCircle
 10
-136.6285244685288
 20
263.873323333333
 30
0.0
 40
2.249999999999863
100
AcDbArc
 50
166.12762021316
 51
193.8723797868389
  0
LINE
  5
DD
330
1F
100
AcDbEntity
  8
0
  6
CONTINUOUS
 62
     7
100
AcDbLine
 10
-119.3890643167823
 20
277.5576957248171
 30
0.0
 11
-119.9285244685288
 21
276.6233233333331
 31
0.0
  0
ARC
  5
DE
330
1F
100
AcDbEntity
  8
0
  6
CONTINUOUS
 62
     7
100
AcDbCircle
 10
119.9285244685289
 20
275.3733233333331
 30
0.0
 40
2.250000000000085
210
0.0
220
0.0
230
-1.0
100
AcDbArc
 50
166.1276202131605
 51
193.8723797868398
  0
ARC
  5
DF
330
1F
100
AcDbEntity
  8
0
  6
CONTINUOUS
 62
     7
100
AcDbCircle
 10
-136.6285244685288
 20
263.873323333333
 30
0.0
 40
2.249999999999863
100
AcDbArc
 50
256.12762021316
 51
283.872379786839
  0
ARC
  5
E0
330
1F
100
AcDbEntity
  8
0
  6
CONTINUOUS
 62
     7
100
AcDbCircle
 10
-136.6285244685288
 20
263.873323333333
 30
0.0
 40
2.249999999999863
100
AcDbArc
 50
193.87237978684
 51
256.1276202131614
  0
LINE
  5
E1
330
1F
100
AcDbEntity
  8
0
  6
CONTINUOUS
 62
     7
100
AcDbLine
 10
-136.6285244685288
 20
265.123323333333
 30
0.0
 11
-136.0890643167818
 21
266.0576957248171
 31
0.0
  0
ARC
  5
E2
330
1F
100
AcDbEntity
  8
0
  6
CONTINUOUS
 62
     7
100
AcDbCircle
 10
-128.3285244685288
 20
275.3733233333331
 30
0.0
 40
2.249999999999863
100
AcDbArc
 50
103.87237978684
 51
166.1276202131605
  0
ARC
  5
E3
330
1F
100
AcDbEntity
  8
0
  6
CONTINUOUS
 62
     7
100
AcDbCircle
 10
-119.9285244685289
 20
275.3733233333331
 30
0.0
 40
2.249999999999974
100
AcDbArc
 50
103.87237978684
 51
166.1276202131611
  0
ARC
  5
E4
330
1F
100
AcDbEntity
  8
0
  6
CONTINUOUS
 62
     7
100
AcDbCircle
 10
-128.3285244685288
 20
275.3733233333331
 30
0.0
 40
2.249999999999863
100
AcDbArc
 50
193.87237978684
 51
256.1276202131601
  0
ARC
  5
E5
330
1F
100
AcDbEntity
  8
0
  6
CONTINUOUS
 62
     7
100
AcDbCircle
 10
-136.6285244685288
 20
263.873323333333
 30
0.0
 40
2.249999999999863
100
AcDbArc
 50
346.12762021316
 51
13.87237978683908
  0
ARC
  5
E6
330
1F
100
AcDbEntity
  8
0
  6
CONTINUOUS
 62
     7
100
AcDbCircle
 10
-119.9285244685289
 20
308.8733233333336
 30
0.0
 40
2.249999999999974
100
AcDbArc
 50
0.0
 51
13.87237978683843
  0
CIRCLE
  5
E7
330
1F
100
AcDbEntity
  8
0
  6
CONTINUOUS
 62
     7
100
AcDbCircle
 10
136.6285244685288
 20
263.873323333333
 30
0.0
 40
3.750000000000031
210
0.0
220
0.0
230
-1.0
  0
ARC
  5
E8
330
1F
100
AcDbEntity
  8
0
  6
CONTINUOUS
 62
     7
100
AcDbCircle
 10
128.3285244685288
 20
275.3733233333331
 30
0.0
 40
2.249999999999974
210
0.0
220
0.0
230
-1.0
100
AcDbArc
 50
76.12762021316003
 51
103.8723797868397
  0
ARC
  5
E9
330
1F
100
AcDbEntity
  8
0
  6
CONTINUOUS
 62
     7
100
AcDbCircle
 10
119.9285244685289
 20
275.3733233333331
 30
0.0
 40
2.249999999999974
210
0.0
220
0.0
230
-1.0
100
AcDbArc
 50
76.12762021316003
 51
103.8723797868391
  0
ARC
  5
EA
330
1F
100
AcDbEntity
  8
0
  6
CONTINUOUS
 62
     7
100
AcDbCircle
 10
-136.6285244685288
 20
263.873323333333
 30
0.0
 40
2.249999999999863
100
AcDbArc
 50
76.12762021316003
 51
103.872379786839
  0
LINE
  5
EB
330
1F
100
AcDbEntity
  8
0
  6
CONTINUOUS
 62
   253
100
AcDbLine
 10
-119.9285244685289
 20
279.176757525319
 30
0.0
 11
-128.3285244685289
 21
279.176757525319
 31
0.0
  0
ARC
  5
EC
330
1F
100
AcDbEntity
  8
0
  6
CONTINUOUS
 62
     7
100
AcDbCircle
 10
-136.6285244685288
 20
263.873323333333
 30
0.0
 40
2.249999999999863
100
AcDbArc
 50
13.87237978683997
 51
76.12762021316084
  0
ARC
  5
ED
330
1F
100
AcDbEntity
  8
0
  6
CONTINUOUS
 62
     7
100
AcDbCircle
 10
-128.3285244685288
 20
275.3733233333331
 30
0.0
 40
2.249999999999863
100
AcDbArc
 50
13.87237978683997
 51
76.12762021316058
  0
ARC
  5
EE
330
1F
100
AcDbEntity
  8
0
  6
CONTINUOUS
 62
     7
100
AcDbCircle
 10
-136.6285244685288
 20
263.873323333333
 30
0.0
 40
2.249999999999863
100
AcDbArc
 50
283.87237978684
 51
346.1276202131607
  0
ARC
  5
EF
330
1F
100
AcDbEntity
  8
0
  6
CONTINUOUS
 62
     7
100
AcDbCircle
 10
-119.9285244685289
 20
275.3733233333331
 30
0.0
 40
2.249999999999974
100
AcDbArc
 50
13.87237978683997
 51
76.12762021316117
  0
LINE
  5
F0
330
1F
100
AcDbEntity
  8
0
  6
CONTINUOUS
 62
     7
100
AcDbLine
 10
-127.7890643167824
 20
277.5576957248171
 30
0.0
 11
-128.3285244685289
 21
276.6233233333331
 31
0.0
  0
LINE
  5
F1
330
1F
100
AcDbEntity
  8
0
  6
CONTINUOUS
 62
     7
100
AcDbLine
 10
-128.3285244685288
 20
276.6233233333331
 30
0.0
 11
-128.8679846202753
 21
277.5576957248171
 31
0.0
  0
LINE
  5
F2
330
1F
100
AcDbEntity
  8
0
  6
CONTINUOUS
 62
     7
100
AcDbLine
 10
-128.3285244685288
 20
274.1233233333331
 30
0.0
 11
-127.7890643167823
 21
273.1889509418492
 31
0.0
  0
LINE
  5
F3
330
1F
100
AcDbEntity
  8
0
  6
CONTINUOUS
 62
     7
100
AcDbLine
 10
-137.1679846202753
 20
266.0576957248171
 30
0.0
 11
-136.6285244685288
 21
265.123323333333
 31
0.0
  0
ARC
  5
F4
330
1F
100
AcDbEntity
  8
0
  6
CONTINUOUS
 62
     7
100
AcDbCircle
 10
-119.9285244685289
 20
275.3733233333331
 30
0.0
 40
2.249999999999974
100
AcDbArc
 50
283.87237978684
 51
346.1276202131604
  0
ARC
  5
F5
330
1F
100
AcDbEntity
  8
0
  6
CONTINUOUS
 62
     7
100
AcDbCircle
 10
128.3285244685288
 20
275.3733233333331
 30
0.0
 40
2.249999999999974
210
0.0
220
0.0
230
-1.0
100
AcDbArc
 50
166.12762021316
 51
193.8723797868394
  0
LINE
  5
F6
330
1F
100
AcDbEntity
  8
0
  6
CONTINUOUS
 62
   253
100
AcDbLine
 10
-128.3285244685288
 20
271.5698891413475
 30
0.0
 11
-119.9285244685288
 21
271.5698891413475
 31
0.0
  0
LINE
  5
F7
330
1F
100
AcDbEntity
  8
0
  6
CONTINUOUS
 62
     7
100
AcDbLine
 10
-126.0785244685289
 20
308.8733233333336
 30
0.0
 11
-126.0785244685289
 21
308.2959730641437
 31
0.0
  0
ARC
  5
F8
330
1F
100
AcDbEntity
  8
0
  6
CONTINUOUS
 62
     7
100
AcDbCircle
 10
119.9285244685289
 20
275.3733233333331
 30
0.0
 40
2.250000000000085
210
0.0
220
0.0
230
-1.0
100
AcDbArc
 50
346.1276202131604
 51
13.87237978683936
  0
LINE
  5
F9
330
1F
100
AcDbEntity
  8
0
  6
CONTINUOUS
 62
     7
100
AcDbLine
 10
-130.5128968600129
 20
275.9127834850798
 30
0.0
 11
-129.5785244685289
 21
275.3733233333331
 31
0.0
  0
ARC
  5
FA
330
1F
100
AcDbEntity
  8
0
  6
CONTINUOUS
 62
     7
100
AcDbCircle
 10
-119.9285244685289
 20
308.8733233333336
 30
0.0
 40
2.288276574963888
100
AcDbArc
 50
15.14320122359721
 51
75.48838944353244
  0
ARC
  5
FB
330
1F
100
AcDbEntity
  8
0
  6
CONTINUOUS
 62
     7
100
AcDbCircle
 10
-119.9285244685289
 20
275.3733233333331
 30
0.0
 40
2.249999999999974
100
AcDbArc
 50
193.8723797868394
 51
256.1276202131604
  0
ARC
  5
FC
330
1F
100
AcDbEntity
  8
0
  6
CONTINUOUS
 62
     7
100
AcDbCircle
 10
128.3285244685288
 20
275.3733233333331
 30
0.0
 40
2.249999999999974
210
0.0
220
0.0
230
-1.0
100
AcDbArc
 50
256.12762021316
 51
283.8723797868397
  0
LINE
  5
FD
330
1F
100
AcDbEntity
  8
0
  6
CONTINUOUS
 62
     7
100
AcDbLine
 10
-117.6402478935649
 20
306.5169705751001
 30
0.0
 11
-117.6402478935649
 21
308.2296760915664
 31
0.0
  0
LINE
  5
FE
330
1F
100
AcDbEntity
  8
0
  6
CONTINUOUS
 62
     7
100
AcDbLine
 10
-117.6785244685289
 20
306.4506736025228
 30
0.0
 11
-117.6402478935649
 21
306.5169705751001
 31
0.0
  0
LINE
  5
FF
330
1F
100
AcDbEntity
  8
0
  6
CONTINUOUS
 62
     7
100
AcDbLine
 10
-117.6785244685289
 20
308.2959730641436
 30
0.0
 11
-117.6402478935649
 21
308.2296760915664
 31
0.0
  0
LINE
  5
100
330
1F
100
AcDbEntity
  8
0
  6
CONTINUOUS
 62
     7
100
AcDbLine
 10
-119.9285244685289
 20
276.6233233333331
 30
0.0
 11
-120.4679846202753
 21
277.5576957248171
 31
0.0
  0
ARC
  5
101
330
1F
100
AcDbEntity
  8
0
  6
CONTINUOUS
 62
     7
100
AcDbCircle
 10
128.3285244685288
 20
275.3733233333331
 30
0.0
 40
2.249999999999974
210
0.0
220
0.0
230
-1.0
100
AcDbArc
 50
346.12762021316
 51
13.87237978683953
  0
ARC
  5
102
330
1F
100
AcDbEntity
  8
0
  6
CONTINUOUS
 62
     7
100
AcDbCircle
 10
-128.3285244685288
 20
275.3733233333331
 30
0.0
 40
2.249999999999863
100
AcDbArc
 50
283.87237978684
 51
346.1276202131603
  0
LINE
  5
103
330
1F
100
AcDbEntity
  8
0
  6
CONTINUOUS
 62
     7
100
AcDbLine
 10
-126.0785244685289
 20
306.4506736025228
 30
0.0
 11
-126.0402478935649
 21
306.5169705751001
 31
0.0
  0
LINE
  5
104
330
1F
100
AcDbEntity
  8
0
  6
CONTINUOUS
 62
     7
100
AcDbLine
 10
-128.8679846202754
 20
273.1889509418492
 30
0.0
 11
-128.3285244685289
 21
274.1233233333331
 31
0.0
  0
ARC
  5
105
330
1F
100
AcDbEntity
  8
0
  6
CONTINUOUS
 62
     7
100
AcDbCircle
 10
119.9285244685289
 20
275.3733233333331
 30
0.0
 40
2.249999999999974
210
0.0
220
0.0
230
-1.0
100
AcDbArc
 50
256.12762021316
 51
283.8723797868391
  0
LINE
  5
106
330
1F
100
AcDbEntity
  8
0
  6
CONTINUOUS
 62
   253
100
AcDbLine
 10
-399.8030219205885
 20
262.9457650875244
 30
0.0
 11
-399.8030219205885
 21
319.800881579142
 31
0.0
  0
LINE
  5
107
330
1F
100
AcDbEntity
  8
0
  6
CONTINUOUS
 62
     7
100
AcDbLine
 10
-184.4516530794443
 20
337.367699263982
 30
0.0
 11
-184.4785244685289
 21
337.4214789189941
 31
0.0
  0
ARC
  5
108
330
1F
100
AcDbEntity
  8
0
  6
CONTINUOUS
 62
     7
100
AcDbCircle
 10
42.7214755314711
 20
305.8733233333331
 30
0.0
 40
2.249999999999863
100
AcDbArc
 50
346.1276202131614
 51
0.0000000000000568
  0
LINE
  5
109
330
1F
100
AcDbEntity
  8
0
  6
CONTINUOUS
 62
   253
100
AcDbLine
 10
-502.7808604247717
 20
334.9277149874446
 30
0.0
 11
-503.7766800541897
 21
335.9235346168625
 31
0.0
  0
ARC
  5
10A
330
1F
100
AcDbEntity
  8
0
  6
CONTINUOUS
 62
     7
100
AcDbCircle
 10
155.3714755314712
 20
291.3733233333335
 30
0.0
 40
2.249999999999974
100
AcDbArc
 50
346.1276202131601
 51
13.87237978683913
  0
ARC
  5
10B
330
1F
100
AcDbEntity
  8
0
  6
CONTINUOUS
 62
     7
100
AcDbCircle
 10
51.12147553147117
 20
308.8733233333336
 30
0.0
 40
2.249999999999974
100
AcDbArc
 50
0.0000000000000883
 51
13.87237978683844
  0
ARC
  5
10C
330
1F
100
AcDbEntity
  8
0
  6
CONTINUOUS
 62
     7
100
AcDbCircle
 10
42.7214755314711
 20
305.8733233333335
 30
0.0
 40
2.288276574963888
100
AcDbArc
 50
195.1432012235985
 51
255.4883894435318
  0
LINE
  5
10D
330
1F
100
AcDbEntity
  8
0
  6
CONTINUOUS
 62
     7
100
AcDbLine
 10
42.18201537972466
 20
303.6889509418491
 30
0.0
 11
42.14808791317709
 21
303.65804991393
 31
0.0
  0
LINE
  5
10E
330
1F
100
AcDbEntity
  8
0
  6
CONTINUOUS
 62
     7
100
AcDbLine
 10
53.40975210643506
 20
306.5169705751001
 30
0.0
 11
53.40975210643506
 21
308.2296760915664
 31
0.0
  0
ARC
  5
10F
330
1F
100
AcDbEntity
  8
0
  6
CONTINUOUS
 62
     7
100
AcDbCircle
 10
42.7214755314711
 20
308.8733233333336
 30
0.0
 40
2.249999999999974
100
AcDbArc
 50
0.0000000000000883
 51
13.87237978683842
  0
ARC
  5
110
330
1F
100
AcDbEntity
  8
0
  6
CONTINUOUS
 62
     7
100
AcDbCircle
 10
42.7214755314711
 20
305.8733233333335
 30
0.0
 40
2.249999999999974
100
AcDbArc
 50
180.0000000000002
 51
193.8723797868388
  0
LINE
  5
111
330
1F
100
AcDbEntity
  8
0
  6
CONTINUOUS
 62
     7
100
AcDbLine
 10
-161.6803688828678
 20
277.7495004064909
 30
0.0
 11
-161.6803688828678
 21
276.7233234494381
 31
0.0
  0
LINE
  5
112
330
1F
100
AcDbEntity
  8
0
  6
CONTINUOUS
 62
     7
100
AcDbLine
 10
-503.7229003991774
 20
319.6501947224181
 30
0.0
 11
-503.7766800541897
 21
319.6233233333335
 31
0.0
  0
LINE
  5
113
330
1F
100
AcDbEntity
  8
0
  6
CONTINUOUS
 62
     7
100
AcDbLine
 10
51.66093568321761
 20
311.0576957248174
 30
0.0
 11
51.69486314976545
 21
311.0885967527366
 31
0.0
  0
LINE
  5
114
330
1F
100
AcDbEntity
  8
0
  6
CONTINUOUS
 62
     7
100
AcDbLine
 10
-184.4785244685289
 20
337.4214789189941
 30
0.0
 11
-502.2787357520577
 21
337.4214789189941
 31
0.0
  0
LINE
  5
115
330
1F
100
AcDbEntity
  8
0
  6
CONTINUOUS
 62
     7
100
AcDbLine
 10
-182.0050531825889
 20
337.3166633604281
 30
0.0
 11
-183.4519957544688
 21
337.3166633604281
 31
0.0
  0
LINE
  5
116
330
1F
100
AcDbEntity
  8
0
  6
CONTINUOUS
 62
     7
100
AcDbLine
 10
-181.0053958576133
 20
337.367699263982
 30
0.0
 11
-182.0050531825888
 21
337.316663360428
 31
0.0
  0
LINE
  5
117
330
1F
100
AcDbEntity
  8
0
  6
CONTINUOUS
 62
     7
100
AcDbLine
 10
-161.6803688828678
 20
337.4214789189941
 30
0.0
 11
-180.9785244685288
 21
337.4214789189941
 31
0.0
  0
LINE
  5
118
330
1F
100
AcDbEntity
  8
0
  6
CONTINUOUS
 62
     7
100
AcDbLine
 10
-483.4519957544687
 20
245.4299833062385
 30
0.0
 11
-482.0050531825889
 21
245.4299833062385
 31
0.0
  0
ARC
  5
119
330
1F
100
AcDbEntity
  8
0
  6
CONTINUOUS
 62
   253
100
AcDbCircle
 10
366.0785244685288
 20
291.3733233333335
 30
0.0
 40
0.8306825211354396
210
0.0
220
0.0
230
-1.0
100
AcDbArc
 50
89.99999999999235
 51
270.0000000000001
  0
ARC
  5
11A
330
1F
100
AcDbEntity
  8
0
  6
CONTINUOUS
 62
     7
100
AcDbCircle
 10
155.3714755314712
 20
291.3733233333335
 30
0.0
 40
2.249999999999974
100
AcDbArc
 50
256.1276202131601
 51
283.8723797868391
  0
ARC
  5
11B
330
1F
100
AcDbEntity
  8
0
  6
CONTINUOUS
 62
     7
100
AcDbCircle
 10
42.7214755314711
 20
305.8733233333335
 30
0.0
 40
2.288276574963888
100
AcDbArc
 50
284.5116105564675
 51
344.8567987764015
  0
LINE
  5
11C
330
1F
100
AcDbEntity
  8
0
  6
CONTINUOUS
 62
   253
100
AcDbLine
 10
-47.39573118097595
 20
262.775010804476
 30
0.0
 11
-47.39573100492483
 21
262.0244554545295
 31
0.0
  0
LINE
  5
11D
330
1F
100
AcDbEntity
  8
0
  6
CONTINUOUS
 62
   253
100
AcDbLine
 10
-320.3030219205884
 20
262.9457650875244
 30
0.0
 11
-320.3030219205884
 21
319.800881579142
 31
0.0
  0
ARC
  5
11E
330
1F
100
AcDbEntity
  8
0
  6
CONTINUOUS
 62
     7
100
AcDbCircle
 10
155.3714755314712
 20
291.3733233333335
 30
0.0
 40
2.249999999999974
100
AcDbArc
 50
13.87237978683981
 51
76.12762021316084
  0
LINE
  5
11F
330
1F
100
AcDbEntity
  8
0
  6
CONTINUOUS
 62
     7
100
AcDbLine
 10
53.37147553147103
 20
305.8733233333335
 30
0.0
 11
53.37147553147103
 21
306.4506736025229
 31
0.0
  0
LINE
  5
120
330
1F
100
AcDbEntity
  8
0
  6
CONTINUOUS
 62
     7
100
AcDbLine
 10
-503.7229003991774
 20
323.0964519442489
 30
0.0
 11
-503.6718644956236
 21
322.0967946192734
 31
0.0
  0
ARC
  5
121
330
1F
100
AcDbEntity
  8
0
  6
CONTINUOUS
 62
     7
100
AcDbCircle
 10
-51.12147553147117
 20
308.8733233333336
 30
0.0
 40
2.250000000000085
210
0.0
220
0.0
230
-1.0
100
AcDbArc
 50
76.12762021316007
 51
103.8723797868392
  0
LINE
  5
122
330
1F
100
AcDbEntity
  8
0
  6
CONTINUOUS
 62
     7
100
AcDbLine
 10
40.53710313998704
 20
305.3338631815864
 30
0.0
 11
40.51265722076758
 21
305.2755513418264
 31
0.0
  0
LINE
  5
123
330
1F
100
AcDbEntity
  8
0
  6
CONTINUOUS
 62
     7
100
AcDbLine
 10
-503.6718644956236
 20
322.0967946192734
 30
0.0
 11
-503.6718644956236
 21
320.6498520473936
 31
0.0
  0
LINE
  5
124
330
1F
100
AcDbEntity
  8
0
  6
CONTINUOUS
 62
     7
100
AcDbLine
 10
-480.9785244685289
 20
245.3251677476724
 30
0.0
 11
-161.6803688828679
 21
245.3251677476724
 31
0.0
  0
ARC
  5
125
330
1F
100
AcDbEntity
  8
0
  6
CONTINUOUS
 62
     7
100
AcDbCircle
 10
51.12147553147117
 20
308.8733233333336
 30
0.0
 40
2.288276574963888
100
AcDbArc
 50
15.14320122359755
 51
75.48838944353264
  0
LINE
  5
126
330
1F
100
AcDbEntity
  8
0
  6
CONTINUOUS
 62
     7
100
AcDbLine
 10
40.47147553147123
 20
306.4506736025228
 30
0.0
 11
40.43319895650721
 21
306.5169705751001
 31
0.0
  0
LINE
  5
127
330
1F
100
AcDbEntity
  8
0
  6
CONTINUOUS
 62
     7
100
AcDbLine
 10
53.37147553147103
 20
308.2959730641436
 30
0.0
 11
53.40975210643506
 21
308.2296760915664
 31
0.0
  0
LINE
  5
128
330
1F
100
AcDbEntity
  8
0
  6
CONTINUOUS
 62
     7
100
AcDbLine
 10
40.47147553147123
 20
308.8733233333336
 30
0.0
 11
40.47147553147123
 21
308.2959730641437
 31
0.0
  0
LINE
  5
129
330
1F
100
AcDbEntity
  8
0
  6
CONTINUOUS
 62
     7
100
AcDbLine
 10
45.00975210643509
 20
306.5169705751001
 30
0.0
 11
45.00975210643509
 21
308.2296760915664
 31
0.0
  0
LINE
  5
12A
330
1F
100
AcDbEntity
  8
0
  6
CONTINUOUS
 62
     7
100
AcDbLine
 10
-46.88021193967185
 20
263.2905298642025
 30
0.0
 11
-47.39573118097592
 21
262.7750108044761
 31
0.0
  0
ARC
  5
12B
330
1F
100
AcDbEntity
  8
0
  6
CONTINUOUS
 62
     7
100
AcDbCircle
 10
51.12147553147117
 20
308.8733233333336
 30
0.0
 40
2.288276574963777
100
AcDbArc
 50
104.5116105564681
 51
164.8567987764018
  0
ARC
  5
12C
330
1F
100
AcDbEntity
  8
0
  6
CONTINUOUS
 62
     7
100
AcDbCircle
 10
155.3714755314712
 20
291.3733233333335
 30
0.0
 40
2.249999999999974
100
AcDbArc
 50
283.8723797868398
 51
346.1276202131608
  0
LINE
  5
12D
330
1F
100
AcDbEntity
  8
0
  6
CONTINUOUS
 62
     7
100
AcDbLine
 10
44.97147553147119
 20
306.4506736025228
 30
0.0
 11
45.00975210643507
 21
306.5169705751001
 31
0.0
  0
ARC
  5
12E
330
1F
100
AcDbEntity
  8
0
  6
CONTINUOUS
 62
     7
100
AcDbCircle
 10
42.7214755314711
 20
308.8733233333336
 30
0.0
 40
2.288276574963777
100
AcDbArc
 50
104.5116105564683
 51
164.8567987764016
  0
ARC
  5
12F
330
1F
100
AcDbEntity
  8
0
  6
CONTINUOUS
 62
     7
100
AcDbCircle
 10
-42.7214755314711
 20
308.8733233333336
 30
0.0
 40
2.250000000000085
210
0.0
220
0.0
230
-1.0
100
AcDbArc
 50
76.1276202131603
 51
103.8723797868391
  0
LINE
  5
130
330
1F
100
AcDbEntity
  8
0
  6
CONTINUOUS
 62
     7
100
AcDbLine
 10
44.90584792295515
 20
305.3338631815864
 30
0.0
 11
44.93029384217461
 21
305.2755513418264
 31
0.0
  0
LINE
  5
131
330
1F
100
AcDbEntity
  8
0
  6
CONTINUOUS
 62
     7
100
AcDbLine
 10
40.43319895650721
 20
308.2296760915664
 30
0.0
 11
40.43319895650721
 21
306.5169705751001
 31
0.0
  0
LINE
  5
132
330
1F
100
AcDbEntity
  8
0
  6
CONTINUOUS
 62
     7
100
AcDbLine
 10
53.37147553147103
 20
306.4506736025228
 30
0.0
 11
53.40975210643506
 21
306.5169705751001
 31
0.0
  0
LINE
  5
133
330
1F
100
AcDbEntity
  8
0
  6
CONTINUOUS
 62
     7
100
AcDbLine
 10
42.18201537972466
 20
311.0576957248174
 30
0.0
 11
42.14808791317709
 21
311.0885967527366
 31
0.0
  0
LINE
  5
134
330
1F
100
AcDbEntity
  8
0
  6
CONTINUOUS
 62
   253
100
AcDbLine
 10
-46.88021193967185
 20
263.2905298642025
 30
0.0
 11
-46.12965658972534
 21
263.2905298642025
 31
0.0
  0
LINE
  5
135
330
1F
100
AcDbEntity
  8
0
  6
CONTINUOUS
 62
     7
100
AcDbLine
 10
-161.6803688828678
 20
306.0233232172284
 30
0.0
 11
-161.6803688828678
 21
304.9971462601755
 31
0.0
  0
LINE
  5
136
330
1F
100
AcDbEntity
  8
0
  6
CONTINUOUS
 62
     7
100
AcDbLine
 10
-484.4785244685289
 20
245.3251677476724
 30
0.0
 11
-484.4516530794444
 21
245.378947402685
 31
0.0
  0
LINE
  5
137
330
1F
100
AcDbEntity
  8
0
  6
CONTINUOUS
 62
     7
100
AcDbLine
 10
-183.4519957544689
 20
337.3166633604281
 30
0.0
 11
-184.4516530794444
 21
337.367699263982
 31
0.0
  0
LINE
  5
138
330
1F
100
AcDbEntity
  8
0
  6
CONTINUOUS
 62
     7
100
AcDbLine
 10
-484.4516530794443
 20
245.3789474026851
 30
0.0
 11
-483.4519957544687
 21
245.4299833062385
 31
0.0
  0
LINE
  5
139
330
1F
100
AcDbEntity
  8
0
  6
CONTINUOUS
 62
     7
100
AcDbLine
 10
-161.6803688828678
 20
246.3209873770905
 30
0.0
 11
-161.6803688828678
 21
245.3251677476725
 31
0.0
  0
LINE
  5
13A
330
1F
100
AcDbEntity
  8
0
  6
CONTINUOUS
 62
     7
100
AcDbLine
 10
-502.2787357520577
 20
245.3251677476724
 30
0.0
 11
-484.4785244685288
 21
245.3251677476724
 31
0.0
  0
LINE
  5
13B
330
1F
100
AcDbEntity
  8
0
  6
CONTINUOUS
 62
     7
100
AcDbLine
 10
-482.0050531825889
 20
245.4299833062385
 30
0.0
 11
-481.0053958576135
 21
245.3789474026851
 31
0.0
  0
LINE
  5
13C
330
1F
100
AcDbEntity
  8
0
  6
CONTINUOUS
 62
     7
100
AcDbLine
 10
48.93710313998722
 20
309.4127834850801
 30
0.0
 11
48.91265722076762
 21
309.4710953248395
 31
0.0
  0
ARC
  5
13D
330
1F
100
AcDbEntity
  8
0
  6
CONTINUOUS
 62
     7
100
AcDbCircle
 10
42.7214755314711
 20
305.8733233333331
 30
0.0
 40
2.249999999999974
100
AcDbArc
 50
256.12762021316
 51
283.8723797868389
  0
ARC
  5
13E
330
1F
100
AcDbEntity
  8
0
  6
CONTINUOUS
 62
     7
100
AcDbCircle
 10
-161.6785244685288
 20
291.3733233333335
 30
0.0
 40
13.62382305169218
100
AcDbArc
 50
90.00775679170461
 51
269.9922432082953
  0
ARC
  5
13F
330
1F
100
AcDbEntity
  8
0
  6
CONTINUOUS
 62
   253
100
AcDbCircle
 10
197.4785244685289
 20
291.3733233333335
 30
0.0
 40
0.8306825211353841
210
0.0
220
0.0
230
-1.0
100
AcDbArc
 50
90.0
 51
269.9999999999904
  0
LINE
  5
140
330
1F
100
AcDbEntity
  8
0
  6
CONTINUOUS
 62
     7
100
AcDbLine
 10
-180.9785244685289
 20
337.4214789189941
 30
0.0
 11
-181.0053958576134
 21
337.367699263982
 31
0.0
  0
LINE
  5
141
330
1F
100
AcDbEntity
  8
0
  6
CONTINUOUS
 62
     7
100
AcDbLine
 10
-503.7766800541897
 20
319.6233233333334
 30
0.0
 11
-503.7766800541897
 21
246.8231120498045
 31
0.0
  0
LINE
  5
142
330
1F
100
AcDbEntity
  8
0
  6
CONTINUOUS
 62
     7
100
AcDbLine
 10
-503.7766800541897
 20
323.1233233333335
 30
0.0
 11
-503.7229003991774
 21
323.0964519442489
 31
0.0
  0
LINE
  5
143
330
1F
100
AcDbEntity
  8
0
  6
CONTINUOUS
 62
     7
100
AcDbLine
 10
43.26093568321765
 20
303.6889509418494
 30
0.0
 11
43.29486314976521
 21
303.6580499139299
 31
0.0
  0
LINE
  5
144
330
1F
100
AcDbEntity
  8
0
  6
CONTINUOUS
 62
     7
100
AcDbLine
 10
44.97147553147119
 20
308.2959730641436
 30
0.0
 11
45.00975210643507
 21
308.2296760915664
 31
0.0
  0
LINE
  5
145
330
1F
100
AcDbEntity
  8
0
  6
CONTINUOUS
 62
     7
100
AcDbLine
 10
53.37147553147103
 20
308.8733233333336
 30
0.0
 11
53.37147553147103
 21
308.2959730641437
 31
0.0
  0
LINE
  5
146
330
1F
100
AcDbEntity
  8
0
  6
CONTINUOUS
 62
   253
100
AcDbLine
 10
-501.28291612264
 20
246.3209873770905
 30
0.0
 11
-502.2787357520579
 21
245.3251677476725
 31
0.0
  0
LINE
  5
147
330
1F
100
AcDbEntity
  8
0
  6
CONTINUOUS
 62
     7
100
AcDbLine
 10
-275.9613179321327
 20
261.8607156806655
 30
0.0
 11
-231.895735489908
 21
261.86071574498
 31
0.0
  0
LINE
  5
148
330
1F
100
AcDbEntity
  8
0
  6
CONTINUOUS
 62
   253
100
AcDbLine
 10
-355.1540270164693
 20
262.9457650875244
 30
0.0
 11
-354.8092622342646
 21
263.2905298697294
 31
0.0
  0
LINE
  5
149
330
1F
100
AcDbEntity
  8
0
  6
CONTINUOUS
 62
   253
100
AcDbLine
 10
-435.3092622342646
 20
319.456116796937
 30
0.0
 11
-435.2411321211966
 21
319.456116796937
 31
0.0
  0
LINE
  5
14A
330
1F
100
AcDbEntity
  8
0
  6
CONTINUOUS
 62
   253
100
AcDbLine
 10
-467.9785244685288
 20
292.2040058544684
 30
0.0
 11
-441.978524468529
 21
292.2040058544684
 31
0.0
  0
LINE
  5
14B
330
1F
100
AcDbEntity
  8
0
  6
CONTINUOUS
 62
   253
100
AcDbLine
 10
-321.8009662227203
 20
261.447820785393
 30
0.0
 11
-322.145731004925
 21
261.7925855675975
 31
0.0
  0
LINE
  5
14C
330
1F
100
AcDbEntity
  8
0
  6
CONTINUOUS
 62
     7
100
AcDbLine
 10
-161.6803688828678
 20
304.9971462601755
 30
0.0
 11
-161.6803688828678
 21
304.89239359967
 31
0.0
  0
LINE
  5
14D
330
1F
100
AcDbEntity
  8
0
  6
CONTINUOUS
 62
   253
100
AcDbLine
 10
-400.1477867027933
 20
263.2905298697294
 30
0.0
 11
-400.2159168158611
 21
263.2905298697294
 31
0.0
  0
LINE
  5
14E
330
1F
100
AcDbEntity
  8
0
  6
CONTINUOUS
 62
   253
100
AcDbLine
 10
-503.7766800541897
 20
246.8231120498046
 30
0.0
 11
-502.7808604247717
 21
247.818931679222
 31
0.0
  0
ARC
  5
14F
330
1F
100
AcDbEntity
  8
0
  6
CONTINUOUS
 62
   253
100
AcDbCircle
 10
314.4285244685288
 20
291.3733233333335
 30
0.0
 40
0.8306825211353286
210
0.0
220
0.0
230
-1.0
100
AcDbArc
 50
270.0000000000038
 51
89.9999999999999
  0
LINE
  5
150
330
1F
100
AcDbEntity
  8
0
  6
CONTINUOUS
 62
     7
100
AcDbLine
 10
-400.2159168158611
 20
263.2905298697294
 30
0.0
 11
-400.2159168801754
 21
319.4561123119545
 31
0.0
  0
LINE
  5
151
330
1F
100
AcDbEntity
  8
0
  6
CONTINUOUS
 62
   253
100
AcDbLine
 10
-502.2787357520579
 20
337.4214789189941
 30
0.0
 11
-501.28291612264
 21
336.4256592895761
 31
0.0
  0
LINE
  5
152
330
1F
100
AcDbEntity
  8
0
  6
CONTINUOUS
 62
   253
100
AcDbLine
 10
-276.3060827143374
 20
321.2988258812736
 30
0.0
 11
-275.9613179321327
 21
320.954061099069
 31
0.0
  0
ARC
  5
153
330
1F
100
AcDbEntity
  8
0
  6
CONTINUOUS
 62
   253
100
AcDbCircle
 10
393.5785244685289
 20
291.3733233333335
 30
0.0
 40
0.8306825211353286
210
0.0
220
0.0
230
-1.0
100
AcDbArc
 50
270.0000000000077
 51
89.99999999999994
  0
LINE
  5
154
330
1F
100
AcDbEntity
  8
0
  6
CONTINUOUS
 62
   253
100
AcDbLine
 10
-366.0785244685288
 20
290.5426408121979
 30
0.0
 11
-393.5785244685291
 21
290.5426408121979
 31
0.0
  0
LINE
  5
155
330
1F
100
AcDbEntity
  8
0
  6
CONTINUOUS
 62
   253
100
AcDbLine
 10
-401.645731004925
 20
320.954061099069
 30
0.0
 11
-401.3009662227203
 21
321.298825881274
 31
0.0
  0
LINE
  5
156
330
1F
100
AcDbEntity
  8
0
  6
CONTINUOUS
 62
   253
100
AcDbLine
 10
-435.3092622342646
 20
319.456116796937
 30
0.0
 11
-435.6540270164693
 21
319.8008815791421
 31
0.0
  0
LINE
  5
157
330
1F
100
AcDbEntity
  8
0
  6
CONTINUOUS
 62
   253
100
AcDbLine
 10
-399.8030219205885
 20
319.800881579142
 30
0.0
 11
-400.1477867027933
 21
319.4561167969369
 31
0.0
  0
ARC
  5
158
330
1F
100
AcDbEntity
  8
0
  6
CONTINUOUS
 62
   253
100
AcDbCircle
 10
467.9785244685288
 20
291.3733233333335
 30
0.0
 40
0.8306825211352731
210
0.0
220
0.0
230
-1.0
100
AcDbArc
 50
270.0000000000115
 51
89.99999999999994
  0
ARC
  5
159
330
1F
100
AcDbEntity
  8
0
  6
CONTINUOUS
 62
   253
100
AcDbCircle
 10
441.9785244685289
 20
291.3733233333335
 30
0.0
 40
0.8306825211354396
210
0.0
220
0.0
230
-1.0
100
AcDbArc
 50
89.99999999999235
 51
270.0000000000001
  0
LINE
  5
15A
330
1F
100
AcDbEntity
  8
0
  6
CONTINUOUS
 62
   253
100
AcDbLine
 10
-435.3092621664503
 20
263.290529869734
 30
0.0
 11
-435.2411320568824
 21
263.2905343547125
 31
0.0
  0
LINE
  5
15B
330
1F
100
AcDbEntity
  8
0
  6
CONTINUOUS
 62
   253
100
AcDbLine
 10
-275.9613179321327
 20
261.7925855675975
 30
0.0
 11
-275.9613179321327
 21
261.8607156806655
 31
0.0
  0
LINE
  5
15C
330
1F
100
AcDbEntity
  8
0
  6
CONTINUOUS
 62
   253
100
AcDbLine
 10
-231.8957310049294
 20
261.792585635412
 30
0.0
 11
-231.895735489908
 21
261.8607157449799
 31
0.0
  0
LINE
  5
15D
330
1F
100
AcDbEntity
  8
0
  6
CONTINUOUS
 62
     7
100
AcDbLine
 10
-481.0053958576134
 20
245.3789474026851
 30
0.0
 11
-480.9785244685289
 21
245.3251677476725
 31
0.0
  0
LINE
  5
15E
330
1F
100
AcDbEntity
  8
0
  6
CONTINUOUS
 62
     7
100
AcDbLine
 10
-503.6718644956236
 20
320.6498520473936
 30
0.0
 11
-503.7229003991774
 21
319.6501947224181
 31
0.0
  0
LINE
  5
15F
330
1F
100
AcDbEntity
  8
0
  6
CONTINUOUS
 62
   253
100
AcDbLine
 10
-353.3113179321327
 20
261.7925855675975
 30
0.0
 11
-353.6560827143374
 21
261.447820785393
 31
0.0
  0
LINE
  5
160
330
1F
100
AcDbEntity
  8
0
  6
CONTINUOUS
 62
     7
100
AcDbLine
 10
-161.6803688828678
 20
277.8542529411789
 30
0.0
 11
-161.6803688828678
 21
277.7495004064909
 31
0.0
  0
LINE
  5
161
330
1F
100
AcDbEntity
  8
0
  6
CONTINUOUS
 62
     7
100
AcDbLine
 10
-435.2411321211966
 20
319.456116796937
 30
0.0
 11
-435.2411320568824
 21
263.2905343547126
 31
0.0
  0
LINE
  5
162
330
1F
100
AcDbEntity
  8
0
  6
CONTINUOUS
 62
     7
100
AcDbLine
 10
-161.6803688828678
 20
337.4214789189941
 30
0.0
 11
-161.6803688828678
 21
336.4256592895761
 31
0.0
  0
LINE
  5
163
330
1F
100
AcDbEntity
  8
0
  6
CONTINUOUS
 62
   253
100
AcDbLine
 10
-400.1477867027933
 20
263.2905298697294
 30
0.0
 11
-399.8030219205885
 21
262.9457650875245
 31
0.0
  0
LINE
  5
164
330
1F
100
AcDbEntity
  8
0
  6
CONTINUOUS
 62
   253
100
AcDbLine
 10
-197.4785244685289
 20
290.5426408121979
 30
0.0
 11
-223.4785244685288
 21
290.5426408121979
 31
0.0
  0
LINE
  5
165
330
1F
100
AcDbEntity
  8
0
  6
CONTINUOUS
 62
   253
100
AcDbLine
 10
-223.4785244685288
 20
292.2040058544684
 30
0.0
 11
-197.4785244685289
 21
292.2040058544684
 31
0.0
  0
LINE
  5
166
330
1F
100
AcDbEntity
  8
0
  6
CONTINUOUS
 62
   253
100
AcDbLine
 10
-230.0530219205884
 20
319.800881579142
 30
0.0
 11
-230.3977867027932
 21
319.4561167969369
 31
0.0
  0
ARC
  5
167
330
1F
100
AcDbEntity
  8
0
  6
CONTINUOUS
 62
   253
100
AcDbCircle
 10
223.4785244685288
 20
291.3733233333335
 30
0.0
 40
0.8306825211353286
210
0.0
220
0.0
230
-1.0
100
AcDbArc
 50
270.0
 51
90.0000000000058
  0
LINE
  5
168
330
1F
100
AcDbEntity
  8
0
  6
CONTINUOUS
 62
   253
100
AcDbLine
 10
-314.4285244685288
 20
292.2040058544684
 30
0.0
 11
-283.9285244685289
 21
292.2040058544684
 31
0.0
  0
LINE
  5
169
330
1F
100
AcDbEntity
  8
0
  6
CONTINUOUS
 62
     7
100
AcDbLine
 10
-503.7766800541897
 20
335.9235346168625
 30
0.0
 11
-503.7766800541897
 21
323.1233233333335
 31
0.0
  0
ARC
  5
16A
330
1F
100
AcDbEntity
  8
0
  6
CONTINUOUS
 62
   253
100
AcDbCircle
 10
283.9285244685288
 20
291.3733233333335
 30
0.0
 40
0.8306825211354396
210
0.0
220
0.0
230
-1.0
100
AcDbArc
 50
89.99999999999618
 51
270.0000000000001
  0
LINE
  5
16B
330
1F
100
AcDbEntity
  8
0
  6
CONTINUOUS
 62
   253
100
AcDbLine
 10
-231.5509662227203
 20
261.447820785393
 30
0.0
 11
-231.895731004925
 21
261.7925855675975
 31
0.0
  0
LINE
  5
16C
330
1F
100
AcDbEntity
  8
0
  6
CONTINUOUS
 62
   253
100
AcDbLine
 10
-434.1560827143375
 20
321.298825881274
 30
0.0
 11
-433.8113179321327
 21
320.954061099069
 31
0.0
  0
LINE
  5
16D
330
1F
100
AcDbEntity
  8
0
  6
CONTINUOUS
 62
   253
100
AcDbLine
 10
-433.8113179321327
 20
261.7925855675975
 30
0.0
 11
-434.1560827143375
 21
261.447820785393
 31
0.0
  0
LINE
  5
16E
330
1F
100
AcDbEntity
  8
0
  6
CONTINUOUS
 62
   253
100
AcDbLine
 10
-393.5785244685289
 20
292.2040058544684
 30
0.0
 11
-366.0785244685289
 21
292.2040058544684
 31
0.0
  0
LINE
  5
16F
330
1F
100
AcDbEntity
  8
0
  6
CONTINUOUS
 62
   253
100
AcDbLine
 10
-283.9285244685288
 20
290.5426408121979
 30
0.0
 11
-314.428524468529
 21
290.5426408121979
 31
0.0
  0
LINE
  5
170
330
1F
100
AcDbEntity
  8
0
  6
CONTINUOUS
 62
   253
100
AcDbLine
 10
-230.3977867027932
 20
263.2905298697294
 30
0.0
 11
-230.0530219205884
 21
262.9457650875245
 31
0.0
  0
LINE
  5
171
330
1F
100
AcDbEntity
  8
0
  6
CONTINUOUS
 62
   253
100
AcDbLine
 10
-275.9613179321327
 20
261.7925855675975
 30
0.0
 11
-276.3060827143374
 21
261.447820785393
 31
0.0
  0
LINE
  5
172
330
1F
100
AcDbEntity
  8
0
  6
CONTINUOUS
 62
   253
100
AcDbLine
 10
-320.3030219205884
 20
319.800881579142
 30
0.0
 11
-320.6477867027932
 21
319.4561167969368
 31
0.0
  0
LINE
  5
173
330
1F
100
AcDbEntity
  8
0
  6
CONTINUOUS
 62
   253
100
AcDbLine
 10
-435.6540270164693
 20
262.9457650875244
 30
0.0
 11
-435.3092622342646
 21
263.2905298697294
 31
0.0
  0
LINE
  5
174
330
1F
100
AcDbEntity
  8
0
  6
CONTINUOUS
 62
   253
100
AcDbLine
 10
-231.895731004925
 20
320.954061099069
 30
0.0
 11
-231.5509662227203
 21
321.2988258812736
 31
0.0
  0
LINE
  5
175
330
1F
100
AcDbEntity
  8
0
  6
CONTINUOUS
 62
   253
100
AcDbLine
 10
-400.1477867706075
 20
319.4561167969325
 30
0.0
 11
-400.2159168801754
 21
319.4561123119546
 31
0.0
  0
LINE
  5
176
330
1F
100
AcDbEntity
  8
0
  6
CONTINUOUS
 62
   253
100
AcDbLine
 10
-277.8040270164694
 20
262.9457650875244
 30
0.0
 11
-277.4592622342645
 21
263.2905298697294
 31
0.0
  0
ARC
  5
177
330
1F
100
AcDbEntity
  8
0
  6
CONTINUOUS
 62
     7
100
AcDbCircle
 10
186.7285244685288
 20
291.3733233333335
 30
0.0
 40
2.249999999999974
210
0.0
220
0.0
230
-1.0
100
AcDbArc
 50
256.1276202131601
 51
283.8723797868391
  0
LINE
  5
178
330
1F
100
AcDbEntity
  8
0
  6
CONTINUOUS
 62
   253
100
AcDbLine
 10
-277.4592621664502
 20
263.290529869734
 30
0.0
 11
-277.3911320568824
 21
263.2905343547125
 31
0.0
  0
LINE
  5
179
330
1F
100
AcDbEntity
  8
0
  6
CONTINUOUS
 62
   253
100
AcDbLine
 10
-161.6803688828678
 20
262.3869645716955
 30
0.0
 11
-161.6766800541898
 21
262.3869645716955
 31
0.0
  0
LINE
  5
17A
330
1F
100
AcDbEntity
  8
0
  6
CONTINUOUS
 62
   253
100
AcDbLine
 10
-203.4285244685289
 20
303.5698891413476
 30
0.0
 11
-195.0285244685289
 21
303.5698891413476
 31
0.0
  0
ARC
  5
17B
330
1F
100
AcDbEntity
  8
0
  6
CONTINUOUS
 62
     7
100
AcDbCircle
 10
-478.7285244685288
 20
263.8733233333335
 30
0.0
 40
2.250000000000141
100
AcDbArc
 50
256.1276202131601
 51
283.8723797868398
  0
LINE
  5
17C
330
1F
100
AcDbEntity
  8
0
  6
CONTINUOUS
 62
   253
100
AcDbLine
 10
-230.3977867027932
 20
263.2905298697294
 30
0.0
 11
-230.4659168158612
 21
263.2905298697294
 31
0.0
  0
LINE
  5
17D
330
1F
100
AcDbEntity
  8
0
  6
CONTINUOUS
 62
   253
100
AcDbLine
 10
-161.6766800541898
 20
249.0159940377995
 30
0.0
 11
-161.6803688828678
 21
249.0159940377995
 31
0.0
  0
LINE
  5
17E
330
1F
100
AcDbEntity
  8
0
  6
CONTINUOUS
 62
     7
100
AcDbLine
 10
-161.6766800541898
 20
273.8733233333335
 30
0.0
 11
-161.6803688828678
 21
273.8733233333335
 31
0.0
  0
LINE
  5
17F
330
1F
100
AcDbEntity
  8
0
  6
CONTINUOUS
 62
   253
100
AcDbLine
 10
-433.8113179321282
 20
320.9540610312549
 30
0.0
 11
-433.8113134471499
 21
320.8859309216865
 31
0.0
  0
LINE
  5
180
330
1F
100
AcDbEntity
  8
0
  6
CONTINUOUS
 62
   253
100
AcDbLine
 10
-401.3009662227204
 20
261.447820785393
 30
0.0
 11
-401.645731004925
 21
261.7925855675975
 31
0.0
  0
LINE
  5
181
330
1F
100
AcDbEntity
  8
0
  6
CONTINUOUS
 62
   253
100
AcDbLine
 10
-161.6803688828678
 20
261.3593394199472
 30
0.0
 11
-161.6766800541898
 21
261.3593394199472
 31
0.0
  0
LINE
  5
182
330
1F
100
AcDbEntity
  8
0
  6
CONTINUOUS
 62
     7
100
AcDbLine
 10
-161.6803688828678
 20
304.8923935996699
 30
0.0
 11
-161.6803688828678
 21
302.5233231807835
 31
0.0
  0
ARC
  5
183
330
1F
100
AcDbEntity
  8
0
  6
CONTINUOUS
 62
     7
100
AcDbCircle
 10
203.4285244685289
 20
307.3733233333335
 30
0.0
 40
2.249999999999974
210
0.0
220
0.0
230
-1.0
100
AcDbArc
 50
76.12762021316011
 51
103.8723797868392
  0
ARC
  5
184
330
1F
100
AcDbEntity
  8
0
  6
CONTINUOUS
 62
     7
100
AcDbCircle
 10
-203.4285244685289
 20
307.3733233333335
 30
0.0
 40
2.249999999999974
100
AcDbArc
 50
103.8723797868392
 51
166.1276202131596
  0
LINE
  5
185
330
1F
100
AcDbEntity
  8
0
  6
CONTINUOUS
 62
     7
100
AcDbLine
 10
-197.2785244685289
 20
276.8733233333336
 30
0.0
 11
-197.2785244685289
 21
276.2959730641434
 31
0.0
  0
CIRCLE
  5
186
330
1F
100
AcDbEntity
  8
0
  6
CONTINUOUS
 62
     7
100
AcDbCircle
 10
186.7285244685288
 20
318.8733233333336
 30
0.0
 40
3.750000000000031
210
0.0
220
0.0
230
-1.0
  0
LINE
  5
187
330
1F
100
AcDbEntity
  8
0
  6
CONTINUOUS
 62
     7
100
AcDbLine
 10
-197.3168010434928
 20
276.2296760915665
 30
0.0
 11
-197.3168010434928
 21
274.5169705750999
 31
0.0
  0
LINE
  5
188
330
1F
100
AcDbEntity
  8
0
  6
CONTINUOUS
 62
   253
100
AcDbLine
 10
-161.6766800541898
 20
260.3596820949709
 30
0.0
 11
-161.6803688828678
 21
260.3596820949709
 31
0.0
  0
LINE
  5
189
330
1F
100
AcDbEntity
  8
0
  6
CONTINUOUS
 62
     7
100
AcDbLine
 10
-433.8113179321327
 20
261.8607156806655
 30
0.0
 11
-401.645735489908
 21
261.86071574498
 31
0.0
  0
LINE
  5
18A
330
1F
100
AcDbEntity
  8
0
  6
CONTINUOUS
 62
   253
100
AcDbLine
 10
-433.8113179321327
 20
261.7925855675975
 30
0.0
 11
-433.8113179321327
 21
261.8607156806655
 31
0.0
  0
CIRCLE
  5
18B
330
1F
100
AcDbEntity
  8
0
  6
CONTINUOUS
 62
   253
100
AcDbCircle
 10
-186.7285244685288
 20
263.873323333333
 30
0.0
 40
3.8034341919857
  0
ARC
  5
18C
330
1F
100
AcDbEntity
  8
0
  6
CONTINUOUS
 62
     7
100
AcDbCircle
 10
203.4285244685289
 20
307.3733233333335
 30
0.0
 40
2.249999999999974
210
0.0
220
0.0
230
-1.0
100
AcDbArc
 50
256.1276202131601
 51
283.8723797868392
  0
LINE
  5
18D
330
1F
100
AcDbEntity
  8
0
  6
CONTINUOUS
 62
   253
100
AcDbLine
 10
-353.6560827143375
 20
321.298825881274
 30
0.0
 11
-353.3113179321327
 21
320.954061099069
 31
0.0
  0
LINE
  5
18E
330
1F
100
AcDbEntity
  8
0
  6
CONTINUOUS
 62
   253
100
AcDbLine
 10
-299.3785244685288
 20
271.5698891413475
 30
0.0
 11
-290.9785244685288
 21
271.5698891413475
 31
0.0
  0
LINE
  5
18F
330
1F
100
AcDbEntity
  8
0
  6
CONTINUOUS
 62
     7
100
AcDbLine
 10
-161.6803688828678
 20
262.6233233333329
 30
0.0
 11
-161.6766800541898
 21
262.6233233333329
 31
0.0
  0
ARC
  5
190
330
1F
100
AcDbEntity
  8
0
  6
CONTINUOUS
 62
     7
100
AcDbCircle
 10
203.4285244685289
 20
307.3733233333335
 30
0.0
 40
2.249999999999974
210
0.0
220
0.0
230
-1.0
100
AcDbArc
 50
166.12762021316
 51
193.8723797868389
  0
LINE
  5
191
330
1F
100
AcDbEntity
  8
0
  6
CONTINUOUS
 62
     7
100
AcDbLine
 10
-198.7785244685288
 20
273.8733233333335
 30
0.0
 11
-198.7785244685288
 21
276.8733233333335
 31
0.0
  0
LINE
  5
192
330
1F
100
AcDbEntity
  8
0
  6
CONTINUOUS
 62
   253
100
AcDbLine
 10
-203.4285244685289
 20
270.0698891413481
 30
0.0
 11
-195.0285244685289
 21
270.0698891413481
 31
0.0
  0
LINE
  5
193
330
1F
100
AcDbEntity
  8
0
  6
CONTINUOUS
 62
     7
100
AcDbLine
 10
-197.2785244685289
 20
274.4506736025231
 30
0.0
 11
-197.3168010434929
 21
274.5169705750999
 31
0.0
  0
LINE
  5
194
330
1F
100
AcDbEntity
  8
0
  6
CONTINUOUS
 62
   253
100
AcDbLine
 10
-195.0285244685288
 20
280.6767575253189
 30
0.0
 11
-203.4285244685288
 21
280.6767575253189
 31
0.0
  0
ARC
  5
195
330
1F
100
AcDbEntity
  8
0
  6
CONTINUOUS
 62
     7
100
AcDbCircle
 10
-186.7285244685288
 20
291.3733233333335
 30
0.0
 40
2.249999999999974
100
AcDbArc
 50
193.8723797868392
 51
256.1276202131601
  0
LINE
  5
196
330
1F
100
AcDbEntity
  8
0
  6
CONTINUOUS
 62
     7
100
AcDbLine
 10
-197.2785244685289
 20
273.8733233333335
 30
0.0
 11
-197.2785244685289
 21
274.4506736025231
 31
0.0
  0
LINE
  5
197
330
1F
100
AcDbEntity
  8
0
  6
CONTINUOUS
 62
   253
100
AcDbLine
 10
-401.645731004925
 20
320.954061099069
 30
0.0
 11
-401.645731004925
 21
320.8859309860009
 31
0.0
  0
LINE
  5
198
330
1F
100
AcDbEntity
  8
0
  6
CONTINUOUS
 62
   253
100
AcDbLine
 10
-277.4592622342645
 20
319.456116796937
 30
0.0
 11
-277.3911321211966
 21
319.456116796937
 31
0.0
  0
LINE
  5
199
330
1F
100
AcDbEntity
  8
0
  6
CONTINUOUS
 62
     7
100
AcDbLine
 10
-161.6803688828678
 20
280.2233234858834
 30
0.0
 11
-161.6803688828678
 21
277.8542529411789
 31
0.0
  0
ARC
  5
19A
330
1F
100
AcDbEntity
  8
0
  6
CONTINUOUS
 62
     7
100
AcDbCircle
 10
-186.7285244685288
 20
291.3733233333335
 30
0.0
 40
2.249999999999974
100
AcDbArc
 50
283.8723797868392
 51
346.1276202131606
  0
LINE
  5
19B
330
1F
100
AcDbEntity
  8
0
  6
CONTINUOUS
 62
     7
100
AcDbLine
 10
-161.6803688828678
 20
248.8733233333336
 30
0.0
 11
-161.6766800541898
 21
248.8733233333336
 31
0.0
  0
LINE
  5
19C
330
1F
100
AcDbEntity
  8
0
  6
CONTINUOUS
 62
   253
100
AcDbLine
 10
-290.9785244685289
 20
279.176757525319
 30
0.0
 11
-299.3785244685287
 21
279.176757525319
 31
0.0
  0
ARC
  5
19D
330
1F
100
AcDbEntity
  8
0
  6
CONTINUOUS
 62
     7
100
AcDbCircle
 10
161.6785244685288
 20
291.3733233333335
 30
0.0
 40
11.14999999999999
210
0.0
220
0.0
230
-1.0
100
AcDbArc
 50
270.0094777719994
 51
89.9905222280006
  0
LINE
  5
19E
330
1F
100
AcDbEntity
  8
0
  6
CONTINUOUS
 62
   253
100
AcDbLine
 10
-320.6477867027932
 20
263.2905298697294
 30
0.0
 11
-320.3030219205883
 21
262.9457650875245
 31
0.0
  0
LINE
  5
19F
330
1F
100
AcDbEntity
  8
0
  6
CONTINUOUS
 62
     7
100
AcDbLine
 10
-277.3911321211966
 20
319.456116796937
 30
0.0
 11
-277.3911320568824
 21
263.2905343547126
 31
0.0
  0
CIRCLE
  5
1A0
330
1F
100
AcDbEntity
  8
0
  6
CONTINUOUS
 62
     7
100
AcDbCircle
 10
478.7285244685288
 20
263.8733233333335
 30
0.0
 40
3.750000000000031
210
0.0
220
0.0
230
-1.0
  0
CIRCLE
  5
1A1
330
1F
100
AcDbEntity
  8
0
  6
CONTINUOUS
 62
     7
100
AcDbCircle
 10
337.7285244685289
 20
291.3733233333335
 30
0.0
 40
14.65000000000005
210
0.0
220
0.0
230
-1.0
  0
LINE
  5
1A2
330
1F
100
AcDbEntity
  8
0
  6
CONTINUOUS
 62
     7
100
AcDbLine
 10
-320.6477867027932
 20
263.2905298697294
 30
0.0
 11
-320.6477867027932
 21
319.456116796937
 31
0.0
  0
ARC
  5
1A3
330
1F
100
AcDbEntity
  8
0
  6
CONTINUOUS
 62
     7
100
AcDbCircle
 10
-186.7285244685288
 20
291.3733233333335
 30
0.0
 40
2.249999999999974
100
AcDbArc
 50
103.8723797868392
 51
166.1276202131603
  0
ARC
  5
1A4
330
1F
100
AcDbEntity
  8
0
  6
CONTINUOUS
 62
     7
100
AcDbCircle
 10
186.7285244685288
 20
291.3733233333335
 30
0.0
 40
2.249999999999974
210
0.0
220
0.0
230
-1.0
100
AcDbArc
 50
346.12762021316
 51
13.87237978683902
  0
LINE
  5
1A5
330
1F
100
AcDbEntity
  8
0
  6
CONTINUOUS
 62
   253
100
AcDbLine
 10
-277.4592622342645
 20
319.456116796937
 30
0.0
 11
-277.8040270164692
 21
319.8008815791421
 31
0.0
  0
LINE
  5
1A6
330
1F
100
AcDbEntity
  8
0
  6
CONTINUOUS
 62
     7
100
AcDbLine
 10
-322.145731004925
 20
320.954061099069
 30
0.0
 11
-353.3113179321327
 21
320.954061099069
 31
0.0
  0
LINE
  5
1A7
330
1F
100
AcDbEntity
  8
0
  6
CONTINUOUS
 62
   253
100
AcDbLine
 10
-230.3977867706075
 20
319.4561167969325
 30
0.0
 11
-230.4659168801753
 21
319.4561123119546
 31
0.0
  0
LINE
  5
1A8
330
1F
100
AcDbEntity
  8
0
  6
CONTINUOUS
 62
     7
100
AcDbLine
 10
-161.6766800541898
 20
260.123323333333
 30
0.0
 11
-161.6803688828678
 21
260.123323333333
 31
0.0
  0
LINE
  5
1A9
330
1F
100
AcDbEntity
  8
0
  6
CONTINUOUS
 62
   253
100
AcDbLine
 10
-354.8092622342646
 20
319.456116796937
 30
0.0
 11
-355.1540270164693
 21
319.8008815791421
 31
0.0
  0
LINE
  5
1AA
330
1F
100
AcDbEntity
  8
0
  6
CONTINUOUS
 62
   253
100
AcDbLine
 10
-322.145731004925
 20
320.954061099069
 30
0.0
 11
-321.8009662227203
 21
321.298825881274
 31
0.0
  0
LINE
  5
1AB
330
1F
100
AcDbEntity
  8
0
  6
CONTINUOUS
 62
   253
100
AcDbLine
 10
-195.0285244685288
 20
311.176757525319
 30
0.0
 11
-203.4285244685288
 21
311.176757525319
 31
0.0
  0
LINE
  5
1AC
330
1F
100
AcDbEntity
  8
0
  6
CONTINUOUS
 62
     7
100
AcDbLine
 10
-401.645731004925
 20
320.8859309860009
 30
0.0
 11
-433.8113134471499
 21
320.8859309216866
 31
0.0
  0
LINE
  5
1AD
330
1F
100
AcDbEntity
  8
0
  6
CONTINUOUS
 62
     7
100
AcDbLine
 10
-354.8092622342646
 20
319.456116796937
 30
0.0
 11
-354.8092622342646
 21
263.2905298697294
 31
0.0
  0
LINE
  5
1AE
330
1F
100
AcDbEntity
  8
0
  6
CONTINUOUS
 62
   253
100
AcDbLine
 10
-231.895731004925
 20
320.954061099069
 30
0.0
 11
-231.895731004925
 21
320.8859309860009
 31
0.0
  0
CIRCLE
  5
1AF
330
1F
100
AcDbEntity
  8
0
  6
CONTINUOUS
 62
     7
100
AcDbCircle
 10
186.7285244685288
 20
291.3733233333335
 30
0.0
 40
3.750000000000031
210
0.0
220
0.0
230
-1.0
  0
LINE
  5
1B0
330
1F
100
AcDbEntity
  8
0
  6
CONTINUOUS
 62
   253
100
AcDbLine
 10
-401.6457310049295
 20
261.792585635412
 30
0.0
 11
-401.645735489908
 21
261.8607157449799
 31
0.0
  0
LINE
  5
1B1
330
1F
100
AcDbEntity
  8
0
  6
CONTINUOUS
 62
   253
100
AcDbLine
 10
-161.6766800541898
 20
261.3873072467199
 30
0.0
 11
-161.6803688828678
 21
261.3873072467199
 31
0.0
  0
LINE
  5
1B2
330
1F
100
AcDbEntity
  8
0
  6
CONTINUOUS
 62
   253
100
AcDbLine
 10
-275.9613179321282
 20
320.9540610312545
 30
0.0
 11
-275.9613134471498
 21
320.8859309216865
 31
0.0
  0
LINE
  5
1B3
330
1F
100
AcDbEntity
  8
0
  6
CONTINUOUS
 62
   253
100
AcDbLine
 10
-441.9785244685289
 20
290.5426408121979
 30
0.0
 11
-467.978524468529
 21
290.5426408121979
 31
0.0
  0
LINE
  5
1B4
330
1F
100
AcDbEntity
  8
0
  6
CONTINUOUS
 62
     7
100
AcDbLine
 10
-353.3113179321327
 20
261.7925855675975
 30
0.0
 11
-322.145731004925
 21
261.7925855675975
 31
0.0
  0
LINE
  5
1B5
330
1F
100
AcDbEntity
  8
0
  6
CONTINUOUS
 62
     7
100
AcDbLine
 10
-231.895731004925
 20
320.8859309860009
 30
0.0
 11
-275.9613134471498
 21
320.8859309216866
 31
0.0
  0
LINE
  5
1B6
330
1F
100
AcDbEntity
  8
0
  6
CONTINUOUS
 62
     7
100
AcDbLine
 10
-230.4659168158612
 20
263.2905298697294
 30
0.0
 11
-230.4659168801753
 21
319.4561123119545
 31
0.0
  0
ARC
  5
1B7
330
1F
100
AcDbEntity
  8
0
  6
CONTINUOUS
 62
     7
100
AcDbCircle
 10
-478.7285244685288
 20
291.3733233333335
 30
0.0
 40
2.249999999999974
100
AcDbArc
 50
346.1276202131598
 51
13.87237978683942
  0
ARC
  5
1B8
330
1F
100
AcDbEntity
  8
0
  6
CONTINUOUS
 62
     7
100
AcDbCircle
 10
-478.7285244685289
 20
263.8733233333335
 30
0.0
 40
2.249999999999974
100
AcDbArc
 50
346.1276202131599
 51
13.87237978683913
  0
ARC
  5
1B9
330
1F
100
AcDbEntity
  8
0
  6
CONTINUOUS
 62
     7
100
AcDbCircle
 10
-195.0285244685288
 20
307.3733233333335
 30
0.0
 40
2.249999999999974
100
AcDbArc
 50
283.8723797868392
 51
346.1276202131597
  0
LINE
  5
1BA
330
1F
100
AcDbEntity
  8
0
  6
CONTINUOUS
 62
     7
100
AcDbLine
 10
-207.1785244685288
 20
273.8733233333335
 30
0.0
 11
-207.1785244685288
 21
276.8733233333335
 31
0.0
  0
LINE
  5
1BB
330
1F
100
AcDbEntity
  8
0
  6
CONTINUOUS
 62
     7
100
AcDbLine
 10
-199.6785244685288
 20
276.8733233333336
 30
0.0
 11
-199.6785244685288
 21
273.8733233333335
 31
0.0
  0
ARC
  5
1BC
330
1F
100
AcDbEntity
  8
0
  6
CONTINUOUS
 62
     7
100
AcDbCircle
 10
-299.3785244685288
 20
275.3733233333335
 30
0.0
 40
2.250000000000085
100
AcDbArc
 50
193.8723797868394
 51
256.1276202131615
  0
LINE
  5
1BD
330
1F
100
AcDbEntity
  8
0
  6
CONTINUOUS
 62
     7
100
AcDbLine
 10
-191.2785244685289
 20
276.8733233333336
 30
0.0
 11
-191.2785244685289
 21
273.8733233333335
 31
0.0
  0
ARC
  5
1BE
330
1F
100
AcDbEntity
  8
0
  6
CONTINUOUS
 62
     7
100
AcDbCircle
 10
-203.4285244685289
 20
307.3733233333335
 30
0.0
 40
2.250000000000085
100
AcDbArc
 50
13.87237978683926
 51
76.12762021316007
  0
LINE
  5
1BF
330
1F
100
AcDbEntity
  8
0
  6
CONTINUOUS
 62
     7
100
AcDbLine
 10
-197.2785244685289
 20
276.2959730641434
 30
0.0
 11
-197.3168010434929
 21
276.2296760915665
 31
0.0
  0
ARC
  5
1C0
330
1F
100
AcDbEntity
  8
0
  6
CONTINUOUS
 62
     7
100
AcDbCircle
 10
-203.4285244685289
 20
276.8733233333336
 30
0.0
 40
2.249999999999974
100
AcDbArc
 50
166.1276202131613
 51
180.0000000000001
  0
ARC
  5
1C1
330
1F
100
AcDbEntity
  8
0
  6
CONTINUOUS
 62
     7
100
AcDbCircle
 10
-478.7285244685288
 20
263.8733233333335
 30
0.0
 40
2.249999999999974
100
AcDbArc
 50
103.8723797868398
 51
166.127620213161
  0
ARC
  5
1C2
330
1F
100
AcDbEntity
  8
0
  6
CONTINUOUS
 62
     7
100
AcDbCircle
 10
-299.3785244685288
 20
275.3733233333335
 30
0.0
 40
2.250000000000085
100
AcDbArc
 50
166.1276202131606
 51
193.8723797868394
  0
ARC
  5
1C3
330
1F
100
AcDbEntity
  8
0
  6
CONTINUOUS
 62
     7
100
AcDbCircle
 10
-203.4285244685289
 20
276.8733233333336
 30
0.0
 40
2.288276574963888
100
AcDbArc
 50
104.5116105564674
 51
164.8567987764027
  0
ARC
  5
1C4
330
1F
100
AcDbEntity
  8
0
  6
CONTINUOUS
 62
     7
100
AcDbCircle
 10
-478.7285244685289
 20
291.3733233333335
 30
0.0
 40
2.250000000000141
100
AcDbArc
 50
76.12762021316016
 51
103.8723797868385
  0
ARC
  5
1C5
330
1F
100
AcDbEntity
  8
0
  6
CONTINUOUS
 62
     7
100
AcDbCircle
 10
-203.4285244685289
 20
276.8733233333336
 30
0.0
 40
2.288276574963888
100
AcDbArc
 50
15.14320122359799
 51
75.48838944353125
  0
LINE
  5
1C6
330
1F
100
AcDbEntity
  8
0
  6
CONTINUOUS
 62
     7
100
AcDbLine
 10
-205.6128968600128
 20
277.41278348508
 30
0.0
 11
-205.6373427792323
 21
277.4710953248401
 31
0.0
  0
ARC
  5
1C7
330
1F
100
AcDbEntity
  8
0
  6
CONTINUOUS
 62
     7
100
AcDbCircle
 10
-186.7285244685288
 20
291.3733233333335
 30
0.0
 40
2.249999999999974
100
AcDbArc
 50
13.8723797868391
 51
76.1276202131601
  0
ARC
  5
1C8
330
1F
100
AcDbEntity
  8
0
  6
CONTINUOUS
 62
     7
100
AcDbCircle
 10
203.4285244685289
 20
307.3733233333335
 30
0.0
 40
2.249999999999974
210
0.0
220
0.0
230
-1.0
100
AcDbArc
 50
346.1276202131601
 51
13.87237978683942
  0
ARC
  5
1C9
330
1F
100
AcDbEntity
  8
0
  6
CONTINUOUS
 62
     7
100
AcDbCircle
 10
-478.7285244685289
 20
263.8733233333335
 30
0.0
 40
2.249999999999974
100
AcDbArc
 50
76.12762021316014
 51
103.8723797868385
  0
ARC
  5
1CA
330
1F
100
AcDbEntity
  8
0
  6
CONTINUOUS
 62
     7
100
AcDbCircle
 10
-478.7285244685288
 20
291.3733233333335
 30
0.0
 40
2.249999999999974
100
AcDbArc
 50
283.8723797868398
 51
346.1276202131604
  0
ARC
  5
1CB
330
1F
100
AcDbEntity
  8
0
  6
CONTINUOUS
 62
     7
100
AcDbCircle
 10
-203.4285244685289
 20
307.3733233333335
 30
0.0
 40
2.249999999999974
100
AcDbArc
 50
283.8723797868392
 51
346.1276202131604
  0
ARC
  5
1CC
330
1F
100
AcDbEntity
  8
0
  6
CONTINUOUS
 62
     7
100
AcDbCircle
 10
-478.7285244685288
 20
291.3733233333335
 30
0.0
 40
2.25000000000003
100
AcDbArc
 50
166.1276202131605
 51
193.8723797868388
  0
ARC
  5
1CD
330
1F
100
AcDbEntity
  8
0
  6
CONTINUOUS
 62
     7
100
AcDbCircle
 10
-478.7285244685288
 20
263.8733233333335
 30
0.0
 40
2.250000000000141
100
AcDbArc
 50
283.8723797868398
 51
346.1276202131601
  0
ARC
  5
1CE
330
1F
100
AcDbEntity
  8
0
  6
CONTINUOUS
 62
     7
100
AcDbCircle
 10
-195.0285244685288
 20
307.3733233333335
 30
0.0
 40
2.249999999999974
100
AcDbArc
 50
193.8723797868389
 51
256.1276202131596
  0
LINE
  5
1CF
330
1F
100
AcDbEntity
  8
0
  6
CONTINUOUS
 62
     7
100
AcDbLine
 10
-201.2441520770448
 20
277.41278348508
 30
0.0
 11
-201.2197061578254
 21
277.47109532484
 31
0.0
  0
ARC
  5
1D0
330
1F
100
AcDbEntity
  8
0
  6
CONTINUOUS
 62
     7
100
AcDbCircle
 10
-299.3785244685288
 20
275.3733233333335
 30
0.0
 40
2.250000000000141
100
AcDbArc
 50
256.1276202131615
 51
283.8723797868399
  0
CIRCLE
  5
1D1
330
1F
100
AcDbEntity
  8
0
  6
CONTINUOUS
 62
     7
100
AcDbCircle
 10
478.7285244685288
 20
291.3733233333335
 30
0.0
 40
3.750000000000031
210
0.0
220
0.0
230
-1.0
  0
ARC
  5
1D2
330
1F
100
AcDbEntity
  8
0
  6
CONTINUOUS
 62
     7
100
AcDbCircle
 10
-299.3785244685288
 20
275.3733233333335
 30
0.0
 40
2.249999999999974
100
AcDbArc
 50
13.87237978683945
 51
76.12762021316009
  0
LINE
  5
1D3
330
1F
100
AcDbEntity
  8
0
  6
CONTINUOUS
 62
     7
100
AcDbLine
 10
-203.9679846202753
 20
279.0576957248176
 30
0.0
 11
-204.0019120868228
 21
279.0885967527366
 31
0.0
  0
ARC
  5
1D4
330
1F
100
AcDbEntity
  8
0
  6
CONTINUOUS
 62
     7
100
AcDbCircle
 10
195.0285244685288
 20
307.3733233333335
 30
0.0
 40
2.249999999999974
210
0.0
220
0.0
230
-1.0
100
AcDbArc
 50
256.1276202131601
 51
283.8723797868397
  0
ARC
  5
1D5
330
1F
100
AcDbEntity
  8
0
  6
CONTINUOUS
 62
     7
100
AcDbCircle
 10
186.7285244685288
 20
291.3733233333335
 30
0.0
 40
2.249999999999974
210
0.0
220
0.0
230
-1.0
100
AcDbArc
 50
166.1276202131602
 51
193.8723797868387
  0
ARC
  5
1D6
330
1F
100
AcDbEntity
  8
0
  6
CONTINUOUS
 62
     7
100
AcDbCircle
 10
195.0285244685288
 20
276.8733233333336
 30
0.0
 40
3.750000000000031
210
0.0
220
0.0
230
-1.0
100
AcDbArc
 50
0.0
 51
180.0
  0
ARC
  5
1D7
330
1F
100
AcDbEntity
  8
0
  6
CONTINUOUS
 62
     7
100
AcDbCircle
 10
195.0285244685288
 20
307.3733233333335
 30
0.0
 40
2.249999999999974
210
0.0
220
0.0
230
-1.0
100
AcDbArc
 50
166.12762021316
 51
193.8723797868396
  0
ARC
  5
1D8
330
1F
100
AcDbEntity
  8
0
  6
CONTINUOUS
 62
     7
100
AcDbCircle
 10
-478.7285244685288
 20
291.3733233333335
 30
0.0
 40
2.25000000000003
100
AcDbArc
 50
193.8723797868394
 51
256.1276202131601
  0
ARC
  5
1D9
330
1F
100
AcDbEntity
  8
0
  6
CONTINUOUS
 62
     7
100
AcDbCircle
 10
-478.7285244685288
 20
291.3733233333335
 30
0.0
 40
2.249999999999974
100
AcDbArc
 50
256.1276202131601
 51
283.8723797868398
  0
ARC
  5
1DA
330
1F
100
AcDbEntity
  8
0
  6
CONTINUOUS
 62
     7
100
AcDbCircle
 10
-203.4285244685289
 20
307.3733233333335
 30
0.0
 40
2.249999999999974
100
AcDbArc
 50
193.8723797868389
 51
256.1276202131601
  0
ARC
  5
1DB
330
1F
100
AcDbEntity
  8
0
  6
CONTINUOUS
 62
     7
100
AcDbCircle
 10
-203.4285244685289
 20
276.8733233333336
 30
0.0
 40
2.249999999999974
100
AcDbArc
 50
0.0000000000000442
 51
13.87237978683882
  0
ARC
  5
1DC
330
1F
100
AcDbEntity
  8
0
  6
CONTINUOUS
 62
     7
100
AcDbCircle
 10
-478.7285244685288
 20
263.8733233333335
 30
0.0
 40
2.25000000000003
100
AcDbArc
 50
193.8723797868391
 51
256.1276202131601
  0
ARC
  5
1DD
330
1F
100
AcDbEntity
  8
0
  6
CONTINUOUS
 62
     7
100
AcDbCircle
 10
-478.7285244685288
 20
263.873323333333
 30
0.0
 40
2.25000000000003
100
AcDbArc
 50
166.1276202131606
 51
193.8723797868388
  0
ARC
  5
1DE
330
1F
100
AcDbEntity
  8
0
  6
CONTINUOUS
 62
     7
100
AcDbCircle
 10
-299.3785244685288
 20
275.3733233333335
 30
0.0
 40
2.249999999999974
100
AcDbArc
 50
283.8723797868399
 51
346.1276202131605
  0
ARC
  5
1DF
330
1F
100
AcDbEntity
  8
0
  6
CONTINUOUS
 62
     7
100
AcDbCircle
 10
-478.7285244685288
 20
263.8733233333335
 30
0.0
 40
2.249999999999919
100
AcDbArc
 50
13.87237978684016
 51
76.12762021316155
  0
CIRCLE
  5
1E0
330
1F
100
AcDbEntity
  8
0
  6
CONTINUOUS
 62
     7
100
AcDbCircle
 10
478.7285244685288
 20
318.8733233333336
 30
0.0
 40
3.750000000000031
210
0.0
220
0.0
230
-1.0
  0
ARC
  5
1E1
330
1F
100
AcDbEntity
  8
0
  6
CONTINUOUS
 62
     7
100
AcDbCircle
 10
195.0285244685288
 20
307.3733233333335
 30
0.0
 40
2.249999999999974
210
0.0
220
0.0
230
-1.0
100
AcDbArc
 50
346.12762021316
 51
13.87237978683942
  0
ARC
  5
1E2
330
1F
100
AcDbEntity
  8
0
  6
CONTINUOUS
 62
     7
100
AcDbCircle
 10
195.0285244685288
 20
307.3733233333335
 30
0.0
 40
2.249999999999974
210
0.0
220
0.0
230
-1.0
100
AcDbArc
 50
76.12762021316011
 51
103.8723797868398
  0
ARC
  5
1E3
330
1F
100
AcDbEntity
  8
0
  6
CONTINUOUS
 62
     7
100
AcDbCircle
 10
-478.7285244685288
 20
291.3733233333335
 30
0.0
 40
2.25000000000003
100
AcDbArc
 50
13.87237978684016
 51
76.12762021316155
  0
ARC
  5
1E4
330
1F
100
AcDbEntity
  8
0
  6
CONTINUOUS
 62
     7
100
AcDbCircle
 10
-299.3785244685288
 20
275.3733233333335
 30
0.0
 40
2.249999999999974
100
AcDbArc
 50
103.8723797868384
 51
166.1276202131605
  0
LINE
  5
1E5
330
1F
100
AcDbEntity
  8
0
  6
CONTINUOUS
 62
   253
100
AcDbLine
 10
-161.6803688828678
 20
273.7306526288669
 30
0.0
 11
-161.6766800541898
 21
273.7306526288669
 31
0.0
  0
ARC
  5
1E6
330
1F
100
AcDbEntity
  8
0
  6
CONTINUOUS
 62
     7
100
AcDbCircle
 10
186.7285244685288
 20
291.3733233333335
 30
0.0
 40
2.249999999999974
210
0.0
220
0.0
230
-1.0
100
AcDbArc
 50
76.12762021316011
 51
103.8723797868392
  0
ARC
  5
1E7
330
1F
100
AcDbEntity
  8
0
  6
CONTINUOUS
 62
     7
100
AcDbCircle
 10
203.4285244685289
 20
273.8733233333335
 30
0.0
 40
3.74999999999992
210
0.0
220
0.0
230
-1.0
100
AcDbArc
 50
180.0
 51
0.0
  0
LINE
  5
1E8
330
1F
100
AcDbEntity
  8
0
  6
CONTINUOUS
 62
     7
100
AcDbLine
 10
-130.5785244685288
 20
308.8733233333336
 30
0.0
 11
-130.5785244685288
 21
308.2959730641437
 31
0.0
  0
LINE
  5
1E9
330
1F
100
AcDbEntity
  8
0
  6
CONTINUOUS
 62
     7
100
AcDbLine
 10
-130.5785244685288
 20
308.2959730641436
 30
0.0
 11
-130.6168010434923
 21
308.2296760915664
 31
0.0
  0
LINE
  5
1EA
330
1F
100
AcDbEntity
  8
0
  6
CONTINUOUS
 62
     7
100
AcDbLine
 10
-128.8679846202754
 20
303.6889509418491
 30
0.0
 11
-128.9019120868228
 21
303.65804991393
 31
0.0
  0
ARC
  5
1EB
330
1F
100
AcDbEntity
  8
0
  6
CONTINUOUS
 62
     7
100
AcDbCircle
 10
128.3285244685288
 20
308.8733233333336
 30
0.0
 40
2.249999999999974
210
0.0
220
0.0
230
-1.0
100
AcDbArc
 50
76.12762021316003
 51
103.8723797868393
  0
ARC
  5
1EC
330
1F
100
AcDbEntity
  8
0
  6
CONTINUOUS
 62
     7
100
AcDbCircle
 10
-136.6285244685288
 20
318.8733233333336
 30
0.0
 40
2.249999999999863
100
AcDbArc
 50
13.87237978683997
 51
76.1276202131608
  0
ARC
  5
1ED
330
1F
100
AcDbEntity
  8
0
  6
CONTINUOUS
 62
     7
100
AcDbCircle
 10
-128.3285244685288
 20
308.8733233333336
 30
0.0
 40
2.288276574963777
100
AcDbArc
 50
104.5116105564679
 51
164.8567987764013
  0
LINE
  5
1EE
330
1F
100
AcDbEntity
  8
0
  6
CONTINUOUS
 62
     7
100
AcDbLine
 10
-127.7890643167824
 20
311.0576957248174
 30
0.0
 11
-127.7551368502344
 21
311.0885967527365
 31
0.0
  0
LINE
  5
1EF
330
1F
100
AcDbEntity
  8
0
  6
CONTINUOUS
 62
     7
100
AcDbLine
 10
-122.1785244685288
 20
306.4506736025228
 30
0.0
 11
-122.2168010434929
 21
306.5169705751001
 31
0.0
  0
ARC
  5
1F0
330
1F
100
AcDbEntity
  8
0
  6
CONTINUOUS
 62
     7
100
AcDbCircle
 10
-128.3285244685288
 20
305.8733233333331
 30
0.0
 40
2.288276574963777
100
AcDbArc
 50
195.1432012235972
 51
255.48838944353
  0
LINE
  5
1F1
330
1F
100
AcDbEntity
  8
0
  6
CONTINUOUS
 62
     7
100
AcDbLine
 10
-128.8679846202754
 20
311.0576957248174
 30
0.0
 11
-128.9019120868228
 21
311.0885967527366
 31
0.0
  0
ARC
  5
1F2
330
1F
100
AcDbEntity
  8
0
  6
CONTINUOUS
 62
     7
100
AcDbCircle
 10
136.6285244685288
 20
318.8733233333336
 30
0.0
 40
2.249999999999974
210
0.0
220
0.0
230
-1.0
100
AcDbArc
 50
346.12762021316
 51
13.87237978683902
  0
ARC
  5
1F3
330
1F
100
AcDbEntity
  8
0
  6
CONTINUOUS
 62
     7
100
AcDbCircle
 10
-136.6285244685288
 20
318.8733233333336
 30
0.0
 40
2.249999999999863
100
AcDbArc
 50
283.87237978684
 51
346.1276202131607
  0
LINE
  5
1F4
330
1F
100
AcDbEntity
  8
0
  6
CONTINUOUS
 62
     7
100
AcDbLine
 10
-130.6168010434924
 20
308.2296760915664
 30
0.0
 11
-130.6168010434924
 21
306.5169705751001
 31
0.0
  0
ARC
  5
1F5
330
1F
100
AcDbEntity
  8
0
  6
CONTINUOUS
 62
     7
100
AcDbCircle
 10
-128.3285244685288
 20
308.8733233333336
 30
0.0
 40
2.249999999999974
100
AcDbArc
 50
0.0
 51
13.87237978683833
  0
LINE
  5
1F6
330
1F
100
AcDbEntity
  8
0
  6
CONTINUOUS
 62
     7
100
AcDbLine
 10
-126.1441520770449
 20
309.4127834850795
 30
0.0
 11
-126.1197061578254
 21
309.4710953248394
 31
0.0
  0
LINE
  5
1F7
330
1F
100
AcDbEntity
  8
0
  6
CONTINUOUS
 62
   253
100
AcDbLine
 10
-119.9285244685284
 20
312.676757525319
 30
0.0
 11
-128.3285244685289
 21
312.676757525319
 31
0.0
  0
LINE
  5
1F8
330
1F
100
AcDbEntity
  8
0
  6
CONTINUOUS
 62
     7
100
AcDbLine
 10
-127.7890643167824
 20
303.6889509418491
 30
0.0
 11
-127.7551368502349
 21
303.65804991393
 31
0.0
  0
LINE
  5
1F9
330
1F
100
AcDbEntity
  8
0
  6
CONTINUOUS
 62
     7
100
AcDbLine
 10
-126.1441520770449
 20
305.3338631815864
 30
0.0
 11
-126.1197061578254
 21
305.2755513418264
 31
0.0
  0
ARC
  5
1FA
330
1F
100
AcDbEntity
  8
0
  6
CONTINUOUS
 62
     7
100
AcDbCircle
 10
-128.3285244685288
 20
308.8733233333336
 30
0.0
 40
2.249999999999863
100
AcDbArc
 50
166.12762021316
 51
179.9999999999987
  0
LINE
  5
1FB
330
1F
100
AcDbEntity
  8
0
  6
CONTINUOUS
 62
     7
100
AcDbLine
 10
-130.5785244685288
 20
306.4506736025228
 30
0.0
 11
-130.6168010434923
 21
306.5169705751001
 31
0.0
  0
ARC
  5
1FC
330
1F
100
AcDbEntity
  8
0
  6
CONTINUOUS
 62
     7
100
AcDbCircle
 10
-128.3285244685288
 20
308.8733233333336
 30
0.0
 40
2.288276574963888
100
AcDbArc
 50
15.14320122359677
 51
75.48838944353062
  0
ARC
  5
1FD
330
1F
100
AcDbEntity
  8
0
  6
CONTINUOUS
 62
     7
100
AcDbCircle
 10
-128.3285244685288
 20
305.8733233333331
 30
0.0
 40
2.249999999999974
100
AcDbArc
 50
180.0
 51
193.8723797868385
  0
ARC
  5
1FE
330
1F
100
AcDbEntity
  8
0
  6
CONTINUOUS
 62
     7
100
AcDbCircle
 10
136.6285244685288
 20
318.8733233333336
 30
0.0
 40
2.249999999999974
210
0.0
220
0.0
230
-1.0
100
AcDbArc
 50
166.12762021316
 51
193.8723797868391
  0
ARC
  5
1FF
330
1F
100
AcDbEntity
  8
0
  6
CONTINUOUS
 62
     7
100
AcDbCircle
 10
-186.7285244685288
 20
318.8733233333336
 30
0.0
 40
2.249999999999974
100
AcDbArc
 50
13.87237978683945
 51
76.1276202131608
  0
ARC
  5
200
330
1F
100
AcDbEntity
  8
0
  6
CONTINUOUS
 62
     7
100
AcDbCircle
 10
-186.7285244685288
 20
318.8733233333336
 30
0.0
 40
2.249999999999974
100
AcDbArc
 50
193.87237978684
 51
256.1276202131608
  0
ARC
  5
201
330
1F
100
AcDbEntity
  8
0
  6
CONTINUOUS
 62
     7
100
AcDbCircle
 10
-299.3785244685288
 20
275.3733233333335
 30
0.0
 40
2.250000000000085
100
AcDbArc
 50
0.0
 51
13.87237978683945
  0
LINE
  5
202
330
1F
100
AcDbEntity
  8
0
  6
CONTINUOUS
 62
     7
100
AcDbLine
 10
-192.8441520770449
 20
277.41278348508
 30
0.0
 11
-192.8197061578254
 21
277.4710953248401
 31
0.0
  0
ARC
  5
203
330
1F
100
AcDbEntity
  8
0
  6
CONTINUOUS
 62
     7
100
AcDbCircle
 10
-195.0285244685288
 20
276.8733233333336
 30
0.0
 40
2.249999999999974
100
AcDbArc
 50
0.0000000000001325
 51
13.87237978683865
  0
ARC
  5
204
330
1F
100
AcDbEntity
  8
0
  6
CONTINUOUS
 62
     7
100
AcDbCircle
 10
-186.7285244685288
 20
318.8733233333336
 30
0.0
 40
2.249999999999974
100
AcDbArc
 50
76.12762021316016
 51
103.8723797868391
  0
ARC
  5
205
330
1F
100
AcDbEntity
  8
0
  6
CONTINUOUS
 62
     7
100
AcDbCircle
 10
195.0285244685288
 20
273.8733233333335
 30
0.0
 40
3.750000000000031
210
0.0
220
0.0
230
-1.0
100
AcDbArc
 50
180.0
 51
359.9999999999998
  0
ARC
  5
206
330
1F
100
AcDbEntity
  8
0
  6
CONTINUOUS
 62
     7
100
AcDbCircle
 10
-290.9785244685289
 20
275.3733233333335
 30
0.0
 40
2.249999999999974
100
AcDbArc
 50
76.12762021316011
 51
103.8723797868399
  0
ARC
  5
207
330
1F
100
AcDbEntity
  8
0
  6
CONTINUOUS
 62
     7
100
AcDbCircle
 10
-290.9785244685289
 20
275.3733233333335
 30
0.0
 40
2.249999999999974
100
AcDbArc
 50
103.8723797868399
 51
166.1276202131612
  0
ARC
  5
208
330
1F
100
AcDbEntity
  8
0
  6
CONTINUOUS
 62
     7
100
AcDbCircle
 10
-195.0285244685288
 20
273.8733233333335
 30
0.0
 40
2.249999999999974
100
AcDbArc
 50
180.0000000000001
 51
193.8723797868384
  0
ARC
  5
209
330
1F
100
AcDbEntity
  8
0
  6
CONTINUOUS
 62
     7
100
AcDbCircle
 10
-195.0285244685288
 20
273.8733233333335
 30
0.0
 40
2.288276574963777
100
AcDbArc
 50
284.5116105564681
 51
344.8567987764014
  0
ARC
  5
20A
330
1F
100
AcDbEntity
  8
0
  6
CONTINUOUS
 62
     7
100
AcDbCircle
 10
-478.7285244685288
 20
318.8733233333336
 30
0.0
 40
2.250000000000141
100
AcDbArc
 50
103.8723797868399
 51
166.127620213161
  0
LINE
  5
20B
330
1F
100
AcDbEntity
  8
0
  6
CONTINUOUS
 62
     7
100
AcDbLine
 10
-201.1785244685289
 20
276.2959730641441
 30
0.0
 11
-201.1402478935649
 21
276.2296760915667
 31
0.0
  0
ARC
  5
20C
330
1F
100
AcDbEntity
  8
0
  6
CONTINUOUS
 62
     7
100
AcDbCircle
 10
-478.7285244685288
 20
318.8733233333336
 30
0.0
 40
2.25000000000003
100
AcDbArc
 50
193.8723797868394
 51
256.1276202131601
  0
ARC
  5
20D
330
1F
100
AcDbEntity
  8
0
  6
CONTINUOUS
 62
     7
100
AcDbCircle
 10
-195.0285244685288
 20
276.8733233333336
 30
0.0
 40
2.288276574963777
100
AcDbArc
 50
15.14320122359845
 51
75.48838944353126
  0
LINE
  5
20E
330
1F
100
AcDbEntity
  8
0
  6
CONTINUOUS
 62
     7
100
AcDbLine
 10
-205.6785244685288
 20
276.2959730641434
 30
0.0
 11
-205.7168010434929
 21
276.2296760915665
 31
0.0
  0
LINE
  5
20F
330
1F
100
AcDbEntity
  8
0
  6
CONTINUOUS
 62
     7
100
AcDbLine
 10
-202.8890643167824
 20
279.0576957248176
 30
0.0
 11
-202.8551368502349
 21
279.0885967527366
 31
0.0
  0
ARC
  5
210
330
1F
100
AcDbEntity
  8
0
  6
CONTINUOUS
 62
     7
100
AcDbCircle
 10
-290.9785244685289
 20
275.3733233333335
 30
0.0
 40
2.25000000000003
100
AcDbArc
 50
346.1276202131606
 51
0.0
  0
ARC
  5
211
330
1F
100
AcDbEntity
  8
0
  6
CONTINUOUS
 62
     7
100
AcDbCircle
 10
-203.4285244685289
 20
273.8733233333335
 30
0.0
 40
2.249999999999974
100
AcDbArc
 50
180.0
 51
193.8723797868384
  0
ARC
  5
212
330
1F
100
AcDbEntity
  8
0
  6
CONTINUOUS
 62
     7
100
AcDbCircle
 10
-195.0285244685288
 20
307.3733233333335
 30
0.0
 40
2.249999999999974
100
AcDbArc
 50
103.8723797868392
 51
166.1276202131595
  0
LINE
  5
213
330
1F
100
AcDbEntity
  8
0
  6
CONTINUOUS
 62
     7
100
AcDbLine
 10
-197.2128968600128
 20
277.41278348508
 30
0.0
 11
-197.2373427792323
 21
277.47109532484
 31
0.0
  0
ARC
  5
214
330
1F
100
AcDbEntity
  8
0
  6
CONTINUOUS
 62
     7
100
AcDbCircle
 10
-186.7285244685288
 20
263.873323333333
 30
0.0
 40
2.249999999999974
100
AcDbArc
 50
103.8723797868392
 51
166.12762021316
  0
LINE
  5
215
330
1F
100
AcDbEntity
  8
0
  6
CONTINUOUS
 62
     7
100
AcDbLine
 10
-203.9679846202753
 20
271.6889509418495
 30
0.0
 11
-204.0019120868228
 21
271.65804991393
 31
0.0
  0
ARC
  5
216
330
1F
100
AcDbEntity
  8
0
  6
CONTINUOUS
 62
     7
100
AcDbCircle
 10
-186.7285244685288
 20
318.8733233333336
 30
0.0
 40
2.249999999999974
100
AcDbArc
 50
283.8723797868398
 51
346.1276202131607
  0
LINE
  5
217
330
1F
100
AcDbEntity
  8
0
  6
CONTINUOUS
 62
     7
100
AcDbLine
 10
-205.6785244685288
 20
274.4506736025231
 30
0.0
 11
-205.7168010434929
 21
274.5169705750999
 31
0.0
  0
LINE
  5
218
330
1F
100
AcDbEntity
  8
0
  6
CONTINUOUS
 62
     7
100
AcDbLine
 10
-205.6785244685288
 20
276.8733233333336
 30
0.0
 11
-205.6785244685288
 21
276.2959730641434
 31
0.0
  0
ARC
  5
219
330
1F
100
AcDbEntity
  8
0
  6
CONTINUOUS
 62
     7
100
AcDbCircle
 10
203.4285244685289
 20
276.8733233333336
 30
0.0
 40
3.74999999999992
210
0.0
220
0.0
230
-1.0
100
AcDbArc
 50
0.0
 51
180.0
  0
ARC
  5
21A
330
1F
100
AcDbEntity
  8
0
  6
CONTINUOUS
 62
     7
100
AcDbCircle
 10
-290.9785244685289
 20
275.3733233333335
 30
0.0
 40
2.249999999999974
100
AcDbArc
 50
283.8723797868399
 51
346.1276202131605
  0
LINE
  5
21B
330
1F
100
AcDbEntity
  8
0
  6
CONTINUOUS
 62
     7
100
AcDbLine
 10
-194.4890643167822
 20
271.6889509418495
 30
0.0
 11
-194.4551368502348
 21
271.65804991393
 31
0.0
  0
LINE
  5
21C
330
1F
100
AcDbEntity
  8
0
  6
CONTINUOUS
 62
     7
100
AcDbLine
 10
-192.7785244685288
 20
274.4506736025231
 30
0.0
 11
-192.7402478935648
 21
274.5169705750999
 31
0.0
  0
ARC
  5
21D
330
1F
100
AcDbEntity
  8
0
  6
CONTINUOUS
 62
     7
100
AcDbCircle
 10
-195.0285244685288
 20
307.3733233333335
 30
0.0
 40
2.249999999999974
100
AcDbArc
 50
13.87237978683926
 51
76.12762021315952
  0
LINE
  5
21E
330
1F
100
AcDbEntity
  8
0
  6
CONTINUOUS
 62
     7
100
AcDbLine
 10
-197.2128968600128
 20
273.3338631815866
 30
0.0
 11
-197.2373427792323
 21
273.2755513418266
 31
0.0
  0
ARC
  5
21F
330
1F
100
AcDbEntity
  8
0
  6
CONTINUOUS
 62
     7
100
AcDbCircle
 10
195.0285244685288
 20
273.8733233333335
 30
0.0
 40
2.249999999999974
210
0.0
220
0.0
230
-1.0
100
AcDbArc
 50
256.1276202131599
 51
283.8723797868391
  0
ARC
  5
220
330
1F
100
AcDbEntity
  8
0
  6
CONTINUOUS
 62
     7
100
AcDbCircle
 10
-186.7285244685288
 20
318.8733233333336
 30
0.0
 40
2.249999999999974
100
AcDbArc
 50
346.1276202131603
 51
13.87237978683913
  0
ARC
  5
221
330
1F
100
AcDbEntity
  8
0
  6
CONTINUOUS
 62
     7
100
AcDbCircle
 10
-290.9785244685289
 20
275.3733233333335
 30
0.0
 40
2.249999999999974
100
AcDbArc
 50
256.1276202131601
 51
283.8723797868399
  0
ARC
  5
222
330
1F
100
AcDbEntity
  8
0
  6
CONTINUOUS
 62
     7
100
AcDbCircle
 10
-478.7285244685288
 20
291.3733233333335
 30
0.0
 40
2.250000000000141
100
AcDbArc
 50
103.8723797868398
 51
166.1276202131612
  0
ARC
  5
223
330
1F
100
AcDbEntity
  8
0
  6
CONTINUOUS
 62
     7
100
AcDbCircle
 10
-290.9785244685289
 20
275.3733233333335
 30
0.0
 40
2.25000000000003
100
AcDbArc
 50
13.87237978683945
 51
76.12762021316009
  0
ARC
  5
224
330
1F
100
AcDbEntity
  8
0
  6
CONTINUOUS
 62
     7
100
AcDbCircle
 10
203.4285244685289
 20
273.8733233333335
 30
0.0
 40
2.249999999999974
210
0.0
220
0.0
230
-1.0
100
AcDbArc
 50
256.1276202131601
 51
283.8723797868392
  0
LINE
  5
225
330
1F
100
AcDbEntity
  8
0
  6
CONTINUOUS
 62
     7
100
AcDbLine
 10
-202.8890643167824
 20
271.6889509418495
 30
0.0
 11
-202.8551368502349
 21
271.65804991393
 31
0.0
  0
ARC
  5
226
330
1F
100
AcDbEntity
  8
0
  6
CONTINUOUS
 62
     7
100
AcDbCircle
 10
-203.4285244685289
 20
273.8733233333335
 30
0.0
 40
2.288276574963888
100
AcDbArc
 50
195.1432012235975
 51
255.4883894435327
  0
ARC
  5
227
330
1F
100
AcDbEntity
  8
0
  6
CONTINUOUS
 62
     7
100
AcDbCircle
 10
478.7285244685289
 20
318.8733233333336
 30
0.0
 40
2.249999999999974
210
0.0
220
0.0
230
-1.0
100
AcDbArc
 50
166.1276202131602
 51
193.8723797868392
  0
ARC
  5
228
330
1F
100
AcDbEntity
  8
0
  6
CONTINUOUS
 62
     7
100
AcDbCircle
 10
-195.0285244685288
 20
276.8733233333336
 30
0.0
 40
2.249999999999974
100
AcDbArc
 50
76.12762021316011
 51
103.8723797868394
  0
LINE
  5
229
330
1F
100
AcDbEntity
  8
0
  6
CONTINUOUS
 62
     7
100
AcDbLine
 10
-195.5679846202754
 20
279.0576957248176
 30
0.0
 11
-195.6019120868228
 21
279.0885967527366
 31
0.0
  0
ARC
  5
22A
330
1F
100
AcDbEntity
  8
0
  6
CONTINUOUS
 62
     7
100
AcDbCircle
 10
-186.7285244685288
 20
318.8733233333336
 30
0.0
 40
2.249999999999974
100
AcDbArc
 50
166.12762021316
 51
193.8723797868391
  0
ARC
  5
22B
330
1F
100
AcDbEntity
  8
0
  6
CONTINUOUS
 62
     7
100
AcDbCircle
 10
-478.7285244685288
 20
318.8733233333336
 30
0.0
 40
2.249999999999919
100
AcDbArc
 50
283.8723797868386
 51
346.1276202131598
  0
LINE
  5
22C
330
1F
100
AcDbEntity
  8
0
  6
CONTINUOUS
 62
     7
100
AcDbLine
 10
-201.1402478935649
 20
274.5169705751001
 30
0.0
 11
-201.1402478935649
 21
276.2296760915667
 31
0.0
  0
ARC
  5
22D
330
1F
100
AcDbEntity
  8
0
  6
CONTINUOUS
 62
     7
100
AcDbCircle
 10
-290.9785244685289
 20
275.3733233333335
 30
0.0
 40
2.25000000000003
100
AcDbArc
 50
0.0
 51
13.87237978683945
  0
ARC
  5
22E
330
1F
100
AcDbEntity
  8
0
  6
CONTINUOUS
 62
     7
100
AcDbCircle
 10
478.7285244685288
 20
318.8733233333336
 30
0.0
 40
2.250000000000141
210
0.0
220
0.0
230
-1.0
100
AcDbArc
 50
76.12762021316011
 51
103.8723797868399
  0
ARC
  5
22F
330
1F
100
AcDbEntity
  8
0
  6
CONTINUOUS
 62
     7
100
AcDbCircle
 10
-299.3785244685288
 20
275.3733233333335
 30
0.0
 40
2.249999999999974
100
AcDbArc
 50
76.12762021316011
 51
103.8723797868384
  0
ARC
  5
230
330
1F
100
AcDbEntity
  8
0
  6
CONTINUOUS
 62
     7
100
AcDbCircle
 10
-186.7285244685288
 20
318.8733233333336
 30
0.0
 40
2.249999999999974
100
AcDbArc
 50
103.8723797868398
 51
166.1276202131605
  0
ARC
  5
231
330
1F
100
AcDbEntity
  8
0
  6
CONTINUOUS
 62
     7
100
AcDbCircle
 10
-290.9785244685289
 20
275.3733233333335
 30
0.0
 40
2.249999999999974
100
AcDbArc
 50
193.8723797868394
 51
256.1276202131601
  0
ARC
  5
232
330
1F
100
AcDbEntity
  8
0
  6
CONTINUOUS
 62
     7
100
AcDbCircle
 10
-290.9785244685289
 20
275.3733233333335
 30
0.0
 40
2.249999999999974
100
AcDbArc
 50
166.1276202131612
 51
193.8723797868394
  0
LINE
  5
233
330
1F
100
AcDbEntity
  8
0
  6
CONTINUOUS
 62
     7
100
AcDbLine
 10
-201.1785244685289
 20
274.4506736025231
 30
0.0
 11
-201.1402478935649
 21
274.5169705750999
 31
0.0
  0
ARC
  5
234
330
1F
100
AcDbEntity
  8
0
  6
CONTINUOUS
 62
     7
100
AcDbCircle
 10
-203.4285244685289
 20
276.8733233333336
 30
0.0
 40
2.249999999999974
100
AcDbArc
 50
76.12762021316011
 51
103.8723797868392
  0
ARC
  5
235
330
1F
100
AcDbEntity
  8
0
  6
CONTINUOUS
 62
     7
100
AcDbCircle
 10
-299.3785244685288
 20
275.3733233333335
 30
0.0
 40
2.249999999999974
100
AcDbArc
 50
346.1276202131606
 51
0.0
  0
LINE
  5
236
330
1F
100
AcDbEntity
  8
0
  6
CONTINUOUS
 62
     7
100
AcDbLine
 10
-194.4890643167822
 20
279.0576957248176
 30
0.0
 11
-194.4551368502343
 21
279.0885967527366
 31
0.0
  0
ARC
  5
237
330
1F
100
AcDbEntity
  8
0
  6
CONTINUOUS
 62
     7
100
AcDbCircle
 10
-195.0285244685288
 20
276.8733233333336
 30
0.0
 40
2.288276574963777
100
AcDbArc
 50
104.5116105564674
 51
164.8567987764013
  0
ARC
  5
238
330
1F
100
AcDbEntity
  8
0
  6
CONTINUOUS
 62
     7
100
AcDbCircle
 10
-195.0285244685288
 20
276.8733233333336
 30
0.0
 40
2.249999999999974
100
AcDbArc
 50
166.1276202131613
 51
180.0000000000001
  0
ARC
  5
239
330
1F
100
AcDbEntity
  8
0
  6
CONTINUOUS
 62
     7
100
AcDbCircle
 10
-186.7285244685288
 20
318.8733233333336
 30
0.0
 40
2.249999999999974
100
AcDbArc
 50
256.1276202131601
 51
283.8723797868391
  0
ARC
  5
23A
330
1F
100
AcDbEntity
  8
0
  6
CONTINUOUS
 62
     7
100
AcDbCircle
 10
-478.7285244685288
 20
318.8733233333336
 30
0.0
 40
2.249999999999919
100
AcDbArc
 50
13.87237978683945
 51
76.12762021316009
  0
ARC
  5
23B
330
1F
100
AcDbEntity
  8
0
  6
CONTINUOUS
 62
     7
100
AcDbCircle
 10
478.7285244685289
 20
318.8733233333336
 30
0.0
 40
2.249999999999974
210
0.0
220
0.0
230
-1.0
100
AcDbArc
 50
256.1276202131601
 51
283.8723797868384
  0
LINE
  5
23C
330
1F
100
AcDbEntity
  8
0
  6
CONTINUOUS
 62
     7
100
AcDbLine
 10
-201.1785244685289
 20
273.8733233333335
 30
0.0
 11
-201.1785244685289
 21
274.4506736025231
 31
0.0
  0
LINE
  5
23D
330
1F
100
AcDbEntity
  8
0
  6
CONTINUOUS
 62
     7
100
AcDbLine
 10
-201.1785244685289
 20
276.8733233333336
 30
0.0
 11
-201.1785244685289
 21
276.295973064144
 31
0.0
  0
ARC
  5
23E
330
1F
100
AcDbEntity
  8
0
  6
CONTINUOUS
 62
     7
100
AcDbCircle
 10
478.7285244685288
 20
318.8733233333336
 30
0.0
 40
2.250000000000085
210
0.0
220
0.0
230
-1.0
100
AcDbArc
 50
346.1276202131601
 51
13.87237978683868
  0
LINE
  5
23F
330
1F
100
AcDbEntity
  8
0
  6
CONTINUOUS
 62
     7
100
AcDbLine
 10
-401.6457309993984
 20
319.9716358621906
 30
0.0
 11
-401.1302119396717
 21
319.4561166209049
 31
0.0
  0
ARC
  5
240
330
1F
100
AcDbEntity
  8
0
  6
CONTINUOUS
 62
     7
100
AcDbCircle
 10
186.7285244685288
 20
263.873323333333
 30
0.0
 40
2.249999999999974
210
0.0
220
0.0
230
-1.0
100
AcDbArc
 50
346.1276202131601
 51
13.87237978683919
  0
ARC
  5
241
330
1F
100
AcDbEntity
  8
0
  6
CONTINUOUS
 62
     7
100
AcDbCircle
 10
186.7285244685288
 20
263.873323333333
 30
0.0
 40
2.249999999999974
210
0.0
220
0.0
230
-1.0
100
AcDbArc
 50
166.12762021316
 51
193.8723797868391
  0
ARC
  5
242
330
1F
100
AcDbEntity
  8
0
  6
CONTINUOUS
 62
     7
100
AcDbCircle
 10
-186.7285244685288
 20
263.873323333333
 30
0.0
 40
2.249999999999974
100
AcDbArc
 50
13.8723797868396
 51
76.12762021316009
  0
LINE
  5
243
330
1F
100
AcDbEntity
  8
0
  6
CONTINUOUS
 62
     7
100
AcDbLine
 10
-433.8113177560821
 20
319.9716358621906
 30
0.0
 11
-401.6457309993984
 21
319.9716358621906
 31
0.0
  0
LINE
  5
244
330
1F
100
AcDbEntity
  8
0
  6
CONTINUOUS
 62
     7
100
AcDbLine
 10
-192.7785244685288
 20
276.8733233333336
 30
0.0
 11
-192.7785244685288
 21
276.2959730641434
 31
0.0
  0
LINE
  5
245
330
1F
100
AcDbEntity
  8
0
  6
CONTINUOUS
 62
     7
100
AcDbLine
 10
-401.645731004925
 20
262.0244554545295
 30
0.0
 11
-433.8113179376588
 21
262.0244554545295
 31
0.0
  0
ARC
  5
246
330
1F
100
AcDbEntity
  8
0
  6
CONTINUOUS
 62
     7
100
AcDbCircle
 10
186.7285244685288
 20
263.873323333333
 30
0.0
 40
2.249999999999974
210
0.0
220
0.0
230
-1.0
100
AcDbArc
 50
76.12762021316011
 51
103.8723797868392
  0
LINE
  5
247
330
1F
100
AcDbEntity
  8
0
  6
CONTINUOUS
 62
   253
100
AcDbLine
 10
-231.3802119396718
 20
263.2905298642015
 30
0.0
 11
-230.6296565897253
 21
263.2905298642015
 31
0.0
  0
LINE
  5
248
330
1F
100
AcDbEntity
  8
0
  6
CONTINUOUS
 62
     7
100
AcDbLine
 10
-231.8957311809745
 20
262.775010804476
 30
0.0
 11
-275.9613179376593
 21
262.775010804476
 31
0.0
  0
LINE
  5
249
330
1F
100
AcDbEntity
  8
0
  6
CONTINUOUS
 62
   253
100
AcDbLine
 10
-231.8957311809745
 20
262.775010804476
 30
0.0
 11
-231.895731004925
 21
262.0244554545295
 31
0.0
  0
LINE
  5
24A
330
1F
100
AcDbEntity
  8
0
  6
CONTINUOUS
 62
     7
100
AcDbLine
 10
-205.7168010434929
 20
276.2296760915665
 30
0.0
 11
-205.7168010434929
 21
274.5169705750999
 31
0.0
  0
LINE
  5
24B
330
1F
100
AcDbEntity
  8
0
  6
CONTINUOUS
 62
     7
100
AcDbLine
 10
-205.6128968600128
 20
273.3338631815866
 30
0.0
 11
-205.6373427792323
 21
273.2755513418265
 31
0.0
  0
LINE
  5
24C
330
1F
100
AcDbEntity
  8
0
  6
CONTINUOUS
 62
   253
100
AcDbLine
 10
-275.9613179376593
 20
262.775010804476
 30
0.0
 11
-275.9613179376593
 21
262.0244554545295
 31
0.0
  0
ARC
  5
24D
330
1F
100
AcDbEntity
  8
0
  6
CONTINUOUS
 62
     7
100
AcDbCircle
 10
-186.7285244685288
 20
263.873323333333
 30
0.0
 40
2.249999999999974
100
AcDbArc
 50
193.8723797868392
 51
256.1276202131601
  0
LINE
  5
24E
330
1F
100
AcDbEntity
  8
0
  6
CONTINUOUS
 62
     7
100
AcDbLine
 10
-231.3802119396718
 20
263.2905298642015
 30
0.0
 11
-231.8957311809745
 21
262.775010804476
 31
0.0
  0
ARC
  5
24F
330
1F
100
AcDbEntity
  8
0
  6
CONTINUOUS
 62
     7
100
AcDbCircle
 10
-195.0285244685288
 20
273.8733233333335
 30
0.0
 40
2.249999999999974
100
AcDbArc
 50
346.1276202131614
 51
0.0
  0
CIRCLE
  5
250
330
1F
100
AcDbEntity
  8
0
  6
CONTINUOUS
 62
   253
100
AcDbCircle
 10
-417.7285244685289
 20
291.3733233333335
 30
0.0
 40
10.98724977297305
  0
ARC
  5
251
330
1F
100
AcDbEntity
  8
0
  6
CONTINUOUS
 62
     7
100
AcDbCircle
 10
-203.4285244685289
 20
273.8733233333335
 30
0.0
 40
2.250000000000085
100
AcDbArc
 50
346.1276202131614
 51
0.0000000000000568
  0
LINE
  5
252
330
1F
100
AcDbEntity
  8
0
  6
CONTINUOUS
 62
     7
100
AcDbLine
 10
-230.6296565897252
 20
319.456116796937
 30
0.0
 11
-230.6296565897253
 21
263.2905298642015
 31
0.0
  0
LINE
  5
253
330
1F
100
AcDbEntity
  8
0
  6
CONTINUOUS
 62
   253
100
AcDbLine
 10
-434.326836997386
 20
263.2905300457925
 30
0.0
 11
-435.0773923473325
 21
263.2905298697294
 31
0.0
  0
LINE
  5
254
330
1F
100
AcDbEntity
  8
0
  6
CONTINUOUS
 62
     7
100
AcDbLine
 10
-231.8957309993984
 20
319.9716358621906
 30
0.0
 11
-231.3802119396717
 21
319.4561166209111
 31
0.0
  0
LINE
  5
255
330
1F
100
AcDbEntity
  8
0
  6
CONTINUOUS
 62
   253
100
AcDbLine
 10
-434.326836997386
 20
319.4561168024655
 30
0.0
 11
-435.0773923473325
 21
319.4561168024655
 31
0.0
  0
LINE
  5
256
330
1F
100
AcDbEntity
  8
0
  6
CONTINUOUS
 62
     7
100
AcDbLine
 10
-192.7402478935648
 20
274.5169705751001
 30
0.0
 11
-192.7402478935648
 21
276.2296760915667
 31
0.0
  0
ARC
  5
257
330
1F
100
AcDbEntity
  8
0
  6
CONTINUOUS
 62
     7
100
AcDbCircle
 10
-203.4285244685289
 20
273.8733233333335
 30
0.0
 40
2.288276574963888
100
AcDbArc
 50
284.5116105564681
 51
344.8567987764021
  0
LINE
  5
258
330
1F
100
AcDbEntity
  8
0
  6
CONTINUOUS
 62
     7
100
AcDbLine
 10
-192.7785244685288
 20
276.2959730641434
 30
0.0
 11
-192.7402478935648
 21
276.2296760915665
 31
0.0
  0
LINE
  5
259
330
1F
100
AcDbEntity
  8
0
  6
CONTINUOUS
 62
     7
100
AcDbLine
 10
-201.2441520770448
 20
273.3338631815866
 30
0.0
 11
-201.2197061578254
 21
273.2755513418266
 31
0.0
  0
LINE
  5
25A
330
1F
100
AcDbEntity
  8
0
  6
CONTINUOUS
 62
   253
100
AcDbLine
 10
-231.8957309993984
 20
319.9716358621906
 30
0.0
 11
-231.8957309993984
 21
320.722191212137
 31
0.0
  0
LINE
  5
25B
330
1F
100
AcDbEntity
  8
0
  6
CONTINUOUS
 62
     7
100
AcDbLine
 10
-192.7785244685288
 20
273.8733233333335
 30
0.0
 11
-192.7785244685288
 21
274.4506736025231
 31
0.0
  0
LINE
  5
25C
330
1F
100
AcDbEntity
  8
0
  6
CONTINUOUS
 62
     7
100
AcDbLine
 10
-205.6785244685288
 20
273.8733233333335
 30
0.0
 11
-205.6785244685288
 21
274.4506736025231
 31
0.0
  0
ARC
  5
25D
330
1F
100
AcDbEntity
  8
0
  6
CONTINUOUS
 62
     7
100
AcDbCircle
 10
-195.0285244685288
 20
273.8733233333335
 30
0.0
 40
2.288276574963888
100
AcDbArc
 50
195.1432012235981
 51
255.488389443532
  0
CIRCLE
  5
25E
330
1F
100
AcDbEntity
  8
0
  6
CONTINUOUS
 62
     7
100
AcDbCircle
 10
-337.7285244685289
 20
291.3733233333335
 30
0.0
 40
13.63254759356269
  0
LINE
  5
25F
330
1F
100
AcDbEntity
  8
0
  6
CONTINUOUS
 62
     7
100
AcDbLine
 10
-434.326836997386
 20
263.2905300457925
 30
0.0
 11
-434.326836997386
 21
319.4561168024655
 31
0.0
  0
LINE
  5
260
330
1F
100
AcDbEntity
  8
0
  6
CONTINUOUS
 62
     7
100
AcDbLine
 10
-231.3802119396716
 20
319.4561166209111
 30
0.0
 11
-231.3802119396718
 21
263.2905298642015
 31
0.0
  0
LINE
  5
261
330
1F
100
AcDbEntity
  8
0
  6
CONTINUOUS
 62
     7
100
AcDbLine
 10
-276.476836997386
 20
263.2905300457531
 30
0.0
 11
-276.476836997386
 21
319.4561168024646
 31
0.0
  0
ARC
  5
262
330
1F
100
AcDbEntity
  8
0
  6
CONTINUOUS
 62
     7
100
AcDbCircle
 10
186.7285244685288
 20
263.873323333333
 30
0.0
 40
2.249999999999974
210
0.0
220
0.0
230
-1.0
100
AcDbArc
 50
256.1276202131601
 51
283.8723797868391
  0
LINE
  5
263
330
1F
100
AcDbEntity
  8
0
  6
CONTINUOUS
 62
   253
100
AcDbLine
 10
-276.476836997386
 20
263.2905300457531
 30
0.0
 11
-277.2273923473325
 21
263.2905298697294
 31
0.0
  0
LINE
  5
264
330
1F
100
AcDbEntity
  8
0
  6
CONTINUOUS
 62
     7
100
AcDbLine
 10
-435.0773923473325
 20
263.2905298697294
 30
0.0
 11
-435.0773923473325
 21
319.4561168024655
 31
0.0
  0
ARC
  5
265
330
1F
100
AcDbEntity
  8
0
  6
CONTINUOUS
 62
     7
100
AcDbCircle
 10
-186.7285244685288
 20
263.873323333333
 30
0.0
 40
2.249999999999974
100
AcDbArc
 50
283.8723797868392
 51
346.1276202131607
  0
LINE
  5
266
330
1F
100
AcDbEntity
  8
0
  6
CONTINUOUS
 62
     7
100
AcDbLine
 10
-275.9613179376593
 20
262.775010804476
 30
0.0
 11
-276.476836997386
 21
263.2905300457531
 31
0.0
  0
LINE
  5
267
330
1F
100
AcDbEntity
  8
0
  6
CONTINUOUS
 62
     7
100
AcDbLine
 10
-275.9613179321326
 20
320.722191212137
 30
0.0
 11
-231.8957309993984
 21
320.722191212137
 31
0.0
  0
LINE
  5
268
330
1F
100
AcDbEntity
  8
0
  6
CONTINUOUS
 62
     7
100
AcDbLine
 10
-276.476836997386
 20
319.4561168024645
 30
0.0
 11
-275.9613177560819
 21
319.9716358621905
 31
0.0
  0
LINE
  5
269
330
1F
100
AcDbEntity
  8
0
  6
CONTINUOUS
 62
     7
100
AcDbLine
 10
-275.9613177560819
 20
319.9716358621906
 30
0.0
 11
-231.8957309993984
 21
319.9716358621906
 31
0.0
  0
LINE
  5
26A
330
1F
100
AcDbEntity
  8
0
  6
CONTINUOUS
 62
     7
100
AcDbLine
 10
-277.2273923473325
 20
263.2905298697294
 30
0.0
 11
-277.2273923473325
 21
319.4561168024646
 31
0.0
  0
LINE
  5
26B
330
1F
100
AcDbEntity
  8
0
  6
CONTINUOUS
 62
   253
100
AcDbLine
 10
-231.3802119396716
 20
319.4561166209111
 30
0.0
 11
-230.6296565897252
 21
319.456116796937
 31
0.0
  0
LINE
  5
26C
330
1F
100
AcDbEntity
  8
0
  6
CONTINUOUS
 62
     7
100
AcDbLine
 10
-195.5679846202754
 20
271.6889509418495
 30
0.0
 11
-195.6019120868229
 21
271.65804991393
 31
0.0
  0
CIRCLE
  5
26D
330
1F
100
AcDbEntity
  8
0
  6
CONTINUOUS
 62
   253
100
AcDbCircle
 10
-253.9285244685288
 20
291.3733233333335
 30
0.0
 40
10.987249772973
  0
LINE
  5
26E
330
1F
100
AcDbEntity
  8
0
  6
CONTINUOUS
 62
   253
100
AcDbLine
 10
-275.9613177560819
 20
319.9716358621906
 30
0.0
 11
-275.9613179321326
 21
320.722191212137
 31
0.0
  0
LINE
  5
26F
330
1F
100
AcDbEntity
  8
0
  6
CONTINUOUS
 62
   253
100
AcDbLine
 10
-401.1302119396717
 20
319.456116620905
 30
0.0
 11
-400.3796565897253
 21
319.456116796937
 31
0.0
  0
LINE
  5
270
330
1F
100
AcDbEntity
  8
0
  6
CONTINUOUS
 62
     7
100
AcDbLine
 10
180.3658514621197
 20
263.096451944249
 30
0.0
 11
180.4196311171322
 21
263.1233233333334
 31
0.0
  0
LINE
  5
271
330
1F
100
AcDbEntity
  8
0
  6
CONTINUOUS
 62
   253
100
AcDbLine
 10
31.79697807941162
 20
319.800881579142
 30
0.0
 11
31.45221329720665
 21
319.4561167969369
 31
0.0
  0
LINE
  5
272
330
1F
100
AcDbEntity
  8
0
  6
CONTINUOUS
 62
   253
100
AcDbLine
 10
144.6214755314711
 20
290.5426408121979
 30
0.0
 11
118.6214755314712
 21
290.5426408121979
 31
0.0
  0
LINE
  5
273
330
1F
100
AcDbEntity
  8
0
  6
CONTINUOUS
 62
   253
100
AcDbLine
 10
-8.928524468528876
 20
290.5426408121979
 30
0.0
 11
-39.42852446852898
 21
290.5426408121979
 31
0.0
  0
LINE
  5
274
330
1F
100
AcDbEntity
  8
0
  6
CONTINUOUS
 62
     7
100
AcDbLine
 10
-141.3519957544689
 20
245.4299833062385
 30
0.0
 11
-139.9050531825889
 21
245.4299833062385
 31
0.0
  0
ARC
  5
275
330
1F
100
AcDbEntity
  8
0
  6
CONTINUOUS
 62
   253
100
AcDbCircle
 10
-144.6214755314711
 20
291.3733233333335
 30
0.0
 40
0.8306825211352731
210
0.0
220
0.0
230
-1.0
100
AcDbArc
 50
90.00000000000958
 51
270.0
  0
LINE
  5
276
330
1F
100
AcDbEntity
  8
0
  6
CONTINUOUS
 62
   253
100
AcDbLine
 10
-92.95926216645034
 20
263.290529869734
 30
0.0
 11
-92.89113205688234
 21
263.290534354712
 31
0.0
  0
LINE
  5
277
330
1F
100
AcDbEntity
  8
0
  6
CONTINUOUS
 62
   253
100
AcDbLine
 10
70.22147553147107
 20
290.5426408121979
 30
0.0
 11
42.72147553147104
 21
290.5426408121979
 31
0.0
  0
LINE
  5
278
330
1F
100
AcDbEntity
  8
0
  6
CONTINUOUS
 62
     7
100
AcDbLine
 10
-45.96591681586137
 20
263.2905298697294
 30
0.0
 11
-45.96591688017534
 21
319.456112311954
 31
0.0
  0
LINE
  5
279
330
1F
100
AcDbEntity
  8
0
  6
CONTINUOUS
 62
   253
100
AcDbLine
 10
42.7214755314711
 20
292.2040058544684
 30
0.0
 11
70.22147553147111
 21
292.2040058544684
 31
0.0
  0
LINE
  5
27A
330
1F
100
AcDbEntity
  8
0
  6
CONTINUOUS
 62
   253
100
AcDbLine
 10
-91.46131793213286
 20
261.7925855675975
 30
0.0
 11
-91.46131793213286
 21
261.8607156806655
 31
0.0
  0
LINE
  5
27B
330
1F
100
AcDbEntity
  8
0
  6
CONTINUOUS
 62
     7
100
AcDbLine
 10
180.3148155585662
 20
260.649852047393
 30
0.0
 11
180.3148155585662
 21
262.0967946192729
 31
0.0
  0
LINE
  5
27C
330
1F
100
AcDbEntity
  8
0
  6
CONTINUOUS
 62
   253
100
AcDbLine
 10
77.94391728566252
 20
321.2988258812736
 30
0.0
 11
78.28868206786707
 21
320.954061099069
 31
0.0
  0
LINE
  5
27D
330
1F
100
AcDbEntity
  8
0
  6
CONTINUOUS
 62
   253
100
AcDbLine
 10
110.4542689950752
 20
320.954061099069
 30
0.0
 11
110.4542689950752
 21
320.8859309860009
 31
0.0
  0
LINE
  5
27E
330
1F
100
AcDbEntity
  8
0
  6
CONTINUOUS
 62
     7
100
AcDbLine
 10
161.0946041423865
 20
337.367699263982
 30
0.0
 11
160.0949468174111
 21
337.3166633604281
 31
0.0
  0
ARC
  5
27F
330
1F
100
AcDbEntity
  8
0
  6
CONTINUOUS
 62
   253
100
AcDbCircle
 10
99.87852446852885
 20
291.3733233333335
 30
0.0
 40
0.8306825211353841
210
0.0
220
0.0
230
-1.0
100
AcDbArc
 50
90.0
 51
270.0000000000058
  0
LINE
  5
280
330
1F
100
AcDbEntity
  8
0
  6
CONTINUOUS
 62
   253
100
AcDbLine
 10
-47.39573100492933
 20
261.792585635412
 30
0.0
 11
-47.39573548990783
 21
261.8607157449799
 31
0.0
  0
LINE
  5
281
330
1F
100
AcDbEntity
  8
0
  6
CONTINUOUS
 62
     7
100
AcDbLine
 10
-91.46131793213286
 20
261.8607156806655
 30
0.0
 11
-47.39573548990792
 21
261.86071574498
 31
0.0
  0
LINE
  5
282
330
1F
100
AcDbEntity
  8
0
  6
CONTINUOUS
 62
   253
100
AcDbLine
 10
31.4522132972066
 20
263.2905298697294
 30
0.0
 11
31.79697807941156
 21
262.9457650875245
 31
0.0
  0
LINE
  5
283
330
1F
100
AcDbEntity
  8
0
  6
CONTINUOUS
 62
     7
100
AcDbLine
 10
-139.9050531825888
 20
245.4299833062385
 30
0.0
 11
-138.9053958576133
 21
245.3789474026846
 31
0.0
  0
ARC
  5
284
330
1F
100
AcDbEntity
  8
0
  6
CONTINUOUS
 62
   253
100
AcDbCircle
 10
-70.22147553147107
 20
291.3733233333335
 30
0.0
 40
0.8306825211352731
210
0.0
220
0.0
230
-1.0
100
AcDbArc
 50
90.00000000000766
 51
269.9999999999999
  0
LINE
  5
285
330
1F
100
AcDbEntity
  8
0
  6
CONTINUOUS
 62
     7
100
AcDbLine
 10
178.9216868150001
 20
337.4214789189941
 30
0.0
 11
161.121475531471
 21
337.4214789189941
 31
0.0
  0
LINE
  5
286
330
1F
100
AcDbEntity
  8
0
  6
CONTINUOUS
 62
   253
100
AcDbLine
 10
-125.8785244685289
 20
292.2040058544684
 30
0.0
 11
-99.8785244685289
 21
292.2040058544684
 31
0.0
  0
LINE
  5
287
330
1F
100
AcDbEntity
  8
0
  6
CONTINUOUS
 62
   253
100
AcDbLine
 10
110.4542689950752
 20
320.954061099069
 30
0.0
 11
110.7990337772797
 21
321.2988258812736
 31
0.0
  0
LINE
  5
288
330
1F
100
AcDbEntity
  8
0
  6
CONTINUOUS
 62
   253
100
AcDbLine
 10
-39.42852446852896
 20
292.2040058544684
 30
0.0
 11
-8.928524468528847
 21
292.2040058544684
 31
0.0
  0
LINE
  5
289
330
1F
100
AcDbEntity
  8
0
  6
CONTINUOUS
 62
     7
100
AcDbLine
 10
180.3148155585662
 20
262.0967946192729
 30
0.0
 11
180.3658514621197
 21
263.096451944249
 31
0.0
  0
ARC
  5
28A
330
1F
100
AcDbEntity
  8
0
  6
CONTINUOUS
 62
   253
100
AcDbCircle
 10
125.8785244685289
 20
291.3733233333335
 30
0.0
 40
0.8306825211352731
210
0.0
220
0.0
230
-1.0
100
AcDbArc
 50
270.0
 51
89.9999999999904
  0
LINE
  5
28B
330
1F
100
AcDbEntity
  8
0
  6
CONTINUOUS
 62
   253
100
AcDbLine
 10
118.6214755314712
 20
292.2040058544684
 30
0.0
 11
144.6214755314711
 21
292.2040058544684
 31
0.0
  0
LINE
  5
28C
330
1F
100
AcDbEntity
  8
0
  6
CONTINUOUS
 62
   253
100
AcDbLine
 10
-125.8785244685289
 20
290.148823787387
 30
0.0
 11
-125.8785244685289
 21
290.5426408121979
 31
0.0
  0
LINE
  5
28D
330
1F
100
AcDbEntity
  8
0
  6
CONTINUOUS
 62
   253
100
AcDbLine
 10
112.2969780794117
 20
319.800881579142
 30
0.0
 11
111.9522132972066
 21
319.4561167969368
 31
0.0
  0
LINE
  5
28E
330
1F
100
AcDbEntity
  8
0
  6
CONTINUOUS
 62
   253
100
AcDbLine
 10
76.44597298353072
 20
262.9457650875244
 30
0.0
 11
76.7907377657357
 21
263.2905298697294
 31
0.0
  0
LINE
  5
28F
330
1F
100
AcDbEntity
  8
0
  6
CONTINUOUS
 62
     7
100
AcDbLine
 10
-47.39573100492478
 20
320.8859309860009
 30
0.0
 11
-91.46131344714985
 21
320.8859309216866
 31
0.0
  0
LINE
  5
290
330
1F
100
AcDbEntity
  8
0
  6
CONTINUOUS
 62
     7
100
AcDbLine
 10
-142.3516530794444
 20
245.3789474026845
 30
0.0
 11
-141.3519957544689
 21
245.4299833062385
 31
0.0
  0
LINE
  5
291
330
1F
100
AcDbEntity
  8
0
  6
CONTINUOUS
 62
   253
100
AcDbLine
 10
-99.87852446852885
 20
290.5426408121979
 30
0.0
 11
-125.8785244685288
 21
290.5426408121979
 31
0.0
  0
LINE
  5
292
330
1F
100
AcDbEntity
  8
0
  6
CONTINUOUS
 62
   253
100
AcDbLine
 10
-125.8785244685289
 20
292.5978228792795
 30
0.0
 11
-125.8785244685289
 21
292.2040058544684
 31
0.0
  0
ARC
  5
293
330
1F
100
AcDbEntity
  8
0
  6
CONTINUOUS
 62
   253
100
AcDbCircle
 10
39.42852446852896
 20
291.3733233333335
 30
0.0
 40
0.8306825211352731
210
0.0
220
0.0
230
-1.0
100
AcDbArc
 50
269.9999999999966
 51
90.00000000000011
  0
LINE
  5
294
330
1F
100
AcDbEntity
  8
0
  6
CONTINUOUS
 62
     7
100
AcDbLine
 10
-2.709262234264376
 20
319.456116796937
 30
0.0
 11
-2.709262234264376
 21
263.2905298697294
 31
0.0
  0
LINE
  5
295
330
1F
100
AcDbEntity
  8
0
  6
CONTINUOUS
 62
   253
100
AcDbLine
 10
179.4238114877141
 20
247.818931679222
 30
0.0
 11
180.4196311171322
 21
246.8231120498045
 31
0.0
  0
LINE
  5
296
330
1F
100
AcDbEntity
  8
0
  6
CONTINUOUS
 62
     7
100
AcDbLine
 10
-138.8785244685288
 20
245.3251677476724
 30
0.0
 11
178.9216868150002
 21
245.3251677476724
 31
0.0
  0
LINE
  5
297
330
1F
100
AcDbEntity
  8
0
  6
CONTINUOUS
 62
     7
100
AcDbLine
 10
110.4542689950752
 20
320.8859309860009
 30
0.0
 11
78.28868655285018
 21
320.8859309216866
 31
0.0
  0
LINE
  5
298
330
1F
100
AcDbEntity
  8
0
  6
CONTINUOUS
 62
     7
100
AcDbLine
 10
-142.3785244685288
 20
245.3251677476724
 30
0.0
 11
-142.3516530794444
 21
245.3789474026845
 31
0.0
  0
LINE
  5
299
330
1F
100
AcDbEntity
  8
0
  6
CONTINUOUS
 62
     7
100
AcDbLine
 10
157.6483469205556
 20
337.367699263982
 30
0.0
 11
157.6214755314712
 21
337.4214789189941
 31
0.0
  0
LINE
  5
29A
330
1F
100
AcDbEntity
  8
0
  6
CONTINUOUS
 62
   253
100
AcDbLine
 10
110.4542689950707
 20
261.792585635412
 30
0.0
 11
110.4542645100921
 21
261.8607157449799
 31
0.0
  0
LINE
  5
29B
330
1F
100
AcDbEntity
  8
0
  6
CONTINUOUS
 62
     7
100
AcDbLine
 10
158.6480042455312
 20
337.3166633604281
 30
0.0
 11
157.6483469205556
 21
337.367699263982
 31
0.0
  0
LINE
  5
29C
330
1F
100
AcDbEntity
  8
0
  6
CONTINUOUS
 62
     7
100
AcDbLine
 10
180.3658514621197
 20
259.6501947224176
 30
0.0
 11
180.3148155585662
 21
260.649852047393
 31
0.0
  0
LINE
  5
29D
330
1F
100
AcDbEntity
  8
0
  6
CONTINUOUS
 62
   253
100
AcDbLine
 10
-99.87852446852885
 20
290.148823787387
 30
0.0
 11
-99.87852446852885
 21
290.5426408121979
 31
0.0
  0
ARC
  5
29E
330
1F
100
AcDbEntity
  8
0
  6
CONTINUOUS
 62
   253
100
AcDbCircle
 10
-42.7214755314711
 20
291.3733233333335
 30
0.0
 40
0.8306825211352731
210
0.0
220
0.0
230
-1.0
100
AcDbArc
 50
269.9999999999923
 51
90.00000000000006
  0
LINE
  5
29F
330
1F
100
AcDbEntity
  8
0
  6
CONTINUOUS
 62
     7
100
AcDbLine
 10
161.1214755314712
 20
337.4214789189941
 30
0.0
 11
161.0946041423866
 21
337.367699263982
 31
0.0
  0
ARC
  5
2A0
330
1F
100
AcDbEntity
  8
0
  6
CONTINUOUS
 62
   253
100
AcDbCircle
 10
-118.6214755314712
 20
291.3733233333335
 30
0.0
 40
0.8306825211352731
210
0.0
220
0.0
230
-1.0
100
AcDbArc
 50
269.9999999999943
 51
90.00000000000011
  0
LINE
  5
2A1
330
1F
100
AcDbEntity
  8
0
  6
CONTINUOUS
 62
     7
100
AcDbLine
 10
180.4196311171322
 20
259.6233233333336
 30
0.0
 11
180.3658514621197
 21
259.6501947224176
 31
0.0
  0
ARC
  5
2A2
330
1F
100
AcDbEntity
  8
0
  6
CONTINUOUS
 62
   253
100
AcDbCircle
 10
8.928524468528876
 20
291.3733233333335
 30
0.0
 40
0.8306825211352731
210
0.0
220
0.0
230
-1.0
100
AcDbArc
 50
90.0000000000036
 51
269.9999999999999
  0
LINE
  5
2A3
330
1F
100
AcDbEntity
  8
0
  6
CONTINUOUS
 62
   253
100
AcDbLine
 10
78.28868206787209
 20
320.9540610312545
 30
0.0
 11
78.28868655285018
 21
320.8859309216865
 31
0.0
  0
LINE
  5
2A4
330
1F
100
AcDbEntity
  8
0
  6
CONTINUOUS
 62
   253
100
AcDbLine
 10
78.2886820678671
 20
261.7925855675975
 30
0.0
 11
77.94391728566255
 21
261.447820785393
 31
0.0
  0
LINE
  5
2A5
330
1F
100
AcDbEntity
  8
0
  6
CONTINUOUS
 62
   253
100
AcDbLine
 10
-45.89778670279287
 20
263.2905298697294
 30
0.0
 11
-45.9659168158614
 21
263.2905298697294
 31
0.0
  0
LINE
  5
2A6
330
1F
100
AcDbEntity
  8
0
  6
CONTINUOUS
 62
     7
100
AcDbLine
 10
180.4196311171322
 20
263.1233233333334
 30
0.0
 11
180.4196311171322
 21
335.923534616862
 31
0.0
  0
LINE
  5
2A7
330
1F
100
AcDbEntity
  8
0
  6
CONTINUOUS
 62
   253
100
AcDbLine
 10
-99.87852446852885
 20
292.5978228792795
 30
0.0
 11
-99.87852446852885
 21
292.2040058544684
 31
0.0
  0
LINE
  5
2A8
330
1F
100
AcDbEntity
  8
0
  6
CONTINUOUS
 62
     7
100
AcDbLine
 10
41.47147553147112
 20
308.8733233333336
 30
0.0
 11
40.53710313998715
 21
309.4127834850802
 31
0.0
  0
LINE
  5
2A9
330
1F
100
AcDbEntity
  8
0
  6
CONTINUOUS
 62
     7
100
AcDbLine
 10
83.4221648038146
 20
290.8733213253041
 30
0.0
 11
83.40722683335719
 21
290.9197395250061
 31
0.0
  0
LINE
  5
2AA
330
1F
100
AcDbEntity
  8
0
  6
CONTINUOUS
 62
     7
100
AcDbLine
 10
-80.37783555832134
 20
291.8733174110599
 30
0.0
 11
-79.91237852342289
 21
291.955392191527
 31
0.0
  0
LINE
  5
2AB
330
1F
100
AcDbEntity
  8
0
  6
CONTINUOUS
 62
     7
100
AcDbLine
 10
154.1214755314712
 20
318.8733233333336
 30
0.0
 11
153.187103139987
 21
319.4127834850802
 31
0.0
  0
LINE
  5
2AC
330
1F
100
AcDbEntity
  8
0
  6
CONTINUOUS
 62
     7
100
AcDbLine
 10
155.3714755314712
 20
262.6233233333329
 30
0.0
 11
155.9109356832176
 21
261.6889509418495
 31
0.0
  0
LINE
  5
2AD
330
1F
100
AcDbEntity
  8
0
  6
CONTINUOUS
 62
     7
100
AcDbLine
 10
-68.92853039080182
 20
302.3226344231259
 30
0.0
 11
-68.84645561033487
 21
301.8571773882276
 31
0.0
  0
LINE
  5
2AE
330
1F
100
AcDbEntity
  8
0
  6
CONTINUOUS
 62
     7
100
AcDbLine
 10
-69.92852647655833
 20
302.3226340609895
 30
0.0
 11
-69.8821082768559
 21
302.3375720314474
 31
0.0
  0
LINE
  5
2AF
330
1F
100
AcDbEntity
  8
0
  6
CONTINUOUS
 62
     7
100
AcDbLine
 10
-70.07275269238033
 20
301.1518965202995
 30
0.0
 11
-70.01059955331726
 21
301.8571770425219
 31
0.0
  0
LINE
  5
2B0
330
1F
100
AcDbEntity
  8
0
  6
CONTINUOUS
 62
     7
100
AcDbLine
 10
-68.7842962446774
 20
281.5947501463669
 30
0.0
 11
-68.84644938374035
 21
280.8894696241451
 31
0.0
  0
LINE
  5
2B1
330
1F
100
AcDbEntity
  8
0
  6
CONTINUOUS
 62
     7
100
AcDbLine
 10
-69.92851854625582
 20
280.4240122435411
 30
0.0
 11
-70.01059332672277
 21
280.8894692784391
 31
0.0
  0
LINE
  5
2B2
330
1F
100
AcDbEntity
  8
0
  6
CONTINUOUS
 62
     7
100
AcDbLine
 10
-58.94467041363471
 20
290.7912544751396
 30
0.0
 11
-59.64995113837026
 21
290.729097183017
 31
0.0
  0
LINE
  5
2B3
330
1F
100
AcDbEntity
  8
0
  6
CONTINUOUS
 62
     7
100
AcDbLine
 10
-58.9446707593404
 20
291.955398418122
 30
0.0
 11
-58.47921374087228
 21
291.8733253413625
 31
0.0
  0
LINE
  5
2B4
330
1F
100
AcDbEntity
  8
0
  6
CONTINUOUS
 62
     7
100
AcDbLine
 10
94.82505135174013
 20
302.3375723620939
 30
0.0
 11
94.87146960919817
 21
302.3226344231259
 31
0.0
  0
LINE
  5
2B5
330
1F
100
AcDbEntity
  8
0
  6
CONTINUOUS
 62
     7
100
AcDbLine
 10
-68.8464493837404
 20
280.8894696241451
 30
0.0
 11
-68.92852246049935
 21
280.4240126056769
 31
0.0
  0
LINE
  5
2B6
330
1F
100
AcDbEntity
  8
0
  6
CONTINUOUS
 62
     7
100
AcDbLine
 10
94.87147753950065
 20
280.4240126056769
 30
0.0
 11
94.8250593397982
 21
280.4090746352196
 31
0.0
  0
LINE
  5
2B7
330
1F
100
AcDbEntity
  8
0
  6
CONTINUOUS
 62
     7
100
AcDbLine
 10
-59.64995113837035
 20
290.729097183017
 30
0.0
 11
-59.64995128156289
 21
292.017551557185
 31
0.0
  0
LINE
  5
2B8
330
1F
100
AcDbEntity
  8
0
  6
CONTINUOUS
 62
     7
100
AcDbLine
 10
153.1871031399871
 20
318.3338631815865
 30
0.0
 11
154.1214755314712
 21
318.8733233333336
 31
0.0
  0
LINE
  5
2B9
330
1F
100
AcDbEntity
  8
0
  6
CONTINUOUS
 62
     7
100
AcDbLine
 10
104.1500488616297
 20
290.729097183017
 30
0.0
 11
104.1500487184377
 21
292.017551557185
 31
0.0
  0
LINE
  5
2BA
330
1F
100
AcDbEntity
  8
0
  6
CONTINUOUS
 62
     7
100
AcDbLine
 10
93.87147352344161
 20
302.3226340609895
 30
0.0
 11
93.91789172314418
 21
302.3375720314474
 31
0.0
  0
LINE
  5
2BB
330
1F
100
AcDbEntity
  8
0
  6
CONTINUOUS
 62
     7
100
AcDbLine
 10
154.8320153797247
 20
293.5576957248174
 30
0.0
 11
155.3714755314712
 21
292.6233233333335
 31
0.0
  0
LINE
  5
2BC
330
1F
100
AcDbEntity
  8
0
  6
CONTINUOUS
 62
     7
100
AcDbLine
 10
-79.91237817771746
 20
290.7912482485445
 30
0.0
 11
-80.37783519618475
 21
290.873321325304
 31
0.0
  0
LINE
  5
2BD
330
1F
100
AcDbEntity
  8
0
  6
CONTINUOUS
 62
     7
100
AcDbLine
 10
104.8553292406598
 20
291.955398418122
 30
0.0
 11
105.3207862591277
 21
291.8733253413625
 31
0.0
  0
LINE
  5
2BE
330
1F
100
AcDbEntity
  8
0
  6
CONTINUOUS
 62
     7
100
AcDbLine
 10
43.97147553147107
 20
305.8733233333335
 30
0.0
 11
44.90584792295518
 21
305.3338631815864
 31
0.0
  0
LINE
  5
2BF
330
1F
100
AcDbEntity
  8
0
  6
CONTINUOUS
 62
     7
100
AcDbLine
 10
93.87148145374447
 20
280.4240122435411
 30
0.0
 11
93.78940667327709
 21
280.8894692784391
 31
0.0
  0
LINE
  5
2C0
330
1F
100
AcDbEntity
  8
0
  6
CONTINUOUS
 62
     7
100
AcDbLine
 10
83.88762182228271
 20
290.7912482485445
 30
0.0
 11
83.4221648038146
 21
290.873321325304
 31
0.0
  0
LINE
  5
2C1
330
1F
100
AcDbEntity
  8
0
  6
CONTINUOUS
 62
     7
100
AcDbLine
 10
93.7894004466826
 20
301.8571770425219
 30
0.0
 11
93.87147352344155
 21
302.3226340609895
 31
0.0
  0
LINE
  5
2C2
330
1F
100
AcDbEntity
  8
0
  6
CONTINUOUS
 62
     7
100
AcDbLine
 10
94.87146960919823
 20
302.3226344231259
 30
0.0
 11
94.95354438966518
 21
301.8571773882276
 31
0.0
  0
LINE
  5
2C3
330
1F
100
AcDbEntity
  8
0
  6
CONTINUOUS
 62
     7
100
AcDbLine
 10
105.3357245602318
 20
290.919747513064
 30
0.0
 11
105.3207866212638
 21
290.8733292556066
 31
0.0
  0
CIRCLE
  5
2C4
330
1F
100
AcDbEntity
  8
0
  6
CONTINUOUS
 62
     7
100
AcDbCircle
 10
-69.42852446852898
 20
291.3733233333335
 30
0.0
 40
9.499999999999952
  0
LINE
  5
2C5
330
1F
100
AcDbEntity
  8
0
  6
CONTINUOUS
 62
     7
100
AcDbLine
 10
156.6214755314712
 20
263.873323333333
 30
0.0
 11
157.5558479229552
 21
264.4127834850801
 31
0.0
  0
LINE
  5
2C6
330
1F
100
AcDbEntity
  8
0
  6
CONTINUOUS
 62
     7
100
AcDbLine
 10
83.4072265027107
 20
291.8268991536025
 30
0.0
 11
83.42216444167858
 21
291.87331741106
 31
0.0
  0
LINE
  5
2C7
330
1F
100
AcDbEntity
  8
0
  6
CONTINUOUS
 62
     7
100
AcDbLine
 10
-80.39277349728935
 20
291.8268991536025
 30
0.0
 11
-80.37783555832134
 21
291.87331741106
 31
0.0
  0
LINE
  5
2C8
330
1F
100
AcDbEntity
  8
0
  6
CONTINUOUS
 62
     7
100
AcDbLine
 10
-70.01059332672277
 20
280.889469278439
 30
0.0
 11
-70.0727506188454
 21
281.5947500031749
 31
0.0
  0
LINE
  5
2C9
330
1F
100
AcDbEntity
  8
0
  6
CONTINUOUS
 62
     7
100
AcDbLine
 10
105.3207866212638
 20
290.8733292556065
 30
0.0
 11
104.8553295863652
 21
290.7912544751395
 31
0.0
  0
LINE
  5
2CA
330
1F
100
AcDbEntity
  8
0
  6
CONTINUOUS
 62
     7
100
AcDbLine
 10
-79.91237852342282
 20
291.9553921915271
 30
0.0
 11
-79.2070977986874
 21
292.0175494836494
 31
0.0
  0
LINE
  5
2CB
330
1F
100
AcDbEntity
  8
0
  6
CONTINUOUS
 62
     7
100
AcDbLine
 10
-58.47921374087228
 20
291.8733253413625
 30
0.0
 11
-58.46427577041488
 21
291.8269071416605
 31
0.0
  0
LINE
  5
2CC
330
1F
100
AcDbEntity
  8
0
  6
CONTINUOUS
 62
     7
100
AcDbLine
 10
-79.2070977986874
 20
292.0175494836494
 30
0.0
 11
-79.20709765549472
 21
290.7290951094814
 31
0.0
  0
LINE
  5
2CD
330
1F
100
AcDbEntity
  8
0
  6
CONTINUOUS
 62
     7
100
AcDbLine
 10
-58.4642754397684
 20
290.919747513064
 30
0.0
 11
-58.47921337873627
 21
290.8733292556066
 31
0.0
  0
LINE
  5
2CE
330
1F
100
AcDbEntity
  8
0
  6
CONTINUOUS
 62
     7
100
AcDbLine
 10
154.8320153797247
 20
321.0576957248174
 30
0.0
 11
155.3714755314712
 21
320.1233233333336
 31
0.0
  0
ARC
  5
2CF
330
1F
100
AcDbEntity
  8
0
  6
CONTINUOUS
 62
     7
100
AcDbCircle
 10
-69.42852446852898
 20
291.3733233333335
 30
0.0
 40
10.49999999999995
100
AcDbArc
 50
183.17786200319
 51
266.8221720260519
  0
ARC
  5
2D0
330
1F
100
AcDbEntity
  8
0
  6
CONTINUOUS
 62
     7
100
AcDbCircle
 10
-69.42852446852898
 20
291.3733233333335
 30
0.0
 40
10.49999999999995
100
AcDbArc
 50
3.177862003190014
 51
86.82217202605166
  0
LINE
  5
2D1
330
1F
100
AcDbEntity
  8
0
  6
CONTINUOUS
 62
     7
100
AcDbLine
 10
52.37147553147114
 20
308.8733233333336
 30
0.0
 11
53.30584792295512
 21
309.4127834850802
 31
0.0
  0
LINE
  5
2D2
330
1F
100
AcDbEntity
  8
0
  6
CONTINUOUS
 62
     7
100
AcDbLine
 10
155.3714755314712
 20
320.1233233333336
 30
0.0
 11
155.9109356832176
 21
321.0576957248174
 31
0.0
  0
LINE
  5
2D3
330
1F
100
AcDbEntity
  8
0
  6
CONTINUOUS
 62
     7
100
AcDbLine
 10
155.3714755314712
 20
265.123323333333
 30
0.0
 11
154.8320153797247
 21
266.0576957248171
 31
0.0
  0
LINE
  5
2D4
330
1F
100
AcDbEntity
  8
0
  6
CONTINUOUS
 62
     7
100
AcDbLine
 10
49.87147553147108
 20
308.8733233333336
 30
0.0
 11
48.93710313998712
 21
309.4127834850802
 31
0.0
  0
LINE
  5
2D5
330
1F
100
AcDbEntity
  8
0
  6
CONTINUOUS
 62
     7
100
AcDbLine
 10
94.9535506162602
 20
280.8894696241451
 30
0.0
 11
94.87147753950056
 21
280.4240126056769
 31
0.0
  0
LINE
  5
2D6
330
1F
100
AcDbEntity
  8
0
  6
CONTINUOUS
 62
     7
100
AcDbLine
 10
93.91789971120212
 20
280.409074304573
 30
0.0
 11
93.8714814537445
 21
280.4240122435411
 31
0.0
  0
ARC
  5
2D7
330
1F
100
AcDbEntity
  8
0
  6
CONTINUOUS
 62
     7
100
AcDbCircle
 10
-69.42852446852898
 20
291.3733233333335
 30
0.0
 40
10.49999999999995
100
AcDbArc
 50
93.17786200319001
 51
176.8221720260518
  0
LINE
  5
2D8
330
1F
100
AcDbEntity
  8
0
  6
CONTINUOUS
 62
     7
100
AcDbLine
 10
-59.64995128156292
 20
292.017551557185
 30
0.0
 11
-58.94467075934051
 21
291.9553984181221
 31
0.0
  0
LINE
  5
2D9
330
1F
100
AcDbEntity
  8
0
  6
CONTINUOUS
 62
     7
100
AcDbLine
 10
-68.78429831821231
 20
301.151896663492
 30
0.0
 11
-70.0727526923803
 21
301.1518965202995
 31
0.0
  0
ARC
  5
2DA
330
1F
100
AcDbEntity
  8
0
  6
CONTINUOUS
 62
     7
100
AcDbCircle
 10
-69.42852446852898
 20
291.3733233333335
 30
0.0
 40
10.49999999999995
100
AcDbArc
 50
273.1778620031902
 51
356.8221720260519
  0
CIRCLE
  5
2DB
330
1F
100
AcDbEntity
  8
0
  6
CONTINUOUS
 62
     7
100
AcDbCircle
 10
94.37147553147129
 20
291.3733233333335
 30
0.0
 40
9.500000000000064
  0
LINE
  5
2DC
330
1F
100
AcDbEntity
  8
0
  6
CONTINUOUS
 62
     7
100
AcDbLine
 10
-70.01059955331735
 20
301.8571770425219
 30
0.0
 11
-69.92852647655839
 21
302.3226340609895
 31
0.0
  0
LINE
  5
2DD
330
1F
100
AcDbEntity
  8
0
  6
CONTINUOUS
 62
     7
100
AcDbLine
 10
105.3207862591277
 20
291.8733253413625
 30
0.0
 11
105.3357242295852
 21
291.8269071416605
 31
0.0
  0
LINE
  5
2DE
330
1F
100
AcDbEntity
  8
0
  6
CONTINUOUS
 62
     7
100
AcDbLine
 10
-70.07275061884543
 20
281.5947500031749
 30
0.0
 11
-68.78429624467744
 21
281.5947501463669
 31
0.0
  0
LINE
  5
2DF
330
1F
100
AcDbEntity
  8
0
  6
CONTINUOUS
 62
     7
100
AcDbLine
 10
-69.88210028879793
 20
280.409074304573
 30
0.0
 11
-69.92851854625584
 21
280.4240122435411
 31
0.0
  0
LINE
  5
2E0
330
1F
100
AcDbEntity
  8
0
  6
CONTINUOUS
 62
     7
100
AcDbLine
 10
-68.9285224604993
 20
280.4240126056769
 30
0.0
 11
-68.97494066020133
 21
280.4090746352196
 31
0.0
  0
LINE
  5
2E1
330
1F
100
AcDbEntity
  8
0
  6
CONTINUOUS
 62
     7
100
AcDbLine
 10
-68.84645561033487
 20
301.8571773882276
 30
0.0
 11
-68.78429831821236
 21
301.151896663492
 31
0.0
  0
LINE
  5
2E2
330
1F
100
AcDbEntity
  8
0
  6
CONTINUOUS
 62
     7
100
AcDbLine
 10
-68.97494864825981
 20
302.3375723620939
 30
0.0
 11
-68.92853039080177
 21
302.3226344231259
 31
0.0
  0
LINE
  5
2E3
330
1F
100
AcDbEntity
  8
0
  6
CONTINUOUS
 62
     7
100
AcDbLine
 10
153.1871031399871
 20
264.41278348508
 30
0.0
 11
154.1214755314712
 21
263.873323333333
 31
0.0
  0
LINE
  5
2E4
330
1F
100
AcDbEntity
  8
0
  6
CONTINUOUS
 62
     7
100
AcDbLine
 10
-79.20709765549483
 20
290.7290951094814
 30
0.0
 11
-79.91237817771751
 21
290.7912482485445
 31
0.0
  0
LINE
  5
2E5
330
1F
100
AcDbEntity
  8
0
  6
CONTINUOUS
 62
     7
100
AcDbLine
 10
-58.47921337873629
 20
290.8733292556065
 30
0.0
 11
-58.94467041363474
 21
290.7912544751395
 31
0.0
  0
LINE
  5
2E6
330
1F
100
AcDbEntity
  8
0
  6
CONTINUOUS
 62
     7
100
AcDbLine
 10
49.87147553147108
 20
305.8733233333335
 30
0.0
 11
48.93710313998712
 21
305.3338631815864
 31
0.0
  0
LINE
  5
2E7
330
1F
100
AcDbEntity
  8
0
  6
CONTINUOUS
 62
     7
100
AcDbLine
 10
42.7214755314711
 20
304.6233233333335
 30
0.0
 11
42.18201537972471
 21
303.6889509418491
 31
0.0
  0
ARC
  5
2E8
330
1F
100
AcDbEntity
  8
0
  6
CONTINUOUS
 62
     7
100
AcDbCircle
 10
-321.7943616124971
 20
319.8074861893649
 30
0.0
 40
1.491354316565496
100
AcDbArc
 50
359.7462591391786
 51
90.25374086081877
  0
ARC
  5
2E9
330
1F
100
AcDbEntity
  8
0
  6
CONTINUOUS
 62
     7
100
AcDbCircle
 10
433.8116437668716
 20
319.4564426316775
 30
0.0
 40
1.265748622398366
210
0.0
220
0.0
230
-1.0
100
AcDbArc
 50
359.9852509111444
 51
90.01474933903637
  0
LINE
  5
2EA
330
1F
100
AcDbEntity
  8
0
  6
CONTINUOUS
 62
     7
100
AcDbLine
 10
-129.5785244685289
 20
305.8733233333331
 30
0.0
 11
-129.5785244685289
 21
308.8733233333335
 31
0.0
  0
ARC
  5
2EB
330
1F
100
AcDbEntity
  8
0
  6
CONTINUOUS
 62
     7
100
AcDbCircle
 10
-119.9285244685289
 20
308.8733233333336
 30
0.0
 40
2.249999999999974
100
AcDbArc
 50
166.1276202131605
 51
179.9999999999992
  0
ARC
  5
2EC
330
1F
100
AcDbEntity
  8
0
  6
CONTINUOUS
 62
     7
100
AcDbCircle
 10
-374.4785244685289
 20
273.8733233333335
 30
0.0
 40
2.288276574963943
100
AcDbArc
 50
195.1432012235968
 51
255.4883894435318
  0
LINE
  5
2ED
330
1F
100
AcDbEntity
  8
0
  6
CONTINUOUS
 62
     7
100
AcDbLine
 10
-366.6179846202756
 20
271.6889509418495
 30
0.0
 11
-366.651912086823
 21
271.65804991393
 31
0.0
  0
LINE
  5
2EE
330
1F
100
AcDbEntity
  8
0
  6
CONTINUOUS
 62
     7
100
AcDbLine
 10
-373.9390643167822
 20
271.6889509418495
 30
0.0
 11
-373.9051368502347
 21
271.65804991393
 31
0.0
  0
LINE
  5
2EF
330
1F
100
AcDbEntity
  8
0
  6
CONTINUOUS
 62
     7
100
AcDbLine
 10
-121.1785244685288
 20
308.8733233333336
 30
0.0
 11
-122.1128968600129
 21
309.4127834850796
 31
0.0
  0
LINE
  5
2F0
330
1F
100
AcDbEntity
  8
0
  6
CONTINUOUS
 62
     7
100
AcDbLine
 10
-136.0890643167819
 20
321.0576957248174
 30
0.0
 11
-136.6285244685289
 21
320.1233233333336
 31
0.0
  0
LINE
  5
2F1
330
1F
100
AcDbEntity
  8
0
  6
CONTINUOUS
 62
     7
100
AcDbLine
 10
-122.1128968600129
 20
309.4127834850795
 30
0.0
 11
-122.1373427792324
 21
309.4710953248394
 31
0.0
  0
LINE
  5
2F2
330
1F
100
AcDbEntity
  8
0
  6
CONTINUOUS
 62
     7
100
AcDbLine
 10
-121.1785244685288
 20
305.8733233333331
 30
0.0
 11
-122.1128968600129
 21
305.3338631815864
 31
0.0
  0
ARC
  5
2F3
330
1F
100
AcDbEntity
  8
0
  6
CONTINUOUS
 62
     7
100
AcDbCircle
 10
-374.4785244685289
 20
273.8733233333335
 30
0.0
 40
2.249999999999974
100
AcDbArc
 50
346.12762021316
 51
359.9999999999987
  0
LINE
  5
2F4
330
1F
100
AcDbEntity
  8
0
  6
CONTINUOUS
 62
     7
100
AcDbLine
 10
-376.7668010434928
 20
276.2296760915665
 30
0.0
 11
-376.7668010434928
 21
274.5169705750999
 31
0.0
  0
LINE
  5
2F5
330
1F
100
AcDbEntity
  8
0
  6
CONTINUOUS
 62
     7
100
AcDbLine
 10
-368.3285244685289
 20
276.2959730641441
 30
0.0
 11
-368.3668010434927
 21
276.2296760915667
 31
0.0
  0
ARC
  5
2F6
330
1F
100
AcDbEntity
  8
0
  6
CONTINUOUS
 62
     7
100
AcDbCircle
 10
-231.5443616124971
 20
319.8074861893649
 30
0.0
 40
1.491354316565441
100
AcDbArc
 50
359.7462591391786
 51
90.2537408608215
  0
ARC
  5
2F7
330
1F
100
AcDbEntity
  8
0
  6
CONTINUOUS
 62
     7
100
AcDbCircle
 10
-366.0785244685289
 20
276.8733233333336
 30
0.0
 40
2.250000000000085
100
AcDbArc
 50
0.0
 51
13.87237978683867
  0
ARC
  5
2F8
330
1F
100
AcDbEntity
  8
0
  6
CONTINUOUS
 62
     7
100
AcDbCircle
 10
366.0785244685289
 20
273.8733233333335
 30
0.0
 40
2.249999999999919
210
0.0
220
0.0
230
-1.0
100
AcDbArc
 50
256.12762021316
 51
283.8723797868388
  0
LINE
  5
2F9
330
1F
100
AcDbEntity
  8
0
  6
CONTINUOUS
 62
     7
100
AcDbLine
 10
-363.894152077045
 20
277.41278348508
 30
0.0
 11
-363.8697061578255
 21
277.47109532484
 31
0.0
  0
ARC
  5
2FA
330
1F
100
AcDbEntity
  8
0
  6
CONTINUOUS
 62
     7
100
AcDbCircle
 10
231.8954051701863
 20
263.2902040349894
 30
0.0
 40
1.265748622398533
210
0.0
220
0.0
230
-1.0
100
AcDbArc
 50
179.9852509111507
 51
270.0147493390253
  0
ARC
  5
2FB
330
1F
100
AcDbEntity
  8
0
  6
CONTINUOUS
 62
     7
100
AcDbCircle
 10
-231.8953821578564
 20
319.4564657072029
 30
0.0
 40
1.42946532136462
100
AcDbArc
 50
359.9858352237542
 51
90.01398247626547
  0
ARC
  5
2FC
330
1F
100
AcDbEntity
  8
0
  6
CONTINUOUS
 62
     7
100
AcDbCircle
 10
-401.2943616124973
 20
262.9391604773016
 30
0.0
 40
1.491354316565663
100
AcDbArc
 50
269.7462591391839
 51
0.2537408608160945
  0
LINE
  5
2FD
330
1F
100
AcDbEntity
  8
0
  6
CONTINUOUS
 62
     7
100
AcDbLine
 10
-376.7285244685289
 20
276.2959730641441
 30
0.0
 11
-376.7668010434928
 21
276.2296760915666
 31
0.0
  0
LINE
  5
2FE
330
1F
100
AcDbEntity
  8
0
  6
CONTINUOUS
 62
     7
100
AcDbLine
 10
-119.3890643167823
 20
303.6889509418491
 30
0.0
 11
-119.9285244685288
 21
304.6233233333331
 31
0.0
  0
ARC
  5
2FF
330
1F
100
AcDbEntity
  8
0
  6
CONTINUOUS
 62
     7
100
AcDbCircle
 10
374.4785244685289
 20
273.8733233333335
 30
0.0
 40
2.249999999999974
210
0.0
220
0.0
230
-1.0
100
AcDbArc
 50
256.12762021316
 51
283.8723797868391
  0
ARC
  5
300
330
1F
100
AcDbEntity
  8
0
  6
CONTINUOUS
 62
     7
100
AcDbCircle
 10
-276.3126873245606
 20
262.9391604773016
 30
0.0
 40
1.491354316565663
100
AcDbArc
 50
179.7462591391839
 51
270.2537408608161
  0
LINE
  5
301
330
1F
100
AcDbEntity
  8
0
  6
CONTINUOUS
 62
     7
100
AcDbLine
 10
-368.3285244685288
 20
274.4506736025231
 30
0.0
 11
-368.3668010434927
 21
274.5169705750999
 31
0.0
  0
ARC
  5
302
330
1F
100
AcDbEntity
  8
0
  6
CONTINUOUS
 62
     7
100
AcDbCircle
 10
-353.6626873245605
 20
262.9391604773016
 30
0.0
 40
1.491354316565496
100
AcDbArc
 50
179.7462591391786
 51
270.2537408608188
  0
LINE
  5
303
330
1F
100
AcDbEntity
  8
0
  6
CONTINUOUS
 62
     7
100
AcDbLine
 10
-119.3890643167823
 20
311.0576957248174
 30
0.0
 11
-119.3551368502348
 21
311.0885967527366
 31
0.0
  0
ARC
  5
304
330
1F
100
AcDbEntity
  8
0
  6
CONTINUOUS
 62
     7
100
AcDbCircle
 10
-275.9616668423984
 20
319.456465644006
 30
0.0
 40
1.429465321364509
100
AcDbArc
 50
89.98583522374027
 51
180.0139824762682
  0
LINE
  5
305
330
1F
100
AcDbEntity
  8
0
  6
CONTINUOUS
 62
     7
100
AcDbLine
 10
-367.3285244685289
 20
273.8733233333335
 30
0.0
 11
-368.2628968600129
 21
273.3338631815865
 31
0.0
  0
LINE
  5
306
330
1F
100
AcDbEntity
  8
0
  6
CONTINUOUS
 62
     7
100
AcDbLine
 10
-127.0785244685289
 20
305.8733233333331
 30
0.0
 11
-126.1441520770448
 21
305.3338631815864
 31
0.0
  0
LINE
  5
307
330
1F
100
AcDbEntity
  8
0
  6
CONTINUOUS
 62
     7
100
AcDbLine
 10
-118.6785244685289
 20
305.8733233333331
 30
0.0
 11
-117.7441520770449
 21
305.3338631815864
 31
0.0
  0
ARC
  5
308
330
1F
100
AcDbEntity
  8
0
  6
CONTINUOUS
 62
     7
100
AcDbCircle
 10
401.6454051701867
 20
263.2902040349894
 30
0.0
 40
1.265748622398977
210
0.0
220
0.0
230
-1.0
100
AcDbArc
 50
179.985250910981
 51
270.0147493390097
  0
ARC
  5
309
330
1F
100
AcDbEntity
  8
0
  6
CONTINUOUS
 62
     7
100
AcDbCircle
 10
-366.0785244685289
 20
276.8733233333336
 30
0.0
 40
2.249999999999974
100
AcDbArc
 50
76.12762021316003
 51
103.8723797868389
  0
ARC
  5
30A
330
1F
100
AcDbEntity
  8
0
  6
CONTINUOUS
 62
     7
100
AcDbCircle
 10
-374.4785244685289
 20
273.8733233333335
 30
0.0
 40
2.288276574963832
100
AcDbArc
 50
284.5116105564696
 51
344.8567987764033
  0
LINE
  5
30B
330
1F
100
AcDbEntity
  8
0
  6
CONTINUOUS
 62
     7
100
AcDbLine
 10
-363.790247893565
 20
274.5169705751001
 30
0.0
 11
-363.790247893565
 21
276.2296760915667
 31
0.0
  0
LINE
  5
30C
330
1F
100
AcDbEntity
  8
0
  6
CONTINUOUS
 62
     7
100
AcDbLine
 10
-119.9285244685289
 20
310.1233233333336
 30
0.0
 11
-120.4679846202753
 21
311.0576957248174
 31
0.0
  0
ARC
  5
30D
330
1F
100
AcDbEntity
  8
0
  6
CONTINUOUS
 62
     7
100
AcDbCircle
 10
-401.6453820946593
 20
263.2901810226604
 30
0.0
 40
1.429465321364565
100
AcDbArc
 50
269.9858352237319
 51
0.0139824762737817
  0
LWPOLYLINE
  5
30E
330
1F
100
AcDbEntity
  8
0
  6
CONTINUOUS
 62
     7
100
AcDbPolyline
 90
        5
 70
     0
 43
0.0
 10
353.3113179308147
 20
261.7925872153775
 42
0.0978717801866169
 10
353.8836595950405
 20
261.9061786388561
 42
0.0989091949165136
 10
354.3707730804203
 20
262.231074721442
 42
0.0989091949166246
 10
354.6956691630061
 20
262.7181882068219
 42
0.0978717801866841
 10
354.8092605864844
 20
263.2905298710474
210
0.0
220
0.0
230
-1.0
  0
ARC
  5
30F
330
1F
100
AcDbEntity
  8
0
  6
CONTINUOUS
 62
     7
100
AcDbCircle
 10
-231.8953820946589
 20
263.2901810226604
 30
0.0
 40
1.429465321364065
100
AcDbArc
 50
269.985835223718
 51
0.013982476284923
  0
LINE
  5
310
330
1F
100
AcDbEntity
  8
0
  6
CONTINUOUS
 62
     7
100
AcDbLine
 10
-376.7285244685289
 20
276.8733233333336
 30
0.0
 11
-376.7285244685289
 21
276.295973064144
 31
0.0
  0
ARC
  5
311
330
1F
100
AcDbEntity
  8
0
  6
CONTINUOUS
 62
     7
100
AcDbCircle
 10
-231.5443616124973
 20
262.9391604773016
 30
0.0
 40
1.491354316565663
100
AcDbArc
 50
269.7462591391866
 51
0.2537408608160945
  0
LINE
  5
312
330
1F
100
AcDbEntity
  8
0
  6
CONTINUOUS
 62
     7
100
AcDbLine
 10
-118.6785244685289
 20
308.8733233333336
 30
0.0
 11
-118.6785244685289
 21
305.8733233333331
 31
0.0
  0
ARC
  5
313
330
1F
100
AcDbEntity
  8
0
  6
CONTINUOUS
 62
     7
100
AcDbCircle
 10
401.645405170185
 20
319.4564426316759
 30
0.0
 40
1.265748622398588
210
0.0
220
0.0
230
-1.0
100
AcDbArc
 50
89.98525091108785
 51
180.0147493390285
  0
ARC
  5
314
330
1F
100
AcDbEntity
  8
0
  6
CONTINUOUS
 62
     7
100
AcDbCircle
 10
-275.9616667792017
 20
263.2901809594634
 30
0.0
 40
1.429465321364176
100
AcDbArc
 50
179.9858352237264
 51
270.0139824762794
  0
LINE
  5
315
330
1F
100
AcDbEntity
  8
0
  6
CONTINUOUS
 62
     7
100
AcDbLine
 10
-365.5390643167823
 20
271.6889509418495
 30
0.0
 11
-365.5051368502347
 21
271.65804991393
 31
0.0
  0
ARC
  5
316
330
1F
100
AcDbEntity
  8
0
  6
CONTINUOUS
 62
     7
100
AcDbCircle
 10
-366.0785244685289
 20
276.8733233333336
 30
0.0
 40
2.288276574963943
100
AcDbArc
 50
15.14320122360014
 51
75.48838944353335
  0
LINE
  5
317
330
1F
100
AcDbEntity
  8
0
  6
CONTINUOUS
 62
     7
100
AcDbLine
 10
-368.3285244685289
 20
273.8733233333335
 30
0.0
 11
-368.3285244685288
 21
274.4506736025231
 31
0.0
  0
ARC
  5
318
330
1F
100
AcDbEntity
  8
0
  6
CONTINUOUS
 62
     7
100
AcDbCircle
 10
275.9616437668725
 20
263.2902040349911
 30
0.0
 40
1.265748622398921
210
0.0
220
0.0
230
-1.0
100
AcDbArc
 50
269.9852509110941
 51
0.0147493390096542
  0
LINE
  5
319
330
1F
100
AcDbEntity
  8
0
  6
CONTINUOUS
 62
     7
100
AcDbLine
 10
-119.9285244685289
 20
304.6233233333331
 30
0.0
 11
-120.4679846202753
 21
303.6889509418491
 31
0.0
  0
LWPOLYLINE
  5
31A
330
1F
100
AcDbEntity
  8
0
  6
CONTINUOUS
 62
     7
100
AcDbPolyline
 90
        5
 70
     0
 43
0.0
 10
503.7766784064096
 20
335.9235346155444
 42
0.0978717801866624
 10
503.6630869829315
 20
336.4958762797698
 42
0.09890919491663
 10
503.3381909003455
 20
336.98298976515
 42
0.0989091949166225
 10
502.8510774149657
 20
337.3078858477361
 42
0.0978717801866852
 10
502.2787357507399
 20
337.4214772712141
210
0.0
220
0.0
230
-1.0
  0
ARC
  5
31B
330
1F
100
AcDbEntity
  8
0
  6
CONTINUOUS
 62
     7
100
AcDbCircle
 10
-276.3126873245607
 20
319.8074861893649
 30
0.0
 40
1.491354316565385
100
AcDbArc
 50
89.74625913917585
 51
180.2537408608215
  0
ARC
  5
31C
330
1F
100
AcDbEntity
  8
0
  6
CONTINUOUS
 62
     7
100
AcDbCircle
 10
-401.2943616124973
 20
319.8074861893649
 30
0.0
 40
1.491354316565663
100
AcDbArc
 50
359.7462591391839
 51
90.2537408608161
  0
LINE
  5
31D
330
1F
100
AcDbEntity
  8
0
  6
CONTINUOUS
 62
     7
100
AcDbLine
 10
-118.6785244685289
 20
308.8733233333336
 30
0.0
 11
-117.7441520770449
 21
309.4127834850796
 31
0.0
  0
ARC
  5
31E
330
1F
100
AcDbEntity
  8
0
  6
CONTINUOUS
 62
     7
100
AcDbCircle
 10
-353.6626873245605
 20
319.8074861893649
 30
0.0
 40
1.491354316565496
100
AcDbArc
 50
89.7462591391812
 51
180.2537408608215
  0
LINE
  5
31F
330
1F
100
AcDbEntity
  8
0
  6
CONTINUOUS
 62
     7
100
AcDbLine
 10
-121.1785244685288
 20
305.8733233333331
 30
0.0
 11
-121.1785244685288
 21
308.8733233333335
 31
0.0
  0
ARC
  5
320
330
1F
100
AcDbEntity
  8
0
  6
CONTINUOUS
 62
     7
100
AcDbCircle
 10
231.8954051701847
 20
319.4564426316759
 30
0.0
 40
1.265748622398477
210
0.0
220
0.0
230
-1.0
100
AcDbArc
 50
89.98525091107214
 51
180.0147493390348
  0
ARC
  5
321
330
1F
100
AcDbEntity
  8
0
  6
CONTINUOUS
 62
     7
100
AcDbCircle
 10
433.8116437668722
 20
263.2902040349915
 30
0.0
 40
1.265748622399143
210
0.0
220
0.0
230
-1.0
100
AcDbArc
 50
269.9852509110816
 51
0.0147493390034015
  0
LWPOLYLINE
  5
322
330
1F
100
AcDbEntity
  8
0
  6
CONTINUOUS
 62
     7
100
AcDbPolyline
 90
        5
 70
     0
 43
0.0
 10
502.2787357507399
 20
245.3251693954525
 42
0.0978717801867108
 10
502.8510774149657
 20
245.438760818931
 42
0.0989091949166417
 10
503.3381909003455
 20
245.7636569015165
 42
0.0989091949166475
 10
503.6630869829314
 20
246.2507703868964
 42
0.0978717801867229
 10
503.7766784064096
 20
246.8231120511225
210
0.0
220
0.0
230
-1.0
  0
ARC
  5
323
330
1F
100
AcDbEntity
  8
0
  6
CONTINUOUS
 62
     7
100
AcDbCircle
 10
-434.1626873245605
 20
319.8074861893649
 30
0.0
 40
1.491354316565552
100
AcDbArc
 50
89.74625913918256
 51
180.2537408608215
  0
LINE
  5
324
330
1F
100
AcDbEntity
  8
0
  6
CONTINUOUS
 62
     7
100
AcDbLine
 10
-127.0785244685289
 20
308.8733233333336
 30
0.0
 11
-127.0785244685289
 21
305.8733233333331
 31
0.0
  0
ARC
  5
325
330
1F
100
AcDbEntity
  8
0
  6
CONTINUOUS
 62
     7
100
AcDbCircle
 10
275.9616437668707
 20
319.4564426316764
 30
0.0
 40
1.26574862239931
210
0.0
220
0.0
230
-1.0
100
AcDbArc
 50
359.9852509111381
 51
90.01474933899716
  0
LINE
  5
326
330
1F
100
AcDbEntity
  8
0
  6
CONTINUOUS
 62
     7
100
AcDbLine
 10
-363.894152077045
 20
273.3338631815866
 30
0.0
 11
-363.8697061578255
 21
273.275551341827
 31
0.0
  0
ARC
  5
327
330
1F
100
AcDbEntity
  8
0
  6
CONTINUOUS
 62
     7
100
AcDbCircle
 10
-366.0785244685289
 20
276.8733233333336
 30
0.0
 40
2.249999999999974
100
AcDbArc
 50
166.12762021316
 51
179.9999999999987
  0
LINE
  5
328
330
1F
100
AcDbEntity
  8
0
  6
CONTINUOUS
 62
     7
100
AcDbLine
 10
-363.8285244685289
 20
273.8733233333335
 30
0.0
 11
-363.8285244685289
 21
274.4506736025231
 31
0.0
  0
LINE
  5
329
330
1F
100
AcDbEntity
  8
0
  6
CONTINUOUS
 62
     7
100
AcDbLine
 10
-366.6179846202754
 20
279.0576957248176
 30
0.0
 11
-366.651912086823
 21
279.088596752737
 31
0.0
  0
LINE
  5
32A
330
1F
100
AcDbEntity
  8
0
  6
CONTINUOUS
 62
     7
100
AcDbLine
 10
-135.3785244685288
 20
318.8733233333336
 30
0.0
 11
-134.4441520770448
 21
319.4127834850802
 31
0.0
  0
LINE
  5
32B
330
1F
100
AcDbEntity
  8
0
  6
CONTINUOUS
 62
     7
100
AcDbLine
 10
-368.2628968600129
 20
273.3338631815866
 30
0.0
 11
-368.2873427792322
 21
273.275551341827
 31
0.0
  0
LINE
  5
32C
330
1F
100
AcDbEntity
  8
0
  6
CONTINUOUS
 62
     7
100
AcDbLine
 10
-368.3668010434927
 20
276.2296760915665
 30
0.0
 11
-368.3668010434927
 21
274.5169705750999
 31
0.0
  0
LINE
  5
32D
330
1F
100
AcDbEntity
  8
0
  6
CONTINUOUS
 62
     7
100
AcDbLine
 10
-376.6628968600129
 20
273.3338631815866
 30
0.0
 11
-376.6873427792323
 21
273.275551341827
 31
0.0
  0
LINE
  5
32E
330
1F
100
AcDbEntity
  8
0
  6
CONTINUOUS
 62
     7
100
AcDbLine
 10
-372.2941520770448
 20
273.3338631815866
 30
0.0
 11
-372.2697061578255
 21
273.275551341827
 31
0.0
  0
LINE
  5
32F
330
1F
100
AcDbEntity
  8
0
  6
CONTINUOUS
 62
     7
100
AcDbLine
 10
-119.3890643167823
 20
311.0576957248174
 30
0.0
 11
-119.9285244685288
 21
310.1233233333336
 31
0.0
  0
LINE
  5
330
330
1F
100
AcDbEntity
  8
0
  6
CONTINUOUS
 62
     7
100
AcDbLine
 10
-363.8285244685289
 20
274.4506736025231
 30
0.0
 11
-363.7902478935649
 21
274.5169705750999
 31
0.0
  0
LINE
  5
331
330
1F
100
AcDbEntity
  8
0
  6
CONTINUOUS
 62
     7
100
AcDbLine
 10
-375.728524468529
 20
273.8733233333335
 30
0.0
 11
-376.6628968600129
 21
273.3338631815865
 31
0.0
  0
LINE
  5
332
330
1F
100
AcDbEntity
  8
0
  6
CONTINUOUS
 62
     7
100
AcDbLine
 10
-366.0785244685289
 20
272.6233233333335
 30
0.0
 11
-365.5390643167823
 21
271.6889509418495
 31
0.0
  0
ARC
  5
333
330
1F
100
AcDbEntity
  8
0
  6
CONTINUOUS
 62
     7
100
AcDbCircle
 10
-366.0785244685289
 20
273.8733233333335
 30
0.0
 40
2.288276574963888
100
AcDbArc
 50
284.5116105564696
 51
344.8567987764029
  0
ARC
  5
334
330
1F
100
AcDbEntity
  8
0
  6
CONTINUOUS
 62
     7
100
AcDbCircle
 10
-366.0785244685289
 20
276.8733233333336
 30
0.0
 40
2.288276574963999
100
AcDbArc
 50
104.5116105564687
 51
164.8567987764027
  0
LINE
  5
335
330
1F
100
AcDbEntity
  8
0
  6
CONTINUOUS
 62
     7
100
AcDbLine
 10
-373.2285244685288
 20
276.8733233333336
 30
0.0
 11
-373.2285244685288
 21
273.8733233333335
 31
0.0
  0
LINE
  5
336
330
1F
100
AcDbEntity
  8
0
  6
CONTINUOUS
 62
     7
100
AcDbLine
 10
-376.7285244685289
 20
273.8733233333335
 30
0.0
 11
-376.7285244685289
 21
274.4506736025231
 31
0.0
  0
LINE
  5
337
330
1F
100
AcDbEntity
  8
0
  6
CONTINUOUS
 62
     7
100
AcDbLine
 10
-368.2628968600129
 20
277.41278348508
 30
0.0
 11
-368.2873427792322
 21
277.4710953248401
 31
0.0
  0
LINE
  5
338
330
1F
100
AcDbEntity
  8
0
  6
CONTINUOUS
 62
     7
100
AcDbLine
 10
-373.2285244685288
 20
276.8733233333336
 30
0.0
 11
-372.2941520770448
 21
277.41278348508
 31
0.0
  0
LINE
  5
339
330
1F
100
AcDbEntity
  8
0
  6
CONTINUOUS
 62
     7
100
AcDbLine
 10
-366.6179846202754
 20
279.0576957248176
 30
0.0
 11
-366.0785244685289
 21
278.1233233333336
 31
0.0
  0
LINE
  5
33A
330
1F
100
AcDbEntity
  8
0
  6
CONTINUOUS
 62
     7
100
AcDbLine
 10
-367.3285244685289
 20
276.8733233333336
 30
0.0
 11
-368.2628968600129
 21
277.41278348508
 31
0.0
  0
ARC
  5
33B
330
1F
100
AcDbEntity
  8
0
  6
CONTINUOUS
 62
     7
100
AcDbCircle
 10
-374.4785244685289
 20
273.8733233333335
 30
0.0
 40
2.25000000000003
100
AcDbArc
 50
180.0
 51
193.8723797868384
  0
LINE
  5
33C
330
1F
100
AcDbEntity
  8
0
  6
CONTINUOUS
 62
     7
100
AcDbLine
 10
-363.8285244685289
 20
276.8733233333336
 30
0.0
 11
-363.8285244685289
 21
276.295973064144
 31
0.0
  0
LINE
  5
33D
330
1F
100
AcDbEntity
  8
0
  6
CONTINUOUS
 62
     7
100
AcDbLine
 10
-367.3285244685289
 20
273.8733233333335
 30
0.0
 11
-367.3285244685289
 21
276.8733233333335
 31
0.0
  0
LINE
  5
33E
330
1F
100
AcDbEntity
  8
0
  6
CONTINUOUS
 62
     7
100
AcDbLine
 10
-21.79415207704494
 20
306.8338631815865
 30
0.0
 11
-22.72852446852891
 21
307.3733233333336
 31
0.0
  0
LINE
  5
33F
330
1F
100
AcDbEntity
  8
0
  6
CONTINUOUS
 62
     7
100
AcDbLine
 10
-25.22852446852886
 20
307.3733233333335
 30
0.0
 11
-26.16289686001283
 21
306.8338631815865
 31
0.0
  0
LINE
  5
340
330
1F
100
AcDbEntity
  8
0
  6
CONTINUOUS
 62
     7
100
AcDbLine
 10
-23.43906431678233
 20
309.5576957248169
 30
0.0
 11
-23.97852446852886
 21
308.6233233333335
 31
0.0
  0
ARC
  5
341
330
1F
100
AcDbEntity
  8
0
  6
CONTINUOUS
 62
     7
100
AcDbCircle
 10
23.97852446852888
 20
307.3733233333335
 30
0.0
 40
2.250000000000085
210
0.0
220
0.0
230
-1.0
100
AcDbArc
 50
256.1276202131601
 51
283.8723797868391
  0
ARC
  5
342
330
1F
100
AcDbEntity
  8
0
  6
CONTINUOUS
 62
     7
100
AcDbCircle
 10
32.37852446852884
 20
307.3733233333335
 30
0.0
 40
2.249999999999974
210
0.0
220
0.0
230
-1.0
100
AcDbArc
 50
166.1276202131601
 51
193.8723797868391
  0
LINE
  5
343
330
1F
100
AcDbEntity
  8
0
  6
CONTINUOUS
 62
     7
100
AcDbLine
 10
-375.0179846202755
 20
271.6889509418495
 30
0.0
 11
-374.4785244685289
 21
272.6233233333335
 31
0.0
  0
LINE
  5
344
330
1F
100
AcDbEntity
  8
0
  6
CONTINUOUS
 62
     7
100
AcDbLine
 10
-364.8285244685288
 20
276.8733233333336
 30
0.0
 11
-363.894152077045
 21
277.41278348508
 31
0.0
  0
ARC
  5
345
330
1F
100
AcDbEntity
  8
0
  6
CONTINUOUS
 62
     7
100
AcDbCircle
 10
23.97852446852888
 20
307.3733233333335
 30
0.0
 40
2.250000000000085
210
0.0
220
0.0
230
-1.0
100
AcDbArc
 50
166.1276202131601
 51
193.8723797868392
  0
ARC
  5
346
330
1F
100
AcDbEntity
  8
0
  6
CONTINUOUS
 62
     7
100
AcDbCircle
 10
23.97852446852888
 20
307.3733233333335
 30
0.0
 40
2.250000000000085
210
0.0
220
0.0
230
-1.0
100
AcDbArc
 50
76.12762021316011
 51
103.8723797868391
  0
LINE
  5
347
330
1F
100
AcDbEntity
  8
0
  6
CONTINUOUS
 62
     7
100
AcDbLine
 10
178.3714755314711
 20
334.9277149874446
 30
0.0
 11
177.9258671855822
 21
335.373323333333
 31
0.0
  0
LINE
  5
348
330
1F
100
AcDbEntity
  8
0
  6
CONTINUOUS
 62
     7
100
AcDbLine
 10
-374.4785244685289
 20
278.1233233333335
 30
0.0
 11
-373.9390643167822
 21
279.0576957248175
 31
0.0
  0
LINE
  5
349
330
1F
100
AcDbEntity
  8
0
  6
CONTINUOUS
 62
     7
100
AcDbLine
 10
-26.16289686001283
 20
307.91278348508
 30
0.0
 11
-25.22852446852886
 21
307.3733233333336
 31
0.0
  0
LINE
  5
34A
330
1F
100
AcDbEntity
  8
0
  6
CONTINUOUS
 62
     7
100
AcDbLine
 10
-375.0179846202755
 20
271.6889509418495
 30
0.0
 11
-375.0519120868231
 21
271.65804991393
 31
0.0
  0
LINE
  5
34B
330
1F
100
AcDbEntity
  8
0
  6
CONTINUOUS
 62
     7
100
AcDbLine
 10
-137.8785244685289
 20
318.8733233333336
 30
0.0
 11
-138.8128968600128
 21
318.3338631815866
 31
0.0
  0
LINE
  5
34C
330
1F
100
AcDbEntity
  8
0
  6
CONTINUOUS
 62
     7
100
AcDbLine
 10
-24.51798462027543
 20
305.1889509418495
 30
0.0
 11
-23.97852446852891
 21
306.1233233333336
 31
0.0
  0
ARC
  5
34D
330
1F
100
AcDbEntity
  8
0
  6
CONTINUOUS
 62
     7
100
AcDbCircle
 10
-366.0785244685289
 20
273.8733233333335
 30
0.0
 40
2.288276574963777
100
AcDbArc
 50
195.1432012235976
 51
255.4883894435317
  0
LINE
  5
34E
330
1F
100
AcDbEntity
  8
0
  6
CONTINUOUS
 62
     7
100
AcDbLine
 10
-376.7285244685289
 20
274.4506736025231
 30
0.0
 11
-376.7668010434928
 21
274.5169705750999
 31
0.0
  0
LINE
  5
34F
330
1F
100
AcDbEntity
  8
0
  6
CONTINUOUS
 62
     7
100
AcDbLine
 10
-375.728524468529
 20
273.8733233333335
 30
0.0
 11
-375.728524468529
 21
276.8733233333335
 31
0.0
  0
LINE
  5
350
330
1F
100
AcDbEntity
  8
0
  6
CONTINUOUS
 62
     7
100
AcDbLine
 10
-365.5390643167823
 20
279.0576957248176
 30
0.0
 11
-365.5051368502347
 21
279.088596752737
 31
0.0
  0
LINE
  5
351
330
1F
100
AcDbEntity
  8
0
  6
CONTINUOUS
 62
     7
100
AcDbLine
 10
-375.728524468529
 20
276.8733233333336
 30
0.0
 11
-376.6628968600129
 21
277.41278348508
 31
0.0
  0
LINE
  5
352
330
1F
100
AcDbEntity
  8
0
  6
CONTINUOUS
 62
     7
100
AcDbLine
 10
-366.6179846202756
 20
271.6889509418495
 30
0.0
 11
-366.0785244685289
 21
272.6233233333335
 31
0.0
  0
LINE
  5
353
330
1F
100
AcDbEntity
  8
0
  6
CONTINUOUS
 62
     7
100
AcDbLine
 10
-368.3285244685289
 20
276.8733233333336
 30
0.0
 11
-368.3285244685289
 21
276.295973064144
 31
0.0
  0
LINE
  5
354
330
1F
100
AcDbEntity
  8
0
  6
CONTINUOUS
 62
     7
100
AcDbLine
 10
-373.2285244685288
 20
273.8733233333335
 30
0.0
 11
-372.2941520770448
 21
273.3338631815865
 31
0.0
  0
LINE
  5
355
330
1F
100
AcDbEntity
  8
0
  6
CONTINUOUS
 62
     7
100
AcDbLine
 10
-363.8285244685289
 20
276.2959730641441
 30
0.0
 11
-363.7902478935649
 21
276.2296760915666
 31
0.0
  0
LINE
  5
356
330
1F
100
AcDbEntity
  8
0
  6
CONTINUOUS
 62
     7
100
AcDbLine
 10
-136.6285244685288
 20
320.1233233333336
 30
0.0
 11
-137.1679846202753
 21
321.0576957248174
 31
0.0
  0
LINE
  5
357
330
1F
100
AcDbEntity
  8
0
  6
CONTINUOUS
 62
     7
100
AcDbLine
 10
-366.0785244685289
 20
278.1233233333335
 30
0.0
 11
-365.5390643167823
 21
279.0576957248175
 31
0.0
  0
LINE
  5
358
330
1F
100
AcDbEntity
  8
0
  6
CONTINUOUS
 62
     7
100
AcDbLine
 10
-31.12852446852887
 20
307.3733233333335
 30
0.0
 11
-30.19415207704504
 21
307.91278348508
 31
0.0
  0
LINE
  5
359
330
1F
100
AcDbEntity
  8
0
  6
CONTINUOUS
 62
     7
100
AcDbLine
 10
-136.6285244685288
 20
317.6233233333335
 30
0.0
 11
-136.0890643167818
 21
316.6889509418496
 31
0.0
  0
LINE
  5
35A
330
1F
100
AcDbEntity
  8
0
  6
CONTINUOUS
 62
     7
100
AcDbLine
 10
-138.8128968600128
 20
319.4127834850801
 30
0.0
 11
-137.8785244685289
 21
318.8733233333335
 31
0.0
  0
LINE
  5
35B
330
1F
100
AcDbEntity
  8
0
  6
CONTINUOUS
 62
     7
100
AcDbLine
 10
-134.4441520770449
 20
318.3338631815865
 30
0.0
 11
-135.3785244685289
 21
318.8733233333336
 31
0.0
  0
LINE
  5
35C
330
1F
100
AcDbEntity
  8
0
  6
CONTINUOUS
 62
     7
100
AcDbLine
 10
-374.4785244685289
 20
272.6233233333335
 30
0.0
 11
-373.9390643167822
 21
271.6889509418495
 31
0.0
  0
LINE
  5
35D
330
1F
100
AcDbEntity
  8
0
  6
CONTINUOUS
 62
     7
100
AcDbLine
 10
-30.19415207704501
 20
306.8338631815865
 30
0.0
 11
-31.12852446852884
 21
307.3733233333336
 31
0.0
  0
LINE
  5
35E
330
1F
100
AcDbEntity
  8
0
  6
CONTINUOUS
 62
     7
100
AcDbLine
 10
-137.1679846202753
 20
316.6889509418496
 30
0.0
 11
-136.6285244685288
 21
317.6233233333335
 31
0.0
  0
LINE
  5
35F
330
1F
100
AcDbEntity
  8
0
  6
CONTINUOUS
 62
     7
100
AcDbLine
 10
-23.97852446852888
 20
308.6233233333335
 30
0.0
 11
-24.51798462027541
 21
309.5576957248169
 31
0.0
  0
LINE
  5
360
330
1F
100
AcDbEntity
  8
0
  6
CONTINUOUS
 62
     7
100
AcDbLine
 10
-23.97852446852888
 20
306.1233233333336
 30
0.0
 11
-23.43906431678236
 21
305.1889509418495
 31
0.0
  0
LINE
  5
361
330
1F
100
AcDbEntity
  8
0
  6
CONTINUOUS
 62
     7
100
AcDbLine
 10
-22.72852446852891
 20
307.3733233333335
 30
0.0
 11
-21.79415207704494
 21
307.91278348508
 31
0.0
  0
LINE
  5
362
330
1F
100
AcDbEntity
  8
0
  6
CONTINUOUS
 62
     7
100
AcDbLine
 10
-375.0179846202755
 20
279.0576957248176
 30
0.0
 11
-374.4785244685289
 21
278.1233233333336
 31
0.0
  0
LINE
  5
363
330
1F
100
AcDbEntity
  8
0
  6
CONTINUOUS
 62
     7
100
AcDbLine
 10
-364.8285244685288
 20
276.8733233333336
 30
0.0
 11
-364.8285244685289
 21
273.8733233333335
 31
0.0
  0
ARC
  5
364
330
1F
100
AcDbEntity
  8
0
  6
CONTINUOUS
 62
     7
100
AcDbCircle
 10
-366.0785244685289
 20
273.8733233333335
 30
0.0
 40
2.249999999999974
100
AcDbArc
 50
346.12762021316
 51
359.9999999999986
  0
LINE
  5
365
330
1F
100
AcDbEntity
  8
0
  6
CONTINUOUS
 62
   253
100
AcDbLine
 10
77.94391728566252
 20
261.447820785393
 30
0.0
 11
110.7990337772797
 21
261.447820785393
 31
0.0
  0
LINE
  5
366
330
1F
100
AcDbEntity
  8
0
  6
CONTINUOUS
 62
   253
100
AcDbLine
 10
31.79697807941162
 20
262.9457650875244
 30
0.0
 11
31.79697807941162
 21
319.800881579142
 31
0.0
  0
LINE
  5
367
330
1F
100
AcDbEntity
  8
0
  6
CONTINUOUS
 62
     7
100
AcDbLine
 10
-364.8285244685289
 20
273.8733233333335
 30
0.0
 11
-363.894152077045
 21
273.3338631815865
 31
0.0
  0
LINE
  5
368
330
1F
100
AcDbEntity
  8
0
  6
CONTINUOUS
 62
   253
100
AcDbLine
 10
112.2969780794117
 20
262.9457650875244
 30
0.0
 11
112.2969780794117
 21
319.800881579142
 31
0.0
  0
LINE
  5
369
330
1F
100
AcDbEntity
  8
0
  6
CONTINUOUS
 62
     7
100
AcDbLine
 10
179.4238114877141
 20
334.9277149874446
 30
0.0
 11
179.4238114877141
 21
247.818931679222
 31
0.0
  0
LINE
  5
36A
330
1F
100
AcDbEntity
  8
0
  6
CONTINUOUS
 62
     7
100
AcDbLine
 10
178.3714755314711
 20
247.818931679222
 30
0.0
 11
178.3714755314711
 21
334.9277149874446
 31
0.0
  0
LINE
  5
36B
330
1F
100
AcDbEntity
  8
0
  6
CONTINUOUS
 62
     7
100
AcDbLine
 10
177.9258671855821
 20
247.373323333333
 30
0.0
 11
178.3714755314711
 21
247.818931679222
 31
0.0
  0
LINE
  5
36C
330
1F
100
AcDbEntity
  8
0
  6
CONTINUOUS
 62
     7
100
AcDbLine
 10
-32.9179846202754
 20
305.1889509418495
 30
0.0
 11
-32.37852446852887
 21
306.1233233333336
 31
0.0
  0
LINE
  5
36D
330
1F
100
AcDbEntity
  8
0
  6
CONTINUOUS
 62
     7
100
AcDbLine
 10
179.4238114877141
 20
247.818931679222
 30
0.0
 11
178.3714755314712
 21
247.818931679222
 31
0.0
  0
ARC
  5
36E
330
1F
100
AcDbEntity
  8
0
  6
CONTINUOUS
 62
     7
100
AcDbCircle
 10
32.37852446852884
 20
307.3733233333335
 30
0.0
 40
2.249999999999974
210
0.0
220
0.0
230
-1.0
100
AcDbArc
 50
256.1276202131601
 51
283.8723797868391
  0
LINE
  5
36F
330
1F
100
AcDbEntity
  8
0
  6
CONTINUOUS
 62
     7
100
AcDbLine
 10
-31.8390643167823
 20
309.5576957248169
 30
0.0
 11
-32.37852446852882
 21
308.6233233333335
 31
0.0
  0
LINE
  5
370
330
1F
100
AcDbEntity
  8
0
  6
CONTINUOUS
 62
     7
100
AcDbLine
 10
-34.56289686001279
 20
307.91278348508
 30
0.0
 11
-33.62852446852882
 21
307.3733233333336
 31
0.0
  0
LINE
  5
371
330
1F
100
AcDbEntity
  8
0
  6
CONTINUOUS
 62
     7
100
AcDbLine
 10
179.4238114877141
 20
334.9277149874446
 30
0.0
 11
178.3714755314712
 21
334.9277149874446
 31
0.0
  0
LINE
  5
372
330
1F
100
AcDbEntity
  8
0
  6
CONTINUOUS
 62
     7
100
AcDbLine
 10
-32.37852446852884
 20
308.6233233333335
 30
0.0
 11
-32.91798462027537
 21
309.5576957248169
 31
0.0
  0
LINE
  5
373
330
1F
100
AcDbEntity
  8
0
  6
CONTINUOUS
 62
     7
100
AcDbLine
 10
177.9258671855821
 20
335.373323333333
 30
0.0
 11
177.9258671855821
 21
336.4256592895761
 31
0.0
  0
LINE
  5
374
330
1F
100
AcDbEntity
  8
0
  6
CONTINUOUS
 62
   253
100
AcDbLine
 10
-125.8785244685289
 20
290.148823787387
 30
0.0
 11
-99.8785244685289
 21
290.148823787387
 31
0.0
  0
LINE
  5
375
330
1F
100
AcDbEntity
  8
0
  6
CONTINUOUS
 62
   253
100
AcDbLine
 10
76.44597298353072
 20
319.800881579142
 30
0.0
 11
76.44597298353072
 21
262.9457650875244
 31
0.0
  0
ARC
  5
376
330
1F
100
AcDbEntity
  8
0
  6
CONTINUOUS
 62
   253
100
AcDbCircle
 10
-99.87852446852885
 20
291.3733233333335
 30
0.0
 40
1.224499545946056
100
AcDbArc
 50
269.9999999999961
 51
90.0
  0
LINE
  5
377
330
1F
100
AcDbEntity
  8
0
  6
CONTINUOUS
 62
     7
100
AcDbLine
 10
-32.37852446852884
 20
306.1233233333336
 30
0.0
 11
-31.83906431678232
 21
305.1889509418495
 31
0.0
  0
ARC
  5
378
330
1F
100
AcDbEntity
  8
0
  6
CONTINUOUS
 62
     7
100
AcDbCircle
 10
32.37852446852884
 20
307.3733233333335
 30
0.0
 40
2.249999999999974
210
0.0
220
0.0
230
-1.0
100
AcDbArc
 50
76.12762021316011
 51
103.8723797868391
  0
LINE
  5
379
330
1F
100
AcDbEntity
  8
0
  6
CONTINUOUS
 62
   253
100
AcDbLine
 10
-99.87852446852885
 20
292.5978228792795
 30
0.0
 11
-125.8785244685288
 21
292.5978228792795
 31
0.0
  0
LINE
  5
37A
330
1F
100
AcDbEntity
  8
0
  6
CONTINUOUS
 62
   253
100
AcDbLine
 10
-45.55302192058841
 20
262.9457650875244
 30
0.0
 11
-45.55302192058841
 21
319.800881579142
 31
0.0
  0
LINE
  5
37B
330
1F
100
AcDbEntity
  8
0
  6
CONTINUOUS
 62
   253
100
AcDbLine
 10
-3.054027016469396
 20
319.800881579142
 30
0.0
 11
-3.054027016469396
 21
262.9457650875244
 31
0.0
  0
LINE
  5
37C
330
1F
100
AcDbEntity
  8
0
  6
CONTINUOUS
 62
   253
100
AcDbLine
 10
-91.80608271433744
 20
261.447820785393
 30
0.0
 11
-47.05096622272031
 21
261.447820785393
 31
0.0
  0
LINE
  5
37D
330
1F
100
AcDbEntity
  8
0
  6
CONTINUOUS
 62
   253
100
AcDbLine
 10
110.7990337772797
 20
321.2988258812736
 30
0.0
 11
77.94391728566258
 21
321.2988258812736
 31
0.0
  0
LINE
  5
37E
330
1F
100
AcDbEntity
  8
0
  6
CONTINUOUS
 62
     7
100
AcDbLine
 10
177.9258671855825
 20
246.3209873770905
 30
0.0
 11
177.9258671855825
 21
247.373323333333
 31
0.0
  0
LINE
  5
37F
330
1F
100
AcDbEntity
  8
0
  6
CONTINUOUS
 62
   253
100
AcDbLine
 10
-47.05096622272031
 20
321.2988258812736
 30
0.0
 11
-91.80608271433744
 21
321.2988258812736
 31
0.0
  0
LINE
  5
380
330
1F
100
AcDbEntity
  8
0
  6
CONTINUOUS
 62
     7
100
AcDbLine
 10
-33.62852446852882
 20
307.3733233333335
 30
0.0
 11
-34.56289686001279
 21
306.8338631815865
 31
0.0
  0
LINE
  5
381
330
1F
100
AcDbEntity
  8
0
  6
CONTINUOUS
 62
   253
100
AcDbLine
 10
-93.30402701646933
 20
319.800881579142
 30
0.0
 11
-93.30402701646933
 21
262.9457650875244
 31
0.0
  0
LINE
  5
382
330
1F
100
AcDbEntity
  8
0
  6
CONTINUOUS
 62
   253
100
AcDbLine
 10
30.29903377727971
 20
321.2988258812736
 30
0.0
 11
-1.55608271433727
 21
321.2988258812736
 31
0.0
  0
LINE
  5
383
330
1F
100
AcDbEntity
  8
0
  6
CONTINUOUS
 62
   253
100
AcDbLine
 10
-1.55608271433727
 20
261.447820785393
 30
0.0
 11
30.29903377727971
 21
261.447820785393
 31
0.0
  0
ARC
  5
384
330
1F
100
AcDbEntity
  8
0
  6
CONTINUOUS
 62
   253
100
AcDbCircle
 10
-125.8785244685289
 20
291.3733233333335
 30
0.0
 40
1.224499545946056
100
AcDbArc
 50
90.0000000000065
 51
270.0
  0
LINE
  5
385
330
1F
100
AcDbEntity
  8
0
  6
CONTINUOUS
 62
   253
100
AcDbLine
 10
180.4196311171322
 20
335.9235346168625
 30
0.0
 11
179.4238114877141
 21
334.9277149874446
 31
0.0
  0
LINE
  5
386
330
1F
100
AcDbEntity
  8
0
  6
CONTINUOUS
 62
   253
100
AcDbLine
 10
-355.1540270164693
 20
319.800881579142
 30
0.0
 11
-355.1540270164693
 21
262.9457650875244
 31
0.0
  0
LINE
  5
387
330
1F
100
AcDbEntity
  8
0
  6
CONTINUOUS
 62
   253
100
AcDbLine
 10
-321.8009662227203
 20
321.298825881274
 30
0.0
 11
-353.6560827143375
 21
321.298825881274
 31
0.0
  0
LINE
  5
388
330
1F
100
AcDbEntity
  8
0
  6
CONTINUOUS
 62
   253
100
AcDbLine
 10
-401.3009662227203
 20
321.298825881274
 30
0.0
 11
-434.1560827143375
 21
321.298825881274
 31
0.0
  0
LINE
  5
389
330
1F
100
AcDbEntity
  8
0
  6
CONTINUOUS
 62
     7
100
AcDbLine
 10
-80.3778351961848
 20
290.8733213253041
 30
0.0
 11
-80.39277316664302
 21
290.9197395250061
 31
0.0
  0
LINE
  5
38A
330
1F
100
AcDbEntity
  8
0
  6
CONTINUOUS
 62
   253
100
AcDbLine
 10
177.9258671855821
 20
336.4256592895761
 30
0.0
 11
178.9216868150001
 21
337.4214789189941
 31
0.0
  0
ARC
  5
38B
330
1F
100
AcDbEntity
  8
0
  6
CONTINUOUS
 62
   253
100
AcDbCircle
 10
70.22147553147107
 20
291.3733233333335
 30
0.0
 40
0.3308538586476173
100
AcDbArc
 50
270.0
 51
89.99999999998079
  0
ARC
  5
38C
330
1F
100
AcDbEntity
  8
0
  6
CONTINUOUS
 62
   253
100
AcDbCircle
 10
118.6214755314712
 20
291.3733233333335
 30
0.0
 40
0.3308538586476173
100
AcDbArc
 50
90.0
 51
270.0000000000145
  0
LINE
  5
38D
330
1F
100
AcDbEntity
  8
0
  6
CONTINUOUS
 62
   253
100
AcDbLine
 10
-8.928524468528876
 20
291.704177191981
 30
0.0
 11
-39.42852446852898
 21
291.704177191981
 31
0.0
  0
LINE
  5
38E
330
1F
100
AcDbEntity
  8
0
  6
CONTINUOUS
 62
   253
100
AcDbLine
 10
-39.42852446852896
 20
291.0424694746856
 30
0.0
 11
-39.42852446852896
 21
290.542640812198
 31
0.0
  0
LINE
  5
38F
330
1F
100
AcDbEntity
  8
0
  6
CONTINUOUS
 62
     7
100
AcDbLine
 10
51.66093568321761
 20
303.6889509418491
 30
0.0
 11
51.12147553147109
 21
304.6233233333335
 31
0.0
  0
LINE
  5
390
330
1F
100
AcDbEntity
  8
0
  6
CONTINUOUS
 62
     7
100
AcDbLine
 10
43.26093568321765
 20
311.0576957248174
 30
0.0
 11
42.72147553147113
 21
310.1233233333336
 31
0.0
  0
LINE
  5
391
330
1F
100
AcDbEntity
  8
0
  6
CONTINUOUS
 62
   253
100
AcDbLine
 10
-125.8785244685289
 20
291.0424694746856
 30
0.0
 11
-125.8785244685289
 21
290.542640812198
 31
0.0
  0
ARC
  5
392
330
1F
100
AcDbEntity
  8
0
  6
CONTINUOUS
 62
   253
100
AcDbCircle
 10
144.6214755314711
 20
291.3733233333335
 30
0.0
 40
0.3308538586476173
100
AcDbArc
 50
270.0
 51
89.9999999999904
  0
ARC
  5
393
330
1F
100
AcDbEntity
  8
0
  6
CONTINUOUS
 62
   253
100
AcDbCircle
 10
-8.928524468528876
 20
291.3733233333335
 30
0.0
 40
0.3308538586476173
100
AcDbArc
 50
270.0
 51
89.99999999999103
  0
LINE
  5
394
330
1F
100
AcDbEntity
  8
0
  6
CONTINUOUS
 62
   253
100
AcDbLine
 10
42.7214755314711
 20
291.0424694746856
 30
0.0
 11
42.7214755314711
 21
290.542640812198
 31
0.0
  0
LINE
  5
395
330
1F
100
AcDbEntity
  8
0
  6
CONTINUOUS
 62
   253
100
AcDbLine
 10
-99.87852446852885
 20
292.2040058544684
 30
0.0
 11
-99.87852446852885
 21
291.7041771919809
 31
0.0
  0
LINE
  5
396
330
1F
100
AcDbEntity
  8
0
  6
CONTINUOUS
 62
     7
100
AcDbLine
 10
155.3714755314712
 20
292.6233233333335
 30
0.0
 11
155.9109356832176
 21
293.5576957248173
 31
0.0
  0
ARC
  5
397
330
1F
100
AcDbEntity
  8
0
  6
CONTINUOUS
 62
   253
100
AcDbCircle
 10
-99.87852446852885
 20
291.3733233333335
 30
0.0
 40
0.3308538586476173
100
AcDbArc
 50
269.9999999999855
 51
90.0
  0
LINE
  5
398
330
1F
100
AcDbEntity
  8
0
  6
CONTINUOUS
 62
     7
100
AcDbLine
 10
154.1214755314712
 20
291.3733233333335
 30
0.0
 11
153.187103139987
 21
291.9127834850801
 31
0.0
  0
LINE
  5
399
330
1F
100
AcDbEntity
  8
0
  6
CONTINUOUS
 62
     7
100
AcDbLine
 10
52.37147553147114
 20
305.8733233333335
 30
0.0
 11
53.30584792295512
 21
305.3338631815864
 31
0.0
  0
LINE
  5
39A
330
1F
100
AcDbEntity
  8
0
  6
CONTINUOUS
 62
     7
100
AcDbLine
 10
-293.1628968600128
 20
275.9127834850798
 30
0.0
 11
-292.2285244685288
 21
275.3733233333335
 31
0.0
  0
LINE
  5
39B
330
1F
100
AcDbEntity
  8
0
  6
CONTINUOUS
 62
     7
100
AcDbLine
 10
-161.6766800541898
 20
320.1233233333336
 30
0.0
 11
-161.6803688828678
 21
320.1233233333336
 31
0.0
  0
LINE
  5
39C
330
1F
100
AcDbEntity
  8
0
  6
CONTINUOUS
 62
     7
100
AcDbLine
 10
156.6214755314712
 20
318.8733233333336
 30
0.0
 11
157.5558479229552
 21
318.3338631815866
 31
0.0
  0
LINE
  5
39D
330
1F
100
AcDbEntity
  8
0
  6
CONTINUOUS
 62
   253
100
AcDbLine
 10
-39.42852446852896
 20
291.0424694746856
 30
0.0
 11
-8.928524468528847
 21
291.0424694746856
 31
0.0
  0
LINE
  5
39E
330
1F
100
AcDbEntity
  8
0
  6
CONTINUOUS
 62
     7
100
AcDbLine
 10
157.5558479229552
 20
291.9127834850801
 30
0.0
 11
156.6214755314712
 21
291.3733233333335
 31
0.0
  0
LINE
  5
39F
330
1F
100
AcDbEntity
  8
0
  6
CONTINUOUS
 62
     7
100
AcDbLine
 10
42.7214755314711
 20
310.1233233333336
 30
0.0
 11
42.18201537972471
 21
311.0576957248174
 31
0.0
  0
LINE
  5
3A0
330
1F
100
AcDbEntity
  8
0
  6
CONTINUOUS
 62
     7
100
AcDbLine
 10
153.1871031399871
 20
290.8338631815865
 30
0.0
 11
154.1214755314712
 21
291.3733233333335
 31
0.0
  0
LINE
  5
3A1
330
1F
100
AcDbEntity
  8
0
  6
CONTINUOUS
 62
     7
100
AcDbLine
 10
51.12147553147117
 20
310.1233233333336
 30
0.0
 11
50.58201537972479
 21
311.0576957248174
 31
0.0
  0
LINE
  5
3A2
330
1F
100
AcDbEntity
  8
0
  6
CONTINUOUS
 62
   253
100
AcDbLine
 10
118.6214755314712
 20
291.704177191981
 30
0.0
 11
118.6214755314712
 21
292.2040058544685
 31
0.0
  0
LINE
  5
3A3
330
1F
100
AcDbEntity
  8
0
  6
CONTINUOUS
 62
     7
100
AcDbLine
 10
-161.6766800541898
 20
333.8733233333335
 30
0.0
 11
-161.6803688828678
 21
333.8733233333335
 31
0.0
  0
LINE
  5
3A4
330
1F
100
AcDbEntity
  8
0
  6
CONTINUOUS
 62
     7
100
AcDbLine
 10
177.9258671855821
 20
335.373323333333
 30
0.0
 11
-161.6766800541899
 21
335.373323333333
 31
0.0
  0
CIRCLE
  5
3A5
330
1F
100
AcDbEntity
  8
0
  6
CONTINUOUS
 62
     7
100
AcDbCircle
 10
14.37147553147122
 20
291.3733233333335
 30
0.0
 40
13.56272467535891
  0
LINE
  5
3A6
330
1F
100
AcDbEntity
  8
0
  6
CONTINUOUS
 62
   253
100
AcDbLine
 10
-125.8785244685289
 20
292.2040058544684
 30
0.0
 11
-125.8785244685289
 21
291.7041771919809
 31
0.0
  0
LINE
  5
3A7
330
1F
100
AcDbEntity
  8
0
  6
CONTINUOUS
 62
   253
100
AcDbLine
 10
144.6214755314711
 20
291.704177191981
 30
0.0
 11
144.6214755314711
 21
292.2040058544685
 31
0.0
  0
ARC
  5
3A8
330
1F
100
AcDbEntity
  8
0
  6
CONTINUOUS
 62
   253
100
AcDbCircle
 10
42.7214755314711
 20
291.3733233333335
 30
0.0
 40
0.3308538586475063
100
AcDbArc
 50
90.0
 51
270.0000000000072
  0
LINE
  5
3A9
330
1F
100
AcDbEntity
  8
0
  6
CONTINUOUS
 62
     7
100
AcDbLine
 10
51.12147553147117
 20
304.6233233333335
 30
0.0
 11
50.58201537972479
 21
303.6889509418491
 31
0.0
  0
ARC
  5
3AA
330
1F
100
AcDbEntity
  8
0
  6
CONTINUOUS
 62
   253
100
AcDbCircle
 10
-39.42852446852896
 20
291.3733233333335
 30
0.0
 40
0.3308538586476173
100
AcDbArc
 50
90.0
 51
270.0000000000037
  0
LINE
  5
3AB
330
1F
100
AcDbEntity
  8
0
  6
CONTINUOUS
 62
     7
100
AcDbLine
 10
156.6214755314712
 20
291.3733233333335
 30
0.0
 11
157.5558479229552
 21
290.8338631815866
 31
0.0
  0
LINE
  5
3AC
330
1F
100
AcDbEntity
  8
0
  6
CONTINUOUS
 62
     7
100
AcDbLine
 10
83.4221644416786
 20
291.8733174110599
 30
0.0
 11
83.8876214765772
 21
291.955392191527
 31
0.0
  0
LINE
  5
3AD
330
1F
100
AcDbEntity
  8
0
  6
CONTINUOUS
 62
     7
100
AcDbLine
 10
43.97147553147107
 20
308.8733233333336
 30
0.0
 11
44.90584792295518
 21
309.4127834850802
 31
0.0
  0
LINE
  5
3AE
330
1F
100
AcDbEntity
  8
0
  6
CONTINUOUS
 62
     7
100
AcDbLine
 10
-299.3785244685288
 20
274.1233233333335
 30
0.0
 11
-298.8390643167822
 21
273.1889509418496
 31
0.0
  0
ARC
  5
3AF
330
1F
100
AcDbEntity
  8
0
  6
CONTINUOUS
 62
     7
100
AcDbCircle
 10
290.9785244685289
 20
275.3733233333335
 30
0.0
 40
2.249999999999974
210
0.0
220
0.0
230
-1.0
100
AcDbArc
 50
76.1276202131601
 51
103.8723797868398
  0
LINE
  5
3B0
330
1F
100
AcDbEntity
  8
0
  6
CONTINUOUS
 62
     7
100
AcDbLine
 10
43.26093568321765
 20
303.6889509418494
 30
0.0
 11
42.72147553147113
 21
304.6233233333334
 31
0.0
  0
LINE
  5
3B1
330
1F
100
AcDbEntity
  8
0
  6
CONTINUOUS
 62
     7
100
AcDbLine
 10
154.1214755314712
 20
263.873323333333
 30
0.0
 11
153.187103139987
 21
263.3338631815865
 31
0.0
  0
LINE
  5
3B2
330
1F
100
AcDbEntity
  8
0
  6
CONTINUOUS
 62
     7
100
AcDbLine
 10
155.3714755314712
 20
290.1233233333336
 30
0.0
 11
154.8320153797247
 21
289.1889509418496
 31
0.0
  0
LINE
  5
3B3
330
1F
100
AcDbEntity
  8
0
  6
CONTINUOUS
 62
     7
100
AcDbLine
 10
41.47147553147112
 20
305.8733233333335
 30
0.0
 11
40.53710313998715
 21
305.3338631815864
 31
0.0
  0
LINE
  5
3B4
330
1F
100
AcDbEntity
  8
0
  6
CONTINUOUS
 62
   253
100
AcDbLine
 10
-99.87852446852885
 20
291.704177191981
 30
0.0
 11
-125.8785244685288
 21
291.704177191981
 31
0.0
  0
LINE
  5
3B5
330
1F
100
AcDbEntity
  8
0
  6
CONTINUOUS
 62
     7
100
AcDbLine
 10
157.5558479229552
 20
319.4127834850801
 30
0.0
 11
156.6214755314712
 21
318.8733233333335
 31
0.0
  0
LINE
  5
3B6
330
1F
100
AcDbEntity
  8
0
  6
CONTINUOUS
 62
     7
100
AcDbLine
 10
155.9109356832176
 20
289.1889509418496
 30
0.0
 11
155.3714755314712
 21
290.1233233333336
 31
0.0
  0
LINE
  5
3B7
330
1F
100
AcDbEntity
  8
0
  6
CONTINUOUS
 62
   253
100
AcDbLine
 10
-8.928524468528876
 20
292.2040058544684
 30
0.0
 11
-8.928524468528876
 21
291.7041771919809
 31
0.0
  0
LINE
  5
3B8
330
1F
100
AcDbEntity
  8
0
  6
CONTINUOUS
 62
   253
100
AcDbLine
 10
-99.87852446852885
 20
291.0424694746856
 30
0.0
 11
-99.87852446852885
 21
290.542640812198
 31
0.0
  0
LINE
  5
3B9
330
1F
100
AcDbEntity
  8
0
  6
CONTINUOUS
 62
   253
100
AcDbLine
 10
144.6214755314711
 20
290.5426408121979
 30
0.0
 11
144.6214755314711
 21
291.0424694746855
 31
0.0
  0
LINE
  5
3BA
330
1F
100
AcDbEntity
  8
0
  6
CONTINUOUS
 62
   253
100
AcDbLine
 10
70.22147553147107
 20
292.2040058544684
 30
0.0
 11
70.22147553147107
 21
291.7041771919809
 31
0.0
  0
ARC
  5
3BB
330
1F
100
AcDbEntity
  8
0
  6
CONTINUOUS
 62
   253
100
AcDbCircle
 10
-125.8785244685289
 20
291.3733233333335
 30
0.0
 40
0.3308538586476173
100
AcDbArc
 50
90.00000000000963
 51
270.0
  0
LINE
  5
3BC
330
1F
100
AcDbEntity
  8
0
  6
CONTINUOUS
 62
   253
100
AcDbLine
 10
42.7214755314711
 20
292.2040058544684
 30
0.0
 11
42.7214755314711
 21
291.7041771919809
 31
0.0
  0
LINE
  5
3BD
330
1F
100
AcDbEntity
  8
0
  6
CONTINUOUS
 62
     7
100
AcDbLine
 10
155.9109356832176
 20
316.6889509418496
 30
0.0
 11
155.3714755314712
 21
317.6233233333335
 31
0.0
  0
CIRCLE
  5
3BE
330
1F
100
AcDbEntity
  8
0
  6
CONTINUOUS
 62
     7
100
AcDbCircle
 10
14.37147553147122
 20
291.3733233333335
 30
0.0
 40
11.14999999999999
  0
LINE
  5
3BF
330
1F
100
AcDbEntity
  8
0
  6
CONTINUOUS
 62
   253
100
AcDbLine
 10
-39.42852446852896
 20
292.2040058544684
 30
0.0
 11
-39.42852446852896
 21
291.7041771919809
 31
0.0
  0
LINE
  5
3C0
330
1F
100
AcDbEntity
  8
0
  6
CONTINUOUS
 62
   253
100
AcDbLine
 10
118.6214755314712
 20
290.5426408121979
 30
0.0
 11
118.6214755314712
 21
291.0424694746855
 31
0.0
  0
LINE
  5
3C1
330
1F
100
AcDbEntity
  8
0
  6
CONTINUOUS
 62
     7
100
AcDbLine
 10
-501.728524468529
 20
247.818931679222
 30
0.0
 11
-501.28291612264
 21
247.3733233333335
 31
0.0
  0
LINE
  5
3C2
330
1F
100
AcDbEntity
  8
0
  6
CONTINUOUS
 62
     7
100
AcDbLine
 10
-161.6766800541898
 20
304.8923937254875
 30
0.0
 11
-161.6766800541898
 21
304.9971462601755
 31
0.0
  0
LINE
  5
3C3
330
1F
100
AcDbEntity
  8
0
  6
CONTINUOUS
 62
     7
100
AcDbLine
 10
155.9109356832176
 20
266.0576957248171
 30
0.0
 11
155.3714755314712
 21
265.123323333333
 31
0.0
  0
LINE
  5
3C4
330
1F
100
AcDbEntity
  8
0
  6
CONTINUOUS
 62
     7
100
AcDbLine
 10
155.3714755314712
 20
317.6233233333335
 30
0.0
 11
154.8320153797247
 21
316.6889509418496
 31
0.0
  0
LINE
  5
3C5
330
1F
100
AcDbEntity
  8
0
  6
CONTINUOUS
 62
     7
100
AcDbLine
 10
51.66093568321761
 20
311.0576957248174
 30
0.0
 11
51.12147553147109
 21
310.1233233333336
 31
0.0
  0
LINE
  5
3C6
330
1F
100
AcDbEntity
  8
0
  6
CONTINUOUS
 62
     7
100
AcDbLine
 10
154.8320153797247
 20
261.6889509418495
 30
0.0
 11
155.3714755314712
 21
262.6233233333329
 31
0.0
  0
LINE
  5
3C7
330
1F
100
AcDbEntity
  8
0
  6
CONTINUOUS
 62
   253
100
AcDbLine
 10
70.22147553147107
 20
291.0424694746856
 30
0.0
 11
70.22147553147107
 21
290.542640812198
 31
0.0
  0
LINE
  5
3C8
330
1F
100
AcDbEntity
  8
0
  6
CONTINUOUS
 62
   253
100
AcDbLine
 10
42.7214755314711
 20
291.0424694746856
 30
0.0
 11
70.22147553147111
 21
291.0424694746856
 31
0.0
  0
LINE
  5
3C9
330
1F
100
AcDbEntity
  8
0
  6
CONTINUOUS
 62
   253
100
AcDbLine
 10
-8.928524468528876
 20
291.0424694746856
 30
0.0
 11
-8.928524468528876
 21
290.542640812198
 31
0.0
  0
LINE
  5
3CA
330
1F
100
AcDbEntity
  8
0
  6
CONTINUOUS
 62
     7
100
AcDbLine
 10
157.5558479229552
 20
263.3338631815865
 30
0.0
 11
156.6214755314712
 21
263.873323333333
 31
0.0
  0
LINE
  5
3CB
330
1F
100
AcDbEntity
  8
0
  6
CONTINUOUS
 62
     7
100
AcDbLine
 10
-501.28291612264
 20
247.3733233333335
 30
0.0
 11
-161.6803688828679
 21
247.373323333333
 31
0.0
  0
LINE
  5
3CC
330
1F
100
AcDbEntity
  8
0
  6
CONTINUOUS
 62
     7
100
AcDbLine
 10
-161.6766800541898
 20
304.9971462601755
 30
0.0
 11
-161.6766800541898
 21
306.0233232172284
 31
0.0
  0
LINE
  5
3CD
330
1F
100
AcDbEntity
  8
0
  6
CONTINUOUS
 62
     7
100
AcDbLine
 10
-161.6766800541898
 20
276.7233234494381
 30
0.0
 11
-161.6766800541898
 21
277.7495004064909
 31
0.0
  0
ARC
  5
3CE
330
1F
100
AcDbEntity
  8
0
  6
CONTINUOUS
 62
     7
100
AcDbCircle
 10
290.9785244685289
 20
275.3733233333335
 30
0.0
 40
2.250000000000085
210
0.0
220
0.0
230
-1.0
100
AcDbArc
 50
256.1276202131601
 51
283.8723797868398
  0
LINE
  5
3CF
330
1F
100
AcDbEntity
  8
0
  6
CONTINUOUS
 62
     7
100
AcDbLine
 10
-501.28291612264
 20
335.373323333333
 30
0.0
 11
-501.7285244685289
 21
334.9277149874446
 31
0.0
  0
LINE
  5
3D0
330
1F
100
AcDbEntity
  8
0
  6
CONTINUOUS
 62
     7
100
AcDbLine
 10
-289.7285244685289
 20
275.3733233333335
 30
0.0
 11
-288.7941520770449
 21
275.9127834850799
 31
0.0
  0
LINE
  5
3D1
330
1F
100
AcDbEntity
  8
0
  6
CONTINUOUS
 62
     7
100
AcDbLine
 10
-161.6803688828678
 20
247.373323333333
 30
0.0
 11
-161.6803688828678
 21
246.3209873770905
 31
0.0
  0
ARC
  5
3D2
330
1F
100
AcDbEntity
  8
0
  6
CONTINUOUS
 62
     7
100
AcDbCircle
 10
299.3785244685288
 20
275.3733233333335
 30
0.0
 40
2.249999999999919
210
0.0
220
0.0
230
-1.0
100
AcDbArc
 50
166.1276202131603
 51
193.8723797868391
  0
LINE
  5
3D3
330
1F
100
AcDbEntity
  8
0
  6
CONTINUOUS
 62
     7
100
AcDbLine
 10
177.9258671855821
 20
246.3209873770905
 30
0.0
 11
-161.6766800541899
 21
246.3209873770905
 31
0.0
  0
LINE
  5
3D4
330
1F
100
AcDbEntity
  8
0
  6
CONTINUOUS
 62
     7
100
AcDbLine
 10
-161.6803688828678
 20
308.8733233333336
 30
0.0
 11
-161.6766800541898
 21
308.8733233333336
 31
0.0
  0
LINE
  5
3D5
330
1F
100
AcDbEntity
  8
0
  6
CONTINUOUS
 62
   253
100
AcDbLine
 10
118.6214755314712
 20
291.0424694746856
 30
0.0
 11
144.6214755314711
 21
291.0424694746856
 31
0.0
  0
LINE
  5
3D6
330
1F
100
AcDbEntity
  8
0
  6
CONTINUOUS
 62
     7
100
AcDbLine
 10
-299.3785244685288
 20
276.6233233333331
 30
0.0
 11
-299.9179846202755
 21
277.5576957248174
 31
0.0
  0
LINE
  5
3D7
330
1F
100
AcDbEntity
  8
0
  6
CONTINUOUS
 62
     7
100
AcDbLine
 10
-161.6766800541898
 20
335.373323333333
 30
0.0
 11
-161.6766800541898
 21
336.4256592895761
 31
0.0
  0
LINE
  5
3D8
330
1F
100
AcDbEntity
  8
0
  6
CONTINUOUS
 62
     7
100
AcDbLine
 10
-298.8390643167822
 20
277.5576957248174
 30
0.0
 11
-299.3785244685288
 21
276.6233233333331
 31
0.0
  0
LINE
  5
3D9
330
1F
100
AcDbEntity
  8
0
  6
CONTINUOUS
 62
     7
100
AcDbLine
 10
-290.4390643167822
 20
277.5576957248174
 30
0.0
 11
-290.9785244685289
 21
276.6233233333331
 31
0.0
  0
ARC
  5
3DA
330
1F
100
AcDbEntity
  8
0
  6
CONTINUOUS
 62
     7
100
AcDbCircle
 10
290.9785244685289
 20
275.3733233333335
 30
0.0
 40
2.25000000000003
210
0.0
220
0.0
230
-1.0
100
AcDbArc
 50
166.1276202131603
 51
193.8723797868392
  0
LINE
  5
3DB
330
1F
100
AcDbEntity
  8
0
  6
CONTINUOUS
 62
     7
100
AcDbLine
 10
-501.2829161226402
 20
336.4256592895761
 30
0.0
 11
-501.2829161226402
 21
335.373323333333
 31
0.0
  0
LINE
  5
3DC
330
1F
100
AcDbEntity
  8
0
  6
CONTINUOUS
 62
     7
100
AcDbLine
 10
-161.6803688828678
 20
246.3209873770905
 30
0.0
 11
-501.28291612264
 21
246.3209873770905
 31
0.0
  0
LINE
  5
3DD
330
1F
100
AcDbEntity
  8
0
  6
CONTINUOUS
 62
     7
100
AcDbLine
 10
-161.6803688828678
 20
335.373323333333
 30
0.0
 11
-501.28291612264
 21
335.373323333333
 31
0.0
  0
LINE
  5
3DE
330
1F
100
AcDbEntity
  8
0
  6
CONTINUOUS
 62
   253
100
AcDbLine
 10
-353.6560827143375
 20
261.447820785393
 30
0.0
 11
-321.8009662227203
 21
261.447820785393
 31
0.0
  0
LINE
  5
3DF
330
1F
100
AcDbEntity
  8
0
  6
CONTINUOUS
 62
     7
100
AcDbLine
 10
-161.6766800541898
 20
306.0233232172284
 30
0.0
 11
-161.6766800541898
 21
335.373323333333
 31
0.0
  0
LINE
  5
3E0
330
1F
100
AcDbEntity
  8
0
  6
CONTINUOUS
 62
   253
100
AcDbLine
 10
-230.0530219205884
 20
262.9457650875244
 30
0.0
 11
-230.0530219205884
 21
319.800881579142
 31
0.0
  0
ARC
  5
3E1
330
1F
100
AcDbEntity
  8
0
  6
CONTINUOUS
 62
     7
100
AcDbCircle
 10
161.6785244685288
 20
291.3733233333335
 30
0.0
 40
14.65000000000005
210
0.0
220
0.0
230
-1.0
100
AcDbArc
 50
270.0072134578559
 51
89.99278654214406
  0
LINE
  5
3E2
330
1F
100
AcDbEntity
  8
0
  6
CONTINUOUS
 62
   253
100
AcDbLine
 10
-434.1560827143375
 20
261.447820785393
 30
0.0
 11
-401.3009662227204
 21
261.447820785393
 31
0.0
  0
LINE
  5
3E3
330
1F
100
AcDbEntity
  8
0
  6
CONTINUOUS
 62
     7
100
AcDbLine
 10
-501.728524468529
 20
334.9277149874446
 30
0.0
 11
-501.728524468529
 21
247.8189316792225
 31
0.0
  0
ARC
  5
3E4
330
1F
100
AcDbEntity
  8
0
  6
CONTINUOUS
 62
     7
100
AcDbCircle
 10
299.3785244685288
 20
275.3733233333335
 30
0.0
 40
2.249999999999919
210
0.0
220
0.0
230
-1.0
100
AcDbArc
 50
76.12762021316011
 51
103.8723797868385
  0
LINE
  5
3E5
330
1F
100
AcDbEntity
  8
0
  6
CONTINUOUS
 62
   253
100
AcDbLine
 10
-435.6540270164693
 20
319.800881579142
 30
0.0
 11
-435.6540270164693
 21
262.9457650875244
 31
0.0
  0
LINE
  5
3E6
330
1F
100
AcDbEntity
  8
0
  6
CONTINUOUS
 62
     7
100
AcDbLine
 10
-301.5628968600129
 20
275.9127834850798
 30
0.0
 11
-300.6285244685288
 21
275.3733233333335
 31
0.0
  0
LINE
  5
3E7
330
1F
100
AcDbEntity
  8
0
  6
CONTINUOUS
 62
     7
100
AcDbLine
 10
-161.6766800541898
 20
246.3209873770905
 30
0.0
 11
-161.6766800541898
 21
247.373323333333
 31
0.0
  0
LINE
  5
3E8
330
1F
100
AcDbEntity
  8
0
  6
CONTINUOUS
 62
     7
100
AcDbLine
 10
-502.7808604247717
 20
247.818931679222
 30
0.0
 11
-502.7808604247717
 21
334.9277149874446
 31
0.0
  0
LINE
  5
3E9
330
1F
100
AcDbEntity
  8
0
  6
CONTINUOUS
 62
     7
100
AcDbLine
 10
-502.7808604247717
 20
247.818931679222
 30
0.0
 11
-501.728524468529
 21
247.818931679222
 31
0.0
  0
LINE
  5
3EA
330
1F
100
AcDbEntity
  8
0
  6
CONTINUOUS
 62
     7
100
AcDbLine
 10
-161.6766800541898
 20
336.4256592895761
 30
0.0
 11
177.9258671855822
 21
336.4256592895761
 31
0.0
  0
LINE
  5
3EB
330
1F
100
AcDbEntity
  8
0
  6
CONTINUOUS
 62
     7
100
AcDbLine
 10
-501.28291612264
 20
336.4256592895761
 30
0.0
 11
-161.6803688828679
 21
336.4256592895761
 31
0.0
  0
LINE
  5
3EC
330
1F
100
AcDbEntity
  8
0
  6
CONTINUOUS
 62
     7
100
AcDbLine
 10
-161.6803688828678
 20
276.7233234494381
 30
0.0
 11
-161.6803688828678
 21
247.373323333333
 31
0.0
  0
LINE
  5
3ED
330
1F
100
AcDbEntity
  8
0
  6
CONTINUOUS
 62
     7
100
AcDbLine
 10
-161.6803688828678
 20
336.4256592895761
 30
0.0
 11
-161.6803688828678
 21
335.373323333333
 31
0.0
  0
LINE
  5
3EE
330
1F
100
AcDbEntity
  8
0
  6
CONTINUOUS
 62
   253
100
AcDbLine
 10
-277.8040270164692
 20
319.800881579142
 30
0.0
 11
-277.8040270164693
 21
262.9457650875244
 31
0.0
  0
LINE
  5
3EF
330
1F
100
AcDbEntity
  8
0
  6
CONTINUOUS
 62
     7
100
AcDbLine
 10
-291.5179846202756
 20
273.1889509418492
 30
0.0
 11
-290.9785244685289
 21
274.1233233333335
 31
0.0
  0
LINE
  5
3F0
330
1F
100
AcDbEntity
  8
0
  6
CONTINUOUS
 62
     7
100
AcDbLine
 10
-161.6766800541898
 20
245.3251677476724
 30
0.0
 11
-161.6766800541898
 21
246.3209873770905
 31
0.0
  0
LINE
  5
3F1
330
1F
100
AcDbEntity
  8
0
  6
CONTINUOUS
 62
     7
100
AcDbLine
 10
-161.6766800541898
 20
277.8542530669965
 30
0.0
 11
-161.6766800541898
 21
280.2233234858834
 31
0.0
  0
LINE
  5
3F2
330
1F
100
AcDbEntity
  8
0
  6
CONTINUOUS
 62
     7
100
AcDbLine
 10
-501.28291612264
 20
247.3733233333335
 30
0.0
 11
-501.28291612264
 21
246.3209873770905
 31
0.0
  0
LINE
  5
3F3
330
1F
100
AcDbEntity
  8
0
  6
CONTINUOUS
 62
     7
100
AcDbLine
 10
-297.1941520770449
 20
274.8338631815864
 30
0.0
 11
-298.1285244685289
 21
275.3733233333335
 31
0.0
  0
LINE
  5
3F4
330
1F
100
AcDbEntity
  8
0
  6
CONTINUOUS
 62
     7
100
AcDbLine
 10
-298.1285244685289
 20
275.3733233333335
 30
0.0
 11
-297.1941520770449
 21
275.9127834850799
 31
0.0
  0
ARC
  5
3F5
330
1F
100
AcDbEntity
  8
0
  6
CONTINUOUS
 62
     7
100
AcDbCircle
 10
290.9785244685289
 20
275.3733233333335
 30
0.0
 40
2.249999999999974
210
0.0
220
0.0
230
-1.0
100
AcDbArc
 50
346.1276202131601
 51
13.87237978683908
  0
LINE
  5
3F6
330
1F
100
AcDbEntity
  8
0
  6
CONTINUOUS
 62
     7
100
AcDbLine
 10
-161.6766800541898
 20
302.5233231807836
 30
0.0
 11
-161.6766800541898
 21
304.8923937254875
 31
0.0
  0
LINE
  5
3F7
330
1F
100
AcDbEntity
  8
0
  6
CONTINUOUS
 62
     7
100
AcDbLine
 10
-161.6766800541898
 20
336.4256592895761
 30
0.0
 11
-161.6766800541898
 21
337.4214789189941
 31
0.0
  0
LINE
  5
3F8
330
1F
100
AcDbEntity
  8
0
  6
CONTINUOUS
 62
     7
100
AcDbLine
 10
-161.6766800541898
 20
247.373323333333
 30
0.0
 11
177.9258671855822
 21
247.373323333333
 31
0.0
  0
LINE
  5
3F9
330
1F
100
AcDbEntity
  8
0
  6
CONTINUOUS
 62
     7
100
AcDbLine
 10
-300.6285244685288
 20
275.3733233333335
 30
0.0
 11
-301.5628968600129
 21
274.8338631815865
 31
0.0
  0
LINE
  5
3FA
330
1F
100
AcDbEntity
  8
0
  6
CONTINUOUS
 62
     7
100
AcDbLine
 10
-161.6766800541898
 20
277.7495004064909
 30
0.0
 11
-161.6766800541898
 21
277.8542530669965
 31
0.0
  0
LINE
  5
3FB
330
1F
100
AcDbEntity
  8
0
  6
CONTINUOUS
 62
     7
100
AcDbLine
 10
-290.9785244685289
 20
276.6233233333331
 30
0.0
 11
-291.5179846202756
 21
277.5576957248174
 31
0.0
  0
ARC
  5
3FC
330
1F
100
AcDbEntity
  8
0
  6
CONTINUOUS
 62
     7
100
AcDbCircle
 10
-161.6785244685288
 20
291.3733233333335
 30
0.0
 40
13.62382305169218
100
AcDbArc
 50
270.0077567917047
 51
89.9922432082954
  0
LINE
  5
3FD
330
1F
100
AcDbEntity
  8
0
  6
CONTINUOUS
 62
     7
100
AcDbLine
 10
-299.9179846202755
 20
273.1889509418492
 30
0.0
 11
-299.3785244685288
 21
274.1233233333335
 31
0.0
  0
ARC
  5
3FE
330
1F
100
AcDbEntity
  8
0
  6
CONTINUOUS
 62
     7
100
AcDbCircle
 10
161.6785244685288
 20
291.3733233333335
 30
0.0
 40
11.14999999999999
210
0.0
220
0.0
230
-1.0
100
AcDbArc
 50
90.00947777199939
 51
269.9905222280006
  0
LINE
  5
3FF
330
1F
100
AcDbEntity
  8
0
  6
CONTINUOUS
 62
     7
100
AcDbLine
 10
-292.2285244685288
 20
275.3733233333335
 30
0.0
 11
-293.1628968600128
 21
274.8338631815865
 31
0.0
  0
ARC
  5
400
330
1F
100
AcDbEntity
  8
0
  6
CONTINUOUS
 62
     7
100
AcDbCircle
 10
161.6785244685288
 20
291.3733233333335
 30
0.0
 40
14.65000000000005
210
0.0
220
0.0
230
-1.0
100
AcDbArc
 50
90.00721345785591
 51
269.9927865421442
  0
LINE
  5
401
330
1F
100
AcDbEntity
  8
0
  6
CONTINUOUS
 62
     7
100
AcDbLine
 10
-290.9785244685289
 20
274.1233233333335
 30
0.0
 11
-290.4390643167822
 21
273.1889509418496
 31
0.0
  0
LINE
  5
402
330
1F
100
AcDbEntity
  8
0
  6
CONTINUOUS
 62
     7
100
AcDbLine
 10
-502.7808604247717
 20
334.9277149874446
 30
0.0
 11
-501.7285244685289
 21
334.9277149874446
 31
0.0
  0
LINE
  5
403
330
1F
100
AcDbEntity
  8
0
  6
CONTINUOUS
 62
     7
100
AcDbLine
 10
-161.6766800541898
 20
247.373323333333
 30
0.0
 11
-161.6766800541898
 21
276.7233234494381
 31
0.0
  0
LINE
  5
404
330
1F
100
AcDbEntity
  8
0
  6
CONTINUOUS
 62
   253
100
AcDbLine
 10
70.22147553147107
 20
291.704177191981
 30
0.0
 11
42.72147553147104
 21
291.704177191981
 31
0.0
  0
ARC
  5
405
330
1F
100
AcDbEntity
  8
0
  6
CONTINUOUS
 62
     7
100
AcDbCircle
 10
299.3785244685288
 20
275.3733233333335
 30
0.0
 40
2.249999999999974
210
0.0
220
0.0
230
-1.0
100
AcDbArc
 50
346.1276202131601
 51
13.87237978683913
  0
LINE
  5
406
330
1F
100
AcDbEntity
  8
0
  6
CONTINUOUS
 62
     7
100
AcDbLine
 10
-161.6803688828678
 20
322.6233233333335
 30
0.0
 11
-161.6766800541898
 21
322.6233233333335
 31
0.0
  0
LINE
  5
407
330
1F
100
AcDbEntity
  8
0
  6
CONTINUOUS
 62
     7
100
AcDbLine
 10
-288.7941520770448
 20
274.8338631815864
 30
0.0
 11
-289.7285244685289
 21
275.3733233333335
 31
0.0
  0
LINE
  5
408
330
1F
100
AcDbEntity
  8
0
  6
CONTINUOUS
 62
   253
100
AcDbLine
 10
-125.8785244685289
 20
291.0424694746856
 30
0.0
 11
-99.8785244685289
 21
291.0424694746856
 31
0.0
  0
ARC
  5
409
330
1F
100
AcDbEntity
  8
0
  6
CONTINUOUS
 62
     7
100
AcDbCircle
 10
299.3785244685288
 20
275.3733233333335
 30
0.0
 40
2.250000000000085
210
0.0
220
0.0
230
-1.0
100
AcDbArc
 50
256.1276202131601
 51
283.8723797868384
  0
LINE
  5
40A
330
1F
100
AcDbEntity
  8
0
  6
CONTINUOUS
 62
   253
100
AcDbLine
 10
144.6214755314711
 20
291.704177191981
 30
0.0
 11
118.6214755314712
 21
291.704177191981
 31
0.0
  0
LINE
  5
40B
330
1F
100
AcDbEntity
  8
0
  6
CONTINUOUS
 62
   253
100
AcDbLine
 10
-231.5509662227203
 20
321.2988258812736
 30
0.0
 11
-276.3060827143374
 21
321.2988258812736
 31
0.0
  0
ARC
  5
40C
330
1F
100
AcDbEntity
  8
0
  6
CONTINUOUS
 62
   253
100
AcDbCircle
 10
203.4285244685289
 20
307.3733233333335
 30
0.0
 40
3.8034341919857
210
0.0
220
0.0
230
-1.0
100
AcDbArc
 50
270.0
 51
90.0
  0
LINE
  5
40D
330
1F
100
AcDbEntity
  8
0
  6
CONTINUOUS
 62
     7
100
AcDbLine
 10
-161.6803688828678
 20
335.373323333333
 30
0.0
 11
-161.6803688828678
 21
306.0233232172284
 31
0.0
  0
ARC
  5
40E
330
1F
100
AcDbEntity
  8
0
  6
CONTINUOUS
 62
   253
100
AcDbCircle
 10
-195.0285244685288
 20
307.3733233333335
 30
0.0
 40
3.8034341919857
100
AcDbArc
 50
270.0
 51
90.0
  0
LINE
  5
40F
330
1F
100
AcDbEntity
  8
0
  6
CONTINUOUS
 62
   253
100
AcDbLine
 10
-276.3060827143374
 20
261.447820785393
 30
0.0
 11
-231.5509662227203
 21
261.447820785393
 31
0.0
  0
ARC
  5
410
330
1F
100
AcDbEntity
  8
0
  6
CONTINUOUS
 62
   253
100
AcDbCircle
 10
119.9285244685289
 20
275.3733233333331
 30
0.0
 40
3.8034341919857
210
0.0
220
0.0
230
-1.0
100
AcDbArc
 50
90.0
 51
270.0
  0
ARC
  5
411
330
1F
100
AcDbEntity
  8
0
  6
CONTINUOUS
 62
   253
100
AcDbCircle
 10
-290.9785244685289
 20
275.3733233333335
 30
0.0
 40
3.803434191985644
100
AcDbArc
 50
270.000000000001
 51
90.00000000000102
  0
ARC
  5
412
330
1F
100
AcDbEntity
  8
0
  6
CONTINUOUS
 62
   253
100
AcDbCircle
 10
299.3785244685288
 20
275.3733233333335
 30
0.0
 40
3.803434191985589
210
0.0
220
0.0
230
-1.0
100
AcDbArc
 50
270.0000000000005
 51
90.0000000000005
  0
ARC
  5
413
330
1F
100
AcDbEntity
  8
0
  6
CONTINUOUS
 62
   253
100
AcDbCircle
 10
-128.3285244685288
 20
275.3733233333331
 30
0.0
 40
3.8034341919857
100
AcDbArc
 50
90.0
 51
270.0
  0
LINE
  5
414
330
1F
100
AcDbEntity
  8
0
  6
CONTINUOUS
 62
   253
100
AcDbLine
 10
42.7214755314711
 20
302.0698891413475
 30
0.0
 11
51.12147553147117
 21
302.0698891413475
 31
0.0
  0
LINE
  5
415
330
1F
100
AcDbEntity
  8
0
  6
CONTINUOUS
 62
   253
100
AcDbLine
 10
-1.55608271433727
 20
321.2988258812736
 30
0.0
 11
-1.21131793213286
 21
320.954061099069
 31
0.0
  0
LINE
  5
416
330
1F
100
AcDbEntity
  8
0
  6
CONTINUOUS
 62
   253
100
AcDbLine
 10
-91.46131793212841
 20
320.9540610312545
 30
0.0
 11
-91.46131344714992
 21
320.8859309216865
 31
0.0
  0
LINE
  5
417
330
1F
100
AcDbEntity
  8
0
  6
CONTINUOUS
 62
   253
100
AcDbLine
 10
-45.89778677060718
 20
319.4561167969325
 30
0.0
 11
-45.96591688017531
 21
319.456112311954
 31
0.0
  0
CIRCLE
  5
418
330
1F
100
AcDbEntity
  8
0
  6
CONTINUOUS
 62
   253
100
AcDbCircle
 10
155.3714755314712
 20
291.3733233333335
 30
0.0
 40
3.8034341919857
  0
ARC
  5
419
330
1F
100
AcDbEntity
  8
0
  6
CONTINUOUS
 62
   253
100
AcDbCircle
 10
42.7214755314711
 20
305.8733233333335
 30
0.0
 40
3.8034341919857
100
AcDbArc
 50
180.0
 51
270.0000000000015
  0
ARC
  5
41A
330
1F
100
AcDbEntity
  8
0
  6
CONTINUOUS
 62
     7
100
AcDbCircle
 10
155.3714755314712
 20
318.8733233333336
 30
0.0
 40
2.249999999999974
100
AcDbArc
 50
76.12762021316016
 51
103.8723797868391
  0
CIRCLE
  5
41B
330
1F
100
AcDbEntity
  8
0
  6
CONTINUOUS
 62
   253
100
AcDbCircle
 10
155.3714755314712
 20
263.873323333333
 30
0.0
 40
3.8034341919857
  0
LINE
  5
41C
330
1F
100
AcDbEntity
  8
0
  6
CONTINUOUS
 62
   253
100
AcDbLine
 10
-23.97852446852888
 20
311.176757525319
 30
0.0
 11
-32.37852446852882
 21
311.176757525319
 31
0.0
  0
ARC
  5
41D
330
1F
100
AcDbEntity
  8
0
  6
CONTINUOUS
 62
     7
100
AcDbCircle
 10
155.3714755314712
 20
318.8733233333336
 30
0.0
 40
2.249999999999974
100
AcDbArc
 50
256.1276202131601
 51
283.8723797868391
  0
LINE
  5
41E
330
1F
100
AcDbEntity
  8
0
  6
CONTINUOUS
 62
     7
100
AcDbLine
 10
111.8840831841391
 20
263.2905298697294
 30
0.0
 11
111.8840831198246
 21
319.456112311954
 31
0.0
  0
CIRCLE
  5
41F
330
1F
100
AcDbEntity
  8
0
  6
CONTINUOUS
 62
   253
100
AcDbCircle
 10
155.3714755314712
 20
318.8733233333336
 30
0.0
 40
3.8034341919857
  0
ARC
  5
420
330
1F
100
AcDbEntity
  8
0
  6
CONTINUOUS
 62
     7
100
AcDbCircle
 10
-155.3714755314712
 20
263.873323333333
 30
0.0
 40
2.250000000000085
210
0.0
220
0.0
230
-1.0
100
AcDbArc
 50
76.12762021316011
 51
103.8723797868391
  0
ARC
  5
421
330
1F
100
AcDbEntity
  8
0
  6
CONTINUOUS
 62
     7
100
AcDbCircle
 10
155.3714755314712
 20
263.873323333333
 30
0.0
 40
2.249999999999974
100
AcDbArc
 50
103.8723797868393
 51
166.12762021316
  0
LINE
  5
422
330
1F
100
AcDbEntity
  8
0
  6
CONTINUOUS
 62
   253
100
AcDbLine
 10
76.79073776573576
 20
319.456116796937
 30
0.0
 11
76.44597298353078
 21
319.800881579142
 31
0.0
  0
LINE
  5
423
330
1F
100
AcDbEntity
  8
0
  6
CONTINUOUS
 62
   253
100
AcDbLine
 10
-2.709262234264376
 20
319.456116796937
 30
0.0
 11
-3.054027016469341
 21
319.800881579142
 31
0.0
  0
LINE
  5
424
330
1F
100
AcDbEntity
  8
0
  6
CONTINUOUS
 62
   253
100
AcDbLine
 10
30.29903377727971
 20
261.447820785393
 30
0.0
 11
29.95426899507517
 21
261.7925855675975
 31
0.0
  0
LINE
  5
425
330
1F
100
AcDbEntity
  8
0
  6
CONTINUOUS
 62
   253
100
AcDbLine
 10
76.79073776573576
 20
319.456116796937
 30
0.0
 11
76.85886787880372
 21
319.456116796937
 31
0.0
  0
LINE
  5
426
330
1F
100
AcDbEntity
  8
0
  6
CONTINUOUS
 62
   253
100
AcDbLine
 10
-93.30402701646933
 20
262.9457650875244
 30
0.0
 11
-92.95926223426437
 21
263.2905298697294
 31
0.0
  0
LINE
  5
427
330
1F
100
AcDbEntity
  8
0
  6
CONTINUOUS
 62
     7
100
AcDbLine
 10
31.4522132972066
 20
263.2905298697294
 30
0.0
 11
31.4522132972066
 21
319.456116796937
 31
0.0
  0
LINE
  5
428
330
1F
100
AcDbEntity
  8
0
  6
CONTINUOUS
 62
   253
100
AcDbLine
 10
38.91804133948562
 20
308.8733233333336
 30
0.0
 11
38.91804133948562
 21
305.8733233333335
 31
0.0
  0
LINE
  5
429
330
1F
100
AcDbEntity
  8
0
  6
CONTINUOUS
 62
   253
100
AcDbLine
 10
-91.80608271433744
 20
321.2988258812736
 30
0.0
 11
-91.46131793213289
 21
320.954061099069
 31
0.0
  0
LINE
  5
42A
330
1F
100
AcDbEntity
  8
0
  6
CONTINUOUS
 62
   253
100
AcDbLine
 10
-92.95926223426432
 20
319.456116796937
 30
0.0
 11
-92.89113212119635
 21
319.456116796937
 31
0.0
  0
ARC
  5
42B
330
1F
100
AcDbEntity
  8
0
  6
CONTINUOUS
 62
     7
100
AcDbCircle
 10
155.3714755314712
 20
318.8733233333336
 30
0.0
 40
2.249999999999974
100
AcDbArc
 50
103.8723797868398
 51
166.1276202131605
  0
LINE
  5
42C
330
1F
100
AcDbEntity
  8
0
  6
CONTINUOUS
 62
     7
100
AcDbLine
 10
76.8588678788037
 20
319.456116796937
 30
0.0
 11
76.85886794311766
 21
263.290534354712
 31
0.0
  0
ARC
  5
42D
330
1F
100
AcDbEntity
  8
0
  6
CONTINUOUS
 62
     7
100
AcDbCircle
 10
155.3714755314712
 20
318.8733233333336
 30
0.0
 40
2.249999999999974
100
AcDbArc
 50
13.87237978683945
 51
76.1276202131608
  0
LINE
  5
42E
330
1F
100
AcDbEntity
  8
0
  6
CONTINUOUS
 62
   253
100
AcDbLine
 10
110.7990337772797
 20
261.447820785393
 30
0.0
 11
110.4542689950752
 21
261.7925855675975
 31
0.0
  0
LINE
  5
42F
330
1F
100
AcDbEntity
  8
0
  6
CONTINUOUS
 62
   253
100
AcDbLine
 10
111.9522132972066
 20
263.2905298697294
 30
0.0
 11
111.8840831841391
 21
263.2905298697294
 31
0.0
  0
ARC
  5
430
330
1F
100
AcDbEntity
  8
0
  6
CONTINUOUS
 62
     7
100
AcDbCircle
 10
-155.3714755314712
 20
263.873323333333
 30
0.0
 40
2.250000000000085
210
0.0
220
0.0
230
-1.0
100
AcDbArc
 50
346.1276202131601
 51
13.87237978683919
  0
ARC
  5
431
330
1F
100
AcDbEntity
  8
0
  6
CONTINUOUS
 62
     7
100
AcDbCircle
 10
155.3714755314712
 20
263.873323333333
 30
0.0
 40
2.249999999999974
100
AcDbArc
 50
193.8723797868392
 51
256.1276202131601
  0
ARC
  5
432
330
1F
100
AcDbEntity
  8
0
  6
CONTINUOUS
 62
   253
100
AcDbCircle
 10
42.7214755314711
 20
308.8733233333336
 30
0.0
 40
3.8034341919857
100
AcDbArc
 50
90.0
 51
179.9999999999995
  0
LINE
  5
433
330
1F
100
AcDbEntity
  8
0
  6
CONTINUOUS
 62
   253
100
AcDbLine
 10
-91.46131793213286
 20
261.7925855675975
 30
0.0
 11
-91.8060827143374
 21
261.447820785393
 31
0.0
  0
LINE
  5
434
330
1F
100
AcDbEntity
  8
0
  6
CONTINUOUS
 62
   253
100
AcDbLine
 10
111.9522132293926
 20
319.4561167969325
 30
0.0
 11
111.8840831198245
 21
319.456112311954
 31
0.0
  0
LINE
  5
435
330
1F
100
AcDbEntity
  8
0
  6
CONTINUOUS
 62
     7
100
AcDbLine
 10
-92.89113212119638
 20
319.456116796937
 30
0.0
 11
-92.8911320568824
 21
263.290534354712
 31
0.0
  0
LINE
  5
436
330
1F
100
AcDbEntity
  8
0
  6
CONTINUOUS
 62
   253
100
AcDbLine
 10
76.79073783354961
 20
263.290529869734
 30
0.0
 11
76.8588679431176
 21
263.290534354712
 31
0.0
  0
ARC
  5
437
330
1F
100
AcDbEntity
  8
0
  6
CONTINUOUS
 62
   253
100
AcDbCircle
 10
-23.97852446852888
 20
307.3733233333335
 30
0.0
 40
3.8034341919857
100
AcDbArc
 50
269.9999999999983
 51
90.0
  0
LINE
  5
438
330
1F
100
AcDbEntity
  8
0
  6
CONTINUOUS
 62
   253
100
AcDbLine
 10
-47.05096622272031
 20
261.447820785393
 30
0.0
 11
-47.39573100492486
 21
261.7925855675975
 31
0.0
  0
LINE
  5
439
330
1F
100
AcDbEntity
  8
0
  6
CONTINUOUS
 62
     7
100
AcDbLine
 10
-1.211317932132916
 20
261.7925855675975
 30
0.0
 11
29.95426899507511
 21
261.7925855675975
 31
0.0
  0
LINE
  5
43A
330
1F
100
AcDbEntity
  8
0
  6
CONTINUOUS
 62
     7
100
AcDbLine
 10
78.2886820678671
 20
261.8607156806655
 30
0.0
 11
110.4542645100921
 21
261.86071574498
 31
0.0
  0
LINE
  5
43B
330
1F
100
AcDbEntity
  8
0
  6
CONTINUOUS
 62
   253
100
AcDbLine
 10
78.2886820678671
 20
261.7925855675975
 30
0.0
 11
78.2886820678671
 21
261.8607156806655
 31
0.0
  0
LINE
  5
43C
330
1F
100
AcDbEntity
  8
0
  6
CONTINUOUS
 62
   253
100
AcDbLine
 10
-47.39573100492478
 20
320.954061099069
 30
0.0
 11
-47.05096622272023
 21
321.2988258812736
 31
0.0
  0
LINE
  5
43D
330
1F
100
AcDbEntity
  8
0
  6
CONTINUOUS
 62
   253
100
AcDbLine
 10
-45.89778670279287
 20
263.2905298697294
 30
0.0
 11
-45.55302192058846
 21
262.9457650875245
 31
0.0
  0
LINE
  5
43E
330
1F
100
AcDbEntity
  8
0
  6
CONTINUOUS
 62
   253
100
AcDbLine
 10
-45.55302192058841
 20
319.800881579142
 30
0.0
 11
-45.89778670279282
 21
319.4561167969368
 31
0.0
  0
ARC
  5
43F
330
1F
100
AcDbEntity
  8
0
  6
CONTINUOUS
 62
     7
100
AcDbCircle
 10
155.3714755314712
 20
318.8733233333336
 30
0.0
 40
2.249999999999974
100
AcDbArc
 50
283.8723797868398
 51
346.1276202131607
  0
ARC
  5
440
330
1F
100
AcDbEntity
  8
0
  6
CONTINUOUS
 62
     7
100
AcDbCircle
 10
155.3714755314712
 20
318.8733233333336
 30
0.0
 40
2.249999999999974
100
AcDbArc
 50
346.1276202131603
 51
13.87237978683913
  0
ARC
  5
441
330
1F
100
AcDbEntity
  8
0
  6
CONTINUOUS
 62
   253
100
AcDbCircle
 10
51.12147553147117
 20
308.8733233333336
 30
0.0
 40
3.8034341919857
100
AcDbArc
 50
0.0
 51
89.99999999999854
  0
LINE
  5
442
330
1F
100
AcDbEntity
  8
0
  6
CONTINUOUS
 62
     7
100
AcDbLine
 10
29.95426899507514
 20
320.954061099069
 30
0.0
 11
-1.211317932132888
 21
320.954061099069
 31
0.0
  0
LINE
  5
443
330
1F
100
AcDbEntity
  8
0
  6
CONTINUOUS
 62
   253
100
AcDbLine
 10
-47.39573100492478
 20
320.954061099069
 30
0.0
 11
-47.39573100492478
 21
320.8859309860009
 31
0.0
  0
LINE
  5
444
330
1F
100
AcDbEntity
  8
0
  6
CONTINUOUS
 62
   253
100
AcDbLine
 10
54.92490972345709
 20
305.8733233333335
 30
0.0
 11
54.92490972345709
 21
308.8733233333335
 31
0.0
  0
LINE
  5
445
330
1F
100
AcDbEntity
  8
0
  6
CONTINUOUS
 62
   253
100
AcDbLine
 10
-92.95926223426432
 20
319.456116796937
 30
0.0
 11
-93.30402701646928
 21
319.800881579142
 31
0.0
  0
LINE
  5
446
330
1F
100
AcDbEntity
  8
0
  6
CONTINUOUS
 62
   253
100
AcDbLine
 10
-32.37852446852884
 20
303.5698891413476
 30
0.0
 11
-23.97852446852891
 21
303.5698891413476
 31
0.0
  0
LINE
  5
447
330
1F
100
AcDbEntity
  8
0
  6
CONTINUOUS
 62
   253
100
AcDbLine
 10
-3.054027016469396
 20
262.9457650875244
 30
0.0
 11
-2.709262234264431
 21
263.2905298697294
 31
0.0
  0
LINE
  5
448
330
1F
100
AcDbEntity
  8
0
  6
CONTINUOUS
 62
   253
100
AcDbLine
 10
111.9522132972066
 20
263.2905298697294
 30
0.0
 11
112.2969780794117
 21
262.9457650875245
 31
0.0
  0
LINE
  5
449
330
1F
100
AcDbEntity
  8
0
  6
CONTINUOUS
 62
   253
100
AcDbLine
 10
-1.211317932132916
 20
261.7925855675975
 30
0.0
 11
-1.556082714337326
 21
261.447820785393
 31
0.0
  0
ARC
  5
44A
330
1F
100
AcDbEntity
  8
0
  6
CONTINUOUS
 62
     7
100
AcDbCircle
 10
-155.3714755314712
 20
263.873323333333
 30
0.0
 40
2.250000000000085
210
0.0
220
0.0
230
-1.0
100
AcDbArc
 50
256.1276202131601
 51
283.8723797868391
  0
ARC
  5
44B
330
1F
100
AcDbEntity
  8
0
  6
CONTINUOUS
 62
   253
100
AcDbCircle
 10
-32.37852446852884
 20
307.3733233333335
 30
0.0
 40
3.803434191985589
100
AcDbArc
 50
90.00000000000178
 51
270.0
  0
ARC
  5
44C
330
1F
100
AcDbEntity
  8
0
  6
CONTINUOUS
 62
     7
100
AcDbCircle
 10
155.3714755314712
 20
318.8733233333336
 30
0.0
 40
2.249999999999974
100
AcDbArc
 50
166.12762021316
 51
193.8723797868391
  0
ARC
  5
44D
330
1F
100
AcDbEntity
  8
0
  6
CONTINUOUS
 62
     7
100
AcDbCircle
 10
155.3714755314712
 20
291.3733233333335
 30
0.0
 40
2.249999999999974
100
AcDbArc
 50
166.1276202131601
 51
193.8723797868391
  0
LINE
  5
44E
330
1F
100
AcDbEntity
  8
0
  6
CONTINUOUS
 62
     7
100
AcDbLine
 10
48.8714755314712
 20
308.8733233333336
 30
0.0
 11
48.8714755314712
 21
308.2959730641437
 31
0.0
  0
ARC
  5
44F
330
1F
100
AcDbEntity
  8
0
  6
CONTINUOUS
 62
     7
100
AcDbCircle
 10
51.12147553147117
 20
305.8733233333331
 30
0.0
 40
2.249999999999974
100
AcDbArc
 50
346.1276202131614
 51
0.0000000000000568
  0
LINE
  5
450
330
1F
100
AcDbEntity
  8
0
  6
CONTINUOUS
 62
     7
100
AcDbLine
 10
40.53710313998704
 20
309.4127834850801
 30
0.0
 11
40.51265722076758
 21
309.4710953248395
 31
0.0
  0
ARC
  5
451
330
1F
100
AcDbEntity
  8
0
  6
CONTINUOUS
 62
     7
100
AcDbCircle
 10
51.12147553147117
 20
305.8733233333335
 30
0.0
 40
2.288276574963777
100
AcDbArc
 50
195.1432012235981
 51
255.4883894435318
  0
ARC
  5
452
330
1F
100
AcDbEntity
  8
0
  6
CONTINUOUS
 62
     7
100
AcDbCircle
 10
-23.97852446852888
 20
307.3733233333335
 30
0.0
 40
2.250000000000085
100
AcDbArc
 50
283.8723797868395
 51
346.1276202131606
  0
ARC
  5
453
330
1F
100
AcDbEntity
  8
0
  6
CONTINUOUS
 62
     7
100
AcDbCircle
 10
-155.3714755314712
 20
263.873323333333
 30
0.0
 40
2.250000000000085
210
0.0
220
0.0
230
-1.0
100
AcDbArc
 50
166.12762021316
 51
193.8723797868391
  0
LINE
  5
454
330
1F
100
AcDbEntity
  8
0
  6
CONTINUOUS
 62
     7
100
AcDbLine
 10
44.97147553147119
 20
305.8733233333335
 30
0.0
 11
44.97147553147119
 21
306.4506736025229
 31
0.0
  0
LINE
  5
455
330
1F
100
AcDbEntity
  8
0
  6
CONTINUOUS
 62
     7
100
AcDbLine
 10
40.47147553147123
 20
305.8733233333335
 30
0.0
 11
40.47147553147123
 21
306.4506736025229
 31
0.0
  0
ARC
  5
456
330
1F
100
AcDbEntity
  8
0
  6
CONTINUOUS
 62
     7
100
AcDbCircle
 10
-32.37852446852884
 20
307.3733233333335
 30
0.0
 40
2.250000000000085
100
AcDbArc
 50
346.1276202131607
 51
13.87237978683947
  0
LINE
  5
457
330
1F
100
AcDbEntity
  8
0
  6
CONTINUOUS
 62
     7
100
AcDbLine
 10
53.30584792295512
 20
309.4127834850801
 30
0.0
 11
53.33029384217458
 21
309.4710953248395
 31
0.0
  0
ARC
  5
458
330
1F
100
AcDbEntity
  8
0
  6
CONTINUOUS
 62
     7
100
AcDbCircle
 10
-32.37852446852884
 20
307.3733233333335
 30
0.0
 40
2.250000000000085
100
AcDbArc
 50
103.8723797868395
 51
166.1276202131606
  0
ARC
  5
459
330
1F
100
AcDbEntity
  8
0
  6
CONTINUOUS
 62
     7
100
AcDbCircle
 10
-23.97852446852888
 20
307.3733233333335
 30
0.0
 40
2.250000000000085
100
AcDbArc
 50
103.8723797868397
 51
166.1276202131606
  0
ARC
  5
45A
330
1F
100
AcDbEntity
  8
0
  6
CONTINUOUS
 62
     7
100
AcDbCircle
 10
155.3714755314712
 20
291.3733233333335
 30
0.0
 40
2.249999999999974
100
AcDbArc
 50
193.8723797868398
 51
256.1276202131609
  0
LINE
  5
45B
330
1F
100
AcDbEntity
  8
0
  6
CONTINUOUS
 62
     7
100
AcDbLine
 10
43.26093568321765
 20
311.0576957248174
 30
0.0
 11
43.29486314976521
 21
311.0885967527366
 31
0.0
  0
ARC
  5
45C
330
1F
100
AcDbEntity
  8
0
  6
CONTINUOUS
 62
     7
100
AcDbCircle
 10
-32.37852446852884
 20
307.3733233333335
 30
0.0
 40
2.250000000000085
100
AcDbArc
 50
13.8723797868395
 51
76.12762021316047
  0
ARC
  5
45D
330
1F
100
AcDbEntity
  8
0
  6
CONTINUOUS
 62
     7
100
AcDbCircle
 10
51.12147553147117
 20
308.8733233333336
 30
0.0
 40
2.249999999999974
100
AcDbArc
 50
166.1276202131613
 51
180.0000000000001
  0
ARC
  5
45E
330
1F
100
AcDbEntity
  8
0
  6
CONTINUOUS
 62
     7
100
AcDbCircle
 10
42.7214755314711
 20
308.8733233333336
 30
0.0
 40
2.249999999999974
100
AcDbArc
 50
166.1276202131613
 51
180.0
  0
ARC
  5
45F
330
1F
100
AcDbEntity
  8
0
  6
CONTINUOUS
 62
     7
100
AcDbCircle
 10
-23.97852446852888
 20
307.3733233333335
 30
0.0
 40
2.250000000000085
100
AcDbArc
 50
193.8723797868396
 51
256.1276202131606
  0
ARC
  5
460
330
1F
100
AcDbEntity
  8
0
  6
CONTINUOUS
 62
     7
100
AcDbCircle
 10
-32.37852446852884
 20
307.3733233333335
 30
0.0
 40
2.250000000000085
100
AcDbArc
 50
166.1276202131606
 51
180.0
  0
LINE
  5
461
330
1F
100
AcDbEntity
  8
0
  6
CONTINUOUS
 62
     7
100
AcDbLine
 10
40.47147553147123
 20
308.2959730641436
 30
0.0
 11
40.43319895650721
 21
308.2296760915664
 31
0.0
  0
LINE
  5
462
330
1F
100
AcDbEntity
  8
0
  6
CONTINUOUS
 62
     7
100
AcDbLine
 10
44.97147553147119
 20
308.8733233333336
 30
0.0
 11
44.97147553147119
 21
308.2959730641437
 31
0.0
  0
ARC
  5
463
330
1F
100
AcDbEntity
  8
0
  6
CONTINUOUS
 62
     7
100
AcDbCircle
 10
155.3714755314712
 20
318.8733233333336
 30
0.0
 40
2.249999999999974
100
AcDbArc
 50
193.87237978684
 51
256.1276202131608
  0
LINE
  5
464
330
1F
100
AcDbEntity
  8
0
  6
CONTINUOUS
 62
     7
100
AcDbLine
 10
53.30584792295512
 20
305.3338631815864
 30
0.0
 11
53.33029384217458
 21
305.2755513418264
 31
0.0
  0
ARC
  5
465
330
1F
100
AcDbEntity
  8
0
  6
CONTINUOUS
 62
     7
100
AcDbCircle
 10
155.3714755314712
 20
263.873323333333
 30
0.0
 40
2.249999999999974
100
AcDbArc
 50
283.8723797868392
 51
346.1276202131607
  0
LINE
  5
466
330
1F
100
AcDbEntity
  8
0
  6
CONTINUOUS
 62
     7
100
AcDbLine
 10
48.8714755314712
 20
306.4506736025228
 30
0.0
 11
48.83319895650718
 21
306.5169705751001
 31
0.0
  0
ARC
  5
467
330
1F
100
AcDbEntity
  8
0
  6
CONTINUOUS
 62
     7
100
AcDbCircle
 10
-23.97852446852888
 20
307.3733233333335
 30
0.0
 40
2.250000000000085
100
AcDbArc
 50
346.1276202131606
 51
13.87237978683965
  0
ARC
  5
468
330
1F
100
AcDbEntity
  8
0
  6
CONTINUOUS
 62
     7
100
AcDbCircle
 10
-23.97852446852888
 20
307.3733233333335
 30
0.0
 40
2.250000000000085
100
AcDbArc
 50
166.1276202131606
 51
180.0
  0
ARC
  5
469
330
1F
100
AcDbEntity
  8
0
  6
CONTINUOUS
 62
     7
100
AcDbCircle
 10
-23.97852446852888
 20
307.3733233333335
 30
0.0
 40
2.250000000000085
100
AcDbArc
 50
256.1276202131606
 51
283.8723797868395
  0
LINE
  5
46A
330
1F
100
AcDbEntity
  8
0
  6
CONTINUOUS
 62
     7
100
AcDbLine
 10
48.8714755314712
 20
308.2959730641436
 30
0.0
 11
48.83319895650718
 21
308.2296760915664
 31
0.0
  0
LINE
  5
46B
330
1F
100
AcDbEntity
  8
0
  6
CONTINUOUS
 62
     7
100
AcDbLine
 10
48.83319895650718
 20
308.2296760915664
 30
0.0
 11
48.83319895650718
 21
306.5169705751001
 31
0.0
  0
ARC
  5
46C
330
1F
100
AcDbEntity
  8
0
  6
CONTINUOUS
 62
     7
100
AcDbCircle
 10
-32.37852446852884
 20
307.3733233333335
 30
0.0
 40
2.250000000000085
100
AcDbArc
 50
193.8723797868397
 51
256.1276202131608
  0
ARC
  5
46D
330
1F
100
AcDbEntity
  8
0
  6
CONTINUOUS
 62
     7
100
AcDbCircle
 10
-23.97852446852888
 20
307.3733233333335
 30
0.0
 40
2.250000000000085
100
AcDbArc
 50
13.8723797868396
 51
76.12762021316065
  0
ARC
  5
46E
330
1F
100
AcDbEntity
  8
0
  6
CONTINUOUS
 62
     7
100
AcDbCircle
 10
-23.97852446852888
 20
307.3733233333335
 30
0.0
 40
2.250000000000085
100
AcDbArc
 50
180.0
 51
193.8723797868396
  0
ARC
  5
46F
330
1F
100
AcDbEntity
  8
0
  6
CONTINUOUS
 62
     7
100
AcDbCircle
 10
-23.97852446852888
 20
307.3733233333335
 30
0.0
 40
2.250000000000085
100
AcDbArc
 50
76.12762021316065
 51
103.8723797868397
  0
ARC
  5
470
330
1F
100
AcDbEntity
  8
0
  6
CONTINUOUS
 62
     7
100
AcDbCircle
 10
155.3714755314712
 20
291.3733233333335
 30
0.0
 40
2.249999999999974
100
AcDbArc
 50
76.12762021316016
 51
103.8723797868391
  0
LINE
  5
471
330
1F
100
AcDbEntity
  8
0
  6
CONTINUOUS
 62
   253
100
AcDbLine
 10
51.1214755314715
 20
312.676757525319
 30
0.0
 11
42.72147553147101
 21
312.676757525319
 31
0.0
  0
ARC
  5
472
330
1F
100
AcDbEntity
  8
0
  6
CONTINUOUS
 62
     7
100
AcDbCircle
 10
51.12147553147117
 20
305.8733233333335
 30
0.0
 40
2.249999999999974
100
AcDbArc
 50
180.0
 51
193.8723797868389
  0
ARC
  5
473
330
1F
100
AcDbEntity
  8
0
  6
CONTINUOUS
 62
     7
100
AcDbCircle
 10
-32.37852446852884
 20
307.3733233333335
 30
0.0
 40
2.250000000000085
100
AcDbArc
 50
256.1276202131608
 51
283.8723797868397
  0
ARC
  5
474
330
1F
100
AcDbEntity
  8
0
  6
CONTINUOUS
 62
     7
100
AcDbCircle
 10
-32.37852446852884
 20
307.3733233333335
 30
0.0
 40
2.250000000000085
100
AcDbArc
 50
283.8723797868397
 51
346.1276202131607
  0
ARC
  5
475
330
1F
100
AcDbEntity
  8
0
  6
CONTINUOUS
 62
   253
100
AcDbCircle
 10
51.12147553147117
 20
305.8733233333335
 30
0.0
 40
3.8034341919857
100
AcDbArc
 50
270.0
 51
0.0000000000003411
  0
LINE
  5
476
330
1F
100
AcDbEntity
  8
0
  6
CONTINUOUS
 62
     7
100
AcDbLine
 10
48.93710313998722
 20
305.3338631815864
 30
0.0
 11
48.91265722076762
 21
305.2755513418264
 31
0.0
  0
ARC
  5
477
330
1F
100
AcDbEntity
  8
0
  6
CONTINUOUS
 62
     7
100
AcDbCircle
 10
155.3714755314712
 20
263.873323333333
 30
0.0
 40
2.249999999999974
100
AcDbArc
 50
13.8723797868396
 51
76.12762021316009
  0
LINE
  5
478
330
1F
100
AcDbEntity
  8
0
  6
CONTINUOUS
 62
     7
100
AcDbLine
 10
50.58201537972473
 20
303.6889509418491
 30
0.0
 11
50.54808791317716
 21
303.65804991393
 31
0.0
  0
LINE
  5
479
330
1F
100
AcDbEntity
  8
0
  6
CONTINUOUS
 62
     7
100
AcDbLine
 10
51.66093568321761
 20
303.6889509418491
 30
0.0
 11
51.69486314976545
 21
303.65804991393
 31
0.0
  0
ARC
  5
47A
330
1F
100
AcDbEntity
  8
0
  6
CONTINUOUS
 62
     7
100
AcDbCircle
 10
51.12147553147117
 20
305.8733233333335
 30
0.0
 40
2.288276574963888
100
AcDbArc
 50
284.5116105564674
 51
344.8567987764023
  0
ARC
  5
47B
330
1F
100
AcDbEntity
  8
0
  6
CONTINUOUS
 62
     7
100
AcDbCircle
 10
155.3714755314712
 20
291.3733233333335
 30
0.0
 40
2.249999999999974
100
AcDbArc
 50
103.8723797868398
 51
166.1276202131608
  0
CIRCLE
  5
47C
330
1F
100
AcDbEntity
  8
0
  6
CONTINUOUS
 62
     7
100
AcDbCircle
 10
-14.37147553147122
 20
291.3733233333335
 30
0.0
 40
14.65000000000005
210
0.0
220
0.0
230
-1.0
  0
ARC
  5
47D
330
1F
100
AcDbEntity
  8
0
  6
CONTINUOUS
 62
     7
100
AcDbCircle
 10
-32.37852446852884
 20
307.3733233333335
 30
0.0
 40
2.250000000000085
100
AcDbArc
 50
76.12762021316047
 51
103.8723797868395
  0
LINE
  5
47E
330
1F
100
AcDbEntity
  8
0
  6
CONTINUOUS
 62
     7
100
AcDbLine
 10
48.8714755314712
 20
305.8733233333335
 30
0.0
 11
48.8714755314712
 21
306.4506736025229
 31
0.0
  0
ARC
  5
47F
330
1F
100
AcDbEntity
  8
0
  6
CONTINUOUS
 62
     7
100
AcDbCircle
 10
51.12147553147117
 20
305.8733233333331
 30
0.0
 40
2.249999999999974
100
AcDbArc
 50
256.12762021316
 51
283.8723797868391
  0
LINE
  5
480
330
1F
100
AcDbEntity
  8
0
  6
CONTINUOUS
 62
     7
100
AcDbLine
 10
50.58201537972473
 20
311.0576957248174
 30
0.0
 11
50.54808791317716
 21
311.0885967527366
 31
0.0
  0
ARC
  5
481
330
1F
100
AcDbEntity
  8
0
  6
CONTINUOUS
 62
     7
100
AcDbCircle
 10
42.7214755314711
 20
308.8733233333336
 30
0.0
 40
2.288276574963777
100
AcDbArc
 50
15.14320122359809
 51
75.4883894435321
  0
LINE
  5
482
330
1F
100
AcDbEntity
  8
0
  6
CONTINUOUS
 62
     7
100
AcDbLine
 10
44.90584792295515
 20
309.4127834850801
 30
0.0
 11
44.93029384217461
 21
309.4710953248395
 31
0.0
  0
ARC
  5
483
330
1F
100
AcDbEntity
  8
0
  6
CONTINUOUS
 62
     7
100
AcDbCircle
 10
-32.37852446852884
 20
307.3733233333335
 30
0.0
 40
2.250000000000085
100
AcDbArc
 50
180.0
 51
193.8723797868397
  0
LINE
  5
484
330
1F
100
AcDbEntity
  8
0
  6
CONTINUOUS
 62
     7
100
AcDbLine
 10
93.78940667327717
 20
280.889469278439
 30
0.0
 11
93.72724938115468
 21
281.5947500031749
 31
0.0
  0
ARC
  5
485
330
1F
100
AcDbEntity
  8
0
  6
CONTINUOUS
 62
     7
100
AcDbCircle
 10
94.37147553147129
 20
291.3733233333335
 30
0.0
 40
10.49999999999973
100
AcDbArc
 50
183.17786200319
 51
266.8221720260519
  0
LINE
  5
486
330
1F
100
AcDbEntity
  8
0
  6
CONTINUOUS
 62
     7
100
AcDbLine
 10
111.7203434102746
 20
319.456116796937
 30
0.0
 11
111.7203434102746
 21
263.290529864201
 31
0.0
  0
LINE
  5
487
330
1F
100
AcDbEntity
  8
0
  6
CONTINUOUS
 62
     7
100
AcDbLine
 10
84.59290234450512
 20
290.7290951094814
 30
0.0
 11
83.88762182228271
 21
290.7912482485445
 31
0.0
  0
LINE
  5
488
330
1F
100
AcDbEntity
  8
0
  6
CONTINUOUS
 62
   253
100
AcDbLine
 10
-91.97683699738579
 20
319.4561168024655
 30
0.0
 11
-92.72739234733243
 21
319.4561168024655
 31
0.0
  0
LINE
  5
489
330
1F
100
AcDbEntity
  8
0
  6
CONTINUOUS
 62
   253
100
AcDbLine
 10
78.28868224391627
 20
319.9716358621906
 30
0.0
 11
78.2886820678671
 21
320.722191212137
 31
0.0
  0
ARC
  5
48A
330
1F
100
AcDbEntity
  8
0
  6
CONTINUOUS
 62
     7
100
AcDbCircle
 10
94.37147553147129
 20
291.3733233333335
 30
0.0
 40
10.49999999999995
100
AcDbArc
 50
93.17786200319001
 51
176.8221720260518
  0
LINE
  5
48B
330
1F
100
AcDbEntity
  8
0
  6
CONTINUOUS
 62
     7
100
AcDbLine
 10
93.72724730761972
 20
301.1518965202995
 30
0.0
 11
93.78940044668266
 21
301.8571770425219
 31
0.0
  0
LINE
  5
48C
330
1F
100
AcDbEntity
  8
0
  6
CONTINUOUS
 62
   253
100
AcDbLine
 10
110.9697880603286
 20
319.4561166208736
 30
0.0
 11
111.7203434102746
 21
319.4561167969369
 31
0.0
  0
LINE
  5
48D
330
1F
100
AcDbEntity
  8
0
  6
CONTINUOUS
 62
     7
100
AcDbLine
 10
94.95354438966518
 20
301.8571773882276
 30
0.0
 11
95.01570168178769
 21
301.151896663492
 31
0.0
  0
LINE
  5
48E
330
1F
100
AcDbEntity
  8
0
  6
CONTINUOUS
 62
     7
100
AcDbLine
 10
-91.97683699738579
 20
263.2905300457555
 30
0.0
 11
-91.97683699738579
 21
319.4561168024655
 31
0.0
  0
LINE
  5
48F
330
1F
100
AcDbEntity
  8
0
  6
CONTINUOUS
 62
     7
100
AcDbLine
 10
160.0949468174111
 20
337.3166633604281
 30
0.0
 11
158.6480042455312
 21
337.3166633604281
 31
0.0
  0
LINE
  5
490
330
1F
100
AcDbEntity
  8
0
  6
CONTINUOUS
 62
     7
100
AcDbLine
 10
180.4196311171322
 20
246.8231120498046
 30
0.0
 11
180.4196311171322
 21
259.6233233333336
 31
0.0
  0
LINE
  5
491
330
1F
100
AcDbEntity
  8
0
  6
CONTINUOUS
 62
     7
100
AcDbLine
 10
78.28868224391627
 20
319.9716358621906
 30
0.0
 11
110.4542690006011
 21
319.9716358621906
 31
0.0
  0
LINE
  5
492
330
1F
100
AcDbEntity
  8
0
  6
CONTINUOUS
 62
     7
100
AcDbLine
 10
78.2886820678671
 20
320.722191212137
 30
0.0
 11
110.4542690006011
 21
320.722191212137
 31
0.0
  0
LINE
  5
493
330
1F
100
AcDbEntity
  8
0
  6
CONTINUOUS
 62
     7
100
AcDbLine
 10
95.01570168178763
 20
301.151896663492
 30
0.0
 11
93.72724730761963
 21
301.1518965202995
 31
0.0
  0
LINE
  5
494
330
1F
100
AcDbEntity
  8
0
  6
CONTINUOUS
 62
     7
100
AcDbLine
 10
-91.46131793213286
 20
320.722191212137
 30
0.0
 11
-47.39573099939843
 21
320.722191212137
 31
0.0
  0
LINE
  5
495
330
1F
100
AcDbEntity
  8
0
  6
CONTINUOUS
 62
     7
100
AcDbLine
 10
83.88762147657714
 20
291.9553921915271
 30
0.0
 11
84.59290220131268
 21
292.0175494836494
 31
0.0
  0
LINE
  5
496
330
1F
100
AcDbEntity
  8
0
  6
CONTINUOUS
 62
   253
100
AcDbLine
 10
178.9216868150001
 20
245.3251677476724
 30
0.0
 11
177.9258671855821
 21
246.3209873770905
 31
0.0
  0
LINE
  5
497
330
1F
100
AcDbEntity
  8
0
  6
CONTINUOUS
 62
     7
100
AcDbLine
 10
78.28868206234063
 20
262.775010804476
 30
0.0
 11
77.77316300261408
 21
263.2905300457615
 31
0.0
  0
LINE
  5
498
330
1F
100
AcDbEntity
  8
0
  6
CONTINUOUS
 62
   253
100
AcDbLine
 10
29.95426899507514
 20
320.954061099069
 30
0.0
 11
30.29903377727969
 21
321.2988258812736
 31
0.0
  0
LINE
  5
499
330
1F
100
AcDbEntity
  8
0
  6
CONTINUOUS
 62
   253
100
AcDbLine
 10
78.28868206234063
 20
262.775010804476
 30
0.0
 11
78.28868206234063
 21
262.0244554545295
 31
0.0
  0
LINE
  5
49A
330
1F
100
AcDbEntity
  8
0
  6
CONTINUOUS
 62
     7
100
AcDbLine
 10
-138.9053958576134
 20
245.3789474026845
 30
0.0
 11
-138.8785244685289
 21
245.3251677476724
 31
0.0
  0
LINE
  5
49B
330
1F
100
AcDbEntity
  8
0
  6
CONTINUOUS
 62
     7
100
AcDbLine
 10
84.59290220131277
 20
292.0175494836494
 30
0.0
 11
84.59290234450518
 21
290.7290951094814
 31
0.0
  0
LINE
  5
49C
330
1F
100
AcDbEntity
  8
0
  6
CONTINUOUS
 62
     7
100
AcDbLine
 10
77.77316300261417
 20
263.2905300457615
 30
0.0
 11
77.77316300261417
 21
319.4561168024609
 31
0.0
  0
LINE
  5
49D
330
1F
100
AcDbEntity
  8
0
  6
CONTINUOUS
 62
   253
100
AcDbLine
 10
110.9697880603286
 20
263.290529864201
 30
0.0
 11
111.7203434102746
 21
263.290529864201
 31
0.0
  0
LINE
  5
49E
330
1F
100
AcDbEntity
  8
0
  6
CONTINUOUS
 62
     7
100
AcDbLine
 10
77.77316300261417
 20
319.456116802461
 30
0.0
 11
78.2886822439163
 21
319.9716358621906
 31
0.0
  0
LINE
  5
49F
330
1F
100
AcDbEntity
  8
0
  6
CONTINUOUS
 62
   253
100
AcDbLine
 10
-91.97683699738579
 20
263.2905300457555
 30
0.0
 11
-92.72739234733243
 21
263.2905298697294
 31
0.0
  0
LINE
  5
4A0
330
1F
100
AcDbEntity
  8
0
  6
CONTINUOUS
 62
     7
100
AcDbLine
 10
-195.0285244685288
 20
306.1233233333336
 30
0.0
 11
-194.4890643167823
 21
305.1889509418495
 31
0.0
  0
LINE
  5
4A1
330
1F
100
AcDbEntity
  8
0
  6
CONTINUOUS
 62
     7
100
AcDbLine
 10
-428.6927734972895
 20
291.8268991536025
 30
0.0
 11
-428.6778355583214
 21
291.87331741106
 31
0.0
  0
LINE
  5
4A2
330
1F
100
AcDbEntity
  8
0
  6
CONTINUOUS
 62
     7
100
AcDbLine
 10
-242.9792133787364
 20
290.8733292556065
 30
0.0
 11
-243.4446704136347
 21
290.7912544751395
 31
0.0
  0
LINE
  5
4A3
330
1F
100
AcDbEntity
  8
0
  6
CONTINUOUS
 62
     7
100
AcDbLine
 10
-418.2285185462558
 20
280.4240122435411
 30
0.0
 11
-418.3105933267228
 21
280.8894692784391
 31
0.0
  0
LINE
  5
4A4
330
1F
100
AcDbEntity
  8
0
  6
CONTINUOUS
 62
     7
100
AcDbLine
 10
-427.5070977986873
 20
292.0175494836494
 30
0.0
 11
-427.507097655495
 21
290.7290951094814
 31
0.0
  0
CIRCLE
  5
4A5
330
1F
100
AcDbEntity
  8
0
  6
CONTINUOUS
 62
     7
100
AcDbCircle
 10
-417.7285244685289
 20
291.3733233333335
 30
0.0
 40
9.500000000000064
  0
LINE
  5
4A6
330
1F
100
AcDbEntity
  8
0
  6
CONTINUOUS
 62
     7
100
AcDbLine
 10
-202.1785244685288
 20
276.8733233333336
 30
0.0
 11
-202.1785244685288
 21
273.8733233333335
 31
0.0
  0
LINE
  5
4A7
330
1F
100
AcDbEntity
  8
0
  6
CONTINUOUS
 62
     7
100
AcDbLine
 10
-254.5105995533175
 20
301.8571770425219
 30
0.0
 11
-254.4285264765583
 21
302.3226340609895
 31
0.0
  0
LINE
  5
4A8
330
1F
100
AcDbEntity
  8
0
  6
CONTINUOUS
 62
     7
100
AcDbLine
 10
-418.3105995533176
 20
301.8571770425219
 30
0.0
 11
-418.2285264765583
 21
302.3226340609895
 31
0.0
  0
LINE
  5
4A9
330
1F
100
AcDbEntity
  8
0
  6
CONTINUOUS
 62
     7
100
AcDbLine
 10
-254.5727506188452
 20
281.5947500031749
 30
0.0
 11
-253.2842962446773
 21
281.5947501463669
 31
0.0
  0
LINE
  5
4AA
330
1F
100
AcDbEntity
  8
0
  6
CONTINUOUS
 62
     7
100
AcDbLine
 10
-204.6785244685288
 20
273.8733233333335
 30
0.0
 11
-205.6128968600128
 21
273.3338631815865
 31
0.0
  0
ARC
  5
4AB
330
1F
100
AcDbEntity
  8
0
  6
CONTINUOUS
 62
     7
100
AcDbCircle
 10
-253.9285244685288
 20
291.3733233333335
 30
0.0
 40
10.50000000000001
100
AcDbArc
 50
273.1778620031898
 51
356.8221720260517
  0
LINE
  5
4AC
330
1F
100
AcDbEntity
  8
0
  6
CONTINUOUS
 62
     7
100
AcDbLine
 10
-243.4446704136347
 20
290.7912544751396
 30
0.0
 11
-244.1499511383704
 21
290.729097183017
 31
0.0
  0
LINE
  5
4AD
330
1F
100
AcDbEntity
  8
0
  6
CONTINUOUS
 62
     7
100
AcDbLine
 10
-253.2842962446773
 20
281.5947501463669
 30
0.0
 11
-253.3464493837403
 21
280.8894696241451
 31
0.0
  0
LINE
  5
4AE
330
1F
100
AcDbEntity
  8
0
  6
CONTINUOUS
 62
     7
100
AcDbLine
 10
-406.7792133787364
 20
290.8733292556065
 30
0.0
 11
-407.2446704136348
 21
290.7912544751395
 31
0.0
  0
LINE
  5
4AF
330
1F
100
AcDbEntity
  8
0
  6
CONTINUOUS
 62
     7
100
AcDbLine
 10
-253.428530390802
 20
302.3226344231259
 30
0.0
 11
-253.346455610335
 21
301.8571773882276
 31
0.0
  0
LINE
  5
4B0
330
1F
100
AcDbEntity
  8
0
  6
CONTINUOUS
 62
     7
100
AcDbLine
 10
-193.7785244685288
 20
273.8733233333335
 30
0.0
 11
-192.8441520770449
 21
273.3338631815865
 31
0.0
  0
LINE
  5
4B1
330
1F
100
AcDbEntity
  8
0
  6
CONTINUOUS
 62
     7
100
AcDbLine
 10
-243.4446707593404
 20
291.955398418122
 30
0.0
 11
-242.9792137408726
 21
291.8733253413625
 31
0.0
  0
LINE
  5
4B2
330
1F
100
AcDbEntity
  8
0
  6
CONTINUOUS
 62
     7
100
AcDbLine
 10
-188.9128968600129
 20
291.9127834850801
 30
0.0
 11
-187.9785244685289
 21
291.3733233333335
 31
0.0
  0
LINE
  5
4B3
330
1F
100
AcDbEntity
  8
0
  6
CONTINUOUS
 62
     7
100
AcDbLine
 10
-417.1464493837402
 20
280.8894696241451
 30
0.0
 11
-417.2285224604995
 21
280.4240126056769
 31
0.0
  0
LINE
  5
4B4
330
1F
100
AcDbEntity
  8
0
  6
CONTINUOUS
 62
     7
100
AcDbLine
 10
-188.9128968600129
 20
318.3338631815865
 30
0.0
 11
-187.9785244685289
 21
318.8733233333336
 31
0.0
  0
LINE
  5
4B5
330
1F
100
AcDbEntity
  8
0
  6
CONTINUOUS
 62
     7
100
AcDbLine
 10
-201.2441520770448
 20
306.8338631815865
 30
0.0
 11
-202.1785244685288
 21
307.3733233333336
 31
0.0
  0
LINE
  5
4B6
330
1F
100
AcDbEntity
  8
0
  6
CONTINUOUS
 62
     7
100
AcDbLine
 10
-479.9785244685289
 20
318.8733233333336
 30
0.0
 11
-480.9128968600128
 21
318.3338631815866
 31
0.0
  0
LINE
  5
4B7
330
1F
100
AcDbEntity
  8
0
  6
CONTINUOUS
 62
     7
100
AcDbLine
 10
-185.4785244685289
 20
318.8733233333336
 30
0.0
 11
-184.5441520770449
 21
318.3338631815866
 31
0.0
  0
LINE
  5
4B8
330
1F
100
AcDbEntity
  8
0
  6
CONTINUOUS
 62
     7
100
AcDbLine
 10
-204.6785244685288
 20
273.8733233333335
 30
0.0
 11
-204.6785244685288
 21
276.8733233333335
 31
0.0
  0
LINE
  5
4B9
330
1F
100
AcDbEntity
  8
0
  6
CONTINUOUS
 62
     7
100
AcDbLine
 10
-254.4285264765583
 20
302.3226340609895
 30
0.0
 11
-254.382108276856
 21
302.3375720314474
 31
0.0
  0
LINE
  5
4BA
330
1F
100
AcDbEntity
  8
0
  6
CONTINUOUS
 62
     7
100
AcDbLine
 10
-478.7285244685288
 20
317.6233233333335
 30
0.0
 11
-478.1890643167822
 21
316.6889509418496
 31
0.0
  0
LINE
  5
4BB
330
1F
100
AcDbEntity
  8
0
  6
CONTINUOUS
 62
     7
100
AcDbLine
 10
-197.2128968600128
 20
307.91278348508
 30
0.0
 11
-196.2785244685288
 21
307.3733233333336
 31
0.0
  0
LINE
  5
4BC
330
1F
100
AcDbEntity
  8
0
  6
CONTINUOUS
 62
     7
100
AcDbLine
 10
-196.2785244685288
 20
273.8733233333335
 30
0.0
 11
-196.2785244685288
 21
276.8733233333335
 31
0.0
  0
LINE
  5
4BD
330
1F
100
AcDbEntity
  8
0
  6
CONTINUOUS
 62
     7
100
AcDbLine
 10
-480.9128968600128
 20
263.3338631815865
 30
0.0
 11
-479.9785244685289
 21
263.8733233333335
 31
0.0
  0
LINE
  5
4BE
330
1F
100
AcDbEntity
  8
0
  6
CONTINUOUS
 62
     7
100
AcDbLine
 10
-196.2785244685288
 20
276.8733233333336
 30
0.0
 11
-197.2128968600128
 21
277.41278348508
 31
0.0
  0
LINE
  5
4BF
330
1F
100
AcDbEntity
  8
0
  6
CONTINUOUS
 62
     7
100
AcDbLine
 10
-264.4123781777174
 20
290.7912482485445
 30
0.0
 11
-264.8778351961852
 21
290.873321325304
 31
0.0
  0
LINE
  5
4C0
330
1F
100
AcDbEntity
  8
0
  6
CONTINUOUS
 62
     7
100
AcDbLine
 10
-480.9128968600128
 20
319.4127834850801
 30
0.0
 11
-479.9785244685289
 21
318.8733233333335
 31
0.0
  0
LINE
  5
4C1
330
1F
100
AcDbEntity
  8
0
  6
CONTINUOUS
 62
     7
100
AcDbLine
 10
-417.2749486482599
 20
302.3375723620939
 30
0.0
 11
-417.2285303908021
 21
302.3226344231259
 31
0.0
  0
LINE
  5
4C2
330
1F
100
AcDbEntity
  8
0
  6
CONTINUOUS
 62
     7
100
AcDbLine
 10
-264.8927734972894
 20
291.8268991536025
 30
0.0
 11
-264.8778355583214
 21
291.87331741106
 31
0.0
  0
LINE
  5
4C3
330
1F
100
AcDbEntity
  8
0
  6
CONTINUOUS
 62
     7
100
AcDbLine
 10
-477.4785244685289
 20
318.8733233333336
 30
0.0
 11
-476.544152077045
 21
319.4127834850802
 31
0.0
  0
LINE
  5
4C4
330
1F
100
AcDbEntity
  8
0
  6
CONTINUOUS
 62
     7
100
AcDbLine
 10
-188.9128968600129
 20
264.41278348508
 30
0.0
 11
-187.9785244685289
 21
263.873323333333
 31
0.0
  0
LINE
  5
4C5
330
1F
100
AcDbEntity
  8
0
  6
CONTINUOUS
 62
     7
100
AcDbLine
 10
-185.4785244685289
 20
263.873323333333
 30
0.0
 11
-184.5441520770449
 21
264.4127834850801
 31
0.0
  0
LINE
  5
4C6
330
1F
100
AcDbEntity
  8
0
  6
CONTINUOUS
 62
     7
100
AcDbLine
 10
-193.7785244685288
 20
276.8733233333336
 30
0.0
 11
-193.7785244685288
 21
273.8733233333335
 31
0.0
  0
LINE
  5
4C7
330
1F
100
AcDbEntity
  8
0
  6
CONTINUOUS
 62
     7
100
AcDbLine
 10
-479.9785244685289
 20
291.3733233333335
 30
0.0
 11
-480.9128968600128
 21
291.9127834850801
 31
0.0
  0
LINE
  5
4C8
330
1F
100
AcDbEntity
  8
0
  6
CONTINUOUS
 62
     7
100
AcDbLine
 10
-202.1785244685288
 20
273.8733233333335
 30
0.0
 11
-201.2441520770448
 21
273.3338631815865
 31
0.0
  0
LINE
  5
4C9
330
1F
100
AcDbEntity
  8
0
  6
CONTINUOUS
 62
     7
100
AcDbLine
 10
-186.7285244685288
 20
317.6233233333335
 30
0.0
 11
-187.2679846202753
 21
316.6889509418496
 31
0.0
  0
LINE
  5
4CA
330
1F
100
AcDbEntity
  8
0
  6
CONTINUOUS
 62
     7
100
AcDbLine
 10
-194.4890643167822
 20
309.5576957248169
 30
0.0
 11
-195.0285244685288
 21
308.6233233333335
 31
0.0
  0
LINE
  5
4CB
330
1F
100
AcDbEntity
  8
0
  6
CONTINUOUS
 62
     7
100
AcDbLine
 10
-186.7285244685288
 20
292.6233233333335
 30
0.0
 11
-187.2679846202753
 21
293.5576957248174
 31
0.0
  0
LINE
  5
4CC
330
1F
100
AcDbEntity
  8
0
  6
CONTINUOUS
 62
     7
100
AcDbLine
 10
-253.346455610335
 20
301.8571773882276
 30
0.0
 11
-253.2842983182125
 21
301.151896663492
 31
0.0
  0
LINE
  5
4CD
330
1F
100
AcDbEntity
  8
0
  6
CONTINUOUS
 62
     7
100
AcDbLine
 10
-478.7285244685288
 20
290.1233233333336
 30
0.0
 11
-479.2679846202755
 21
289.1889509418496
 31
0.0
  0
LINE
  5
4CE
330
1F
100
AcDbEntity
  8
0
  6
CONTINUOUS
 62
     7
100
AcDbLine
 10
-428.2123781777174
 20
290.7912482485445
 30
0.0
 11
-428.6778351961852
 21
290.873321325304
 31
0.0
  0
LINE
  5
4CF
330
1F
100
AcDbEntity
  8
0
  6
CONTINUOUS
 62
     7
100
AcDbLine
 10
-253.3464493837403
 20
280.8894696241451
 30
0.0
 11
-253.4285224604995
 21
280.4240126056769
 31
0.0
  0
LINE
  5
4D0
330
1F
100
AcDbEntity
  8
0
  6
CONTINUOUS
 62
     7
100
AcDbLine
 10
-254.4285185462556
 20
280.4240122435411
 30
0.0
 11
-254.5105933267228
 21
280.8894692784391
 31
0.0
  0
LINE
  5
4D1
330
1F
100
AcDbEntity
  8
0
  6
CONTINUOUS
 62
     7
100
AcDbLine
 10
-202.1785244685288
 20
276.8733233333336
 30
0.0
 11
-201.2441520770448
 21
277.41278348508
 31
0.0
  0
LINE
  5
4D2
330
1F
100
AcDbEntity
  8
0
  6
CONTINUOUS
 62
     7
100
AcDbLine
 10
-428.6778355583214
 20
291.8733174110599
 30
0.0
 11
-428.2123785234231
 21
291.955392191527
 31
0.0
  0
LINE
  5
4D3
330
1F
100
AcDbEntity
  8
0
  6
CONTINUOUS
 62
     7
100
AcDbLine
 10
-417.2285303908021
 20
302.3226344231259
 30
0.0
 11
-417.1464556103351
 21
301.8571773882276
 31
0.0
  0
LINE
  5
4D4
330
1F
100
AcDbEntity
  8
0
  6
CONTINUOUS
 62
     7
100
AcDbLine
 10
-406.7792137408726
 20
291.8733253413629
 30
0.0
 11
-406.7642757704148
 21
291.8269071416605
 31
0.0
  0
LINE
  5
4D5
330
1F
100
AcDbEntity
  8
0
  6
CONTINUOUS
 62
     7
100
AcDbLine
 10
-264.8778351961852
 20
290.8733213253041
 30
0.0
 11
-264.8927731666429
 21
290.9197395250061
 31
0.0
  0
LINE
  5
4D6
330
1F
100
AcDbEntity
  8
0
  6
CONTINUOUS
 62
     7
100
AcDbLine
 10
-417.2285224604995
 20
280.4240126056769
 30
0.0
 11
-417.2749406602017
 21
280.4090746352195
 31
0.0
  0
LINE
  5
4D7
330
1F
100
AcDbEntity
  8
0
  6
CONTINUOUS
 62
     7
100
AcDbLine
 10
-193.7785244685288
 20
276.8733233333336
 30
0.0
 11
-192.8441520770449
 21
277.41278348508
 31
0.0
  0
LINE
  5
4D8
330
1F
100
AcDbEntity
  8
0
  6
CONTINUOUS
 62
     7
100
AcDbLine
 10
-187.2679846202753
 20
321.0576957248174
 30
0.0
 11
-186.7285244685288
 21
320.1233233333336
 31
0.0
  0
LINE
  5
4D9
330
1F
100
AcDbEntity
  8
0
  6
CONTINUOUS
 62
     7
100
AcDbLine
 10
-242.9792137408726
 20
291.8733253413625
 30
0.0
 11
-242.9642757704148
 21
291.8269071416605
 31
0.0
  0
LINE
  5
4DA
330
1F
100
AcDbEntity
  8
0
  6
CONTINUOUS
 62
     7
100
AcDbLine
 10
-407.2446707593405
 20
291.955398418122
 30
0.0
 11
-406.7792137408726
 21
291.8733253413629
 31
0.0
  0
LINE
  5
4DB
330
1F
100
AcDbEntity
  8
0
  6
CONTINUOUS
 62
     7
100
AcDbLine
 10
-204.6785244685288
 20
276.8733233333336
 30
0.0
 11
-205.6128968600128
 21
277.41278348508
 31
0.0
  0
LINE
  5
4DC
330
1F
100
AcDbEntity
  8
0
  6
CONTINUOUS
 62
     7
100
AcDbLine
 10
-195.5679846202754
 20
305.1889509418495
 30
0.0
 11
-195.0285244685288
 21
306.1233233333336
 31
0.0
  0
LINE
  5
4DD
330
1F
100
AcDbEntity
  8
0
  6
CONTINUOUS
 62
     7
100
AcDbLine
 10
-264.8778355583214
 20
291.8733174110599
 30
0.0
 11
-264.4123785234229
 21
291.955392191527
 31
0.0
  0
LINE
  5
4DE
330
1F
100
AcDbEntity
  8
0
  6
CONTINUOUS
 62
     7
100
AcDbLine
 10
-196.2785244685288
 20
273.8733233333335
 30
0.0
 11
-197.2128968600128
 21
273.3338631815865
 31
0.0
  0
LINE
  5
4DF
330
1F
100
AcDbEntity
  8
0
  6
CONTINUOUS
 62
     7
100
AcDbLine
 10
-187.9785244685288
 20
291.3733233333335
 30
0.0
 11
-188.9128968600128
 21
290.8338631815866
 31
0.0
  0
LINE
  5
4E0
330
1F
100
AcDbEntity
  8
0
  6
CONTINUOUS
 62
     7
100
AcDbLine
 10
-417.146455610335
 20
301.8571773882276
 30
0.0
 11
-417.0842983182124
 21
301.151896663492
 31
0.0
  0
LINE
  5
4E1
330
1F
100
AcDbEntity
  8
0
  6
CONTINUOUS
 62
     7
100
AcDbLine
 10
-418.3727526923805
 20
301.1518965202995
 30
0.0
 11
-418.3105995533176
 21
301.8571770425219
 31
0.0
  0
ARC
  5
4E2
330
1F
100
AcDbEntity
  8
0
  6
CONTINUOUS
 62
     7
100
AcDbCircle
 10
-253.9285244685288
 20
291.3733233333335
 30
0.0
 40
10.50000000000001
100
AcDbArc
 50
93.1778620031904
 51
176.8221720260518
  0
LINE
  5
4E3
330
1F
100
AcDbEntity
  8
0
  6
CONTINUOUS
 62
     7
100
AcDbLine
 10
-244.1499512815628
 20
292.017551557185
 30
0.0
 11
-243.4446707593404
 21
291.9553984181221
 31
0.0
  0
LINE
  5
4E4
330
1F
100
AcDbEntity
  8
0
  6
CONTINUOUS
 62
   253
100
AcDbLine
 10
-401.6457309993984
 20
319.9716358621906
 30
0.0
 11
-401.6457309993984
 21
320.722191212137
 31
0.0
  0
LINE
  5
4E5
330
1F
100
AcDbEntity
  8
0
  6
CONTINUOUS
 62
     7
100
AcDbLine
 10
-263.7070977986874
 20
292.0175494836494
 30
0.0
 11
-263.707097655495
 21
290.7290951094814
 31
0.0
  0
LINE
  5
4E6
330
1F
100
AcDbEntity
  8
0
  6
CONTINUOUS
 62
     7
100
AcDbLine
 10
-417.0842962446773
 20
281.5947501463669
 30
0.0
 11
-417.1464493837402
 21
280.8894696241451
 31
0.0
  0
LINE
  5
4E7
330
1F
100
AcDbEntity
  8
0
  6
CONTINUOUS
 62
     7
100
AcDbLine
 10
-254.5727526923804
 20
301.1518965202995
 30
0.0
 11
-254.5105995533175
 21
301.8571770425219
 31
0.0
  0
LINE
  5
4E8
330
1F
100
AcDbEntity
  8
0
  6
CONTINUOUS
 62
   253
100
AcDbLine
 10
-433.8113179376588
 20
262.775010804476
 30
0.0
 11
-433.8113179376588
 21
262.0244554545295
 31
0.0
  0
LINE
  5
4E9
330
1F
100
AcDbEntity
  8
0
  6
CONTINUOUS
 62
     7
100
AcDbLine
 10
-418.1821002887979
 20
280.409074304573
 30
0.0
 11
-418.2285185462558
 21
280.4240122435411
 31
0.0
  0
LINE
  5
4EA
330
1F
100
AcDbEntity
  8
0
  6
CONTINUOUS
 62
     7
100
AcDbLine
 10
-254.5105933267228
 20
280.889469278439
 30
0.0
 11
-254.5727506188452
 21
281.5947500031749
 31
0.0
  0
LINE
  5
4EB
330
1F
100
AcDbEntity
  8
0
  6
CONTINUOUS
 62
     7
100
AcDbLine
 10
-433.8113179376588
 20
262.775010804476
 30
0.0
 11
-434.326836997386
 21
263.2905300457925
 31
0.0
  0
LINE
  5
4EC
330
1F
100
AcDbEntity
  8
0
  6
CONTINUOUS
 62
     7
100
AcDbLine
 10
-433.8113179321327
 20
320.722191212137
 30
0.0
 11
-401.6457309993984
 21
320.722191212137
 31
0.0
  0
LINE
  5
4ED
330
1F
100
AcDbEntity
  8
0
  6
CONTINUOUS
 62
     7
100
AcDbLine
 10
-242.9642754397683
 20
290.9197475130645
 30
0.0
 11
-242.9792133787364
 21
290.8733292556066
 31
0.0
  0
LINE
  5
4EE
330
1F
100
AcDbEntity
  8
0
  6
CONTINUOUS
 62
     7
100
AcDbLine
 10
-264.4123785234229
 20
291.9553921915271
 30
0.0
 11
-263.7070977986874
 21
292.0175494836494
 31
0.0
  0
LINE
  5
4EF
330
1F
100
AcDbEntity
  8
0
  6
CONTINUOUS
 62
     7
100
AcDbLine
 10
-418.3727506188453
 20
281.5947500031749
 30
0.0
 11
-417.0842962446773
 21
281.5947501463669
 31
0.0
  0
LINE
  5
4F0
330
1F
100
AcDbEntity
  8
0
  6
CONTINUOUS
 62
   253
100
AcDbLine
 10
-401.1302119396718
 20
263.2905298642056
 30
0.0
 11
-400.3796565897252
 21
263.2905298642056
 31
0.0
  0
LINE
  5
4F1
330
1F
100
AcDbEntity
  8
0
  6
CONTINUOUS
 62
     7
100
AcDbLine
 10
-418.3105933267227
 20
280.889469278439
 30
0.0
 11
-418.3727506188453
 21
281.5947500031749
 31
0.0
  0
LINE
  5
4F2
330
1F
100
AcDbEntity
  8
0
  6
CONTINUOUS
 62
     7
100
AcDbLine
 10
-401.1302119396717
 20
319.456116620905
 30
0.0
 11
-401.1302119396718
 21
263.2905298642056
 31
0.0
  0
LINE
  5
4F3
330
1F
100
AcDbEntity
  8
0
  6
CONTINUOUS
 62
     7
100
AcDbLine
 10
-231.895731004925
 20
262.0244554545295
 30
0.0
 11
-275.9613179376593
 21
262.0244554545295
 31
0.0
  0
LINE
  5
4F4
330
1F
100
AcDbEntity
  8
0
  6
CONTINUOUS
 62
     7
100
AcDbLine
 10
-400.3796565897253
 20
319.456116796937
 30
0.0
 11
-400.3796565897252
 21
263.2905298642056
 31
0.0
  0
ARC
  5
4F5
330
1F
100
AcDbEntity
  8
0
  6
CONTINUOUS
 62
     7
100
AcDbCircle
 10
-417.7285244685289
 20
291.3733233333335
 30
0.0
 40
10.50000000000001
100
AcDbArc
 50
183.1778620031903
 51
266.822172026052
  0
LINE
  5
4F6
330
1F
100
AcDbEntity
  8
0
  6
CONTINUOUS
 62
     7
100
AcDbLine
 10
-428.2123785234231
 20
291.9553921915271
 30
0.0
 11
-427.5070977986873
 21
292.0175494836494
 31
0.0
  0
LINE
  5
4F7
330
1F
100
AcDbEntity
  8
0
  6
CONTINUOUS
 62
     7
100
AcDbLine
 10
-254.3821002887978
 20
280.409074304573
 30
0.0
 11
-254.4285185462556
 21
280.4240122435411
 31
0.0
  0
LINE
  5
4F8
330
1F
100
AcDbEntity
  8
0
  6
CONTINUOUS
 62
     7
100
AcDbLine
 10
-406.7642754397683
 20
290.9197475130645
 30
0.0
 11
-406.7792133787364
 21
290.8733292556066
 31
0.0
  0
ARC
  5
4F9
330
1F
100
AcDbEntity
  8
0
  6
CONTINUOUS
 62
     7
100
AcDbCircle
 10
-417.7285244685289
 20
291.3733233333335
 30
0.0
 40
10.50000000000001
100
AcDbArc
 50
3.177862003190243
 51
86.82217202605196
  0
LINE
  5
4FA
330
1F
100
AcDbEntity
  8
0
  6
CONTINUOUS
 62
     7
100
AcDbLine
 10
-427.507097655495
 20
290.7290951094814
 30
0.0
 11
-428.2123781777174
 21
290.7912482485445
 31
0.0
  0
LINE
  5
4FB
330
1F
100
AcDbEntity
  8
0
  6
CONTINUOUS
 62
     7
100
AcDbLine
 10
-401.645731180974
 20
262.775010804476
 30
0.0
 11
-433.8113179376588
 21
262.775010804476
 31
0.0
  0
LINE
  5
4FC
330
1F
100
AcDbEntity
  8
0
  6
CONTINUOUS
 62
     7
100
AcDbLine
 10
-253.4749486482598
 20
302.3375723620939
 30
0.0
 11
-253.428530390802
 21
302.3226344231259
 31
0.0
  0
LINE
  5
4FD
330
1F
100
AcDbEntity
  8
0
  6
CONTINUOUS
 62
     7
100
AcDbLine
 10
-418.2285264765583
 20
302.3226340609895
 30
0.0
 11
-418.182108276856
 21
302.3375720314474
 31
0.0
  0
LINE
  5
4FE
330
1F
100
AcDbEntity
  8
0
  6
CONTINUOUS
 62
     7
100
AcDbLine
 10
-263.707097655495
 20
290.7290951094814
 30
0.0
 11
-264.4123781777174
 21
290.7912482485445
 31
0.0
  0
LINE
  5
4FF
330
1F
100
AcDbEntity
  8
0
  6
CONTINUOUS
 62
     7
100
AcDbLine
 10
-401.1302119396718
 20
263.2905298642056
 30
0.0
 11
-401.645731180974
 21
262.775010804476
 31
0.0
  0
LINE
  5
500
330
1F
100
AcDbEntity
  8
0
  6
CONTINUOUS
 62
     7
100
AcDbLine
 10
-428.6778351961852
 20
290.8733213253041
 30
0.0
 11
-428.6927731666429
 21
290.9197395250061
 31
0.0
  0
LINE
  5
501
330
1F
100
AcDbEntity
  8
0
  6
CONTINUOUS
 62
   253
100
AcDbLine
 10
-276.476836997386
 20
319.4561168024645
 30
0.0
 11
-277.2273923473325
 21
319.4561168024645
 31
0.0
  0
LINE
  5
502
330
1F
100
AcDbEntity
  8
0
  6
CONTINUOUS
 62
     7
100
AcDbLine
 10
-407.9499512815628
 20
292.017551557185
 30
0.0
 11
-407.2446707593405
 21
291.9553984181221
 31
0.0
  0
ARC
  5
503
330
1F
100
AcDbEntity
  8
0
  6
CONTINUOUS
 62
     7
100
AcDbCircle
 10
-253.9285244685288
 20
291.3733233333335
 30
0.0
 40
10.50000000000001
100
AcDbArc
 50
183.1778620031901
 51
266.8221720260516
  0
ARC
  5
504
330
1F
100
AcDbEntity
  8
0
  6
CONTINUOUS
 62
     7
100
AcDbCircle
 10
-253.9285244685288
 20
291.3733233333335
 30
0.0
 40
10.50000000000001
100
AcDbArc
 50
3.177862003190243
 51
86.82217202605227
  0
CIRCLE
  5
505
330
1F
100
AcDbEntity
  8
0
  6
CONTINUOUS
 62
     7
100
AcDbCircle
 10
-253.9285244685288
 20
291.3733233333335
 30
0.0
 40
9.500000000000009
  0
ARC
  5
506
330
1F
100
AcDbEntity
  8
0
  6
CONTINUOUS
 62
     7
100
AcDbCircle
 10
-417.7285244685289
 20
291.3733233333335
 30
0.0
 40
10.50000000000001
100
AcDbArc
 50
93.1778620031901
 51
176.8221720260518
  0
LINE
  5
507
330
1F
100
AcDbEntity
  8
0
  6
CONTINUOUS
 62
     7
100
AcDbLine
 10
-434.326836997386
 20
319.4561168024655
 30
0.0
 11
-433.8113177560821
 21
319.9716358621906
 31
0.0
  0
LINE
  5
508
330
1F
100
AcDbEntity
  8
0
  6
CONTINUOUS
 62
     7
100
AcDbLine
 10
-407.9499511383705
 20
290.729097183017
 30
0.0
 11
-407.9499512815628
 21
292.017551557185
 31
0.0
  0
LINE
  5
509
330
1F
100
AcDbEntity
  8
0
  6
CONTINUOUS
 62
   253
100
AcDbLine
 10
-433.8113177560821
 20
319.9716358621906
 30
0.0
 11
-433.8113179321327
 21
320.722191212137
 31
0.0
  0
LINE
  5
50A
330
1F
100
AcDbEntity
  8
0
  6
CONTINUOUS
 62
     7
100
AcDbLine
 10
-253.2842983182124
 20
301.151896663492
 30
0.0
 11
-254.5727526923804
 21
301.1518965202995
 31
0.0
  0
LINE
  5
50B
330
1F
100
AcDbEntity
  8
0
  6
CONTINUOUS
 62
   253
100
AcDbLine
 10
-401.645731180974
 20
262.775010804476
 30
0.0
 11
-401.645731004925
 21
262.0244554545295
 31
0.0
  0
LINE
  5
50C
330
1F
100
AcDbEntity
  8
0
  6
CONTINUOUS
 62
     7
100
AcDbLine
 10
-244.1499511383704
 20
290.729097183017
 30
0.0
 11
-244.1499512815628
 21
292.017551557185
 31
0.0
  0
LINE
  5
50D
330
1F
100
AcDbEntity
  8
0
  6
CONTINUOUS
 62
     7
100
AcDbLine
 10
-417.0842983182124
 20
301.151896663492
 30
0.0
 11
-418.3727526923805
 21
301.1518965202995
 31
0.0
  0
LINE
  5
50E
330
1F
100
AcDbEntity
  8
0
  6
CONTINUOUS
 62
     7
100
AcDbLine
 10
-407.2446704136348
 20
290.7912544751396
 30
0.0
 11
-407.9499511383705
 21
290.729097183017
 31
0.0
  0
LINE
  5
50F
330
1F
100
AcDbEntity
  8
0
  6
CONTINUOUS
 62
     7
100
AcDbLine
 10
-253.4285224604995
 20
280.4240126056769
 30
0.0
 11
-253.4749406602017
 21
280.4090746352195
 31
0.0
  0
ARC
  5
510
330
1F
100
AcDbEntity
  8
0
  6
CONTINUOUS
 62
     7
100
AcDbCircle
 10
-417.7285244685289
 20
291.3733233333335
 30
0.0
 40
10.49999999999984
100
AcDbArc
 50
273.1778620031901
 51
356.8221720260517
  0
LINE
  5
511
330
1F
100
AcDbEntity
  8
0
  6
CONTINUOUS
 62
     7
100
AcDbLine
 10
-186.7285244685288
 20
265.123323333333
 30
0.0
 11
-187.2679846202753
 21
266.0576957248171
 31
0.0
  0
LINE
  5
512
330
1F
100
AcDbEntity
  8
0
  6
CONTINUOUS
 62
     7
100
AcDbLine
 10
-192.8441520770449
 20
306.8338631815865
 30
0.0
 11
-193.7785244685288
 21
307.3733233333336
 31
0.0
  0
LINE
  5
513
330
1F
100
AcDbEntity
  8
0
  6
CONTINUOUS
 62
     7
100
AcDbLine
 10
-195.0285244685288
 20
308.6233233333335
 30
0.0
 11
-195.5679846202753
 21
309.5576957248169
 31
0.0
  0
LINE
  5
514
330
1F
100
AcDbEntity
  8
0
  6
CONTINUOUS
 62
     7
100
AcDbLine
 10
-478.1890643167822
 20
289.1889509418496
 30
0.0
 11
-478.7285244685288
 21
290.1233233333336
 31
0.0
  0
ARC
  5
515
330
1F
100
AcDbEntity
  8
0
  6
CONTINUOUS
 62
   253
100
AcDbCircle
 10
-283.9285244685288
 20
291.3733233333335
 30
0.0
 40
0.3308538586475618
100
AcDbArc
 50
270.0
 51
90.0
  0
LINE
  5
516
330
1F
100
AcDbEntity
  8
0
  6
CONTINUOUS
 62
     7
100
AcDbLine
 10
-184.5441520770449
 20
263.3338631815865
 30
0.0
 11
-185.4785244685289
 21
263.873323333333
 31
0.0
  0
LINE
  5
517
330
1F
100
AcDbEntity
  8
0
  6
CONTINUOUS
 62
     7
100
AcDbLine
 10
-479.2679846202755
 20
266.0576957248175
 30
0.0
 11
-478.7285244685288
 21
265.123323333333
 31
0.0
  0
LINE
  5
518
330
1F
100
AcDbEntity
  8
0
  6
CONTINUOUS
 62
     7
100
AcDbLine
 10
-186.1890643167823
 20
316.6889509418496
 30
0.0
 11
-186.7285244685288
 21
317.6233233333335
 31
0.0
  0
LINE
  5
519
330
1F
100
AcDbEntity
  8
0
  6
CONTINUOUS
 62
     7
100
AcDbLine
 10
-195.5679846202754
 20
271.6889509418495
 30
0.0
 11
-195.0285244685288
 21
272.6233233333335
 31
0.0
  0
LINE
  5
51A
330
1F
100
AcDbEntity
  8
0
  6
CONTINUOUS
 62
     7
100
AcDbLine
 10
-478.7285244685288
 20
320.1233233333336
 30
0.0
 11
-479.2679846202755
 21
321.0576957248174
 31
0.0
  0
LINE
  5
51B
330
1F
100
AcDbEntity
  8
0
  6
CONTINUOUS
 62
   253
100
AcDbLine
 10
-161.6803688828678
 20
322.386964571695
 30
0.0
 11
-161.6766800541898
 21
322.386964571695
 31
0.0
  0
ARC
  5
51C
330
1F
100
AcDbEntity
  8
0
  6
CONTINUOUS
 62
   253
100
AcDbCircle
 10
-393.5785244685289
 20
291.3733233333335
 30
0.0
 40
0.3308538586475618
100
AcDbArc
 50
90.0
 51
269.9999999999808
  0
LINE
  5
51D
330
1F
100
AcDbEntity
  8
0
  6
CONTINUOUS
 62
     7
100
AcDbLine
 10
-186.1890643167823
 20
293.5576957248174
 30
0.0
 11
-186.7285244685288
 21
292.6233233333335
 31
0.0
  0
LINE
  5
51E
330
1F
100
AcDbEntity
  8
0
  6
CONTINUOUS
 62
     7
100
AcDbLine
 10
-184.5441520770449
 20
319.4127834850801
 30
0.0
 11
-185.4785244685289
 21
318.8733233333335
 31
0.0
  0
LINE
  5
51F
330
1F
100
AcDbEntity
  8
0
  6
CONTINUOUS
 62
     7
100
AcDbLine
 10
-479.2679846202755
 20
293.5576957248174
 30
0.0
 11
-478.7285244685288
 21
292.6233233333335
 31
0.0
  0
LINE
  5
520
330
1F
100
AcDbEntity
  8
0
  6
CONTINUOUS
 62
   253
100
AcDbLine
 10
-441.978524468529
 20
291.704177191981
 30
0.0
 11
-467.9785244685288
 21
291.704177191981
 31
0.0
  0
LINE
  5
521
330
1F
100
AcDbEntity
  8
0
  6
CONTINUOUS
 62
   253
100
AcDbLine
 10
-441.978524468529
 20
292.2040058544684
 30
0.0
 11
-441.978524468529
 21
291.7041771919809
 31
0.0
  0
LINE
  5
522
330
1F
100
AcDbEntity
  8
0
  6
CONTINUOUS
 62
     7
100
AcDbLine
 10
-161.6766800541898
 20
245.3251677476724
 30
0.0
 11
-142.3785244685288
 21
245.3251677476724
 31
0.0
  0
LINE
  5
523
330
1F
100
AcDbEntity
  8
0
  6
CONTINUOUS
 62
     7
100
AcDbLine
 10
-195.5679846202754
 20
279.0576957248176
 30
0.0
 11
-195.0285244685288
 21
278.1233233333336
 31
0.0
  0
LINE
  5
524
330
1F
100
AcDbEntity
  8
0
  6
CONTINUOUS
 62
     7
100
AcDbLine
 10
-186.1890643167823
 20
266.0576957248171
 30
0.0
 11
-186.7285244685288
 21
265.123323333333
 31
0.0
  0
LINE
  5
525
330
1F
100
AcDbEntity
  8
0
  6
CONTINUOUS
 62
     7
100
AcDbLine
 10
-195.0285244685288
 20
272.6233233333335
 30
0.0
 11
-194.4890643167823
 21
271.6889509418495
 31
0.0
  0
LINE
  5
526
330
1F
100
AcDbEntity
  8
0
  6
CONTINUOUS
 62
     7
100
AcDbLine
 10
-204.6785244685288
 20
307.3733233333335
 30
0.0
 11
-205.6128968600128
 21
306.8338631815865
 31
0.0
  0
LINE
  5
527
330
1F
100
AcDbEntity
  8
0
  6
CONTINUOUS
 62
     7
100
AcDbLine
 10
-478.7285244685288
 20
265.123323333333
 30
0.0
 11
-478.1890643167822
 21
266.0576957248175
 31
0.0
  0
LINE
  5
528
330
1F
100
AcDbEntity
  8
0
  6
CONTINUOUS
 62
     7
100
AcDbLine
 10
-479.2679846202755
 20
316.6889509418496
 30
0.0
 11
-478.7285244685288
 21
317.6233233333335
 31
0.0
  0
LINE
  5
529
330
1F
100
AcDbEntity
  8
0
  6
CONTINUOUS
 62
   253
100
AcDbLine
 10
-366.0785244685288
 20
290.5426408121979
 30
0.0
 11
-366.0785244685288
 21
291.0424694746855
 31
0.0
  0
LINE
  5
52A
330
1F
100
AcDbEntity
  8
0
  6
CONTINUOUS
 62
     7
100
AcDbLine
 10
-477.4785244685289
 20
263.8733233333335
 30
0.0
 11
-476.544152077045
 21
263.3338631815864
 31
0.0
  0
LINE
  5
52B
330
1F
100
AcDbEntity
  8
0
  6
CONTINUOUS
 62
     7
100
AcDbLine
 10
-195.0285244685288
 20
278.1233233333335
 30
0.0
 11
-194.4890643167823
 21
279.0576957248175
 31
0.0
  0
LINE
  5
52C
330
1F
100
AcDbEntity
  8
0
  6
CONTINUOUS
 62
     7
100
AcDbLine
 10
-187.2679846202753
 20
261.6889509418495
 30
0.0
 11
-186.7285244685288
 21
262.6233233333329
 31
0.0
  0
LINE
  5
52D
330
1F
100
AcDbEntity
  8
0
  6
CONTINUOUS
 62
     7
100
AcDbLine
 10
-185.4785244685289
 20
291.3733233333335
 30
0.0
 11
-184.5441520770449
 21
291.9127834850801
 31
0.0
  0
LINE
  5
52E
330
1F
100
AcDbEntity
  8
0
  6
CONTINUOUS
 62
     7
100
AcDbLine
 10
-187.9785244685288
 20
318.8733233333336
 30
0.0
 11
-188.9128968600128
 21
319.4127834850802
 31
0.0
  0
ARC
  5
52F
330
1F
100
AcDbEntity
  8
0
  6
CONTINUOUS
 62
   253
100
AcDbCircle
 10
-467.9785244685288
 20
291.3733233333335
 30
0.0
 40
0.3308538586476173
100
AcDbArc
 50
90.0
 51
269.9999999999904
  0
LINE
  5
530
330
1F
100
AcDbEntity
  8
0
  6
CONTINUOUS
 62
     7
100
AcDbLine
 10
-477.4785244685289
 20
291.3733233333335
 30
0.0
 11
-476.544152077045
 21
290.8338631815866
 31
0.0
  0
LINE
  5
531
330
1F
100
AcDbEntity
  8
0
  6
CONTINUOUS
 62
     7
100
AcDbLine
 10
-203.4285244685289
 20
306.1233233333336
 30
0.0
 11
-202.8890643167824
 21
305.1889509418495
 31
0.0
  0
ARC
  5
532
330
1F
100
AcDbEntity
  8
0
  6
CONTINUOUS
 62
   253
100
AcDbCircle
 10
-197.4785244685289
 20
291.3733233333335
 30
0.0
 40
0.3308538586476173
100
AcDbArc
 50
270.0000000000096
 51
90.0
  0
LINE
  5
533
330
1F
100
AcDbEntity
  8
0
  6
CONTINUOUS
 62
     7
100
AcDbLine
 10
-202.1785244685288
 20
307.3733233333335
 30
0.0
 11
-201.2441520770448
 21
307.91278348508
 31
0.0
  0
ARC
  5
534
330
1F
100
AcDbEntity
  8
0
  6
CONTINUOUS
 62
     7
100
AcDbCircle
 10
23.97852446852888
 20
307.3733233333335
 30
0.0
 40
2.250000000000085
210
0.0
220
0.0
230
-1.0
100
AcDbArc
 50
346.1276202131601
 51
13.87237978683913
  0
LINE
  5
535
330
1F
100
AcDbEntity
  8
0
  6
CONTINUOUS
 62
   253
100
AcDbLine
 10
-161.6803688828678
 20
321.359339419947
 30
0.0
 11
-161.6766800541898
 21
321.359339419947
 31
0.0
  0
LINE
  5
536
330
1F
100
AcDbEntity
  8
0
  6
CONTINUOUS
 62
     7
100
AcDbLine
 10
-476.5441520770449
 20
291.9127834850801
 30
0.0
 11
-477.4785244685289
 21
291.3733233333335
 31
0.0
  0
LINE
  5
537
330
1F
100
AcDbEntity
  8
0
  6
CONTINUOUS
 62
     7
100
AcDbLine
 10
-202.8890643167824
 20
309.5576957248169
 30
0.0
 11
-203.4285244685289
 21
308.6233233333335
 31
0.0
  0
LINE
  5
538
330
1F
100
AcDbEntity
  8
0
  6
CONTINUOUS
 62
     7
100
AcDbLine
 10
-478.7285244685288
 20
292.6233233333335
 30
0.0
 11
-478.1890643167822
 21
293.5576957248174
 31
0.0
  0
LINE
  5
539
330
1F
100
AcDbEntity
  8
0
  6
CONTINUOUS
 62
     7
100
AcDbLine
 10
-193.7785244685288
 20
307.3733233333335
 30
0.0
 11
-192.8441520770449
 21
307.91278348508
 31
0.0
  0
LINE
  5
53A
330
1F
100
AcDbEntity
  8
0
  6
CONTINUOUS
 62
     7
100
AcDbLine
 10
-186.7285244685288
 20
320.1233233333336
 30
0.0
 11
-186.1890643167823
 21
321.0576957248174
 31
0.0
  0
ARC
  5
53B
330
1F
100
AcDbEntity
  8
0
  6
CONTINUOUS
 62
     7
100
AcDbCircle
 10
32.37852446852884
 20
307.3733233333335
 30
0.0
 40
2.249999999999974
210
0.0
220
0.0
230
-1.0
100
AcDbArc
 50
346.1276202131601
 51
13.87237978683919
  0
LINE
  5
53C
330
1F
100
AcDbEntity
  8
0
  6
CONTINUOUS
 62
   253
100
AcDbLine
 10
-314.4285244685288
 20
291.704177191981
 30
0.0
 11
-314.4285244685288
 21
292.2040058544685
 31
0.0
  0
LINE
  5
53D
330
1F
100
AcDbEntity
  8
0
  6
CONTINUOUS
 62
   253
100
AcDbLine
 10
-197.4785244685289
 20
291.704177191981
 30
0.0
 11
-223.4785244685288
 21
291.704177191981
 31
0.0
  0
LINE
  5
53E
330
1F
100
AcDbEntity
  8
0
  6
CONTINUOUS
 62
     7
100
AcDbLine
 10
-480.9128968600128
 20
290.8338631815865
 30
0.0
 11
-479.9785244685289
 21
291.3733233333335
 31
0.0
  0
LINE
  5
53F
330
1F
100
AcDbEntity
  8
0
  6
CONTINUOUS
 62
   253
100
AcDbLine
 10
-393.5785244685291
 20
291.042469474686
 30
0.0
 11
-366.0785244685288
 21
291.0424694746855
 31
0.0
  0
LINE
  5
540
330
1F
100
AcDbEntity
  8
0
  6
CONTINUOUS
 62
     7
100
AcDbLine
 10
-186.7285244685288
 20
262.6233233333329
 30
0.0
 11
-186.1890643167823
 21
261.6889509418495
 31
0.0
  0
LINE
  5
541
330
1F
100
AcDbEntity
  8
0
  6
CONTINUOUS
 62
     7
100
AcDbLine
 10
-478.7285244685288
 20
262.6233233333335
 30
0.0
 11
-479.2679846202755
 21
261.6889509418495
 31
0.0
  0
LINE
  5
542
330
1F
100
AcDbEntity
  8
0
  6
CONTINUOUS
 62
     7
100
AcDbLine
 10
-203.4285244685289
 20
308.6233233333335
 30
0.0
 11
-203.9679846202754
 21
309.5576957248169
 31
0.0
  0
LINE
  5
543
330
1F
100
AcDbEntity
  8
0
  6
CONTINUOUS
 62
   253
100
AcDbLine
 10
-161.6766800541898
 20
272.2363605817295
 30
0.0
 11
-161.6803688828678
 21
272.2363605817295
 31
0.0
  0
LINE
  5
544
330
1F
100
AcDbEntity
  8
0
  6
CONTINUOUS
 62
   253
100
AcDbLine
 10
-161.6803688828678
 20
333.730652628867
 30
0.0
 11
-161.6766800541898
 21
333.730652628867
 31
0.0
  0
LINE
  5
545
330
1F
100
AcDbEntity
  8
0
  6
CONTINUOUS
 62
     7
100
AcDbLine
 10
-205.6128968600128
 20
307.91278348508
 30
0.0
 11
-204.6785244685288
 21
307.3733233333336
 31
0.0
  0
LINE
  5
546
330
1F
100
AcDbEntity
  8
0
  6
CONTINUOUS
 62
     7
100
AcDbLine
 10
-203.9679846202753
 20
305.1889509418495
 30
0.0
 11
-203.4285244685288
 21
306.1233233333336
 31
0.0
  0
LINE
  5
547
330
1F
100
AcDbEntity
  8
0
  6
CONTINUOUS
 62
     7
100
AcDbLine
 10
-479.9785244685289
 20
263.8733233333335
 30
0.0
 11
-480.9128968600128
 21
264.41278348508
 31
0.0
  0
LINE
  5
548
330
1F
100
AcDbEntity
  8
0
  6
CONTINUOUS
 62
   253
100
AcDbLine
 10
-366.078524468529
 20
291.704177191981
 30
0.0
 11
-366.078524468529
 21
292.2040058544685
 31
0.0
  0
LINE
  5
549
330
1F
100
AcDbEntity
  8
0
  6
CONTINUOUS
 62
     7
100
AcDbLine
 10
-184.5441520770449
 20
290.8338631815865
 30
0.0
 11
-185.4785244685289
 21
291.3733233333335
 31
0.0
  0
LINE
  5
54A
330
1F
100
AcDbEntity
  8
0
  6
CONTINUOUS
 62
     7
100
AcDbLine
 10
-478.1890643167822
 20
321.0576957248174
 30
0.0
 11
-478.7285244685288
 21
320.1233233333336
 31
0.0
  0
LINE
  5
54B
330
1F
100
AcDbEntity
  8
0
  6
CONTINUOUS
 62
     7
100
AcDbLine
 10
-196.2785244685288
 20
307.3733233333335
 30
0.0
 11
-197.2128968600128
 21
306.8338631815865
 31
0.0
  0
LINE
  5
54C
330
1F
100
AcDbEntity
  8
0
  6
CONTINUOUS
 62
     7
100
AcDbLine
 10
-476.5441520770449
 20
264.41278348508
 30
0.0
 11
-477.4785244685289
 21
263.8733233333335
 31
0.0
  0
LINE
  5
54D
330
1F
100
AcDbEntity
  8
0
  6
CONTINUOUS
 62
     7
100
AcDbLine
 10
-187.9785244685288
 20
263.873323333333
 30
0.0
 11
-188.9128968600128
 21
263.3338631815865
 31
0.0
  0
LINE
  5
54E
330
1F
100
AcDbEntity
  8
0
  6
CONTINUOUS
 62
     7
100
AcDbLine
 10
-476.5441520770449
 20
318.3338631815865
 30
0.0
 11
-477.4785244685289
 21
318.8733233333336
 31
0.0
  0
LINE
  5
54F
330
1F
100
AcDbEntity
  8
0
  6
CONTINUOUS
 62
   253
100
AcDbLine
 10
-366.0785244685289
 20
291.704177191981
 30
0.0
 11
-393.5785244685289
 21
291.704177191981
 31
0.0
  0
LINE
  5
550
330
1F
100
AcDbEntity
  8
0
  6
CONTINUOUS
 62
   253
100
AcDbLine
 10
-441.9785244685289
 20
291.042469474686
 30
0.0
 11
-441.9785244685289
 21
290.5426408121979
 31
0.0
  0
LINE
  5
551
330
1F
100
AcDbEntity
  8
0
  6
CONTINUOUS
 62
     7
100
AcDbLine
 10
-161.6803688828678
 20
111.9913729652454
 30
0.0
 11
-161.6803688828678
 21
92.99000249999997
 31
0.0
  0
LINE
  5
552
330
1F
100
AcDbEntity
  8
0
  6
CONTINUOUS
 62
   253
100
AcDbLine
 10
-197.4785244685289
 20
291.704177191981
 30
0.0
 11
-197.4785244685289
 21
292.2040058544685
 31
0.0
  0
LINE
  5
553
330
1F
100
AcDbEntity
  8
0
  6
CONTINUOUS
 62
     7
100
AcDbLine
 10
-631.728511968529
 20
319.6233233333334
 30
0.0
 11
-631.728511968529
 21
246.8231120498045
 31
0.0
  0
LINE
  5
554
330
1F
100
AcDbEntity
  8
0
  6
CONTINUOUS
 62
     7
100
AcDbLine
 10
-483.4519957544687
 20
94.9900025
 30
0.0
 11
-482.0050531825889
 21
94.9900025
 31
0.0
  0
LINE
  5
555
330
1F
100
AcDbEntity
  8
0
  6
CONTINUOUS
 62
     7
100
AcDbLine
 10
-203.9679846202753
 20
271.6889509418495
 30
0.0
 11
-203.4285244685288
 21
272.6233233333335
 31
0.0
  0
LINE
  5
556
330
1F
100
AcDbEntity
  8
0
  6
CONTINUOUS
 62
     7
100
AcDbLine
 10
52.37147553147114
 20
308.8733233333336
 30
0.0
 11
52.37147553147114
 21
305.8733233333335
 31
0.0
  0
LINE
  5
557
330
1F
100
AcDbEntity
  8
0
  6
CONTINUOUS
 62
   253
100
AcDbLine
 10
-314.428524468529
 20
291.0424694746856
 30
0.0
 11
-283.9285244685289
 21
291.0424694746856
 31
0.0
  0
ARC
  5
558
330
1F
100
AcDbEntity
  8
0
  6
CONTINUOUS
 62
   253
100
AcDbCircle
 10
-441.9785244685289
 20
291.3733233333335
 30
0.0
 40
0.3308538586474508
100
AcDbArc
 50
270.0
 51
90.00000000001923
  0
LINE
  5
559
330
1F
100
AcDbEntity
  8
0
  6
CONTINUOUS
 62
     7
100
AcDbLine
 10
-161.6803688828678
 20
112.9900025
 30
0.0
 11
-161.6803688828678
 21
111.9913729652454
 31
0.0
  0
LINE
  5
55A
330
1F
100
AcDbEntity
  8
0
  6
CONTINUOUS
 62
     7
100
AcDbLine
 10
-203.4285244685289
 20
272.6233233333335
 30
0.0
 11
-202.8890643167824
 21
271.6889509418495
 31
0.0
  0
LINE
  5
55B
330
1F
100
AcDbEntity
  8
0
  6
CONTINUOUS
 62
     7
100
AcDbLine
 10
180.4196311171322
 20
92.9900025
 30
0.0
 11
178.9216868150002
 21
92.9900025
 31
0.0
  0
LINE
  5
55C
330
1F
100
AcDbEntity
  8
0
  6
CONTINUOUS
 62
   253
100
AcDbLine
 10
-197.4785244685289
 20
290.5426408121979
 30
0.0
 11
-197.4785244685289
 21
291.0424694746855
 31
0.0
  0
LINE
  5
55D
330
1F
100
AcDbEntity
  8
0
  6
CONTINUOUS
 62
     7
100
AcDbLine
 10
41.47147553147112
 20
305.8733233333335
 30
0.0
 11
41.47147553147112
 21
308.8733233333335
 31
0.0
  0
LINE
  5
55E
330
1F
100
AcDbEntity
  8
0
  6
CONTINUOUS
 62
     7
100
AcDbLine
 10
-187.2679846202753
 20
289.1889509418496
 30
0.0
 11
-186.7285244685288
 21
290.1233233333336
 31
0.0
  0
LINE
  5
55F
330
1F
100
AcDbEntity
  8
0
  6
CONTINUOUS
 62
     7
100
AcDbLine
 10
179.4238114877141
 20
111.9913729652454
 30
0.0
 11
180.4196311171322
 21
92.99000249999997
 31
0.0
  0
LINE
  5
560
330
1F
100
AcDbEntity
  8
0
  6
CONTINUOUS
 62
     7
100
AcDbLine
 10
49.87147553147108
 20
305.8733233333335
 30
0.0
 11
49.87147553147108
 21
308.8733233333335
 31
0.0
  0
LINE
  5
561
330
1F
100
AcDbEntity
  8
0
  6
CONTINUOUS
 62
   253
100
AcDbLine
 10
-161.6766800541898
 20
309.0159940377994
 30
0.0
 11
-161.6803688828678
 21
309.0159940377994
 31
0.0
  0
CIRCLE
  5
562
330
1F
100
AcDbEntity
  8
0
  6
CONTINUOUS
 62
     7
100
AcDbCircle
 10
-337.7285244685289
 20
291.3733233333335
 30
0.0
 40
11.14999999999994
  0
LINE
  5
563
330
1F
100
AcDbEntity
  8
0
  6
CONTINUOUS
 62
     7
100
AcDbLine
 10
-631.728511968529
 20
337.4214789189941
 30
0.0
 11
-612.7271415032835
 21
336.4256592895761
 31
0.0
  0
LINE
  5
564
330
1F
100
AcDbEntity
  8
0
  6
CONTINUOUS
 62
     7
100
AcDbLine
 10
177.9258671855821
 20
112.9900025
 30
0.0
 11
178.3714755314711
 21
112.9900025
 31
0.0
  0
LINE
  5
565
330
1F
100
AcDbEntity
  8
0
  6
CONTINUOUS
 62
     7
100
AcDbLine
 10
-478.1890643167822
 20
261.6889509418495
 30
0.0
 11
-478.7285244685288
 21
262.6233233333335
 31
0.0
  0
LINE
  5
566
330
1F
100
AcDbEntity
  8
0
  6
CONTINUOUS
 62
   253
100
AcDbLine
 10
-223.4785244685288
 20
291.704177191981
 30
0.0
 11
-223.4785244685288
 21
292.2040058544685
 31
0.0
  0
LINE
  5
567
330
1F
100
AcDbEntity
  8
0
  6
CONTINUOUS
 62
   253
100
AcDbLine
 10
-223.4785244685288
 20
291.0424694746856
 30
0.0
 11
-197.4785244685289
 21
291.0424694746856
 31
0.0
  0
LINE
  5
568
330
1F
100
AcDbEntity
  8
0
  6
CONTINUOUS
 62
     7
100
AcDbLine
 10
-502.2787357520577
 20
92.9900025
 30
0.0
 11
-484.4785244685288
 21
92.9900025
 31
0.0
  0
LINE
  5
569
330
1F
100
AcDbEntity
  8
0
  6
CONTINUOUS
 62
   253
100
AcDbLine
 10
-161.6766800541898
 20
321.3873072467196
 30
0.0
 11
-161.6803688828678
 21
321.3873072467196
 31
0.0
  0
LINE
  5
56A
330
1F
100
AcDbEntity
  8
0
  6
CONTINUOUS
 62
     7
100
AcDbLine
 10
-481.0053958576134
 20
94.01617944830787
 30
0.0
 11
-480.9785244685289
 21
92.99000249999997
 31
0.0
  0
LINE
  5
56B
330
1F
100
AcDbEntity
  8
0
  6
CONTINUOUS
 62
     7
100
AcDbLine
 10
-161.6803688828678
 20
95.9900025
 30
0.0
 11
-161.6766800541898
 21
95.9900025
 31
0.0
  0
ARC
  5
56C
330
1F
100
AcDbEntity
  8
0
  6
CONTINUOUS
 62
   253
100
AcDbCircle
 10
-223.4785244685288
 20
291.3733233333335
 30
0.0
 40
0.3308538586475618
100
AcDbArc
 50
89.99999999998558
 51
270.0
  0
LINE
  5
56D
330
1F
100
AcDbEntity
  8
0
  6
CONTINUOUS
 62
   253
100
AcDbLine
 10
-393.5785244685291
 20
290.5426408121979
 30
0.0
 11
-393.5785244685291
 21
291.042469474686
 31
0.0
  0
ARC
  5
56E
330
1F
100
AcDbEntity
  8
0
  6
CONTINUOUS
 62
   253
100
AcDbCircle
 10
-314.4285244685288
 20
291.3733233333335
 30
0.0
 40
0.3308538586475618
100
AcDbArc
 50
90.0
 51
269.9999999999904
  0
ARC
  5
56F
330
1F
100
AcDbEntity
  8
0
  6
CONTINUOUS
 62
   253
100
AcDbCircle
 10
-366.0785244685288
 20
291.3733233333335
 30
0.0
 40
0.3308538586475618
100
AcDbArc
 50
270.0
 51
90.0000000000096
  0
LINE
  5
570
330
1F
100
AcDbEntity
  8
0
  6
CONTINUOUS
 62
   253
100
AcDbLine
 10
-393.5785244685289
 20
291.704177191981
 30
0.0
 11
-393.5785244685289
 21
292.2040058544685
 31
0.0
  0
LINE
  5
571
330
1F
100
AcDbEntity
  8
0
  6
CONTINUOUS
 62
     7
100
AcDbLine
 10
-186.7285244685288
 20
290.1233233333336
 30
0.0
 11
-186.1890643167823
 21
289.1889509418496
 31
0.0
  0
LINE
  5
572
330
1F
100
AcDbEntity
  8
0
  6
CONTINUOUS
 62
     7
100
AcDbLine
 10
-630.702335020221
 20
319.6501947224181
 30
0.0
 11
-631.7285119685289
 21
319.6233233333335
 31
0.0
  0
LINE
  5
573
330
1F
100
AcDbEntity
  8
0
  6
CONTINUOUS
 62
   253
100
AcDbLine
 10
-467.9785244685289
 20
291.042469474686
 30
0.0
 11
-441.9785244685289
 21
291.042469474686
 31
0.0
  0
LINE
  5
574
330
1F
100
AcDbEntity
  8
0
  6
CONTINUOUS
 62
   253
100
AcDbLine
 10
-283.9285244685288
 20
291.704177191981
 30
0.0
 11
-314.4285244685288
 21
291.704177191981
 31
0.0
  0
LINE
  5
575
330
1F
100
AcDbEntity
  8
0
  6
CONTINUOUS
 62
     7
100
AcDbLine
 10
-631.728511968529
 20
335.9235346168625
 30
0.0
 11
-631.728511968529
 21
323.1233233333335
 31
0.0
  0
LINE
  5
576
330
1F
100
AcDbEntity
  8
0
  6
CONTINUOUS
 62
   253
100
AcDbLine
 10
-467.978524468529
 20
291.042469474686
 30
0.0
 11
-467.978524468529
 21
290.5426408121979
 31
0.0
  0
LINE
  5
577
330
1F
100
AcDbEntity
  8
0
  6
CONTINUOUS
 62
     7
100
AcDbLine
 10
-203.9679846202753
 20
279.0576957248176
 30
0.0
 11
-203.4285244685288
 21
278.1233233333336
 31
0.0
  0
LINE
  5
578
330
1F
100
AcDbEntity
  8
0
  6
CONTINUOUS
 62
     7
100
AcDbLine
 10
-161.6803688828678
 20
92.9900025
 30
0.0
 11
-161.6766800541898
 21
92.9900025
 31
0.0
  0
LINE
  5
579
330
1F
100
AcDbEntity
  8
0
  6
CONTINUOUS
 62
   253
100
AcDbLine
 10
-161.6803688828678
 20
250.510286084937
 30
0.0
 11
-161.6766800541898
 21
250.510286084937
 31
0.0
  0
LINE
  5
57A
330
1F
100
AcDbEntity
  8
0
  6
CONTINUOUS
 62
   253
100
AcDbLine
 10
-161.6766800541898
 20
320.3596820949714
 30
0.0
 11
-161.6803688828678
 21
320.3596820949714
 31
0.0
  0
LINE
  5
57B
330
1F
100
AcDbEntity
  8
0
  6
CONTINUOUS
 62
     7
100
AcDbLine
 10
-503.7766800541897
 20
92.9900025
 30
0.0
 11
-502.7808604247717
 21
111.9913729652454
 31
0.0
  0
LINE
  5
57C
330
1F
100
AcDbEntity
  8
0
  6
CONTINUOUS
 62
     7
100
AcDbLine
 10
-138.8785244685288
 20
92.9900025
 30
0.0
 11
178.9216868150002
 21
92.9900025
 31
0.0
  0
LINE
  5
57D
330
1F
100
AcDbEntity
  8
0
  6
CONTINUOUS
 62
   253
100
AcDbLine
 10
-161.6766800541898
 20
332.2363605817289
 30
0.0
 11
-161.6803688828678
 21
332.2363605817289
 31
0.0
  0
LINE
  5
57E
330
1F
100
AcDbEntity
  8
0
  6
CONTINUOUS
 62
   253
100
AcDbLine
 10
-283.9285244685288
 20
290.5426408121979
 30
0.0
 11
-283.9285244685288
 21
291.0424694746855
 31
0.0
  0
LINE
  5
57F
330
1F
100
AcDbEntity
  8
0
  6
CONTINUOUS
 62
     7
100
AcDbLine
 10
-502.2787357520577
 20
92.9900025
 30
0.0
 11
-503.7766800541896
 21
92.9900025
 31
0.0
  0
LINE
  5
580
330
1F
100
AcDbEntity
  8
0
  6
CONTINUOUS
 62
     7
100
AcDbLine
 10
157.6214755314712
 20
337.4214789189941
 30
0.0
 11
-161.6766800541898
 21
337.4214789189941
 31
0.0
  0
LINE
  5
581
330
1F
100
AcDbEntity
  8
0
  6
CONTINUOUS
 62
   253
100
AcDbLine
 10
-223.4785244685288
 20
290.5426408121979
 30
0.0
 11
-223.4785244685288
 21
291.0424694746855
 31
0.0
  0
LINE
  5
582
330
1F
100
AcDbEntity
  8
0
  6
CONTINUOUS
 62
     7
100
AcDbLine
 10
-161.6766800541898
 20
92.9900025
 30
0.0
 11
-161.6766800541898
 21
111.9913729652454
 31
0.0
  0
LINE
  5
583
330
1F
100
AcDbEntity
  8
0
  6
CONTINUOUS
 62
     7
100
AcDbLine
 10
-161.6766800541898
 20
112.9900025
 30
0.0
 11
177.9258671855822
 21
112.9900025
 31
0.0
  0
LINE
  5
584
330
1F
100
AcDbEntity
  8
0
  6
CONTINUOUS
 62
   253
100
AcDbLine
 10
-314.428524468529
 20
290.5426408121979
 30
0.0
 11
-314.428524468529
 21
291.0424694746855
 31
0.0
  0
LINE
  5
585
330
1F
100
AcDbEntity
  8
0
  6
CONTINUOUS
 62
     7
100
AcDbLine
 10
-484.4785244685289
 20
92.9900025
 30
0.0
 11
-480.9785244685289
 21
92.9900025
 31
0.0
  0
LINE
  5
586
330
1F
100
AcDbEntity
  8
0
  6
CONTINUOUS
 62
     7
100
AcDbLine
 10
-629.728511968529
 20
322.0967946192734
 30
0.0
 11
-629.728511968529
 21
320.6498520473936
 31
0.0
  0
LINE
  5
587
330
1F
100
AcDbEntity
  8
0
  6
CONTINUOUS
 62
   253
100
AcDbLine
 10
-161.6803688828678
 20
310.510286084937
 30
0.0
 11
-161.6766800541898
 21
310.510286084937
 31
0.0
  0
LINE
  5
588
330
1F
100
AcDbEntity
  8
0
  6
CONTINUOUS
 62
     7
100
AcDbLine
 10
-161.6803688828678
 20
105.9900025
 30
0.0
 11
-161.6766800541898
 21
105.9900025
 31
0.0
  0
LINE
  5
589
330
1F
100
AcDbEntity
  8
0
  6
CONTINUOUS
 62
     7
100
AcDbLine
 10
-203.4285244685289
 20
278.1233233333335
 30
0.0
 11
-202.8890643167824
 21
279.0576957248175
 31
0.0
  0
LINE
  5
58A
330
1F
100
AcDbEntity
  8
0
  6
CONTINUOUS
 62
     7
100
AcDbLine
 10
43.97147553147107
 20
308.8733233333336
 30
0.0
 11
43.97147553147107
 21
305.8733233333335
 31
0.0
  0
LINE
  5
58B
330
1F
100
AcDbEntity
  8
0
  6
CONTINUOUS
 62
   253
100
AcDbLine
 10
-283.9285244685289
 20
291.704177191981
 30
0.0
 11
-283.9285244685289
 21
292.2040058544685
 31
0.0
  0
LINE
  5
58C
330
1F
100
AcDbEntity
  8
0
  6
CONTINUOUS
 62
     7
100
AcDbLine
 10
-161.6766800541898
 20
92.9900025
 30
0.0
 11
-142.3785244685288
 21
92.9900025
 31
0.0
  0
LINE
  5
58D
330
1F
100
AcDbEntity
  8
0
  6
CONTINUOUS
 62
   253
100
AcDbLine
 10
-161.6766800541898
 20
94.62073611412147
 30
0.0
 11
-161.6803688828678
 21
94.62073611412147
 31
0.0
  0
LINE
  5
58E
330
1F
100
AcDbEntity
  8
0
  6
CONTINUOUS
 62
     7
100
AcDbLine
 10
-142.3785244685288
 20
92.9900025
 30
0.0
 11
-138.8785244685288
 21
92.9900025
 31
0.0
  0
LINE
  5
58F
330
1F
100
AcDbEntity
  8
0
  6
CONTINUOUS
 62
     7
100
AcDbLine
 10
-480.9785244685289
 20
92.9900025
 30
0.0
 11
-161.6803688828679
 21
92.9900025
 31
0.0
  0
LINE
  5
590
330
1F
100
AcDbEntity
  8
0
  6
CONTINUOUS
 62
   253
100
AcDbLine
 10
-467.9785244685288
 20
292.2040058544684
 30
0.0
 11
-467.9785244685288
 21
291.7041771919809
 31
0.0
  0
LINE
  5
591
330
1F
100
AcDbEntity
  8
0
  6
CONTINUOUS
 62
     7
100
AcDbLine
 10
179.4238114877141
 20
111.9913729652454
 30
0.0
 11
178.3714755314712
 21
112.9900025000001
 31
0.0
  0
LWPOLYLINE
  5
592
330
1F
100
AcDbEntity
  8
0
  6
CONTINUOUS
 62
     7
100
AcDbPolyline
 90
        5
 70
     0
 43
0.0
 10
-31.45221164942669
 20
263.2905298710471
 42
0.0978717801866408
 10
-31.33862022594869
 20
262.7181882068216
 42
0.0989091949166112
 10
-31.01372414336256
 20
262.2310747214416
 42
0.0989091949165998
 10
-30.52661065798268
 20
261.9061786388561
 42
0.0978717801866732
 10
-29.9542689937571
 20
261.7925872153776
210
0.0
220
0.0
230
-1.0
  0
LINE
  5
593
330
1F
100
AcDbEntity
  8
0
  6
CONTINUOUS
 62
     7
100
AcDbLine
 10
-372.1902478935651
 20
274.5169705751001
 30
0.0
 11
-372.1902478935651
 21
276.2296760915667
 31
0.0
  0
ARC
  5
594
330
1F
100
AcDbEntity
  8
0
  6
CONTINUOUS
 62
     7
100
AcDbCircle
 10
-110.4545948298141
 20
263.290204034989
 30
0.0
 40
1.265748622398144
210
0.0
220
0.0
230
-1.0
100
AcDbArc
 50
179.9852509111444
 51
270.0147493390474
  0
LWPOLYLINE
  5
595
330
1F
100
AcDbEntity
  8
0
  6
CONTINUOUS
 62
     7
100
AcDbPolyline
 90
        5
 70
     0
 43
0.0
 10
1.211317930814859
 20
261.7925872153775
 42
0.0978717801867064
 10
1.783659595040232
 20
261.9061786388561
 42
0.0989091949165858
 10
2.270773080420341
 20
262.231074721442
 42
0.0989091949166848
 10
2.595669163005798
 20
262.7181882068216
 42
0.0978717801868233
 10
2.709260586484359
 20
263.2905298710471
210
0.0
220
0.0
230
-1.0
  0
LINE
  5
596
330
1F
100
AcDbEntity
  8
0
  6
CONTINUOUS
 62
   253
100
AcDbLine
 10
-374.4785244685291
 20
270.0698891413481
 30
0.0
 11
-366.0785244685289
 21
270.0698891413481
 31
0.0
  0
LINE
  5
597
330
1F
100
AcDbEntity
  8
0
  6
CONTINUOUS
 62
     7
100
AcDbLine
 10
-501.728524468529
 20
112.9900025
 30
0.0
 11
-501.28291612264
 21
112.9900025
 31
0.0
  0
LINE
  5
598
330
1F
100
AcDbEntity
  8
0
  6
CONTINUOUS
 62
     7
100
AcDbLine
 10
-611.7285119685289
 20
334.9277149874446
 30
0.0
 11
-611.7285119685289
 21
247.8189316792225
 31
0.0
  0
ARC
  5
599
330
1F
100
AcDbEntity
  8
0
  6
CONTINUOUS
 62
     7
100
AcDbCircle
 10
47.39540517018681
 20
263.2902040349894
 30
0.0
 40
1.265748622399032
210
0.0
220
0.0
230
-1.0
100
AcDbArc
 50
179.985250911113
 51
270.014749339016
  0
LINE
  5
59A
330
1F
100
AcDbEntity
  8
0
  6
CONTINUOUS
 62
     7
100
AcDbLine
 10
-631.7285119685289
 20
335.9235346168625
 30
0.0
 11
-631.7285119685289
 21
337.421478918994
 31
0.0
  0
LWPOLYLINE
  5
59B
330
1F
100
AcDbEntity
  8
0
  6
CONTINUOUS
 62
     7
100
AcDbPolyline
 90
        5
 70
     0
 43
0.0
 10
-180.4196294693523
 20
246.8231120511221
 42
0.0978717801866509
 10
-180.3060380458736
 20
246.2507703868964
 42
0.0989091949165858
 10
-179.9811419632882
 20
245.7636569015165
 42
0.0989091949165659
 10
-179.4940284779082
 20
245.4387608189306
 42
0.0978717801867005
 10
-178.9216868136821
 20
245.3251693954525
210
0.0
220
0.0
230
-1.0
  0
LINE
  5
59C
330
1F
100
AcDbEntity
  8
0
  6
CONTINUOUS
 62
     7
100
AcDbLine
 10
-161.6766800541898
 20
111.9913729652454
 30
0.0
 11
-161.6766800541898
 21
112.9900025
 31
0.0
  0
ARC
  5
59D
330
1F
100
AcDbEntity
  8
0
  6
CONTINUOUS
 62
     7
100
AcDbCircle
 10
77.93731267543968
 20
262.9391604773016
 30
0.0
 40
1.491354316565552
100
AcDbArc
 50
179.7462591391893
 51
270.2537408608108
  0
ARC
  5
59E
330
1F
100
AcDbEntity
  8
0
  6
CONTINUOUS
 62
     7
100
AcDbCircle
 10
-1.562687324560774
 20
319.8074861893649
 30
0.0
 40
1.491354316565441
100
AcDbArc
 50
89.74625913917853
 51
180.2537408608215
  0
ARC
  5
59F
330
1F
100
AcDbEntity
  8
0
  6
CONTINUOUS
 62
     7
100
AcDbCircle
 10
-91.46166677920142
 20
263.2901809594641
 30
0.0
 40
1.429465321364787
100
AcDbArc
 50
179.9858352237653
 51
270.0139824762572
  0
ARC
  5
5A0
330
1F
100
AcDbEntity
  8
0
  6
CONTINUOUS
 62
     7
100
AcDbCircle
 10
-47.39538215785633
 20
319.4564657072029
 30
0.0
 40
1.429465321364343
100
AcDbArc
 50
359.9858352237263
 51
90.01398247627378
  0
ARC
  5
5A1
330
1F
100
AcDbEntity
  8
0
  6
CONTINUOUS
 62
     7
100
AcDbCircle
 10
501.279640629968
 20
334.9244394947725
 30
0.0
 40
1.501223368177707
210
0.0
220
0.0
230
-1.0
100
AcDbArc
 50
0.1250127454801669
 51
89.8749872545185
  0
ARC
  5
5A2
330
1F
100
AcDbEntity
  8
0
  6
CONTINUOUS
 62
   253
100
AcDbCircle
 10
-366.0785244685289
 20
276.8733233333336
 30
0.0
 40
3.8034341919857
100
AcDbArc
 50
0.0
 51
90.00000000000144
  0
LINE
  5
5A3
330
1F
100
AcDbEntity
  8
0
  6
CONTINUOUS
 62
     7
100
AcDbLine
 10
-141.3519957544689
 20
94.9900025
 30
0.0
 11
-139.9050531825889
 21
94.9900025
 31
0.0
  0
ARC
  5
5A4
330
1F
100
AcDbEntity
  8
0
  6
CONTINUOUS
 62
     7
100
AcDbCircle
 10
91.46164376687094
 20
319.456442631677
 30
0.0
 40
1.265748622398921
210
0.0
220
0.0
230
-1.0
100
AcDbArc
 50
359.9852509111695
 51
90.01474933900971
  0
ARC
  5
5A5
330
1F
100
AcDbEntity
  8
0
  6
CONTINUOUS
 62
     7
100
AcDbCircle
 10
-91.46166684239887
 20
319.456465644006
 30
0.0
 40
1.429465321364232
100
AcDbArc
 50
89.98583522372635
 51
180.0139824762793
  0
ARC
  5
5A6
330
1F
100
AcDbEntity
  8
0
  6
CONTINUOUS
 62
     7
100
AcDbCircle
 10
-366.0785244685289
 20
273.8733233333335
 30
0.0
 40
2.250000000000085
100
AcDbArc
 50
180.0
 51
193.8723797868383
  0
ARC
  5
5A7
330
1F
100
AcDbEntity
  8
0
  6
CONTINUOUS
 62
     7
100
AcDbCircle
 10
-177.9225916929106
 20
247.822207171894
 30
0.0
 40
1.501223368177484
210
0.0
220
0.0
230
-1.0
100
AcDbArc
 50
180.1250127454696
 51
269.8749872545251
  0
LWPOLYLINE
  5
5A8
330
1F
100
AcDbEntity
  8
0
  6
CONTINUOUS
 62
     7
100
AcDbPolyline
 90
        5
 70
     0
 43
0.0
 10
-29.95426899375708
 20
320.9540594512891
 42
0.0978717801866588
 10
-30.52661065798268
 20
320.8404680278106
 42
0.0989091949166036
 10
-31.01372414336256
 20
320.515571945225
 42
0.0989091949165921
 10
-31.33862022594869
 20
320.0284584598452
 42
0.097871780186659
 10
-31.45221164942669
 20
319.4561167956194
210
0.0
220
0.0
230
-1.0
  0
LINE
  5
5A9
330
1F
100
AcDbEntity
  8
0
  6
CONTINUOUS
 62
     7
100
AcDbLine
 10
-372.2285244685288
 20
276.8733233333336
 30
0.0
 11
-372.2285244685288
 21
276.295973064144
 31
0.0
  0
ARC
  5
5AA
330
1F
100
AcDbEntity
  8
0
  6
CONTINUOUS
 62
     7
100
AcDbCircle
 10
-47.04436161249736
 20
319.8074861893649
 30
0.0
 40
1.491354316565663
100
AcDbArc
 50
359.7462591391891
 51
90.2537408608161
  0
ARC
  5
5AB
330
1F
100
AcDbEntity
  8
0
  6
CONTINUOUS
 62
     7
100
AcDbCircle
 10
77.93731267543968
 20
319.8074861893649
 30
0.0
 40
1.491354316565552
100
AcDbArc
 50
89.7462591391839
 51
180.2537408608108
  0
ARC
  5
5AC
330
1F
100
AcDbEntity
  8
0
  6
CONTINUOUS
 62
     7
100
AcDbCircle
 10
-91.81268732456039
 20
319.8074861893649
 30
0.0
 40
1.491354316565663
100
AcDbArc
 50
89.7462591391839
 51
180.2537408608108
  0
ARC
  5
5AD
330
1F
100
AcDbEntity
  8
0
  6
CONTINUOUS
 62
   253
100
AcDbCircle
 10
-374.478524468529
 20
273.8733233333335
 30
0.0
 40
3.8034341919857
100
AcDbArc
 50
180.0
 51
269.9999999999985
  0
ARC
  5
5AE
330
1F
100
AcDbEntity
  8
0
  6
CONTINUOUS
 62
     7
100
AcDbCircle
 10
-1.562687324560774
 20
262.9391604773016
 30
0.0
 40
1.491354316565441
100
AcDbArc
 50
179.7462591391785
 51
270.2537408608215
  0
LINE
  5
5AF
330
1F
100
AcDbEntity
  8
0
  6
CONTINUOUS
 62
     7
100
AcDbLine
 10
-631.728511968529
 20
323.1233233333335
 30
0.0
 11
-630.7023350202211
 21
323.0964519442489
 31
0.0
  0
LINE
  5
5B0
330
1F
100
AcDbEntity
  8
0
  6
CONTINUOUS
 62
     7
100
AcDbLine
 10
-372.2285244685288
 20
274.4506736025231
 30
0.0
 11
-372.1902478935651
 21
274.5169705750999
 31
0.0
  0
ARC
  5
5B1
330
1F
100
AcDbEntity
  8
0
  6
CONTINUOUS
 62
     7
100
AcDbCircle
 10
110.4546179053407
 20
263.2901810226604
 30
0.0
 40
1.429465321364454
100
AcDbArc
 50
269.985835223743
 51
0.013982476268211
  0
LINE
  5
5B2
330
1F
100
AcDbEntity
  8
0
  6
CONTINUOUS
 62
     7
100
AcDbLine
 10
-631.7285119685289
 20
323.1233233333335
 30
0.0
 11
-631.7285119685289
 21
319.6233233333334
 31
0.0
  0
ARC
  5
5B3
330
1F
100
AcDbEntity
  8
0
  6
CONTINUOUS
 62
     7
100
AcDbCircle
 10
-177.9225916929097
 20
334.9244394947721
 30
0.0
 40
1.501223368178262
210
0.0
220
0.0
230
-1.0
100
AcDbArc
 50
90.12501274550134
 51
179.874987254504
  0
ARC
  5
5B4
330
1F
100
AcDbEntity
  8
0
  6
CONTINUOUS
 62
     7
100
AcDbCircle
 10
-91.81268732456039
 20
262.9391604773016
 30
0.0
 40
1.491354316565663
100
AcDbArc
 50
179.7462591391893
 51
270.2537408608161
  0
ARC
  5
5B5
330
1F
100
AcDbEntity
  8
0
  6
CONTINUOUS
 62
     7
100
AcDbCircle
 10
78.28833315760164
 20
319.456465644006
 30
0.0
 40
1.429465321364454
100
AcDbArc
 50
89.98583522373193
 51
180.0139824762738
  0
LINE
  5
5B6
330
1F
100
AcDbEntity
  8
0
  6
CONTINUOUS
 62
   253
100
AcDbLine
 10
-362.2750902765433
 20
273.8733233333335
 30
0.0
 11
-362.2750902765433
 21
276.8733233333335
 31
0.0
  0
LINE
  5
5B7
330
1F
100
AcDbEntity
  8
0
  6
CONTINUOUS
 62
     7
100
AcDbLine
 10
-484.4785244685289
 20
92.9900025
 30
0.0
 11
-484.4516530794444
 21
94.0161794483079
 31
0.0
  0
LINE
  5
5B8
330
1F
100
AcDbEntity
  8
0
  6
CONTINUOUS
 62
   253
100
AcDbLine
 10
-366.0785244685289
 20
280.6767575253189
 30
0.0
 11
-374.478524468529
 21
280.6767575253189
 31
0.0
  0
ARC
  5
5B9
330
1F
100
AcDbEntity
  8
0
  6
CONTINUOUS
 62
     7
100
AcDbCircle
 10
110.8056383875027
 20
262.9391604773016
 30
0.0
 40
1.491354316565663
100
AcDbArc
 50
269.7462591391893
 51
0.253740860810808
  0
LINE
  5
5BA
330
1F
100
AcDbEntity
  8
0
  6
CONTINUOUS
 62
   253
100
AcDbLine
 10
-378.2819586605147
 20
276.8733233333336
 30
0.0
 11
-378.2819586605147
 21
273.8733233333335
 31
0.0
  0
LINE
  5
5BB
330
1F
100
AcDbEntity
  8
0
  6
CONTINUOUS
 62
     7
100
AcDbLine
 10
-372.2285244685288
 20
276.2959730641441
 30
0.0
 11
-372.1902478935651
 21
276.2296760915667
 31
0.0
  0
ARC
  5
5BC
330
1F
100
AcDbEntity
  8
0
  6
CONTINUOUS
 62
   253
100
AcDbCircle
 10
-374.478524468529
 20
276.8733233333336
 30
0.0
 40
3.8034341919857
100
AcDbArc
 50
90.0
 51
180.0000000000003
  0
ARC
  5
5BD
330
1F
100
AcDbEntity
  8
0
  6
CONTINUOUS
 62
     7
100
AcDbCircle
 10
110.8056383875027
 20
319.8074861893649
 30
0.0
 40
1.491354316565663
100
AcDbArc
 50
359.7462591391891
 51
90.25374086081082
  0
LINE
  5
5BE
330
1F
100
AcDbEntity
  8
0
  6
CONTINUOUS
 62
     7
100
AcDbLine
 10
-502.7808604247717
 20
111.9913729652454
 30
0.0
 11
-501.728524468529
 21
112.9900025
 31
0.0
  0
ARC
  5
5BF
330
1F
100
AcDbEntity
  8
0
  6
CONTINUOUS
 62
     7
100
AcDbCircle
 10
-374.4785244685289
 20
276.8733233333336
 30
0.0
 40
2.250000000000085
100
AcDbArc
 50
166.1276202131608
 51
179.9999999999995
  0
ARC
  5
5C0
330
1F
100
AcDbEntity
  8
0
  6
CONTINUOUS
 62
     7
100
AcDbCircle
 10
-374.4785244685289
 20
276.8733233333336
 30
0.0
 40
2.25000000000003
100
AcDbArc
 50
0.0
 51
13.87237978683888
  0
LINE
  5
5C1
330
1F
100
AcDbEntity
  8
0
  6
CONTINUOUS
 62
     7
100
AcDbLine
 10
-631.728511968529
 20
245.3251677476724
 30
0.0
 11
-631.728511968529
 21
246.8231120498045
 31
0.0
  0
LINE
  5
5C2
330
1F
100
AcDbEntity
  8
0
  6
CONTINUOUS
 62
     7
100
AcDbLine
 10
-611.7285119685289
 20
247.3733233333335
 30
0.0
 11
-612.7271415032834
 21
246.3209873770905
 31
0.0
  0
LINE
  5
5C3
330
1F
100
AcDbEntity
  8
0
  6
CONTINUOUS
 62
     7
100
AcDbLine
 10
-138.9053958576134
 20
94.01617944830787
 30
0.0
 11
-138.8785244685289
 21
92.99000249999997
 31
0.0
  0
LINE
  5
5C4
330
1F
100
AcDbEntity
  8
0
  6
CONTINUOUS
 62
     7
100
AcDbLine
 10
-611.7285119685289
 20
247.818931679222
 30
0.0
 11
-611.7285119685289
 21
247.3733233333335
 31
0.0
  0
LINE
  5
5C5
330
1F
100
AcDbEntity
  8
0
  6
CONTINUOUS
 62
     7
100
AcDbLine
 10
-375.0179846202755
 20
279.0576957248176
 30
0.0
 11
-375.0519120868231
 21
279.088596752737
 31
0.0
  0
ARC
  5
5C6
330
1F
100
AcDbEntity
  8
0
  6
CONTINUOUS
 62
     7
100
AcDbCircle
 10
30.30563838750255
 20
262.9391604773016
 30
0.0
 40
1.491354316565663
100
AcDbArc
 50
269.7462591391893
 51
0.253740860810808
  0
ARC
  5
5C7
330
1F
100
AcDbEntity
  8
0
  6
CONTINUOUS
 62
     7
100
AcDbCircle
 10
-47.39538209465932
 20
263.2901810226604
 30
0.0
 40
1.429465321364565
100
AcDbArc
 50
269.9858352237375
 51
0.013982476268211
  0
ARC
  5
5C8
330
1F
100
AcDbEntity
  8
0
  6
CONTINUOUS
 62
     7
100
AcDbCircle
 10
30.30563838750255
 20
319.8074861893649
 30
0.0
 40
1.491354316565663
100
AcDbArc
 50
359.7462591391891
 51
90.25374086081082
  0
LINE
  5
5C9
330
1F
100
AcDbEntity
  8
0
  6
CONTINUOUS
 62
     7
100
AcDbLine
 10
-612.7271415032834
 20
336.4256592895761
 30
0.0
 11
-611.7285119685289
 21
335.373323333333
 31
0.0
  0
LINE
  5
5CA
330
1F
100
AcDbEntity
  8
0
  6
CONTINUOUS
 62
   253
100
AcDbLine
 10
-161.6766800541898
 20
105.0161794483079
 30
0.0
 11
-161.6803688828678
 21
105.0161794483079
 31
0.0
  0
LINE
  5
5CB
330
1F
100
AcDbEntity
  8
0
  6
CONTINUOUS
 62
     7
100
AcDbLine
 10
-612.7271415032834
 20
246.3209873770905
 30
0.0
 11
-631.7285119685289
 21
245.3251677476725
 31
0.0
  0
LINE
  5
5CC
330
1F
100
AcDbEntity
  8
0
  6
CONTINUOUS
 62
     7
100
AcDbLine
 10
-611.7285119685289
 20
335.373323333333
 30
0.0
 11
-611.7285119685289
 21
334.9277149874446
 31
0.0
  0
LINE
  5
5CD
330
1F
100
AcDbEntity
  8
0
  6
CONTINUOUS
 62
     7
100
AcDbLine
 10
-501.28291612264
 20
112.9900025
 30
0.0
 11
-161.6803688828679
 21
112.9900025
 31
0.0
  0
LINE
  5
5CE
330
1F
100
AcDbEntity
  8
0
  6
CONTINUOUS
 62
     7
100
AcDbLine
 10
-142.3785244685288
 20
92.9900025
 30
0.0
 11
-142.3516530794444
 21
94.0161794483079
 31
0.0
  0
ARC
  5
5CF
330
1F
100
AcDbEntity
  8
0
  6
CONTINUOUS
 62
     7
100
AcDbCircle
 10
501.2796406299676
 20
247.8222071718945
 30
0.0
 40
1.501223368178151
210
0.0
220
0.0
230
-1.0
100
AcDbArc
 50
270.1250127454973
 51
359.8749872545039
  0
LINE
  5
5D0
330
1F
100
AcDbEntity
  8
0
  6
CONTINUOUS
 62
     7
100
AcDbLine
 10
-372.2285244685288
 20
273.8733233333335
 30
0.0
 11
-372.2285244685288
 21
274.4506736025231
 31
0.0
  0
LWPOLYLINE
  5
5D1
330
1F
100
AcDbEntity
  8
0
  6
CONTINUOUS
 62
     7
100
AcDbPolyline
 90
        5
 70
     0
 43
0.0
 10
-178.921686813682
 20
337.421477271214
 42
0.0978717801867732
 10
-179.4940284779082
 20
337.3078858477354
 42
0.0989091949165639
 10
-179.9811419632876
 20
336.9829897651495
 42
0.098909194916694
 10
-180.3060380458736
 20
336.4958762797698
 42
0.0978717801868321
 10
-180.4196294693522
 20
335.9235346155444
210
0.0
220
0.0
230
-1.0
  0
ARC
  5
5D2
330
1F
100
AcDbEntity
  8
0
  6
CONTINUOUS
 62
     7
100
AcDbCircle
 10
-374.4785244685289
 20
276.8733233333336
 30
0.0
 40
2.249999999999974
100
AcDbArc
 50
76.12762021316003
 51
103.8723797868391
  0
LINE
  5
5D3
330
1F
100
AcDbEntity
  8
0
  6
CONTINUOUS
 62
     7
100
AcDbLine
 10
-129.5785244685289
 20
305.8733233333331
 30
0.0
 11
-130.5128968600129
 21
305.3338631815864
 31
0.0
  0
ARC
  5
5D4
330
1F
100
AcDbEntity
  8
0
  6
CONTINUOUS
 62
   253
100
AcDbCircle
 10
-366.0785244685289
 20
273.8733233333335
 30
0.0
 40
3.8034341919857
100
AcDbArc
 50
270.0
 51
359.9999999999996
  0
LINE
  5
5D5
330
1F
100
AcDbEntity
  8
0
  6
CONTINUOUS
 62
     7
100
AcDbLine
 10
-120.4679846202753
 20
311.0576957248174
 30
0.0
 11
-120.5019120868229
 21
311.0885967527366
 31
0.0
  0
ARC
  5
5D6
330
1F
100
AcDbEntity
  8
0
  6
CONTINUOUS
 62
     7
100
AcDbCircle
 10
47.39540517018536
 20
319.4564426316755
 30
0.0
 40
1.265748622399143
210
0.0
220
0.0
230
-1.0
100
AcDbArc
 50
89.9852509111067
 51
180.0147493390034
  0
ARC
  5
5D7
330
1F
100
AcDbEntity
  8
0
  6
CONTINUOUS
 62
     7
100
AcDbCircle
 10
78.28833322079865
 20
263.2901809594641
 30
0.0
 40
1.429465321364454
100
AcDbArc
 50
179.9858352237598
 51
270.0139824762682
  0
ARC
  5
5D8
330
1F
100
AcDbEntity
  8
0
  6
CONTINUOUS
 62
     7
100
AcDbCircle
 10
-110.4545948298146
 20
319.4564426316755
 30
0.0
 40
1.265748622399254
210
0.0
220
0.0
230
-1.0
100
AcDbArc
 50
89.9852509110816
 51
180.0147493390034
  0
ARC
  5
5D9
330
1F
100
AcDbEntity
  8
0
  6
CONTINUOUS
 62
     7
100
AcDbCircle
 10
-78.28835623312914
 20
319.456442631677
 30
0.0
 40
1.265748622398921
210
0.0
220
0.0
230
-1.0
100
AcDbArc
 50
359.9852509109748
 51
90.01474933900971
  0
LWPOLYLINE
  5
5DA
330
1F
100
AcDbEntity
  8
0
  6
CONTINUOUS
 62
     7
100
AcDbPolyline
 90
        5
 70
     0
 43
0.0
 10
322.1457310062429
 20
320.9540594512885
 42
0.0978717801866472
 10
321.5733893420172
 20
320.8404680278106
 42
0.0989091949166099
 10
321.0862758566374
 20
320.5155719452245
 42
0.0989091949166258
 10
320.7613797740515
 20
320.0284584598452
 42
0.0978717801866908
 10
320.6477883505734
 20
319.4561167956194
210
0.0
220
0.0
230
-1.0
  0
LINE
  5
5DB
330
1F
100
AcDbEntity
  8
0
  6
CONTINUOUS
 62
     7
100
AcDbLine
 10
-128.3285244685288
 20
310.1233233333336
 30
0.0
 11
-128.8679846202753
 21
311.0576957248174
 31
0.0
  0
ARC
  5
5DC
330
1F
100
AcDbEntity
  8
0
  6
CONTINUOUS
 62
     7
100
AcDbCircle
 10
-374.4785244685289
 20
276.8733233333336
 30
0.0
 40
2.288276574963999
100
AcDbArc
 50
104.5116105564687
 51
164.8567987764038
  0
ARC
  5
5DD
330
1F
100
AcDbEntity
  8
0
  6
CONTINUOUS
 62
     7
100
AcDbCircle
 10
110.4546178421436
 20
319.4564657072029
 30
0.0
 40
1.429465321364454
100
AcDbArc
 50
359.9858352237319
 51
90.01398247626821
  0
ARC
  5
5DE
330
1F
100
AcDbEntity
  8
0
  6
CONTINUOUS
 62
     7
100
AcDbCircle
 10
-321.7943616124973
 20
262.9391604773016
 30
0.0
 40
1.491354316565663
100
AcDbArc
 50
269.7462591391866
 51
0.2537408608160945
  0
LINE
  5
5DF
330
1F
100
AcDbEntity
  8
0
  6
CONTINUOUS
 62
     7
100
AcDbLine
 10
-127.0785244685289
 20
308.8733233333336
 30
0.0
 11
-126.1441520770448
 21
309.4127834850796
 31
0.0
  0
LINE
  5
5E0
330
1F
100
AcDbEntity
  8
0
  6
CONTINUOUS
 62
     7
100
AcDbLine
 10
-129.5785244685289
 20
308.8733233333336
 30
0.0
 11
-130.5128968600129
 21
309.4127834850796
 31
0.0
  0
LINE
  5
5E1
330
1F
100
AcDbEntity
  8
0
  6
CONTINUOUS
 62
     7
100
AcDbLine
 10
-127.7890643167824
 20
311.0576957248174
 30
0.0
 11
-128.3285244685289
 21
310.1233233333336
 31
0.0
  0
ARC
  5
5E2
330
1F
100
AcDbEntity
  8
0
  6
CONTINUOUS
 62
     7
100
AcDbCircle
 10
91.46164376687283
 20
263.2902040349911
 30
0.0
 40
1.265748622398699
210
0.0
220
0.0
230
-1.0
100
AcDbArc
 50
269.9852509110753
 51
0.0147493390222735
  0
ARC
  5
5E3
330
1F
100
AcDbEntity
  8
0
  6
CONTINUOUS
 62
     7
100
AcDbCircle
 10
119.9285244685289
 20
308.8733233333336
 30
0.0
 40
2.249999999999974
210
0.0
220
0.0
230
-1.0
100
AcDbArc
 50
76.12762021316003
 51
103.8723797868391
  0
LWPOLYLINE
  5
5E4
330
1F
100
AcDbEntity
  8
0
  6
CONTINUOUS
 62
     7
100
AcDbPolyline
 90
        5
 70
     0
 43
0.0
 10
2.709260586484352
 20
319.4561167956194
 42
0.0978717801867227
 10
2.595669163006464
 20
320.0284584598452
 42
0.0989091949165728
 10
2.270773080420341
 20
320.5155719452245
 42
0.098909194916694
 10
1.783659595040232
 20
320.8404680278106
 42
0.097871780186809
 10
1.21131793081478
 20
320.9540594512891
210
0.0
220
0.0
230
-1.0
  0
ARC
  5
5E5
330
1F
100
AcDbEntity
  8
0
  6
CONTINUOUS
 62
     7
100
AcDbCircle
 10
-119.9285244685289
 20
308.8733233333336
 30
0.0
 40
2.288276574963888
100
AcDbArc
 50
104.5116105564679
 51
164.8567987764019
  0
LWPOLYLINE
  5
5E6
330
1F
100
AcDbEntity
  8
0
  6
CONTINUOUS
 62
     7
100
AcDbPolyline
 90
        5
 70
     0
 43
0.0
 10
354.8092605864843
 20
319.4561167956194
 42
0.0978717801866625
 10
354.6956691630061
 20
320.0284584598452
 42
0.0989091949165449
 10
354.3707730804202
 20
320.5155719452245
 42
0.0989091949166296
 10
353.8836595950404
 20
320.8404680278106
 42
0.0978717801867635
 10
353.3113179308147
 20
320.9540594512891
210
0.0
220
0.0
230
-1.0
  0
ARC
  5
5E7
330
1F
100
AcDbEntity
  8
0
  6
CONTINUOUS
 62
     7
100
AcDbCircle
 10
-401.6453821578563
 20
319.4564657072029
 30
0.0
 40
1.429465321364454
100
AcDbArc
 50
359.9858352237486
 51
90.01398247626821
  0
LWPOLYLINE
  5
5E8
330
1F
100
AcDbEntity
  8
0
  6
CONTINUOUS
 62
     7
100
AcDbPolyline
 90
        5
 70
     0
 43
0.0
 10
320.6477883505735
 20
263.2905298710474
 42
0.0978717801867231
 10
320.7613797740517
 20
262.7181882068216
 42
0.0989091949166053
 10
321.0862758566375
 20
262.231074721442
 42
0.0989091949165883
 10
321.5733893420174
 20
261.9061786388561
 42
0.0978717801866622
 10
322.145731006243
 20
261.7925872153781
210
0.0
220
0.0
230
-1.0
  0
ARC
  5
5E9
330
1F
100
AcDbEntity
  8
0
  6
CONTINUOUS
 62
     7
100
AcDbCircle
 10
-433.8116667792015
 20
263.2901809594641
 30
0.0
 40
1.429465321364509
100
AcDbArc
 50
179.9858352237375
 51
270.0139824762682
  0
ARC
  5
5EA
330
1F
100
AcDbEntity
  8
0
  6
CONTINUOUS
 62
     7
100
AcDbCircle
 10
-433.8116668423987
 20
319.456465644006
 30
0.0
 40
1.429465321364232
100
AcDbArc
 50
89.98583522372913
 51
180.0139824762793
  0
LINE
  5
5EB
330
1F
100
AcDbEntity
  8
0
  6
CONTINUOUS
 62
     7
100
AcDbLine
 10
-373.9390643167822
 20
279.0576957248176
 30
0.0
 11
-373.9051368502347
 21
279.088596752737
 31
0.0
  0
LINE
  5
5EC
330
1F
100
AcDbEntity
  8
0
  6
CONTINUOUS
 62
     7
100
AcDbLine
 10
-376.6628968600129
 20
277.41278348508
 30
0.0
 11
-376.6873427792323
 21
277.4710953248401
 31
0.0
  0
LINE
  5
5ED
330
1F
100
AcDbEntity
  8
0
  6
CONTINUOUS
 62
     7
100
AcDbLine
 10
-127.7890643167824
 20
303.6889509418491
 30
0.0
 11
-128.3285244685289
 21
304.6233233333331
 31
0.0
  0
ARC
  5
5EE
330
1F
100
AcDbEntity
  8
0
  6
CONTINUOUS
 62
     7
100
AcDbCircle
 10
-374.4785244685289
 20
276.8733233333336
 30
0.0
 40
2.288276574963777
100
AcDbArc
 50
15.14320122359765
 51
75.48838944353132
  0
LINE
  5
5EF
330
1F
100
AcDbEntity
  8
0
  6
CONTINUOUS
 62
     7
100
AcDbLine
 10
-372.2941520770448
 20
277.41278348508
 30
0.0
 11
-372.2697061578256
 21
277.4710953248401
 31
0.0
  0
ARC
  5
5F0
330
1F
100
AcDbEntity
  8
0
  6
CONTINUOUS
 62
     7
100
AcDbCircle
 10
-47.04436161249736
 20
262.9391604773016
 30
0.0
 40
1.491354316565663
100
AcDbArc
 50
269.7462591391839
 51
0.2537408608107512
  0
ARC
  5
5F1
330
1F
100
AcDbEntity
  8
0
  6
CONTINUOUS
 62
     7
100
AcDbCircle
 10
-434.1626873245605
 20
262.9391604773016
 30
0.0
 40
1.491354316565607
100
AcDbArc
 50
179.7462591391786
 51
270.2537408608176
  0
LINE
  5
5F2
330
1F
100
AcDbEntity
  8
0
  6
CONTINUOUS
 62
     7
100
AcDbLine
 10
-128.3285244685288
 20
304.6233233333331
 30
0.0
 11
-128.8679846202753
 21
303.6889509418491
 31
0.0
  0
ARC
  5
5F3
330
1F
100
AcDbEntity
  8
0
  6
CONTINUOUS
 62
     7
100
AcDbCircle
 10
-78.28835623312713
 20
263.2902040349911
 30
0.0
 40
1.265748622398588
210
0.0
220
0.0
230
-1.0
100
AcDbArc
 50
269.9852509110879
 51
0.0147493390222735
  0
ENDSEC
  0
SECTION
  2
OBJECTS
  0
DICTIONARY
  5
C
330
0
100
AcDbDictionary
  3
ACAD_GROUP
350
D
  3
ACAD_LAYOUT
350
1A
  3
ACAD_MATERIAL
350
43
  3
ACAD_MLEADERSTYLE
350
6B
  3
ACAD_MLINESTYLE
350
17
  3
ACAD_PLOTSETTINGS
350
19
  3
ACAD_SCALELIST
350
47
  3
ACAD_VISUALSTYLE
350
2A
  3
ACDBHEADERROUNDTRIPXREC
350
5F4
  3
ACDBVARIABLEDICTIONARY
350
615
  0
DICTIONARY
  5
61C
330
8
100
AcDbDictionary
280
     1
  3
ACAD_XREC_ROUNDTRIP
360
61D
  0
DICTIONARY
  5
D
102
{ACAD_REACTORS
330
C
102
}
330
C
100
AcDbDictionary
  0
DICTIONARY
  5
1A
102
{ACAD_REACTORS
330
C
102
}
330
C
100
AcDbDictionary
  0
DICTIONARY
  5
43
102
{ACAD_REACTORS
330
C
102
}
330
C
100
AcDbDictionary
  3
BYBLOCK
350
45
  3
BYLAYER
350
44
  3
GLOBAL
350
46
  0
DICTIONARY
  5
6B
102
{ACAD_REACTORS
330
C
102
}
330
C
100
AcDbDictionary
  3
STANDARD
350
6C
  0
DICTIONARY
  5
17
102
{ACAD_REACTORS
330
C
102
}
330
C
100
AcDbDictionary
  3
STANDARD
350
18
  0
DICTIONARY
  5
19
102
{ACAD_REACTORS
330
C
102
}
330
C
100
AcDbDictionary
  0
DICTIONARY
  5
47
102
{ACAD_REACTORS
330
C
102
}
330
C
100
AcDbDictionary
  3
A0
350
48
  3
A1
350
49
  3
A2
350
4A
  3
A3
350
4B
  3
A4
350
4C
  3
A5
350
4D
  3
A6
350
4E
  3
A7
350
4F
  3
A8
350
50
  3
A9
350
51
  3
B0
350
52
  3
B1
350
53
  3
B2
350
54
  3
B3
350
55
  3
B4
350
56
  3
B5
350
57
  3
B6
350
58
  3
B7
350
59
  3
B8
350
5A
  3
B9
350
5B
  3
C0
350
5C
  3
C1
350
5D
  3
C2
350
5E
  3
C3
350
5F
  3
C4
350
60
  3
C5
350
61
  3
C6
350
62
  3
C7
350
63
  3
C8
350
64
  3
C9
350
65
  3
D0
350
66
  3
D1
350
67
  3
D2
350
68
  0
DICTIONARY
  5
2A
102
{ACAD_REACTORS
330
C
102
}
330
C
100
AcDbDictionary
  3
2DWIREFRAME
350
2F
  3
BASIC
350
32
  3
BRIGHTEN
350
36
  3
COLORCHANGE
350
3A
  3
CONCEPTUAL
350
34
  3
DIM
350
35
  3
EDGECOLOROFF
350
3D
  3
FACEPATTERN
350
39
  3
FLAT
350
2B
  3
FLATWITHEDGES
350
2C
  3
GOURAUD
350
2D
  3
GOURAUDWITHEDGES
350
2E
  3
HIDDEN
350
31
  3
JITTEROFF
350
3B
  3
LINEPATTERN
350
38
  3
OVERHANGOFF
350
3C
  3
REALISTIC
350
33
  3
SHADED
350
42
  3
SHADED_WITH_EDGES
350
41
  3
SHADES_OF_GRAY
350
3E
  3
SKETCHY
350
3F
  3
THICKEN
350
37
  3
WIREFRAME
350
30
  3
X-RAY
350
40
  0
DICTIONARY
  5
5F4
102
{ACAD_REACTORS
330
C
102
}
330
C
100
AcDbDictionary
  3
CEPSNID
350
5FE
  3
CEPSNTYPE
350
5FD
  3
DIMSTYLEDATA
350
614
  3
FINGERPRINTGUID
350
5FF
  3
HYPERLINKBASE
350
5F7
  3
INSUNITS
350
5FC
  3
LAYOUTDICT
350
5F9
  3
LWETCUNION
350
5FB
  3
PLOTSETDICT
350
5FA
  3
PSVPSCALE
350
601
  3
PUCSBASE
350
604
  3
PUCSORGBACK
350
60A
  3
PUCSORGBOTTOM
350
606
  3
PUCSORGFRONT
350
609
  3
PUCSORGLEFT
350
607
  3
PUCSORGRIGHT
350
608
  3
PUCSORGTOP
350
605
  3
PUCSORTHOREF
350
602
  3
PUCSORTHOVIEW
350
603
  3
STYLESHEET
350
5F8
  3
TSTACKALIGN
350
5F5
  3
TSTACKSIZE
350
5F6
  3
UCSBASE
350
60D
  3
UCSORGBACK
350
613
  3
UCSORGBOTTOM
350
60F
  3
UCSORGFRONT
350
612
  3
UCSORGLEFT
350
610
  3
UCSORGRIGHT
350
611
  3
UCSORGTOP
350
60E
  3
UCSORTHOREF
350
60B
  3
UCSORTHOVIEW
350
60C
  3
VERSIONGUID
350
600
  0
DICTIONARY
  5
615
102
{ACAD_REACTORS
330
C
102
}
330
C
100
AcDbDictionary
  3
CANNOSCALE
350
61E
  3
CMLEADERSTYLE
350
617
  3
CTABLESTYLE
350
616
  3
DIMASSOC
350
61A
  3
HIDETEXT
350
61B
  3
MSLTSCALE
350
61F
  0
XRECORD
  5
61D
102
{ACAD_REACTORS
330
61C
102
}
330
61C
100
AcDbXrecord
102
VTR_0.000_0.000_1.000_1.000_VISUALSTYLE
340
2F
102
VTR_0.000_0.000_1.000_1.000_GRIDDISPLAY
 70
     3
102
VTR_0.000_0.000_1.000_1.000_GRIDMAJOR
 70
     5
102
VTR_0.000_0.000_1.000_1.000_DEFAULTLIGHTING
280
     1
102
VTR_0.000_0.000_1.000_1.000_DEFAULTLIGHTINGTYPE
 70
     1
102
VTR_0.000_0.000_1.000_1.000_BRIGHTNESS
141
0.0
102
VTR_0.000_0.000_1.000_1.000_CONTRAST
142
0.0
  0
MATERIAL
  5
45
102
{ACAD_REACTORS
330
43
102
}
102
{ACAD_XDICTIONARY
360
622
102
}
330
43
100
AcDbMaterial
  1
BYBLOCK
  0
MATERIAL
  5
44
102
{ACAD_REACTORS
330
43
102
}
102
{ACAD_XDICTIONARY
360
620
102
}
330
43
100
AcDbMaterial
  1
BYLAYER
  0
MATERIAL
  5
46
102
{ACAD_REACTORS
330
43
102
}
102
{ACAD_XDICTIONARY
360
624
102
}
330
43
100
AcDbMaterial
  1
GLOBAL
  0
ACAD_PROXY_OBJECT
  5
6C
102
{ACAD_REACTORS
330
6B
102
}
330
6B
100
AcDbProxyObject
 90
      499
 91
      505
 93
      610
310
40901902A4063FBFFFFFE056BD1B81E855B9FC0AD7A3703D0AD73F4214DD185B99185C9900AD7A3703D0AC73F90141901A02B5E8DC0F42B1CFC02B5E8DC0F42B1CFE5764000000000000300FC0
340
14
340
0
340
11
340
0
 94
        0
1001
ACAD_MLEADERVER
1070
     2
  0
MLINESTYLE
  5
18
102
{ACAD_REACTORS
330
17
102
}
330
17
100
AcDbMlineStyle
  2
Standard
 70
     0
  3

 62
   256
 51
90.0
 52
90.0
 71
     2
 49
0.5
 62
   256
  6
BYLAYER
 49
-0.5
 62
   256
  6
BYLAYER
  0
ACAD_PROXY_OBJECT
  5
48
102
{ACAD_REACTORS
330
47
102
}
330
47
100
AcDbProxyObject
 90
      499
 91
      503
 93
       41
310
903313A31580
  0
ACAD_PROXY_OBJECT
  5
49
102
{ACAD_REACTORS
330
47
102
}
330
47
100
AcDbProxyObject
 90
      499
 91
      503
 93
      105
310
903313A324000000000000004000
  0
ACAD_PROXY_OBJECT
  5
4A
102
{ACAD_REACTORS
330
47
102
}
330
47
100
AcDbProxyObject
 90
      499
 91
      503
 93
      105
310
903313A344000000000000104000
  0
ACAD_PROXY_OBJECT
  5
4B
102
{ACAD_REACTORS
330
47
102
}
330
47
100
AcDbProxyObject
 90
      499
 91
      503
 93
      105
310
903313A354000000000000144000
  0
ACAD_PROXY_OBJECT
  5
4C
102
{ACAD_REACTORS
330
47
102
}
330
47
100
AcDbProxyObject
 90
      499
 91
      503
 93
      105
310
903313A384000000000000204000
  0
ACAD_PROXY_OBJECT
  5
4D
102
{ACAD_REACTORS
330
47
102
}
330
47
100
AcDbProxyObject
 90
      499
 91
      503
 93
      113
310
904313A31304000000000000244000
  0
ACAD_PROXY_OBJECT
  5
4E
102
{ACAD_REACTORS
330
47
102
}
330
47
100
AcDbProxyObject
 90
      499
 91
      503
 93
      113
310
904313A31364000000000000304000
  0
ACAD_PROXY_OBJECT
  5
4F
102
{ACAD_REACTORS
330
47
102
}
330
47
100
AcDbProxyObject
 90
      499
 91
      503
 93
      113
310
904313A32304000000000000344000
  0
ACAD_PROXY_OBJECT
  5
50
102
{ACAD_REACTORS
330
47
102
}
330
47
100
AcDbProxyObject
 90
      499
 91
      503
 93
      113
310
904313A333040000000000003E4000
  0
ACAD_PROXY_OBJECT
  5
51
102
{ACAD_REACTORS
330
47
102
}
330
47
100
AcDbProxyObject
 90
      499
 91
      503
 93
      113
310
904313A34304000000000000444000
  0
ACAD_PROXY_OBJECT
  5
52
102
{ACAD_REACTORS
330
47
102
}
330
47
100
AcDbProxyObject
 90
      499
 91
      503
 93
      113
310
904313A35304000000000000494000
  0
ACAD_PROXY_OBJECT
  5
53
102
{ACAD_REACTORS
330
47
102
}
330
47
100
AcDbProxyObject
 90
      499
 91
      503
 93
      121
310
905313A3130304000000000000594000
  0
ACAD_PROXY_OBJECT
  5
54
102
{ACAD_REACTORS
330
47
102
}
330
47
100
AcDbProxyObject
 90
      499
 91
      503
 93
      105
310
903323A310000000000000010100
  0
ACAD_PROXY_OBJECT
  5
55
102
{ACAD_REACTORS
330
47
102
}
330
47
100
AcDbProxyObject
 90
      499
 91
      503
 93
      105
310
903343A310000000000000410100
  0
ACAD_PROXY_OBJECT
  5
56
102
{ACAD_REACTORS
330
47
102
}
330
47
100
AcDbProxyObject
 90
      499
 91
      503
 93
      105
310
903383A310000000000000810100
  0
ACAD_PROXY_OBJECT
  5
57
102
{ACAD_REACTORS
330
47
102
}
330
47
100
AcDbProxyObject
 90
      499
 91
      503
 93
      113
310
90431303A310000000000000910100
  0
ACAD_PROXY_OBJECT
  5
58
102
{ACAD_REACTORS
330
47
102
}
330
47
100
AcDbProxyObject
 90
      499
 91
      503
 93
      121
310
9053130303A310000000000001650100
  0
ACAD_PROXY_OBJECT
  5
59
102
{ACAD_REACTORS
330
47
102
}
330
47
100
AcDbProxyObject
 90
      499
 91
      503
 93
      257
310
90E312F31323822203D2031272D3022000000000000200FC000000000000284000
  0
ACAD_PROXY_OBJECT
  5
5A
102
{ACAD_REACTORS
330
47
102
}
330
47
100
AcDbProxyObject
 90
      499
 91
      503
 93
      249
310
90D312F363422203D2031272D3022000000000000240FC000000000000284000
  0
ACAD_PROXY_OBJECT
  5
5B
102
{ACAD_REACTORS
330
47
102
}
330
47
100
AcDbProxyObject
 90
      499
 91
      503
 93
      249
310
90D312F333222203D2031272D3022000000000000280FC000000000000284000
  0
ACAD_PROXY_OBJECT
  5
5C
102
{ACAD_REACTORS
330
47
102
}
330
47
100
AcDbProxyObject
 90
      499
 91
      503
 93
      249
310
90D312F313622203D2031272D30220000000000002C0FC000000000000284000
  0
ACAD_PROXY_OBJECT
  5
5D
102
{ACAD_REACTORS
330
47
102
}
330
47
100
AcDbProxyObject
 90
      499
 91
      503
 93
      249
310
90D332F333222203D2031272D30220000000000002E0FC000000000000284000
  0
ACAD_PROXY_OBJECT
  5
5E
102
{ACAD_REACTORS
330
47
102
}
330
47
100
AcDbProxyObject
 90
      499
 91
      503
 93
      241
310
90C312F3822203D2031272D3022000000000000300FC000000000000284000
  0
ACAD_PROXY_OBJECT
  5
5F
102
{ACAD_REACTORS
330
47
102
}
330
47
100
AcDbProxyObject
 90
      499
 91
      503
 93
      249
310
90D332F313622203D2031272D3022000000000000320FC000000000000284000
  0
ACAD_PROXY_OBJECT
  5
60
102
{ACAD_REACTORS
330
47
102
}
330
47
100
AcDbProxyObject
 90
      499
 91
      503
 93
      241
310
90C312F3422203D2031272D3022000000000000340FC000000000000284000
  0
ACAD_PROXY_OBJECT
  5
61
102
{ACAD_REACTORS
330
47
102
}
330
47
100
AcDbProxyObject
 90
      499
 91
      503
 93
      241
310
90C332F3822203D2031272D3022000000000000360FC000000000000284000
  0
ACAD_PROXY_OBJECT
  5
62
102
{ACAD_REACTORS
330
47
102
}
330
47
100
AcDbProxyObject
 90
      499
 91
      503
 93
      241
310
90C312F3222203D2031272D3022000000000000380FC000000000000284000
  0
ACAD_PROXY_OBJECT
  5
63
102
{ACAD_REACTORS
330
47
102
}
330
47
100
AcDbProxyObject
 90
      499
 91
      503
 93
      241
310
90C332F3422203D2031272D30220000000000003A0FC000000000000284000
  0
ACAD_PROXY_OBJECT
  5
64
102
{ACAD_REACTORS
330
47
102
}
330
47
100
AcDbProxyObject
 90
      499
 91
      503
 93
      161
310
90A3122203D2031272D30224000000000000284000
  0
ACAD_PROXY_OBJECT
  5
65
102
{ACAD_REACTORS
330
47
102
}
330
47
100
AcDbProxyObject
 90
      499
 91
      503
 93
      257
310
90E312D312F3222203D2031272D30220000000000003E0FC000000000000284000
  0
ACAD_PROXY_OBJECT
  5
66
102
{ACAD_REACTORS
330
47
102
}
330
47
100
AcDbProxyObject
 90
      499
 91
      503
 93
      225
310
90A3322203D2031272D302200000000000002100000000000000284000
  0
ACAD_PROXY_OBJECT
  5
67
102
{ACAD_REACTORS
330
47
102
}
330
47
100
AcDbProxyObject
 90
      499
 91
      503
 93
      225
310
90A3622203D2031272D302200000000000006100000000000000284000
  0
ACAD_PROXY_OBJECT
  5
68
102
{ACAD_REACTORS
330
47
102
}
330
47
100
AcDbProxyObject
 90
      499
 91
      503
 93
      249
310
90D31272D3022203D2031272D30220000000000000A100000000000000284000
  0
ACAD_PROXY_OBJECT
  5
2F
102
{ACAD_REACTORS
330
2A
102
}
330
2A
100
AcDbProxyObject
 90
      499
 91
      501
 93
      436
310
42CC9915DA5C99599C985B595049028333333333333E33F0000000000000F90107901411070040501600405405064090741402480A0340
1001
ACAD
1000
AcDbSavedByObjectVersion
1070
     0
  0
ACAD_PROXY_OBJECT
  5
32
102
{ACAD_REACTORS
330
2A
102
}
330
2A
100
AcDbProxyObject
 90
      499
 91
      501
 93
      388
310
4150985CDA58D07406404333333333333E33F0000000000000F90107A41107004050150841D405064090741402480A0350
1001
ACAD
1000
AcDbSavedByObjectVersion
1070
     0
  0
ACAD_PROXY_OBJECT
  5
36
102
{ACAD_REACTORS
330
2A
102
}
330
2A
100
AcDbProxyObject
 90
      499
 91
      501
 93
      428
310
42109C9A59DA1D195B90C409028333333333333E33F0000000000000F9010790141107004050150841D405064090741402480A029950
1001
ACAD
1000
AcDbSavedByObjectVersion
1070
     0
  0
ACAD_PROXY_OBJECT
  5
3A
102
{ACAD_REACTORS
330
2A
102
}
330
2A
100
AcDbProxyObject
 90
      499
 91
      501
 93
      452
310
42D0DBDB1BDC90DA185B99D95104090240C333333333333E33F0000000000000F90108901411070040501508421405064090741402480A0350
1001
ACAD
1000
AcDbSavedByObjectVersion
1070
     0
  0
ACAD_PROXY_OBJECT
  5
34
102
{ACAD_REACTORS
330
2A
102
}
330
2A
100
AcDbProxyObject
 90
      499
 91
      501
 93
      500
310
4290DBDB98D95C1D1D585B10940D028333333333333E33F0000000000000F90107902409070040501000000000018199010841D405064090740C02480A0340
1001
ACAD
1000
AcDbSavedByObjectVersion
1070
     0
  0
ACAD_PROXY_OBJECT
  5
35
102
{ACAD_REACTORS
330
2A
102
}
330
2A
100
AcDbProxyObject
 90
      499
 91
      501
 93
      412
310
40D11A5B50B409028333333333333E33F0000000000000F9010790141107004050150841D405064090741402480A02677FFFFFD0
1001
ACAD
1000
AcDbSavedByObjectVersion
1070
     0
  0
ACAD_PROXY_OBJECT
  5
3D
102
{ACAD_REACTORS
330
2A
102
}
330
2A
100
AcDbProxyObject
 90
      499
 91
      501
 93
      452
310
43115919D950DBDB1BDC93D999916409028333333333333E33F0000000000000F9010790141107004050150841D405064090741402480A0350
1001
ACAD
1000
AcDbSavedByObjectVersion
1070
     0
  0
ACAD_PROXY_OBJECT
  5
39
102
{ACAD_REACTORS
330
2A
102
}
330
2A
100
AcDbProxyObject
 90
      499
 91
      501
 93
      444
310
42D19858D95C185D1D195C9B90F409028333333333333E33F0000000000000F9010790141107004050150841D405064090741402480A0350
1001
ACAD
1000
AcDbSavedByObjectVersion
1070
     0
  0
ACAD_PROXY_OBJECT
  5
2B
102
{ACAD_REACTORS
330
2A
102
}
330
2A
100
AcDbProxyObject
 90
      499
 91
      501
 93
      380
310
41119B185D240901404333333333333E33F0000000000000F9010740A907004050150841D405064090741402480A1B50
1001
ACAD
1000
AcDbSavedByObjectVersion
1070
     0
  0
ACAD_PROXY_OBJECT
  5
2C
102
{ACAD_REACTORS
330
2A
102
}
330
2A
100
AcDbProxyObject
 90
      499
 91
      501
 93
      468
310
43519B185D15DA5D1A115919D95CD0140901404333333333333E33F0000000000000F90107409019070040501600405405064090741402480A1B50
1001
ACAD
1000
AcDbSavedByObjectVersion
1070
     0
  0
ACAD_PROXY_OBJECT
  5
2D
102
{ACAD_REACTORS
330
2A
102
}
330
2A
100
AcDbProxyObject
 90
      499
 91
      501
 93
      404
310
41D1DBDD5C985D5910240902404333333333333E33F0000000000000F9010740A9070040501641D405064090741402480A1B50
1001
ACAD
1000
AcDbSavedByObjectVersion
1070
     0
  0
ACAD_PROXY_OBJECT
  5
2E
102
{ACAD_REACTORS
330
2A
102
}
330
2A
100
AcDbProxyObject
 90
      499
 91
      501
 93
      492
310
4411DBDD5C985D5915DA5D1A115919D95CD0340902404333333333333E33F0000000000000F90107409019070040501600405405064090741402480A1B50
1001
ACAD
1000
AcDbSavedByObjectVersion
1070
     0
  0
ACAD_PROXY_OBJECT
  5
31
102
{ACAD_REACTORS
330
2A
102
}
330
2A
100
AcDbProxyObject
 90
      499
 91
      501
 93
      476
310
41921A5919195B90640502408333333333333E33F0000000000000F901079024090700405020000000000001110200405405064090740C02480A0340
1001
ACAD
1000
AcDbSavedByObjectVersion
1070
     0
  0
ACAD_PROXY_OBJECT
  5
3B
102
{ACAD_REACTORS
330
2A
102
}
330
2A
100
AcDbProxyObject
 90
      499
 91
      501
 93
      428
310
42529A5D1D195C93D999914409028333333333333E33F0000000000000F9010790141107004050150A41D405064090741402480A0350
1001
ACAD
1000
AcDbSavedByObjectVersion
1070
     0
  0
ACAD_PROXY_OBJECT
  5
38
102
{ACAD_REACTORS
330
2A
102
}
330
2A
100
AcDbProxyObject
 90
      499
 91
      501
 93
      444
310
42D31A5B995C185D1D195C9B90E409028333333333333E33F0000000000000F9010790141107004050750841D405064090741402483A0350
1001
ACAD
1000
AcDbSavedByObjectVersion
1070
     0
  0
ACAD_PROXY_OBJECT
  5
3C
102
{ACAD_REACTORS
330
2A
102
}
330
2A
100
AcDbProxyObject
 90
      499
 91
      501
 93
      444
310
42D3DD995C9A185B99D3D999915409028333333333333E33F0000000000000F9010790141107004050150941D405064090741402480A0350
1001
ACAD
1000
AcDbSavedByObjectVersion
1070
     0
  0
ACAD_PROXY_OBJECT
  5
33
102
{ACAD_REACTORS
330
2A
102
}
330
2A
100
AcDbProxyObject
 90
      499
 91
      501
 93
      428
310
425499585B1A5CDD1A58D08409038333333333333E33F0000000000000F9010740A907004050150800405405064090740C02480A1B40
1001
ACAD
1000
AcDbSavedByObjectVersion
1070
     0
  0
ACAD_PROXY_OBJECT
  5
42
102
{ACAD_REACTORS
330
2A
102
}
330
2A
100
AcDbProxyObject
 90
      499
 91
      501
 93
      420
310
4194DA1859195911B40902404333333333333E33F0000000000000F9010740A41107004050150800405405064090840C02480A0B40
1001
ACAD
1000
AcDbSavedByObjectVersion
1070
     0
  0
ACAD_PROXY_OBJECT
  5
41
102
{ACAD_REACTORS
330
2A
102
}
330
2A
100
AcDbProxyObject
 90
      499
 91
      501
 93
      516
310
4454DA18591959081DDA5D1A08195919D95CD1A40902404333333333333E33F0000000000000F901074090142907004050250800405405064090740C02480A0B40
1001
ACAD
1000
AcDbSavedByObjectVersion
1070
     0
  0
ACAD_PROXY_OBJECT
  5
3E
102
{ACAD_REACTORS
330
2A
102
}
330
2A
100
AcDbProxyObject
 90
      499
 91
      501
 93
      532
310
4394DA1859195CC81BD98811DC985E5174090240C333333333333E33F0000000000000F901079024090741D01000000000000111010841D405064090740C02480A0340
1001
ACAD
1000
AcDbSavedByObjectVersion
1070
     0
  0
ACAD_PROXY_OBJECT
  5
3F
102
{ACAD_REACTORS
330
2A
102
}
330
2A
100
AcDbProxyObject
 90
      499
 91
      501
 93
      476
310
41D4DAD95D18DA1E51840502408333333333333E33F0000000000000F901079024090741D01000000000000111010B41D405064090741802480A0340
1001
ACAD
1000
AcDbSavedByObjectVersion
1070
     0
  0
ACAD_PROXY_OBJECT
  5
37
102
{ACAD_REACTORS
330
2A
102
}
330
2A
100
AcDbProxyObject
 90
      499
 91
      501
 93
      412
310
41D51A1A58DAD95B90D409028333333333333E33F0000000000000F9010790141107004050150C41D405064090741402480A0350
1001
ACAD
1000
AcDbSavedByObjectVersion
1070
     0
  0
ACAD_PROXY_OBJECT
  5
30
102
{ACAD_REACTORS
330
2A
102
}
330
2A
100
AcDbProxyObject
 90
      499
 91
      501
 93
      420
310
4255DA5C99599C985B595059028333333333333E33F0000000000000F90107901411070040501600405405064090740C02480A0340
1001
ACAD
1000
AcDbSavedByObjectVersion
1070
     0
  0
ACAD_PROXY_OBJECT
  5
40
102
{ACAD_REACTORS
330
2A
102
}
330
2A
100
AcDbProxyObject
 90
      499
 91
      501
 93
      404
310
41560B54985E51940902404000000000000E03F0000000000000F9010740501907004050150841D405064090740C02480A1B40
1001
ACAD
1000
AcDbSavedByObjectVersion
1070
     0
  0
XRECORD
  5
5FE
102
{ACAD_REACTORS
330
5F4
102
}
330
5F4
100
AcDbXrecord
340
0
  0
XRECORD
  5
5FD
102
{ACAD_REACTORS
330
5F4
102
}
330
5F4
100
AcDbXrecord
 90
        0
  0
XRECORD
  5
614
102
{ACAD_REACTORS
330
5F4
102
}
330
5F4
100
AcDbXrecord
1000
DSTYLE
1002
{
1070
   179
 70
     2
1070
   171
 70
     2
1070
   143
 40
25.4
1070
   274
 70
     2
1070
    41
 40
3.0
1070
   141
 40
0.09
1070
    43
 40
0.38
1070
   278
 70
    46
1070
    44
 40
1.5
1070
    42
 40
0.0625
1070
   147
 40
1.5
1070
   272
 70
     4
1070
    73
 70
     1
1070
   172
 70
     0
1070
    74
 70
     1
1070
   283
 70
     1
1070
   340
340
6E
1070
   140
 40
3.0
1070
   284
 70
     0
1070
    78
 70
     0
1002
}
  0
XRECORD
  5
5FF
102
{ACAD_REACTORS
330
5F4
102
}
330
5F4
100
AcDbXrecord
  1
{53476904-6DC1-41FE-B9B4-1F722D6EB744}
  0
XRECORD
  5
5F7
102
{ACAD_REACTORS
330
5F4
102
}
330
5F4
100
AcDbXrecord
  1

  0
XRECORD
  5
5FC
102
{ACAD_REACTORS
330
5F4
102
}
330
5F4
100
AcDbXrecord
 90
        4
  0
XRECORD
  5
5F9
102
{ACAD_REACTORS
330
5F4
102
}
330
5F4
100
AcDbXrecord
340
1A
  0
XRECORD
  5
5FB
102
{ACAD_REACTORS
330
5F4
102
}
330
5F4
100
AcDbXrecord
 90
    10269
  0
XRECORD
  5
5FA
102
{ACAD_REACTORS
330
5F4
102
}
330
5F4
100
AcDbXrecord
340
19
  0
XRECORD
  5
601
102
{ACAD_REACTORS
330
5F4
102
}
330
5F4
100
AcDbXrecord
 40
0.0
  0
XRECORD
  5
604
102
{ACAD_REACTORS
330
5F4
102
}
330
5F4
100
AcDbXrecord
340
0
  0
XRECORD
  5
60A
102
{ACAD_REACTORS
330
5F4
102
}
330
5F4
100
AcDbXrecord
 10
0.0
 20
0.0
 30
0.0
  0
XRECORD
  5
606
102
{ACAD_REACTORS
330
5F4
102
}
330
5F4
100
AcDbXrecord
 10
0.0
 20
0.0
 30
0.0
  0
XRECORD
  5
609
102
{ACAD_REACTORS
330
5F4
102
}
330
5F4
100
AcDbXrecord
 10
0.0
 20
0.0
 30
0.0
  0
XRECORD
  5
607
102
{ACAD_REACTORS
330
5F4
102
}
330
5F4
100
AcDbXrecord
 10
0.0
 20
0.0
 30
0.0
  0
XRECORD
  5
608
102
{ACAD_REACTORS
330
5F4
102
}
330
5F4
100
AcDbXrecord
 10
0.0
 20
0.0
 30
0.0
  0
XRECORD
  5
605
102
{ACAD_REACTORS
330
5F4
102
}
330
5F4
100
AcDbXrecord
 10
0.0
 20
0.0
 30
0.0
  0
XRECORD
  5
602
102
{ACAD_REACTORS
330
5F4
102
}
330
5F4
100
AcDbXrecord
340
0
  0
XRECORD
  5
603
102
{ACAD_REACTORS
330
5F4
102
}
330
5F4
100
AcDbXrecord
 70
     0
  0
XRECORD
  5
5F8
102
{ACAD_REACTORS
330
5F4
102
}
330
5F4
100
AcDbXrecord
  1

  0
XRECORD
  5
5F5
102
{ACAD_REACTORS
330
5F4
102
}
330
5F4
100
AcDbXrecord
 90
        1
  0
XRECORD
  5
5F6
102
{ACAD_REACTORS
330
5F4
102
}
330
5F4
100
AcDbXrecord
 90
       70
  0
XRECORD
  5
60D
102
{ACAD_REACTORS
330
5F4
102
}
330
5F4
100
AcDbXrecord
340
0
  0
XRECORD
  5
613
102
{ACAD_REACTORS
330
5F4
102
}
330
5F4
100
AcDbXrecord
 10
0.0
 20
0.0
 30
0.0
  0
XRECORD
  5
60F
102
{ACAD_REACTORS
330
5F4
102
}
330
5F4
100
AcDbXrecord
 10
0.0
 20
0.0
 30
0.0
  0
XRECORD
  5
612
102
{ACAD_REACTORS
330
5F4
102
}
330
5F4
100
AcDbXrecord
 10
0.0
 20
0.0
 30
0.0
  0
XRECORD
  5
610
102
{ACAD_REACTORS
330
5F4
102
}
330
5F4
100
AcDbXrecord
 10
0.0
 20
0.0
 30
0.0
  0
XRECORD
  5
611
102
{ACAD_REACTORS
330
5F4
102
}
330
5F4
100
AcDbXrecord
 10
0.0
 20
0.0
 30
0.0
  0
XRECORD
  5
60E
102
{ACAD_REACTORS
330
5F4
102
}
330
5F4
100
AcDbXrecord
 10
0.0
 20
0.0
 30
0.0
  0
XRECORD
  5
60B
102
{ACAD_REACTORS
330
5F4
102
}
330
5F4
100
AcDbXrecord
340
0
  0
XRECORD
  5
60C
102
{ACAD_REACTORS
330
5F4
102
}
330
5F4
100
AcDbXrecord
 70
     0
  0
XRECORD
  5
600
102
{ACAD_REACTORS
330
5F4
102
}
330
5F4
100
AcDbXrecord
  1
{FAEB1C32-E019-11D5-929B-00C0DF256EC4}
  0
DICTIONARYVAR
  5
61E
102
{ACAD_REACTORS
330
615
102
}
330
615
100
DictionaryVariables
280
     0
  1
1:1
  0
DICTIONARYVAR
  5
617
102
{ACAD_REACTORS
330
615
102
}
330
615
100
DictionaryVariables
280
     0
  1
Standard
  0
DICTIONARYVAR
  5
616
102
{ACAD_REACTORS
330
615
102
}
330
615
100
DictionaryVariables
280
     0
  1
Standard
  0
DICTIONARYVAR
  5
61A
102
{ACAD_REACTORS
330
615
102
}
330
615
100
DictionaryVariables
280
     0
  1
2
  0
DICTIONARYVAR
  5
61B
102
{ACAD_REACTORS
330
615
102
}
330
615
100
DictionaryVariables
280
     0
  1
1
  0
DICTIONARYVAR
  5
61F
102
{ACAD_REACTORS
330
615
102
}
330
615
100
DictionaryVariables
280
     0
  1
1
  0
DICTIONARY
  5
622
330
45
100
AcDbDictionary
280
     1
  3
ACAD_XREC_ROUNDTRIP
360
623
  0
DICTIONARY
  5
620
330
44
100
AcDbDictionary
280
     1
  3
ACAD_XREC_ROUNDTRIP
360
621
  0
DICTIONARY
  5
624
330
46
100
AcDbDictionary
280
     1
  3
ACAD_XREC_ROUNDTRIP
360
625
  0
XRECORD
  5
623
102
{ACAD_REACTORS
330
622
102
}
330
622
100
AcDbXrecord
102
MATERIAL
148
0.0
149
0.0
149
0.0
 93
        0
 94
      127
282
     0
 72
     1
 77
     1
171
     1
175
     1
179
     1
273
     0
  0
XRECORD
  5
621
102
{ACAD_REACTORS
330
620
102
}
330
620
100
AcDbXrecord
102
MATERIAL
148
0.0
149
0.0
149
0.0
 93
        0
 94
      127
282
     0
 72
     1
 77
     1
171
     1
175
     1
179
     1
273
     0
  0
XRECORD
  5
625
102
{ACAD_REACTORS
330
624
102
}
330
624
100
AcDbXrecord
102
MATERIAL
148
0.0
149
0.0
149
0.0
 93
        0
 94
      127
282
     0
 72
     1
 77
     1
171
     1
175
     1
179
     1
273
     0
  0
ENDSEC
  0
EOF
