  0
SECTION
  2
HEADER
  9
$ACADVER
  1
AC1006
  9
$DWGCODEPAGE
  3
ansi_932
  9
$INSBASE
 10
0.0
 20
0.0
 30
0.0
  9
$EXTMIN
 10
-1129.050211283529
 20
11.78181818181819
  9
$EXTMAX
 10
-368.8514102858904
 20
288.0481555856608
  9
$LIMMIN
 10
0.0
 20
0.0
  9
$LIMMAX
 10
12.0
 20
9.0
  9
$ORTHOMODE
 70
     0
  9
$REGENMODE
 70
     1
  9
$FILLMODE
 70
     1
  9
$QTEXTMODE
 70
     0
  9
$MIRRTEXT
 70
     1
  9
$DRAGMODE
 70
     2
  9
$LTSCALE
 40
1.0
  9
$OSMODE
 70
    37
  9
$ATTMODE
 70
     1
  9
$TEXTSIZE
 40
0.2
  9
$TRACEWID
 40
0.05
  9
$TEXTSTYLE
  7
STANDARD
  9
$CLAYER
  8
0
  9
$CELTYPE
  6
BYLAYER
  9
$CECOLOR
 62
   256
  9
$DIMSCALE
 40
1.0
  9
$DIMASZ
 40
3.0
  9
$DIMEXO
 40
0.0625
  9
$DIMDLI
 40
0.38
  9
$DIMRND
 40
0.0
  9
$DIMDLE
 40
0.0
  9
$DIMEXE
 40
1.5
  9
$DIMTP
 40
0.0
  9
$DIMTM
 40
0.0
  9
$DIMTXT
 40
3.0
  9
$DIMCEN
 40
0.09
  9
$DIMTSZ
 40
0.0
  9
$DIMTOL
 70
     0
  9
$DIMLIM
 70
     0
  9
$DIMTIH
 70
     1
  9
$DIMTOH
 70
     1
  9
$DIMSE1
 70
     0
  9
$DIMSE2
 70
     0
  9
$DIMTAD
 70
     1
  9
$DIMZIN
 70
     0
  9
$DIMBLK
  1

  9
$DIMASO
 70
     1
  9
$DIMSHO
 70
     1
  9
$DIMPOST
  1

  9
$DIMAPOST
  1

  9
$DIMALT
 70
     0
  9
$DIMALTD
 70
     2
  9
$DIMALTF
 40
25.4
  9
$DIMLFAC
 40
1.0
  9
$DIMTOFL
 70
     0
  9
$DIMTVP
 40
0.0
  9
$DIMTIX
 70
     0
  9
$DIMSOXD
 70
     0
  9
$DIMSAH
 70
     0
  9
$DIMBLK1
  1

  9
$DIMBLK2
  1

  9
$LUNITS
 70
     2
  9
$LUPREC
 70
     4
  9
$SKETCHINC
 40
0.1
  9
$FILLETRAD
 40
0.5
  9
$AUNITS
 70
     0
  9
$AUPREC
 70
     0
  9
$MENU
  1
.
  9
$ELEVATION
 40
0.0
  9
$THICKNESS
 40
0.0
  9
$LIMCHECK
 70
     0
  9
$CHAMFERA
 40
0.0
  9
$CHAMFERB
 40
0.0
  9
$SKPOLY
 70
     0
  9
$TDCREATE
 40
2460257.431446458
  9
$TDUPDATE
 40
2460257.431446875
  9
$TDINDWG
 40
0.0000000116
  9
$TDUSRTIMER
 40
0.0000000116
  9
$USRTIMER
 70
     1
  9
$ANGBASE
 50
0.0
  9
$ANGDIR
 70
     0
  9
$PDMODE
 70
     0
  9
$PDSIZE
 40
0.0
  9
$PLINEWID
 40
0.0
  9
$COORDS
 70
     1
  9
$SPLFRAME
 70
     0
  9
$SPLINETYPE
 70
     6
  9
$SPLINESEGS
 70
     8
  9
$ATTDIA
 70
     0
  9
$ATTREQ
 70
     1
  9
$HANDLING
 70
     1
  9
$HANDSEED
  5
9D4
  9
$SURFTAB1
 70
     6
  9
$SURFTAB2
 70
     6
  9
$SURFTYPE
 70
     6
  9
$SURFU
 70
     6
  9
$SURFV
 70
     6
  9
$UCSNAME
  2

  9
$UCSORG
 10
0.0
 20
0.0
 30
0.0
  9
$UCSXDIR
 10
1.0
 20
0.0
 30
0.0
  9
$UCSYDIR
 10
0.0
 20
1.0
 30
0.0
  9
$USERI1
 70
     0
  9
$USERI2
 70
     0
  9
$USERI3
 70
     0
  9
$USERI4
 70
     0
  9
$USERI5
 70
     0
  9
$USERR1
 40
0.0
  9
$USERR2
 40
0.0
  9
$USERR3
 40
0.0
  9
$USERR4
 40
0.0
  9
$USERR5
 40
0.0
  9
$WORLDVIEW
 70
     1
  0
ENDSEC
  0
SECTION
  2
TABLES
  0
TABLE
  2
VPORT
 70
     1
  0
VPORT
  2
*ACTIVE
 70
     0
 10
0.0
 20
0.0
 11
1.0
 21
1.0
 12
-748.9508107847097
 22
149.9149868837395
 13
0.0
 23
0.0
 14
0.5
 24
0.5
 15
0.5
 25
0.5
 16
0.0
 26
0.0
 36
1.0
 17
0.0
 27
0.0
 37
0.0
 40
276.2663374038426
 41
1.6
 42
50.0
 43
0.0
 44
0.0
 50
0.0
 51
0.0
 71
     0
 72
   100
 73
     1
 74
     3
 75
     0
 76
     0
 77
     0
 78
     0
  0
ENDTAB
  0
TABLE
  2
LTYPE
 70
     2
  0
LTYPE
  2
CONTINUOUS
 70
     0
  3
Solid line
 72
    65
 73
     0
 40
0.0
  0
LTYPE
  2
CENTER
 70
     0
  3

 72
    65
 73
     0
 40
0.0
  0
ENDTAB
  0
TABLE
  2
LAYER
 70
     1
  0
LAYER
  2
0
 70
     0
 62
     7
  6
CONTINUOUS
  0
ENDTAB
  0
TABLE
  2
STYLE
 70
     2
  0
STYLE
  2
STANDARD
 70
     0
 40
0.0
 41
1.0
 50
0.0
 71
     0
 42
0.2
  3
txt
  4

  0
STYLE
  2
ＭＳ_ゴシック
 70
     0
 40
0.0
 41
1.0
 50
0.0
 71
     0
 42
0.2
  3
ＭＳ ゴシック.shx
  4

  0
ENDTAB
  0
TABLE
  2
VIEW
 70
     0
  0
ENDTAB
  0
TABLE
  2
UCS
 70
     0
  0
ENDTAB
  0
ENDSEC
  0
SECTION
  2
BLOCKS
  0
BLOCK
  8
0
  2
D_FRAME_VIEW_1484
 70
     0
 10
0.0
 20
0.0
 30
0.0
  0
LINE
  5
72
  8
0
  6
CONTINUOUS
 62
     7
 10
-478.9456083458888
 20
164.947664043757
 30
0.0
 11
-1126.054391654111
 21
164.947664043757
 31
0.0
  0
LINE
  5
73
  8
0
  6
CONTINUOUS
 62
     7
 10
-1126.054391654111
 20
164.9476640437571
 30
0.0
 11
-1126.054391654111
 21
166.0
 31
0.0
  0
LINE
  5
74
  8
0
  6
CONTINUOUS
 62
     7
 10
-1126.054391654111
 20
166.0
 30
0.0
 11
-478.9456083458891
 21
166.0
 31
0.0
  0
LINE
  5
75
  8
0
  6
CONTINUOUS
 62
     7
 10
-478.9456083458886
 20
164.947664043757
 30
0.0
 11
-478.9456083458886
 21
166.0
 31
0.0
  0
ARC
  5
76
  8
0
  6
CONTINUOUS
 62
     7
 10
-1126.051116233613
 20
166.4488837663873
 30
0.0
 40
1.501223295846942
 50
180.125009996917
 51
269.874990003082
  0
LINE
  5
77
  8
0
  6
CONTINUOUS
 62
     7
 10
-1127.552335956243
 20
166.4456083458889
 30
0.0
 11
-1126.5
 21
166.4456083458889
 31
0.0
  0
POLYLINE
  5
78
  8
0
  6
CONTINUOUS
 62
     7
 66
     1
 10
0.0
 20
0.0
 30
0.0
  0
VERTEX
  5
4CA
  8
0
  6
CONTINUOUS
 62
     7
 10
-1126.5
 20
166.4456083458889
 30
0.0
  0
VERTEX
  5
4CB
  8
0
  6
CONTINUOUS
 62
     7
 10
-1126.500106267697
 20
166.4279478183863
 30
0.0
  0
VERTEX
  5
4CC
  8
0
  6
CONTINUOUS
 62
     7
 10
-1126.499511186783
 20
166.4104911492319
 30
0.0
  0
VERTEX
  5
4CD
  8
0
  6
CONTINUOUS
 62
     7
 10
-1126.498214757259
 20
166.3932383384258
 30
0.0
  0
VERTEX
  5
4CE
  8
0
  6
CONTINUOUS
 62
     7
 10
-1126.496216979125
 20
166.3761893859679
 30
0.0
  0
VERTEX
  5
4CF
  8
0
  6
CONTINUOUS
 62
     7
 10
-1126.493517852381
 20
166.3593442918583
 30
0.0
  0
VERTEX
  5
4D0
  8
0
  6
CONTINUOUS
 62
     7
 10
-1126.490117377027
 20
166.3427030560968
 30
0.0
  0
VERTEX
  5
4D1
  8
0
  6
CONTINUOUS
 62
     7
 10
-1126.486015553063
 20
166.3262656786836
 30
0.0
  0
VERTEX
  5
4D2
  8
0
  6
CONTINUOUS
 62
     7
 10
-1126.481212380488
 20
166.3100321596187
 30
0.0
  0
VERTEX
  5
4D3
  8
0
  6
CONTINUOUS
 62
     7
 10
-1126.475707859303
 20
166.2940024989019
 30
0.0
  0
VERTEX
  5
4D4
  8
0
  6
CONTINUOUS
 62
     7
 10
-1126.469501989508
 20
166.2781766965334
 30
0.0
  0
VERTEX
  5
4D5
  8
0
  6
CONTINUOUS
 62
     7
 10
-1126.461718774268
 20
166.2606938185118
 30
0.0
  0
VERTEX
  5
4D6
  8
0
  6
CONTINUOUS
 62
     7
 10
-1126.453055787331
 20
166.2434666604021
 30
0.0
  0
VERTEX
  5
4D7
  8
0
  6
CONTINUOUS
 62
     7
 10
-1126.443513028697
 20
166.2264952222044
 30
0.0
  0
VERTEX
  5
4D8
  8
0
  6
CONTINUOUS
 62
     7
 10
-1126.433090498367
 20
166.2097795039188
 30
0.0
  0
VERTEX
  5
4D9
  8
0
  6
CONTINUOUS
 62
     7
 10
-1126.42178819634
 20
166.1933195055452
 30
0.0
  0
VERTEX
  5
4DA
  8
0
  6
CONTINUOUS
 62
     7
 10
-1126.409831374483
 20
166.1774023467571
 30
0.0
  0
VERTEX
  5
4DB
  8
0
  6
CONTINUOUS
 62
     7
 10
-1126.397025920806
 20
166.1617318565705
 30
0.0
  0
VERTEX
  5
4DC
  8
0
  6
CONTINUOUS
 62
     7
 10
-1126.383371835312
 20
166.1463080349851
 30
0.0
  0
VERTEX
  5
4DD
  8
0
  6
CONTINUOUS
 62
     7
 10
-1126.368869117999
 20
166.1311308820012
 30
0.0
  0
VERTEX
  5
4DE
  8
0
  6
CONTINUOUS
 62
     7
 10
-1126.353650393539
 20
166.1163662459083
 30
0.0
  0
VERTEX
  5
4DF
  8
0
  6
CONTINUOUS
 62
     7
 10
-1126.338147870865
 20
166.1024821038307
 30
0.0
  0
VERTEX
  5
4E0
  8
0
  6
CONTINUOUS
 62
     7
 10
-1126.322361549978
 20
166.0894784557685
 30
0.0
  0
VERTEX
  5
4E1
  8
0
  6
CONTINUOUS
 62
     7
 10
-1126.306291430876
 20
166.0773553017217
 30
0.0
  0
VERTEX
  5
4E2
  8
0
  6
CONTINUOUS
 62
     7
 10
-1126.289937513561
 20
166.0661126416902
 30
0.0
  0
VERTEX
  5
4E3
  8
0
  6
CONTINUOUS
 62
     7
 10
-1126.273599388758
 20
166.0559277931841
 30
0.0
  0
VERTEX
  5
4E4
  8
0
  6
CONTINUOUS
 62
     7
 10
-1126.256987510895
 20
166.0465922732483
 30
0.0
  0
VERTEX
  5
4E5
  8
0
  6
CONTINUOUS
 62
     7
 10
-1126.240101879972
 20
166.0381060818828
 30
0.0
  0
VERTEX
  5
4E6
  8
0
  6
CONTINUOUS
 62
     7
 10
-1126.222942495988
 20
166.0304692190876
 30
0.0
  0
VERTEX
  5
4E7
  8
0
  6
CONTINUOUS
 62
     7
 10
-1126.207105501695
 20
166.0242636372066
 30
0.0
  0
VERTEX
  5
4E8
  8
0
  6
CONTINUOUS
 62
     7
 10
-1126.191042265202
 20
166.018759979764
 30
0.0
  0
VERTEX
  5
4E9
  8
0
  6
CONTINUOUS
 62
     7
 10
-1126.174752786511
 20
166.0139582467595
 30
0.0
  0
VERTEX
  5
4EA
  8
0
  6
CONTINUOUS
 62
     7
 10
-1126.158237065621
 20
166.0098584381934
 30
0.0
  0
VERTEX
  5
4EB
  8
0
  6
CONTINUOUS
 62
     7
 10
-1126.141495102533
 20
166.0064605540655
 30
0.0
  0
VERTEX
  5
4EC
  8
0
  6
CONTINUOUS
 62
     7
 10
-1126.124526897246
 20
166.0037645943759
 30
0.0
  0
VERTEX
  5
4ED
  8
0
  6
CONTINUOUS
 62
     7
 10
-1126.10733244976
 20
166.0017705591245
 30
0.0
  0
VERTEX
  5
4EE
  8
0
  6
CONTINUOUS
 62
     7
 10
-1126.089911760076
 20
166.0004784483114
 30
0.0
  0
VERTEX
  5
4EF
  8
0
  6
CONTINUOUS
 62
     7
 10
-1126.072264828193
 20
165.9998882619366
 30
0.0
  0
VERTEX
  5
4F0
  8
0
  6
CONTINUOUS
 62
     7
 10
-1126.054391654111
 20
166.0
 30
0.0
  0
SEQEND
  5
988
  8
0
  6
CONTINUOUS
 62
     7
  0
LINE
  5
79
  8
0
  6
CONTINUOUS
 62
     7
 10
-478.9456083458889
 20
284.0
 30
0.0
 11
-1126.054391654111
 21
284.0
 31
0.0
  0
LINE
  5
7A
  8
0
  6
CONTINUOUS
 62
     7
 10
-1126.054391654111
 20
284.0
 30
0.0
 11
-1126.054391654111
 21
285.052335956243
 31
0.0
  0
LINE
  5
7B
  8
0
  6
CONTINUOUS
 62
     7
 10
-1126.054391654111
 20
285.052335956243
 30
0.0
 11
-478.9456083458891
 21
285.052335956243
 31
0.0
  0
LINE
  5
7C
  8
0
  6
CONTINUOUS
 62
     7
 10
-478.9456083458889
 20
284.0
 30
0.0
 11
-478.9456083458889
 21
285.052335956243
 31
0.0
  0
POLYLINE
  5
7D
  8
0
  6
CONTINUOUS
 62
     7
 66
     1
 10
0.0
 20
0.0
 30
0.0
  0
VERTEX
  5
4F1
  8
0
  6
CONTINUOUS
 62
     7
 10
-1126.054391654111
 20
284.0
 30
0.0
  0
VERTEX
  5
4F2
  8
0
  6
CONTINUOUS
 62
     7
 10
-1126.072052181614
 20
284.0001062676966
 30
0.0
  0
VERTEX
  5
4F3
  8
0
  6
CONTINUOUS
 62
     7
 10
-1126.089508850769
 20
283.9995111867831
 30
0.0
  0
VERTEX
  5
4F4
  8
0
  6
CONTINUOUS
 62
     7
 10
-1126.106761661576
 20
283.9982147572593
 30
0.0
  0
VERTEX
  5
4F5
  8
0
  6
CONTINUOUS
 62
     7
 10
-1126.123810614034
 20
283.9962169791254
 30
0.0
  0
VERTEX
  5
4F6
  8
0
  6
CONTINUOUS
 62
     7
 10
-1126.140655708144
 20
283.9935178523813
 30
0.0
  0
VERTEX
  5
4F7
  8
0
  6
CONTINUOUS
 62
     7
 10
-1126.157296943906
 20
283.990117377027
 30
0.0
  0
VERTEX
  5
4F8
  8
0
  6
CONTINUOUS
 62
     7
 10
-1126.173734321319
 20
283.9860155530626
 30
0.0
  0
VERTEX
  5
4F9
  8
0
  6
CONTINUOUS
 62
     7
 10
-1126.189967840384
 20
283.981212380488
 30
0.0
  0
VERTEX
  5
4FA
  8
0
  6
CONTINUOUS
 62
     7
 10
-1126.205997501101
 20
283.9757078593033
 30
0.0
  0
VERTEX
  5
4FB
  8
0
  6
CONTINUOUS
 62
     7
 10
-1126.22182330347
 20
283.9695019895083
 30
0.0
  0
VERTEX
  5
4FC
  8
0
  6
CONTINUOUS
 62
     7
 10
-1126.239306181491
 20
283.9617187742679
 30
0.0
  0
VERTEX
  5
4FD
  8
0
  6
CONTINUOUS
 62
     7
 10
-1126.256533339601
 20
283.9530557873309
 30
0.0
  0
VERTEX
  5
4FE
  8
0
  6
CONTINUOUS
 62
     7
 10
-1126.273504777798
 20
283.9435130286973
 30
0.0
  0
VERTEX
  5
4FF
  8
0
  6
CONTINUOUS
 62
     7
 10
-1126.290220496084
 20
283.9330904983671
 30
0.0
  0
VERTEX
  5
500
  8
0
  6
CONTINUOUS
 62
     7
 10
-1126.306680494457
 20
283.9217881963403
 30
0.0
  0
VERTEX
  5
501
  8
0
  6
CONTINUOUS
 62
     7
 10
-1126.322597653244
 20
283.9098313744825
 30
0.0
  0
VERTEX
  5
502
  8
0
  6
CONTINUOUS
 62
     7
 10
-1126.338268143431
 20
283.8970259208062
 30
0.0
  0
VERTEX
  5
503
  8
0
  6
CONTINUOUS
 62
     7
 10
-1126.353691965016
 20
283.8833718353117
 30
0.0
  0
VERTEX
  5
504
  8
0
  6
CONTINUOUS
 62
     7
 10
-1126.368869117999
 20
283.8688691179988
 30
0.0
  0
VERTEX
  5
505
  8
0
  6
CONTINUOUS
 62
     7
 10
-1126.383633754092
 20
283.8536503935385
 30
0.0
  0
VERTEX
  5
506
  8
0
  6
CONTINUOUS
 62
     7
 10
-1126.397517896169
 20
283.8381478708642
 30
0.0
  0
VERTEX
  5
507
  8
0
  6
CONTINUOUS
 62
     7
 10
-1126.410521544231
 20
283.8223615499761
 30
0.0
  0
VERTEX
  5
508
  8
0
  6
CONTINUOUS
 62
     7
 10
-1126.422644698278
 20
283.8062914308739
 30
0.0
  0
VERTEX
  5
509
  8
0
  6
CONTINUOUS
 62
     7
 10
-1126.43388735831
 20
283.7899375135578
 30
0.0
  0
VERTEX
  5
50A
  8
0
  6
CONTINUOUS
 62
     7
 10
-1126.444072206816
 20
283.7735993887551
 30
0.0
  0
VERTEX
  5
50B
  8
0
  6
CONTINUOUS
 62
     7
 10
-1126.453407726751
 20
283.7569875108921
 30
0.0
  0
VERTEX
  5
50C
  8
0
  6
CONTINUOUS
 62
     7
 10
-1126.461893918117
 20
283.7401018799687
 30
0.0
  0
VERTEX
  5
50D
  8
0
  6
CONTINUOUS
 62
     7
 10
-1126.469530780912
 20
283.7229424959851
 30
0.0
  0
VERTEX
  5
50E
  8
0
  6
CONTINUOUS
 62
     7
 10
-1126.475736362793
 20
283.7071055016914
 30
0.0
  0
VERTEX
  5
50F
  8
0
  6
CONTINUOUS
 62
     7
 10
-1126.481240020236
 20
283.691042265199
 30
0.0
  0
VERTEX
  5
510
  8
0
  6
CONTINUOUS
 62
     7
 10
-1126.48604175324
 20
283.6747527865082
 30
0.0
  0
VERTEX
  5
511
  8
0
  6
CONTINUOUS
 62
     7
 10
-1126.490141561807
 20
283.6582370656187
 30
0.0
  0
VERTEX
  5
512
  8
0
  6
CONTINUOUS
 62
     7
 10
-1126.493539445935
 20
283.6414951025305
 30
0.0
  0
VERTEX
  5
513
  8
0
  6
CONTINUOUS
 62
     7
 10
-1126.496235405624
 20
283.6245268972439
 30
0.0
  0
VERTEX
  5
514
  8
0
  6
CONTINUOUS
 62
     7
 10
-1126.498229440875
 20
283.6073324497585
 30
0.0
  0
VERTEX
  5
515
  8
0
  6
CONTINUOUS
 62
     7
 10
-1126.499521551689
 20
283.5899117600747
 30
0.0
  0
VERTEX
  5
516
  8
0
  6
CONTINUOUS
 62
     7
 10
-1126.500111738063
 20
283.5722648281922
 30
0.0
  0
VERTEX
  5
517
  8
0
  6
CONTINUOUS
 62
     7
 10
-1126.5
 20
283.5543916541111
 30
0.0
  0
SEQEND
  5
989
  8
0
  6
CONTINUOUS
 62
     7
  0
LINE
  5
7E
  8
0
  6
CONTINUOUS
 62
     7
 10
-1127.552335956243
 20
283.5543916541111
 30
0.0
 11
-1126.5
 21
283.5543916541111
 31
0.0
  0
ARC
  5
7F
  8
0
  6
CONTINUOUS
 62
     7
 10
-1126.051116233613
 20
283.5511162336126
 30
0.0
 40
1.501223295847012
 50
90.1250099969202
 51
179.8749900030801
  0
POLYLINE
  5
80
  8
0
  6
CONTINUOUS
 62
     7
 66
     1
 10
0.0
 20
0.0
 30
0.0
  0
VERTEX
  5
518
  8
0
  6
CONTINUOUS
 62
     7
 10
-478.4999999999999
 20
283.5543916541111
 30
0.0
  0
VERTEX
  5
519
  8
0
  6
CONTINUOUS
 62
     7
 10
-478.4998937323033
 20
283.5720521816137
 30
0.0
  0
VERTEX
  5
51A
  8
0
  6
CONTINUOUS
 62
     7
 10
-478.5004888132167
 20
283.589508850768
 30
0.0
  0
VERTEX
  5
51B
  8
0
  6
CONTINUOUS
 62
     7
 10
-478.5017852427407
 20
283.6067616615742
 30
0.0
  0
VERTEX
  5
51C
  8
0
  6
CONTINUOUS
 62
     7
 10
-478.5037830208746
 20
283.6238106140322
 30
0.0
  0
VERTEX
  5
51D
  8
0
  6
CONTINUOUS
 62
     7
 10
-478.5064821476186
 20
283.6406557081418
 30
0.0
  0
VERTEX
  5
51E
  8
0
  6
CONTINUOUS
 62
     7
 10
-478.5098826229731
 20
283.6572969439032
 30
0.0
  0
VERTEX
  5
51F
  8
0
  6
CONTINUOUS
 62
     7
 10
-478.5139844469374
 20
283.6737343213164
 30
0.0
  0
VERTEX
  5
520
  8
0
  6
CONTINUOUS
 62
     7
 10
-478.5187876195119
 20
283.6899678403814
 30
0.0
  0
VERTEX
  5
521
  8
0
  6
CONTINUOUS
 62
     7
 10
-478.5242921406968
 20
283.7059975010981
 30
0.0
  0
VERTEX
  5
522
  8
0
  6
CONTINUOUS
 62
     7
 10
-478.5304980104918
 20
283.7218233034666
 30
0.0
  0
VERTEX
  5
523
  8
0
  6
CONTINUOUS
 62
     7
 10
-478.5382812257321
 20
283.7393061814884
 30
0.0
  0
VERTEX
  5
524
  8
0
  6
CONTINUOUS
 62
     7
 10
-478.5469442126691
 20
283.756533339598
 30
0.0
  0
VERTEX
  5
525
  8
0
  6
CONTINUOUS
 62
     7
 10
-478.5564869713028
 20
283.7735047777957
 30
0.0
  0
VERTEX
  5
526
  8
0
  6
CONTINUOUS
 62
     7
 10
-478.566909501633
 20
283.7902204960813
 30
0.0
  0
VERTEX
  5
527
  8
0
  6
CONTINUOUS
 62
     7
 10
-478.5782118036597
 20
283.8066804944549
 30
0.0
  0
VERTEX
  5
528
  8
0
  6
CONTINUOUS
 62
     7
 10
-478.5901686255175
 20
283.8225976532429
 30
0.0
  0
VERTEX
  5
529
  8
0
  6
CONTINUOUS
 62
     7
 10
-478.6029740791938
 20
283.8382681434296
 30
0.0
  0
VERTEX
  5
52A
  8
0
  6
CONTINUOUS
 62
     7
 10
-478.6166281646883
 20
283.8536919650148
 30
0.0
  0
VERTEX
  5
52B
  8
0
  6
CONTINUOUS
 62
     7
 10
-478.6311308820011
 20
283.8688691179988
 30
0.0
  0
VERTEX
  5
52C
  8
0
  6
CONTINUOUS
 62
     7
 10
-478.6463496064607
 20
283.8836337540918
 30
0.0
  0
VERTEX
  5
52D
  8
0
  6
CONTINUOUS
 62
     7
 10
-478.6618521291345
 20
283.8975178961693
 30
0.0
  0
VERTEX
  5
52E
  8
0
  6
CONTINUOUS
 62
     7
 10
-478.6776384500222
 20
283.9105215442315
 30
0.0
  0
VERTEX
  5
52F
  8
0
  6
CONTINUOUS
 62
     7
 10
-478.6937085691239
 20
283.9226446982784
 30
0.0
  0
VERTEX
  5
530
  8
0
  6
CONTINUOUS
 62
     7
 10
-478.7100624864396
 20
283.9338873583098
 30
0.0
  0
VERTEX
  5
531
  8
0
  6
CONTINUOUS
 62
     7
 10
-478.7264006112421
 20
283.9440722068159
 30
0.0
  0
VERTEX
  5
532
  8
0
  6
CONTINUOUS
 62
     7
 10
-478.7430124891051
 20
283.9534077267518
 30
0.0
  0
VERTEX
  5
533
  8
0
  6
CONTINUOUS
 62
     7
 10
-478.7598981200282
 20
283.9618939181173
 30
0.0
  0
VERTEX
  5
534
  8
0
  6
CONTINUOUS
 62
     7
 10
-478.777057504012
 20
283.9695307809125
 30
0.0
  0
VERTEX
  5
535
  8
0
  6
CONTINUOUS
 62
     7
 10
-478.7928944983056
 20
283.9757363627934
 30
0.0
  0
VERTEX
  5
536
  8
0
  6
CONTINUOUS
 62
     7
 10
-478.8089577347981
 20
283.981240020236
 30
0.0
  0
VERTEX
  5
537
  8
0
  6
CONTINUOUS
 62
     7
 10
-478.8252472134891
 20
283.9860417532405
 30
0.0
  0
VERTEX
  5
538
  8
0
  6
CONTINUOUS
 62
     7
 10
-478.8417629343787
 20
283.9901415618066
 30
0.0
  0
VERTEX
  5
539
  8
0
  6
CONTINUOUS
 62
     7
 10
-478.8585048974671
 20
283.9935394459345
 30
0.0
  0
VERTEX
  5
53A
  8
0
  6
CONTINUOUS
 62
     7
 10
-478.8754731027541
 20
283.9962354056241
 30
0.0
  0
VERTEX
  5
53B
  8
0
  6
CONTINUOUS
 62
     7
 10
-478.8926675502399
 20
283.9982294408755
 30
0.0
  0
VERTEX
  5
53C
  8
0
  6
CONTINUOUS
 62
     7
 10
-478.9100882399242
 20
283.9995215516886
 30
0.0
  0
VERTEX
  5
53D
  8
0
  6
CONTINUOUS
 62
     7
 10
-478.9277351718072
 20
284.0001117380634
 30
0.0
  0
VERTEX
  5
53E
  8
0
  6
CONTINUOUS
 62
     7
 10
-478.9456083458889
 20
284.0
 30
0.0
  0
SEQEND
  5
98A
  8
0
  6
CONTINUOUS
 62
     7
  0
ARC
  5
81
  8
0
  6
CONTINUOUS
 62
     7
 10
-478.9488837663873
 20
283.5511162336127
 30
0.0
 40
1.501223295846901
 50
0.1250099969154235
 51
89.87499000308408
  0
LINE
  5
82
  8
0
  6
CONTINUOUS
 62
     7
 10
-478.4999999999999
 20
283.5543916541111
 30
0.0
 11
-477.447664043757
 21
283.5543916541111
 31
0.0
  0
LINE
  5
83
  8
0
  6
CONTINUOUS
 62
     7
 10
-478.4999999999999
 20
166.4456083458889
 30
0.0
 11
-478.4999999999999
 21
283.5543916541111
 31
0.0
  0
LINE
  5
84
  8
0
  6
CONTINUOUS
 62
     7
 10
-477.447664043757
 20
283.5543916541111
 30
0.0
 11
-477.447664043757
 21
166.445608345889
 31
0.0
  0
LINE
  5
85
  8
0
  6
CONTINUOUS
 62
     7
 10
-478.4999999999999
 20
166.4456083458889
 30
0.0
 11
-477.447664043757
 21
166.4456083458889
 31
0.0
  0
LINE
  5
86
  8
0
  6
CONTINUOUS
 62
     7
 10
-1127.552335956243
 20
166.4456083458889
 30
0.0
 11
-1127.552335956243
 21
283.5543916541111
 31
0.0
  0
LINE
  5
87
  8
0
  6
CONTINUOUS
 62
     7
 10
-1126.5
 20
283.5543916541111
 30
0.0
 11
-1126.5
 21
166.445608345889
 31
0.0
  0
POLYLINE
  5
88
  8
0
  6
CONTINUOUS
 62
     9
 66
     1
 10
0.0
 20
0.0
 30
0.0
  0
VERTEX
  5
53F
  8
0
  6
CONTINUOUS
 62
     9
 10
-829.7234468500724
 20
191.5724417541914
 30
0.0
  0
VERTEX
  5
540
  8
0
  6
CONTINUOUS
 62
     9
 10
-829.6659240720757
 20
190.9875361729053
 30
0.0
  0
VERTEX
  5
541
  8
0
  6
CONTINUOUS
 62
     9
 10
-829.4955586282833
 20
190.4253452301213
 30
0.0
  0
VERTEX
  5
542
  8
0
  6
CONTINUOUS
 62
     9
 10
-829.2188748274875
 20
189.9073985695814
 30
0.0
  0
VERTEX
  5
543
  8
0
  6
CONTINUOUS
 62
     9
 10
-828.8464685423838
 20
189.4535314576162
 30
0.0
  0
VERTEX
  5
544
  8
0
  6
CONTINUOUS
 62
     9
 10
-828.3926014304186
 20
189.0811251725125
 30
0.0
  0
VERTEX
  5
545
  8
0
  6
CONTINUOUS
 62
     9
 10
-827.8746547698788
 20
188.8044413717167
 30
0.0
  0
VERTEX
  5
546
  8
0
  6
CONTINUOUS
 62
     9
 10
-827.3124638270948
 20
188.6340759279245
 30
0.0
  0
VERTEX
  5
547
  8
0
  6
CONTINUOUS
 62
     9
 10
-826.7275582458087
 20
188.5765531499277
 30
0.0
  0
SEQEND
  5
98B
  8
0
  6
CONTINUOUS
 62
     9
  0
LINE
  5
89
  8
0
  6
CONTINUOUS
 62
     9
 10
-778.2724417541914
 20
188.5765531499277
 30
0.0
 11
-826.7275582458086
 21
188.5765531499277
 31
0.0
  0
POLYLINE
  5
8A
  8
0
  6
CONTINUOUS
 62
     9
 66
     1
 10
0.0
 20
0.0
 30
0.0
  0
VERTEX
  5
548
  8
0
  6
CONTINUOUS
 62
     9
 10
-778.2724417541914
 20
188.5765531499277
 30
0.0
  0
VERTEX
  5
549
  8
0
  6
CONTINUOUS
 62
     9
 10
-777.6875361729053
 20
188.6340759279245
 30
0.0
  0
VERTEX
  5
54A
  8
0
  6
CONTINUOUS
 62
     9
 10
-777.1253452301213
 20
188.8044413717167
 30
0.0
  0
VERTEX
  5
54B
  8
0
  6
CONTINUOUS
 62
     9
 10
-776.6073985695815
 20
189.0811251725125
 30
0.0
  0
VERTEX
  5
54C
  8
0
  6
CONTINUOUS
 62
     9
 10
-776.1535314576163
 20
189.4535314576162
 30
0.0
  0
VERTEX
  5
54D
  8
0
  6
CONTINUOUS
 62
     9
 10
-775.7811251725126
 20
189.9073985695814
 30
0.0
  0
VERTEX
  5
54E
  8
0
  6
CONTINUOUS
 62
     9
 10
-775.5044413717168
 20
190.4253452301213
 30
0.0
  0
VERTEX
  5
54F
  8
0
  6
CONTINUOUS
 62
     9
 10
-775.3340759279245
 20
190.9875361729053
 30
0.0
  0
VERTEX
  5
550
  8
0
  6
CONTINUOUS
 62
     9
 10
-775.2765531499277
 20
191.5724417541914
 30
0.0
  0
SEQEND
  5
98C
  8
0
  6
CONTINUOUS
 62
     9
  0
LINE
  5
8B
  8
0
  6
CONTINUOUS
 62
     9
 10
-775.2765531499277
 20
258.4275582458086
 30
0.0
 11
-775.2765531499277
 21
191.5724417541914
 31
0.0
  0
POLYLINE
  5
8C
  8
0
  6
CONTINUOUS
 62
     9
 66
     1
 10
0.0
 20
0.0
 30
0.0
  0
VERTEX
  5
551
  8
0
  6
CONTINUOUS
 62
     9
 10
-775.2765531499277
 20
258.4275582458086
 30
0.0
  0
VERTEX
  5
552
  8
0
  6
CONTINUOUS
 62
     9
 10
-775.3340759279245
 20
259.0124638270948
 30
0.0
  0
VERTEX
  5
553
  8
0
  6
CONTINUOUS
 62
     9
 10
-775.5044413717168
 20
259.5746547698787
 30
0.0
  0
VERTEX
  5
554
  8
0
  6
CONTINUOUS
 62
     9
 10
-775.7811251725126
 20
260.0926014304186
 30
0.0
  0
VERTEX
  5
555
  8
0
  6
CONTINUOUS
 62
     9
 10
-776.1535314576163
 20
260.5464685423838
 30
0.0
  0
VERTEX
  5
556
  8
0
  6
CONTINUOUS
 62
     9
 10
-776.6073985695815
 20
260.9188748274875
 30
0.0
  0
VERTEX
  5
557
  8
0
  6
CONTINUOUS
 62
     9
 10
-777.1253452301213
 20
261.1955586282833
 30
0.0
  0
VERTEX
  5
558
  8
0
  6
CONTINUOUS
 62
     9
 10
-777.6875361729053
 20
261.3659240720755
 30
0.0
  0
VERTEX
  5
559
  8
0
  6
CONTINUOUS
 62
     9
 10
-778.2724417541914
 20
261.4234468500724
 30
0.0
  0
SEQEND
  5
98D
  8
0
  6
CONTINUOUS
 62
     9
  0
LINE
  5
8D
  8
0
  6
CONTINUOUS
 62
     9
 10
-826.7275582458086
 20
261.4234468500724
 30
0.0
 11
-778.2724417541914
 21
261.4234468500724
 31
0.0
  0
POLYLINE
  5
8E
  8
0
  6
CONTINUOUS
 62
     9
 66
     1
 10
0.0
 20
0.0
 30
0.0
  0
VERTEX
  5
55A
  8
0
  6
CONTINUOUS
 62
     9
 10
-826.7275582458087
 20
261.4234468500724
 30
0.0
  0
VERTEX
  5
55B
  8
0
  6
CONTINUOUS
 62
     9
 10
-827.3124638270948
 20
261.3659240720755
 30
0.0
  0
VERTEX
  5
55C
  8
0
  6
CONTINUOUS
 62
     9
 10
-827.8746547698788
 20
261.1955586282833
 30
0.0
  0
VERTEX
  5
55D
  8
0
  6
CONTINUOUS
 62
     9
 10
-828.3926014304186
 20
260.9188748274875
 30
0.0
  0
VERTEX
  5
55E
  8
0
  6
CONTINUOUS
 62
     9
 10
-828.8464685423838
 20
260.5464685423838
 30
0.0
  0
VERTEX
  5
55F
  8
0
  6
CONTINUOUS
 62
     9
 10
-829.2188748274875
 20
260.0926014304186
 30
0.0
  0
VERTEX
  5
560
  8
0
  6
CONTINUOUS
 62
     9
 10
-829.4955586282833
 20
259.5746547698787
 30
0.0
  0
VERTEX
  5
561
  8
0
  6
CONTINUOUS
 62
     9
 10
-829.6659240720757
 20
259.0124638270948
 30
0.0
  0
VERTEX
  5
562
  8
0
  6
CONTINUOUS
 62
     9
 10
-829.7234468500724
 20
258.4275582458086
 30
0.0
  0
SEQEND
  5
98E
  8
0
  6
CONTINUOUS
 62
     9
  0
LINE
  5
8F
  8
0
  6
CONTINUOUS
 62
     9
 10
-829.7234468500724
 20
191.5724417541914
 30
0.0
 11
-829.7234468500724
 21
258.4275582458087
 31
0.0
  0
POLYLINE
  5
90
  8
0
  6
CONTINUOUS
 62
     9
 66
     1
 10
0.0
 20
0.0
 30
0.0
  0
VERTEX
  5
563
  8
0
  6
CONTINUOUS
 62
     9
 10
-850.3765531499276
 20
258.4275582458086
 30
0.0
  0
VERTEX
  5
564
  8
0
  6
CONTINUOUS
 62
     9
 10
-850.4340759279244
 20
259.0124638270948
 30
0.0
  0
VERTEX
  5
565
  8
0
  6
CONTINUOUS
 62
     9
 10
-850.6044413717167
 20
259.5746547698787
 30
0.0
  0
VERTEX
  5
566
  8
0
  6
CONTINUOUS
 62
     9
 10
-850.8811251725125
 20
260.0926014304186
 30
0.0
  0
VERTEX
  5
567
  8
0
  6
CONTINUOUS
 62
     9
 10
-851.2535314576162
 20
260.5464685423838
 30
0.0
  0
VERTEX
  5
568
  8
0
  6
CONTINUOUS
 62
     9
 10
-851.7073985695814
 20
260.9188748274875
 30
0.0
  0
VERTEX
  5
569
  8
0
  6
CONTINUOUS
 62
     9
 10
-852.2253452301212
 20
261.1955586282833
 30
0.0
  0
VERTEX
  5
56A
  8
0
  6
CONTINUOUS
 62
     9
 10
-852.7875361729052
 20
261.3659240720755
 30
0.0
  0
VERTEX
  5
56B
  8
0
  6
CONTINUOUS
 62
     9
 10
-853.3724417541913
 20
261.4234468500723
 30
0.0
  0
SEQEND
  5
98F
  8
0
  6
CONTINUOUS
 62
     9
  0
LINE
  5
91
  8
0
  6
CONTINUOUS
 62
     9
 10
-876.9275582458085
 20
261.4234468500724
 30
0.0
 11
-853.3724417541913
 21
261.4234468500724
 31
0.0
  0
POLYLINE
  5
92
  8
0
  6
CONTINUOUS
 62
     9
 66
     1
 10
0.0
 20
0.0
 30
0.0
  0
VERTEX
  5
56C
  8
0
  6
CONTINUOUS
 62
     9
 10
-876.9275582458087
 20
261.4234468500724
 30
0.0
  0
VERTEX
  5
56D
  8
0
  6
CONTINUOUS
 62
     9
 10
-877.5124638270947
 20
261.3659240720755
 30
0.0
  0
VERTEX
  5
56E
  8
0
  6
CONTINUOUS
 62
     9
 10
-878.0746547698787
 20
261.1955586282833
 30
0.0
  0
VERTEX
  5
56F
  8
0
  6
CONTINUOUS
 62
     9
 10
-878.5926014304185
 20
260.9188748274875
 30
0.0
  0
VERTEX
  5
570
  8
0
  6
CONTINUOUS
 62
     9
 10
-879.0464685423838
 20
260.5464685423838
 30
0.0
  0
VERTEX
  5
571
  8
0
  6
CONTINUOUS
 62
     9
 10
-879.4188748274875
 20
260.0926014304186
 30
0.0
  0
VERTEX
  5
572
  8
0
  6
CONTINUOUS
 62
     9
 10
-879.6955586282833
 20
259.5746547698787
 30
0.0
  0
VERTEX
  5
573
  8
0
  6
CONTINUOUS
 62
     9
 10
-879.8659240720756
 20
259.0124638270948
 30
0.0
  0
VERTEX
  5
574
  8
0
  6
CONTINUOUS
 62
     9
 10
-879.9234468500723
 20
258.4275582458086
 30
0.0
  0
SEQEND
  5
990
  8
0
  6
CONTINUOUS
 62
     9
  0
LINE
  5
93
  8
0
  6
CONTINUOUS
 62
     9
 10
-879.9234468500723
 20
191.5724417541914
 30
0.0
 11
-879.9234468500723
 21
258.4275582458086
 31
0.0
  0
POLYLINE
  5
94
  8
0
  6
CONTINUOUS
 62
     9
 66
     1
 10
0.0
 20
0.0
 30
0.0
  0
VERTEX
  5
575
  8
0
  6
CONTINUOUS
 62
     9
 10
-879.9234468500723
 20
191.5724417541914
 30
0.0
  0
VERTEX
  5
576
  8
0
  6
CONTINUOUS
 62
     9
 10
-879.8659240720756
 20
190.9875361729053
 30
0.0
  0
VERTEX
  5
577
  8
0
  6
CONTINUOUS
 62
     9
 10
-879.6955586282833
 20
190.4253452301213
 30
0.0
  0
VERTEX
  5
578
  8
0
  6
CONTINUOUS
 62
     9
 10
-879.4188748274875
 20
189.9073985695814
 30
0.0
  0
VERTEX
  5
579
  8
0
  6
CONTINUOUS
 62
     9
 10
-879.0464685423838
 20
189.4535314576163
 30
0.0
  0
VERTEX
  5
57A
  8
0
  6
CONTINUOUS
 62
     9
 10
-878.5926014304185
 20
189.0811251725125
 30
0.0
  0
VERTEX
  5
57B
  8
0
  6
CONTINUOUS
 62
     9
 10
-878.0746547698787
 20
188.8044413717168
 30
0.0
  0
VERTEX
  5
57C
  8
0
  6
CONTINUOUS
 62
     9
 10
-877.5124638270947
 20
188.6340759279245
 30
0.0
  0
VERTEX
  5
57D
  8
0
  6
CONTINUOUS
 62
     9
 10
-876.9275582458087
 20
188.5765531499277
 30
0.0
  0
SEQEND
  5
991
  8
0
  6
CONTINUOUS
 62
     9
  0
LINE
  5
95
  8
0
  6
CONTINUOUS
 62
     9
 10
-853.3724417541914
 20
188.5765531499277
 30
0.0
 11
-876.9275582458087
 21
188.5765531499277
 31
0.0
  0
POLYLINE
  5
96
  8
0
  6
CONTINUOUS
 62
     9
 66
     1
 10
0.0
 20
0.0
 30
0.0
  0
VERTEX
  5
57E
  8
0
  6
CONTINUOUS
 62
     9
 10
-853.3724417541913
 20
188.5765531499277
 30
0.0
  0
VERTEX
  5
57F
  8
0
  6
CONTINUOUS
 62
     9
 10
-852.7875361729052
 20
188.6340759279245
 30
0.0
  0
VERTEX
  5
580
  8
0
  6
CONTINUOUS
 62
     9
 10
-852.2253452301212
 20
188.8044413717168
 30
0.0
  0
VERTEX
  5
581
  8
0
  6
CONTINUOUS
 62
     9
 10
-851.7073985695814
 20
189.0811251725125
 30
0.0
  0
VERTEX
  5
582
  8
0
  6
CONTINUOUS
 62
     9
 10
-851.2535314576162
 20
189.4535314576163
 30
0.0
  0
VERTEX
  5
583
  8
0
  6
CONTINUOUS
 62
     9
 10
-850.8811251725125
 20
189.9073985695814
 30
0.0
  0
VERTEX
  5
584
  8
0
  6
CONTINUOUS
 62
     9
 10
-850.6044413717167
 20
190.4253452301213
 30
0.0
  0
VERTEX
  5
585
  8
0
  6
CONTINUOUS
 62
     9
 10
-850.4340759279244
 20
190.9875361729053
 30
0.0
  0
VERTEX
  5
586
  8
0
  6
CONTINUOUS
 62
     9
 10
-850.3765531499276
 20
191.5724417541914
 30
0.0
  0
SEQEND
  5
992
  8
0
  6
CONTINUOUS
 62
     9
  0
LINE
  5
97
  8
0
  6
CONTINUOUS
 62
     9
 10
-850.3765531499278
 20
258.4275582458086
 30
0.0
 11
-850.3765531499278
 21
191.5724417541914
 31
0.0
  0
ARC
  5
98
  8
0
  6
CONTINUOUS
 62
     9
 10
-572.5
 20
225.0
 30
0.0
 40
2.224156870921681
 50
90.00000000000142
 51
270.0
  0
LINE
  5
99
  8
0
  6
CONTINUOUS
 62
     9
 10
-522.5
 20
222.7758431290783
 30
0.0
 11
-572.5
 21
222.7758431290783
 31
0.0
  0
ARC
  5
9A
  8
0
  6
CONTINUOUS
 62
     9
 10
-522.5
 20
225.0
 30
0.0
 40
2.224156870921681
 50
270.0
 51
90.0
  0
LINE
  5
9B
  8
0
  6
CONTINUOUS
 62
     9
 10
-572.5
 20
227.2241568709217
 30
0.0
 11
-522.5
 21
227.2241568709217
 31
0.0
  0
ARC
  5
9C
  8
0
  6
CONTINUOUS
 62
     9
 10
-1032.5
 20
225.0
 30
0.0
 40
2.224156870921681
 50
270.0
 51
89.99999999999856
  0
LINE
  5
9D
  8
0
  6
CONTINUOUS
 62
     9
 10
-1082.5
 20
227.2241568709217
 30
0.0
 11
-1032.5
 21
227.2241568709217
 31
0.0
  0
ARC
  5
9E
  8
0
  6
CONTINUOUS
 62
     9
 10
-1082.5
 20
225.0
 30
0.0
 40
2.224156870921681
 50
90.0
 51
270.0
  0
LINE
  5
9F
  8
0
  6
CONTINUOUS
 62
     9
 10
-1032.5
 20
222.7758431290783
 30
0.0
 11
-1082.5
 21
222.7758431290783
 31
0.0
  0
POLYLINE
  5
A0
  8
0
  6
CONTINUOUS
 62
     7
 66
     1
 10
0.0
 20
0.0
 30
0.0
  0
VERTEX
  5
587
  8
0
  6
CONTINUOUS
 62
     7
 10
-478.9456083458888
 20
166.0
 30
0.0
  0
VERTEX
  5
588
  8
0
  6
CONTINUOUS
 62
     7
 10
-478.9279478183863
 20
165.9998937323034
 30
0.0
  0
VERTEX
  5
589
  8
0
  6
CONTINUOUS
 62
     7
 10
-478.9104911492319
 20
166.000488813217
 30
0.0
  0
VERTEX
  5
58A
  8
0
  6
CONTINUOUS
 62
     7
 10
-478.8932383384256
 20
166.0017852427407
 30
0.0
  0
VERTEX
  5
58B
  8
0
  6
CONTINUOUS
 62
     7
 10
-478.8761893859677
 20
166.0037830208746
 30
0.0
  0
VERTEX
  5
58C
  8
0
  6
CONTINUOUS
 62
     7
 10
-478.8593442918581
 20
166.0064821476187
 30
0.0
  0
VERTEX
  5
58D
  8
0
  6
CONTINUOUS
 62
     7
 10
-478.8427030560968
 20
166.009882622973
 30
0.0
  0
VERTEX
  5
58E
  8
0
  6
CONTINUOUS
 62
     7
 10
-478.8262656786835
 20
166.0139844469374
 30
0.0
  0
VERTEX
  5
58F
  8
0
  6
CONTINUOUS
 62
     7
 10
-478.8100321596185
 20
166.0187876195121
 30
0.0
  0
VERTEX
  5
590
  8
0
  6
CONTINUOUS
 62
     7
 10
-478.7940024989018
 20
166.0242921406968
 30
0.0
  0
VERTEX
  5
591
  8
0
  6
CONTINUOUS
 62
     7
 10
-478.7781766965334
 20
166.0304980104918
 30
0.0
  0
VERTEX
  5
592
  8
0
  6
CONTINUOUS
 62
     7
 10
-478.7606938185116
 20
166.0382812257322
 30
0.0
  0
VERTEX
  5
593
  8
0
  6
CONTINUOUS
 62
     7
 10
-478.743466660402
 20
166.0469442126692
 30
0.0
  0
VERTEX
  5
594
  8
0
  6
CONTINUOUS
 62
     7
 10
-478.7264952222043
 20
166.0564869713027
 30
0.0
  0
VERTEX
  5
595
  8
0
  6
CONTINUOUS
 62
     7
 10
-478.7097795039186
 20
166.0669095016329
 30
0.0
  0
VERTEX
  5
596
  8
0
  6
CONTINUOUS
 62
     7
 10
-478.693319505545
 20
166.0782118036597
 30
0.0
  0
VERTEX
  5
597
  8
0
  6
CONTINUOUS
 62
     7
 10
-478.677402346757
 20
166.0901686255176
 30
0.0
  0
VERTEX
  5
598
  8
0
  6
CONTINUOUS
 62
     7
 10
-478.6617318565704
 20
166.1029740791938
 30
0.0
  0
VERTEX
  5
599
  8
0
  6
CONTINUOUS
 62
     7
 10
-478.646308034985
 20
166.1166281646884
 30
0.0
  0
VERTEX
  5
59A
  8
0
  6
CONTINUOUS
 62
     7
 10
-478.6311308820011
 20
166.1311308820012
 30
0.0
  0
VERTEX
  5
59B
  8
0
  6
CONTINUOUS
 62
     7
 10
-478.6163662459082
 20
166.1463496064609
 30
0.0
  0
VERTEX
  5
59C
  8
0
  6
CONTINUOUS
 62
     7
 10
-478.6024821038307
 20
166.1618521291346
 30
0.0
  0
VERTEX
  5
59D
  8
0
  6
CONTINUOUS
 62
     7
 10
-478.5894784557684
 20
166.1776384500223
 30
0.0
  0
VERTEX
  5
59E
  8
0
  6
CONTINUOUS
 62
     7
 10
-478.5773553017217
 20
166.193708569124
 30
0.0
  0
VERTEX
  5
59F
  8
0
  6
CONTINUOUS
 62
     7
 10
-478.56611264169
 20
166.2100624864397
 30
0.0
  0
VERTEX
  5
5A0
  8
0
  6
CONTINUOUS
 62
     7
 10
-478.555927793184
 20
166.2264006112422
 30
0.0
  0
VERTEX
  5
5A1
  8
0
  6
CONTINUOUS
 62
     7
 10
-478.5465922732482
 20
166.2430124891051
 30
0.0
  0
VERTEX
  5
5A2
  8
0
  6
CONTINUOUS
 62
     7
 10
-478.5381060818828
 20
166.2598981200283
 30
0.0
  0
VERTEX
  5
5A3
  8
0
  6
CONTINUOUS
 62
     7
 10
-478.5304692190875
 20
166.277057504012
 30
0.0
  0
VERTEX
  5
5A4
  8
0
  6
CONTINUOUS
 62
     7
 10
-478.5242636372066
 20
166.2928944983057
 30
0.0
  0
VERTEX
  5
5A5
  8
0
  6
CONTINUOUS
 62
     7
 10
-478.518759979764
 20
166.3089577347981
 30
0.0
  0
VERTEX
  5
5A6
  8
0
  6
CONTINUOUS
 62
     7
 10
-478.5139582467595
 20
166.3252472134891
 30
0.0
  0
VERTEX
  5
5A7
  8
0
  6
CONTINUOUS
 62
     7
 10
-478.5098584381934
 20
166.3417629343788
 30
0.0
  0
VERTEX
  5
5A8
  8
0
  6
CONTINUOUS
 62
     7
 10
-478.5064605540655
 20
166.3585048974672
 30
0.0
  0
VERTEX
  5
5A9
  8
0
  6
CONTINUOUS
 62
     7
 10
-478.503764594376
 20
166.3754731027542
 30
0.0
  0
VERTEX
  5
5AA
  8
0
  6
CONTINUOUS
 62
     7
 10
-478.5017705591245
 20
166.3926675502399
 30
0.0
  0
VERTEX
  5
5AB
  8
0
  6
CONTINUOUS
 62
     7
 10
-478.5004784483115
 20
166.4100882399242
 30
0.0
  0
VERTEX
  5
5AC
  8
0
  6
CONTINUOUS
 62
     7
 10
-478.4998882619365
 20
166.4277351718073
 30
0.0
  0
VERTEX
  5
5AD
  8
0
  6
CONTINUOUS
 62
     7
 10
-478.4999999999999
 20
166.4456083458889
 30
0.0
  0
SEQEND
  5
993
  8
0
  6
CONTINUOUS
 62
     7
  0
LINE
  5
A1
  8
0
  6
CONTINUOUS
 62
     9
 10
-693.9234468500722
 20
191.5724417541914
 30
0.0
 11
-693.9234468500722
 21
258.4275582458086
 31
0.0
  0
POLYLINE
  5
A2
  8
0
  6
CONTINUOUS
 62
     9
 66
     1
 10
0.0
 20
0.0
 30
0.0
  0
VERTEX
  5
5AE
  8
0
  6
CONTINUOUS
 62
     9
 10
-693.9234468500722
 20
191.5724417541914
 30
0.0
  0
VERTEX
  5
5AF
  8
0
  6
CONTINUOUS
 62
     9
 10
-693.8659240720755
 20
190.9875361729053
 30
0.0
  0
VERTEX
  5
5B0
  8
0
  6
CONTINUOUS
 62
     9
 10
-693.6955586282832
 20
190.4253452301213
 30
0.0
  0
VERTEX
  5
5B1
  8
0
  6
CONTINUOUS
 62
     9
 10
-693.4188748274873
 20
189.9073985695814
 30
0.0
  0
VERTEX
  5
5B2
  8
0
  6
CONTINUOUS
 62
     9
 10
-693.0464685423836
 20
189.4535314576163
 30
0.0
  0
VERTEX
  5
5B3
  8
0
  6
CONTINUOUS
 62
     9
 10
-692.5926014304184
 20
189.0811251725125
 30
0.0
  0
VERTEX
  5
5B4
  8
0
  6
CONTINUOUS
 62
     9
 10
-692.0746547698786
 20
188.8044413717168
 30
0.0
  0
VERTEX
  5
5B5
  8
0
  6
CONTINUOUS
 62
     9
 10
-691.5124638270946
 20
188.6340759279245
 30
0.0
  0
VERTEX
  5
5B6
  8
0
  6
CONTINUOUS
 62
     9
 10
-690.9275582458085
 20
188.5765531499277
 30
0.0
  0
SEQEND
  5
994
  8
0
  6
CONTINUOUS
 62
     9
  0
LINE
  5
A3
  8
0
  6
CONTINUOUS
 62
     9
 10
-584.0724417541913
 20
188.5765531499277
 30
0.0
 11
-690.9275582458085
 21
188.5765531499277
 31
0.0
  0
POLYLINE
  5
A4
  8
0
  6
CONTINUOUS
 62
     9
 66
     1
 10
0.0
 20
0.0
 30
0.0
  0
VERTEX
  5
5B7
  8
0
  6
CONTINUOUS
 62
     9
 10
-584.0724417541912
 20
188.5765531499277
 30
0.0
  0
VERTEX
  5
5B8
  8
0
  6
CONTINUOUS
 62
     9
 10
-583.4875361729052
 20
188.6340759279245
 30
0.0
  0
VERTEX
  5
5B9
  8
0
  6
CONTINUOUS
 62
     9
 10
-582.9253452301211
 20
188.8044413717168
 30
0.0
  0
VERTEX
  5
5BA
  8
0
  6
CONTINUOUS
 62
     9
 10
-582.4073985695813
 20
189.0811251725125
 30
0.0
  0
VERTEX
  5
5BB
  8
0
  6
CONTINUOUS
 62
     9
 10
-581.9535314576161
 20
189.4535314576163
 30
0.0
  0
VERTEX
  5
5BC
  8
0
  6
CONTINUOUS
 62
     9
 10
-581.5811251725124
 20
189.9073985695814
 30
0.0
  0
VERTEX
  5
5BD
  8
0
  6
CONTINUOUS
 62
     9
 10
-581.3044413717166
 20
190.4253452301213
 30
0.0
  0
VERTEX
  5
5BE
  8
0
  6
CONTINUOUS
 62
     9
 10
-581.1340759279243
 20
190.9875361729052
 30
0.0
  0
VERTEX
  5
5BF
  8
0
  6
CONTINUOUS
 62
     9
 10
-581.0765531499276
 20
191.5724417541914
 30
0.0
  0
SEQEND
  5
995
  8
0
  6
CONTINUOUS
 62
     9
  0
LINE
  5
A5
  8
0
  6
CONTINUOUS
 62
     9
 10
-581.0765531499277
 20
258.4275582458087
 30
0.0
 11
-581.0765531499277
 21
191.5724417541914
 31
0.0
  0
POLYLINE
  5
A6
  8
0
  6
CONTINUOUS
 62
     9
 66
     1
 10
0.0
 20
0.0
 30
0.0
  0
VERTEX
  5
5C0
  8
0
  6
CONTINUOUS
 62
     9
 10
-581.0765531499276
 20
258.4275582458087
 30
0.0
  0
VERTEX
  5
5C1
  8
0
  6
CONTINUOUS
 62
     9
 10
-581.1340759279243
 20
259.0124638270948
 30
0.0
  0
VERTEX
  5
5C2
  8
0
  6
CONTINUOUS
 62
     9
 10
-581.3044413717166
 20
259.5746547698788
 30
0.0
  0
VERTEX
  5
5C3
  8
0
  6
CONTINUOUS
 62
     9
 10
-581.5811251725124
 20
260.0926014304187
 30
0.0
  0
VERTEX
  5
5C4
  8
0
  6
CONTINUOUS
 62
     9
 10
-581.9535314576161
 20
260.5464685423838
 30
0.0
  0
VERTEX
  5
5C5
  8
0
  6
CONTINUOUS
 62
     9
 10
-582.4073985695813
 20
260.9188748274876
 30
0.0
  0
VERTEX
  5
5C6
  8
0
  6
CONTINUOUS
 62
     9
 10
-582.9253452301211
 20
261.1955586282833
 30
0.0
  0
VERTEX
  5
5C7
  8
0
  6
CONTINUOUS
 62
     9
 10
-583.4875361729052
 20
261.3659240720756
 30
0.0
  0
VERTEX
  5
5C8
  8
0
  6
CONTINUOUS
 62
     9
 10
-584.0724417541912
 20
261.4234468500724
 30
0.0
  0
SEQEND
  5
996
  8
0
  6
CONTINUOUS
 62
     9
  0
LINE
  5
A7
  8
0
  6
CONTINUOUS
 62
     9
 10
-690.9275582458085
 20
261.4234468500724
 30
0.0
 11
-584.0724417541912
 21
261.4234468500724
 31
0.0
  0
POLYLINE
  5
A8
  8
0
  6
CONTINUOUS
 62
     9
 66
     1
 10
0.0
 20
0.0
 30
0.0
  0
VERTEX
  5
5C9
  8
0
  6
CONTINUOUS
 62
     9
 10
-690.9275582458085
 20
261.4234468500724
 30
0.0
  0
VERTEX
  5
5CA
  8
0
  6
CONTINUOUS
 62
     9
 10
-691.5124638270946
 20
261.3659240720755
 30
0.0
  0
VERTEX
  5
5CB
  8
0
  6
CONTINUOUS
 62
     9
 10
-692.0746547698786
 20
261.1955586282833
 30
0.0
  0
VERTEX
  5
5CC
  8
0
  6
CONTINUOUS
 62
     9
 10
-692.5926014304184
 20
260.9188748274875
 30
0.0
  0
VERTEX
  5
5CD
  8
0
  6
CONTINUOUS
 62
     9
 10
-693.0464685423836
 20
260.5464685423838
 30
0.0
  0
VERTEX
  5
5CE
  8
0
  6
CONTINUOUS
 62
     9
 10
-693.4188748274873
 20
260.0926014304186
 30
0.0
  0
VERTEX
  5
5CF
  8
0
  6
CONTINUOUS
 62
     9
 10
-693.6955586282832
 20
259.5746547698787
 30
0.0
  0
VERTEX
  5
5D0
  8
0
  6
CONTINUOUS
 62
     9
 10
-693.8659240720755
 20
259.0124638270948
 30
0.0
  0
VERTEX
  5
5D1
  8
0
  6
CONTINUOUS
 62
     9
 10
-693.9234468500722
 20
258.4275582458086
 30
0.0
  0
SEQEND
  5
997
  8
0
  6
CONTINUOUS
 62
     9
  0
LINE
  5
A9
  8
0
  6
CONTINUOUS
 62
     9
 10
-1023.923446850072
 20
191.5724417541914
 30
0.0
 11
-1023.923446850072
 21
258.4275582458086
 31
0.0
  0
POLYLINE
  5
AA
  8
0
  6
CONTINUOUS
 62
     9
 66
     1
 10
0.0
 20
0.0
 30
0.0
  0
VERTEX
  5
5D2
  8
0
  6
CONTINUOUS
 62
     9
 10
-1023.923446850072
 20
191.5724417541914
 30
0.0
  0
VERTEX
  5
5D3
  8
0
  6
CONTINUOUS
 62
     9
 10
-1023.865924072076
 20
190.9875361729053
 30
0.0
  0
VERTEX
  5
5D4
  8
0
  6
CONTINUOUS
 62
     9
 10
-1023.695558628283
 20
190.4253452301213
 30
0.0
  0
VERTEX
  5
5D5
  8
0
  6
CONTINUOUS
 62
     9
 10
-1023.418874827488
 20
189.9073985695814
 30
0.0
  0
VERTEX
  5
5D6
  8
0
  6
CONTINUOUS
 62
     9
 10
-1023.046468542384
 20
189.4535314576163
 30
0.0
  0
VERTEX
  5
5D7
  8
0
  6
CONTINUOUS
 62
     9
 10
-1022.592601430419
 20
189.0811251725125
 30
0.0
  0
VERTEX
  5
5D8
  8
0
  6
CONTINUOUS
 62
     9
 10
-1022.074654769879
 20
188.8044413717168
 30
0.0
  0
VERTEX
  5
5D9
  8
0
  6
CONTINUOUS
 62
     9
 10
-1021.512463827095
 20
188.6340759279245
 30
0.0
  0
VERTEX
  5
5DA
  8
0
  6
CONTINUOUS
 62
     9
 10
-1020.927558245809
 20
188.5765531499277
 30
0.0
  0
SEQEND
  5
998
  8
0
  6
CONTINUOUS
 62
     9
  0
LINE
  5
AB
  8
0
  6
CONTINUOUS
 62
     9
 10
-914.0724417541915
 20
188.5765531499277
 30
0.0
 11
-1020.927558245809
 21
188.5765531499277
 31
0.0
  0
POLYLINE
  5
AC
  8
0
  6
CONTINUOUS
 62
     9
 66
     1
 10
0.0
 20
0.0
 30
0.0
  0
VERTEX
  5
5DB
  8
0
  6
CONTINUOUS
 62
     9
 10
-914.0724417541913
 20
188.5765531499277
 30
0.0
  0
VERTEX
  5
5DC
  8
0
  6
CONTINUOUS
 62
     9
 10
-913.4875361729053
 20
188.6340759279245
 30
0.0
  0
VERTEX
  5
5DD
  8
0
  6
CONTINUOUS
 62
     9
 10
-912.9253452301213
 20
188.8044413717168
 30
0.0
  0
VERTEX
  5
5DE
  8
0
  6
CONTINUOUS
 62
     9
 10
-912.4073985695815
 20
189.0811251725125
 30
0.0
  0
VERTEX
  5
5DF
  8
0
  6
CONTINUOUS
 62
     9
 10
-911.9535314576162
 20
189.4535314576163
 30
0.0
  0
VERTEX
  5
5E0
  8
0
  6
CONTINUOUS
 62
     9
 10
-911.5811251725125
 20
189.9073985695814
 30
0.0
  0
VERTEX
  5
5E1
  8
0
  6
CONTINUOUS
 62
     9
 10
-911.3044413717167
 20
190.4253452301213
 30
0.0
  0
VERTEX
  5
5E2
  8
0
  6
CONTINUOUS
 62
     9
 10
-911.1340759279244
 20
190.9875361729053
 30
0.0
  0
VERTEX
  5
5E3
  8
0
  6
CONTINUOUS
 62
     9
 10
-911.0765531499277
 20
191.5724417541914
 30
0.0
  0
SEQEND
  5
999
  8
0
  6
CONTINUOUS
 62
     9
  0
LINE
  5
AD
  8
0
  6
CONTINUOUS
 62
     9
 10
-911.0765531499276
 20
258.4275582458086
 30
0.0
 11
-911.0765531499276
 21
191.5724417541914
 31
0.0
  0
POLYLINE
  5
AE
  8
0
  6
CONTINUOUS
 62
     9
 66
     1
 10
0.0
 20
0.0
 30
0.0
  0
VERTEX
  5
5E4
  8
0
  6
CONTINUOUS
 62
     9
 10
-911.0765531499277
 20
258.4275582458087
 30
0.0
  0
VERTEX
  5
5E5
  8
0
  6
CONTINUOUS
 62
     9
 10
-911.1340759279244
 20
259.0124638270948
 30
0.0
  0
VERTEX
  5
5E6
  8
0
  6
CONTINUOUS
 62
     9
 10
-911.3044413717167
 20
259.5746547698788
 30
0.0
  0
VERTEX
  5
5E7
  8
0
  6
CONTINUOUS
 62
     9
 10
-911.5811251725125
 20
260.0926014304187
 30
0.0
  0
VERTEX
  5
5E8
  8
0
  6
CONTINUOUS
 62
     9
 10
-911.9535314576162
 20
260.5464685423838
 30
0.0
  0
VERTEX
  5
5E9
  8
0
  6
CONTINUOUS
 62
     9
 10
-912.4073985695815
 20
260.9188748274876
 30
0.0
  0
VERTEX
  5
5EA
  8
0
  6
CONTINUOUS
 62
     9
 10
-912.9253452301213
 20
261.1955586282833
 30
0.0
  0
VERTEX
  5
5EB
  8
0
  6
CONTINUOUS
 62
     9
 10
-913.4875361729053
 20
261.3659240720756
 30
0.0
  0
VERTEX
  5
5EC
  8
0
  6
CONTINUOUS
 62
     9
 10
-914.0724417541913
 20
261.4234468500724
 30
0.0
  0
SEQEND
  5
99A
  8
0
  6
CONTINUOUS
 62
     9
  0
LINE
  5
AF
  8
0
  6
CONTINUOUS
 62
     9
 10
-1020.927558245809
 20
261.4234468500724
 30
0.0
 11
-914.0724417541915
 21
261.4234468500724
 31
0.0
  0
POLYLINE
  5
B0
  8
0
  6
CONTINUOUS
 62
     9
 66
     1
 10
0.0
 20
0.0
 30
0.0
  0
VERTEX
  5
5ED
  8
0
  6
CONTINUOUS
 62
     9
 10
-1020.927558245809
 20
261.4234468500723
 30
0.0
  0
VERTEX
  5
5EE
  8
0
  6
CONTINUOUS
 62
     9
 10
-1021.512463827095
 20
261.3659240720755
 30
0.0
  0
VERTEX
  5
5EF
  8
0
  6
CONTINUOUS
 62
     9
 10
-1022.074654769879
 20
261.1955586282833
 30
0.0
  0
VERTEX
  5
5F0
  8
0
  6
CONTINUOUS
 62
     9
 10
-1022.592601430419
 20
260.9188748274875
 30
0.0
  0
VERTEX
  5
5F1
  8
0
  6
CONTINUOUS
 62
     9
 10
-1023.046468542384
 20
260.5464685423838
 30
0.0
  0
VERTEX
  5
5F2
  8
0
  6
CONTINUOUS
 62
     9
 10
-1023.418874827488
 20
260.0926014304186
 30
0.0
  0
VERTEX
  5
5F3
  8
0
  6
CONTINUOUS
 62
     9
 10
-1023.695558628283
 20
259.5746547698787
 30
0.0
  0
VERTEX
  5
5F4
  8
0
  6
CONTINUOUS
 62
     9
 10
-1023.865924072076
 20
259.0124638270948
 30
0.0
  0
VERTEX
  5
5F5
  8
0
  6
CONTINUOUS
 62
     9
 10
-1023.923446850072
 20
258.4275582458087
 30
0.0
  0
SEQEND
  5
99B
  8
0
  6
CONTINUOUS
 62
     9
  0
POLYLINE
  5
B1
  8
0
  6
CONTINUOUS
 62
     9
 66
     1
 10
0.0
 20
0.0
 30
0.0
  0
VERTEX
  5
5F6
  8
0
  6
CONTINUOUS
 62
     9
 10
-754.6234468500724
 20
191.5724417541914
 30
0.0
  0
VERTEX
  5
5F7
  8
0
  6
CONTINUOUS
 62
     9
 10
-754.5659240720756
 20
190.9875361729053
 30
0.0
  0
VERTEX
  5
5F8
  8
0
  6
CONTINUOUS
 62
     9
 10
-754.3955586282833
 20
190.4253452301213
 30
0.0
  0
VERTEX
  5
5F9
  8
0
  6
CONTINUOUS
 62
     9
 10
-754.1188748274875
 20
189.9073985695814
 30
0.0
  0
VERTEX
  5
5FA
  8
0
  6
CONTINUOUS
 62
     9
 10
-753.7464685423838
 20
189.4535314576163
 30
0.0
  0
VERTEX
  5
5FB
  8
0
  6
CONTINUOUS
 62
     9
 10
-753.2926014304186
 20
189.0811251725125
 30
0.0
  0
VERTEX
  5
5FC
  8
0
  6
CONTINUOUS
 62
     9
 10
-752.7746547698788
 20
188.8044413717168
 30
0.0
  0
VERTEX
  5
5FD
  8
0
  6
CONTINUOUS
 62
     9
 10
-752.2124638270948
 20
188.6340759279245
 30
0.0
  0
VERTEX
  5
5FE
  8
0
  6
CONTINUOUS
 62
     9
 10
-751.6275582458087
 20
188.5765531499277
 30
0.0
  0
SEQEND
  5
99C
  8
0
  6
CONTINUOUS
 62
     9
  0
LINE
  5
B2
  8
0
  6
CONTINUOUS
 62
     9
 10
-728.0724417541913
 20
188.5765531499277
 30
0.0
 11
-751.6275582458085
 21
188.5765531499277
 31
0.0
  0
POLYLINE
  5
B3
  8
0
  6
CONTINUOUS
 62
     9
 66
     1
 10
0.0
 20
0.0
 30
0.0
  0
VERTEX
  5
5FF
  8
0
  6
CONTINUOUS
 62
     9
 10
-728.0724417541913
 20
188.5765531499277
 30
0.0
  0
VERTEX
  5
600
  8
0
  6
CONTINUOUS
 62
     9
 10
-727.4875361729053
 20
188.6340759279245
 30
0.0
  0
VERTEX
  5
601
  8
0
  6
CONTINUOUS
 62
     9
 10
-726.9253452301213
 20
188.8044413717168
 30
0.0
  0
VERTEX
  5
602
  8
0
  6
CONTINUOUS
 62
     9
 10
-726.4073985695815
 20
189.0811251725125
 30
0.0
  0
VERTEX
  5
603
  8
0
  6
CONTINUOUS
 62
     9
 10
-725.9535314576162
 20
189.4535314576163
 30
0.0
  0
VERTEX
  5
604
  8
0
  6
CONTINUOUS
 62
     9
 10
-725.5811251725125
 20
189.9073985695814
 30
0.0
  0
VERTEX
  5
605
  8
0
  6
CONTINUOUS
 62
     9
 10
-725.3044413717167
 20
190.4253452301213
 30
0.0
  0
VERTEX
  5
606
  8
0
  6
CONTINUOUS
 62
     9
 10
-725.1340759279244
 20
190.9875361729053
 30
0.0
  0
VERTEX
  5
607
  8
0
  6
CONTINUOUS
 62
     9
 10
-725.0765531499277
 20
191.5724417541914
 30
0.0
  0
SEQEND
  5
99D
  8
0
  6
CONTINUOUS
 62
     9
  0
LINE
  5
B4
  8
0
  6
CONTINUOUS
 62
     9
 10
-725.0765531499277
 20
258.4275582458086
 30
0.0
 11
-725.0765531499277
 21
191.5724417541914
 31
0.0
  0
POLYLINE
  5
B5
  8
0
  6
CONTINUOUS
 62
     9
 66
     1
 10
0.0
 20
0.0
 30
0.0
  0
VERTEX
  5
608
  8
0
  6
CONTINUOUS
 62
     9
 10
-725.0765531499277
 20
258.4275582458086
 30
0.0
  0
VERTEX
  5
609
  8
0
  6
CONTINUOUS
 62
     9
 10
-725.1340759279244
 20
259.0124638270948
 30
0.0
  0
VERTEX
  5
60A
  8
0
  6
CONTINUOUS
 62
     9
 10
-725.3044413717167
 20
259.5746547698787
 30
0.0
  0
VERTEX
  5
60B
  8
0
  6
CONTINUOUS
 62
     9
 10
-725.5811251725125
 20
260.0926014304186
 30
0.0
  0
VERTEX
  5
60C
  8
0
  6
CONTINUOUS
 62
     9
 10
-725.9535314576162
 20
260.5464685423838
 30
0.0
  0
VERTEX
  5
60D
  8
0
  6
CONTINUOUS
 62
     9
 10
-726.4073985695815
 20
260.9188748274875
 30
0.0
  0
VERTEX
  5
60E
  8
0
  6
CONTINUOUS
 62
     9
 10
-726.9253452301213
 20
261.1955586282833
 30
0.0
  0
VERTEX
  5
60F
  8
0
  6
CONTINUOUS
 62
     9
 10
-727.4875361729053
 20
261.3659240720755
 30
0.0
  0
VERTEX
  5
610
  8
0
  6
CONTINUOUS
 62
     9
 10
-728.0724417541913
 20
261.4234468500724
 30
0.0
  0
SEQEND
  5
99E
  8
0
  6
CONTINUOUS
 62
     9
  0
LINE
  5
B6
  8
0
  6
CONTINUOUS
 62
     9
 10
-751.6275582458086
 20
261.4234468500724
 30
0.0
 11
-728.0724417541913
 21
261.4234468500724
 31
0.0
  0
POLYLINE
  5
B7
  8
0
  6
CONTINUOUS
 62
     9
 66
     1
 10
0.0
 20
0.0
 30
0.0
  0
VERTEX
  5
611
  8
0
  6
CONTINUOUS
 62
     9
 10
-751.6275582458087
 20
261.4234468500724
 30
0.0
  0
VERTEX
  5
612
  8
0
  6
CONTINUOUS
 62
     9
 10
-752.2124638270948
 20
261.3659240720755
 30
0.0
  0
VERTEX
  5
613
  8
0
  6
CONTINUOUS
 62
     9
 10
-752.7746547698788
 20
261.1955586282833
 30
0.0
  0
VERTEX
  5
614
  8
0
  6
CONTINUOUS
 62
     9
 10
-753.2926014304186
 20
260.9188748274875
 30
0.0
  0
VERTEX
  5
615
  8
0
  6
CONTINUOUS
 62
     9
 10
-753.7464685423838
 20
260.5464685423838
 30
0.0
  0
VERTEX
  5
616
  8
0
  6
CONTINUOUS
 62
     9
 10
-754.1188748274875
 20
260.0926014304186
 30
0.0
  0
VERTEX
  5
617
  8
0
  6
CONTINUOUS
 62
     9
 10
-754.3955586282833
 20
259.5746547698787
 30
0.0
  0
VERTEX
  5
618
  8
0
  6
CONTINUOUS
 62
     9
 10
-754.5659240720756
 20
259.0124638270948
 30
0.0
  0
VERTEX
  5
619
  8
0
  6
CONTINUOUS
 62
     9
 10
-754.6234468500724
 20
258.4275582458086
 30
0.0
  0
SEQEND
  5
99F
  8
0
  6
CONTINUOUS
 62
     9
  0
LINE
  5
B8
  8
0
  6
CONTINUOUS
 62
     9
 10
-754.6234468500724
 20
191.5724417541914
 30
0.0
 11
-754.6234468500724
 21
258.4275582458086
 31
0.0
  0
ARC
  5
B9
  8
0
  6
CONTINUOUS
 62
     9
 10
-757.4499999999999
 20
225.0
 30
0.0
 40
2.224156870921681
 50
270.0
 51
89.99999999999784
  0
LINE
  5
BA
  8
0
  6
CONTINUOUS
 62
     9
 10
-772.4499999999999
 20
227.2241568709217
 30
0.0
 11
-757.4499999999998
 21
227.2241568709217
 31
0.0
  0
ARC
  5
BB
  8
0
  6
CONTINUOUS
 62
     9
 10
-772.4499999999999
 20
225.0
 30
0.0
 40
2.224156870921681
 50
90.0
 51
270.0000000000058
  0
LINE
  5
BC
  8
0
  6
CONTINUOUS
 62
     9
 10
-757.4499999999999
 20
222.7758431290783
 30
0.0
 11
-772.4499999999997
 21
222.7758431290783
 31
0.0
  0
ARC
  5
BD
  8
0
  6
CONTINUOUS
 62
     9
 10
-847.55
 20
225.0
 30
0.0
 40
2.224156870921681
 50
90.00000000000216
 51
270.0
  0
LINE
  5
BE
  8
0
  6
CONTINUOUS
 62
     9
 10
-832.5500000000002
 20
222.7758431290783
 30
0.0
 11
-847.55
 21
222.7758431290783
 31
0.0
  0
ARC
  5
BF
  8
0
  6
CONTINUOUS
 62
     9
 10
-832.55
 20
225.0
 30
0.0
 40
2.224156870921681
 50
269.9999999999942
 51
90.0
  0
LINE
  5
C0
  8
0
  6
CONTINUOUS
 62
     9
 10
-847.55
 20
227.2241568709217
 30
0.0
 11
-832.5499999999998
 21
227.2241568709217
 31
0.0
  0
LINE
  5
C1
  8
0
  6
CONTINUOUS
 62
     7
 10
-903.0
 20
210.0
 30
0.0
 11
-888.0
 21
210.0
 31
0.0
  0
LINE
  5
C2
  8
0
  6
CONTINUOUS
 62
     7
 10
-903.0
 20
190.0
 30
0.0
 11
-903.0
 21
210.0
 31
0.0
  0
LINE
  5
C3
  8
0
  6
CONTINUOUS
 62
     7
 10
-888.0
 20
190.0
 30
0.0
 11
-903.0
 21
190.0
 31
0.0
  0
LINE
  5
C4
  8
0
  6
CONTINUOUS
 62
     7
 10
-888.0
 20
210.0
 30
0.0
 11
-888.0
 21
190.0
 31
0.0
  0
LINE
  5
C5
  8
0
  6
CONTINUOUS
 62
     7
 10
-567.5000000000001
 20
201.0
 30
0.0
 11
-527.5000000000001
 21
201.0
 31
0.0
  0
LINE
  5
C6
  8
0
  6
CONTINUOUS
 62
     7
 10
-527.5000000000001
 20
201.0
 30
0.0
 11
-527.5000000000001
 21
209.0
 31
0.0
  0
LINE
  5
C7
  8
0
  6
CONTINUOUS
 62
     7
 10
-527.5000000000001
 20
209.0
 30
0.0
 11
-567.5000000000001
 21
209.0
 31
0.0
  0
LINE
  5
C8
  8
0
  6
CONTINUOUS
 62
     7
 10
-567.5000000000001
 20
209.0
 30
0.0
 11
-567.5000000000001
 21
201.0
 31
0.0
  0
ARC
  5
C9
  8
0
  6
CONTINUOUS
 62
     7
 10
-478.9488837663872
 20
166.4488837663872
 30
0.0
 40
1.501223295846845
 50
270.1250099969203
 51
359.8749900030873
  0
LINE
  5
CA
  8
0
  6
CONTINUOUS
 62
     9
 10
-828.2255025479404
 20
258.4275582458086
 30
0.0
 11
-828.2255025479404
 21
191.5724417541914
 31
0.0
  0
LINE
  5
CB
  8
0
  6
CONTINUOUS
 62
     9
 10
-828.2255025479404
 20
191.5724417541914
 30
0.0
 11
-829.7234468500724
 21
191.5724417541914
 31
0.0
  0
LINE
  5
CC
  8
0
  6
CONTINUOUS
 62
     9
 10
-828.2255025479404
 20
258.4275582458086
 30
0.0
 11
-829.7234468500724
 21
258.4275582458086
 31
0.0
  0
POLYLINE
  5
CD
  8
0
  6
CONTINUOUS
 62
     9
 66
     1
 10
0.0
 20
0.0
 30
0.0
  0
VERTEX
  5
61A
  8
0
  6
CONTINUOUS
 62
     9
 10
-828.2255025479406
 20
191.5724417541914
 30
0.0
  0
VERTEX
  5
61B
  8
0
  6
CONTINUOUS
 62
     9
 10
-828.19746145057
 20
191.2792686719204
 30
0.0
  0
VERTEX
  5
61C
  8
0
  6
CONTINUOUS
 62
     9
 10
-828.1128138781418
 20
190.9976380510606
 30
0.0
  0
VERTEX
  5
61D
  8
0
  6
CONTINUOUS
 62
     9
 10
-827.9748014909873
 20
190.7383352075473
 30
0.0
  0
VERTEX
  5
61E
  8
0
  6
CONTINUOUS
 62
     9
 10
-827.7887096064271
 20
190.511290393573
 30
0.0
  0
VERTEX
  5
61F
  8
0
  6
CONTINUOUS
 62
     9
 10
-827.5616647924528
 20
190.3251985090129
 30
0.0
  0
VERTEX
  5
620
  8
0
  6
CONTINUOUS
 62
     9
 10
-827.3023619489395
 20
190.1871861218583
 30
0.0
  0
VERTEX
  5
621
  8
0
  6
CONTINUOUS
 62
     9
 10
-827.0207313280796
 20
190.10253854943
 30
0.0
  0
VERTEX
  5
622
  8
0
  6
CONTINUOUS
 62
     9
 10
-826.7275582458087
 20
190.0744974520595
 30
0.0
  0
SEQEND
  5
9A0
  8
0
  6
CONTINUOUS
 62
     9
  0
LINE
  5
CE
  8
0
  6
CONTINUOUS
 62
     9
 10
-826.7275582458086
 20
190.0744974520595
 30
0.0
 11
-826.7275582458086
 21
188.5765531499277
 31
0.0
  0
LINE
  5
CF
  8
0
  6
CONTINUOUS
 62
     9
 10
-773.6372497729731
 20
241.0
 30
0.0
 11
-773.6372497729731
 21
239.5
 31
0.0
  0
LINE
  5
D0
  8
0
  6
CONTINUOUS
 62
     9
 10
-773.6372497729731
 20
242.5000000000001
 30
0.0
 11
-773.6372497729731
 21
241.0
 31
0.0
  0
ARC
  5
D1
  8
0
  6
CONTINUOUS
 62
     7
 10
-769.15
 20
239.5
 30
0.0
 40
4.487249772973063
 50
180.0
 51
270.0000000000015
  0
LINE
  5
D2
  8
0
  6
CONTINUOUS
 62
     9
 10
-912.5744974520595
 20
191.5724417541914
 30
0.0
 11
-912.5744974520595
 21
258.4275582458086
 31
0.0
  0
LINE
  5
D3
  8
0
  6
CONTINUOUS
 62
     9
 10
-912.5744974520595
 20
258.4275582458086
 30
0.0
 11
-911.0765531499276
 21
258.4275582458086
 31
0.0
  0
LINE
  5
D4
  8
0
  6
CONTINUOUS
 62
     9
 10
-912.5744974520595
 20
191.5724417541914
 30
0.0
 11
-911.0765531499276
 21
191.5724417541914
 31
0.0
  0
POLYLINE
  5
D5
  8
0
  6
CONTINUOUS
 62
     9
 66
     1
 10
0.0
 20
0.0
 30
0.0
  0
VERTEX
  5
623
  8
0
  6
CONTINUOUS
 62
     9
 10
-878.4255025479405
 20
191.5724417541914
 30
0.0
  0
VERTEX
  5
624
  8
0
  6
CONTINUOUS
 62
     9
 10
-878.39746145057
 20
191.2792686719204
 30
0.0
  0
VERTEX
  5
625
  8
0
  6
CONTINUOUS
 62
     9
 10
-878.3128138781416
 20
190.9976380510606
 30
0.0
  0
VERTEX
  5
626
  8
0
  6
CONTINUOUS
 62
     9
 10
-878.1748014909871
 20
190.7383352075474
 30
0.0
  0
VERTEX
  5
627
  8
0
  6
CONTINUOUS
 62
     9
 10
-877.988709606427
 20
190.511290393573
 30
0.0
  0
VERTEX
  5
628
  8
0
  6
CONTINUOUS
 62
     9
 10
-877.7616647924527
 20
190.3251985090129
 30
0.0
  0
VERTEX
  5
629
  8
0
  6
CONTINUOUS
 62
     9
 10
-877.5023619489394
 20
190.1871861218584
 30
0.0
  0
VERTEX
  5
62A
  8
0
  6
CONTINUOUS
 62
     9
 10
-877.2207313280795
 20
190.1025385494301
 30
0.0
  0
VERTEX
  5
62B
  8
0
  6
CONTINUOUS
 62
     9
 10
-876.9275582458087
 20
190.0744974520596
 30
0.0
  0
SEQEND
  5
9A1
  8
0
  6
CONTINUOUS
 62
     9
  0
LINE
  5
D6
  8
0
  6
CONTINUOUS
 62
     9
 10
-876.9275582458085
 20
190.0744974520595
 30
0.0
 11
-876.9275582458085
 21
188.5765531499277
 31
0.0
  0
LINE
  5
D7
  8
0
  6
CONTINUOUS
 62
     9
 10
-878.4255025479405
 20
191.5724417541914
 30
0.0
 11
-879.9234468500724
 21
191.5724417541914
 31
0.0
  0
LINE
  5
D8
  8
0
  6
CONTINUOUS
 62
     9
 10
-878.4255025479405
 20
258.4275582458086
 30
0.0
 11
-878.4255025479405
 21
191.5724417541914
 31
0.0
  0
LINE
  5
D9
  8
0
  6
CONTINUOUS
 62
     9
 10
-878.4255025479405
 20
258.4275582458086
 30
0.0
 11
-879.9234468500724
 21
258.4275582458086
 31
0.0
  0
LINE
  5
DA
  8
0
  6
CONTINUOUS
 62
     9
 10
-693.9234468500722
 20
191.5724417541914
 30
0.0
 11
-692.4255025479404
 21
191.5724417541914
 31
0.0
  0
POLYLINE
  5
DB
  8
0
  6
CONTINUOUS
 62
     9
 66
     1
 10
0.0
 20
0.0
 30
0.0
  0
VERTEX
  5
62C
  8
0
  6
CONTINUOUS
 62
     9
 10
-692.4255025479404
 20
191.5724417541914
 30
0.0
  0
VERTEX
  5
62D
  8
0
  6
CONTINUOUS
 62
     9
 10
-692.3974614505698
 20
191.2792686719204
 30
0.0
  0
VERTEX
  5
62E
  8
0
  6
CONTINUOUS
 62
     9
 10
-692.3128138781415
 20
190.9976380510606
 30
0.0
  0
VERTEX
  5
62F
  8
0
  6
CONTINUOUS
 62
     9
 10
-692.174801490987
 20
190.7383352075474
 30
0.0
  0
VERTEX
  5
630
  8
0
  6
CONTINUOUS
 62
     9
 10
-691.9887096064269
 20
190.511290393573
 30
0.0
  0
VERTEX
  5
631
  8
0
  6
CONTINUOUS
 62
     9
 10
-691.7616647924525
 20
190.3251985090129
 30
0.0
  0
VERTEX
  5
632
  8
0
  6
CONTINUOUS
 62
     9
 10
-691.5023619489392
 20
190.1871861218584
 30
0.0
  0
VERTEX
  5
633
  8
0
  6
CONTINUOUS
 62
     9
 10
-691.2207313280794
 20
190.1025385494301
 30
0.0
  0
VERTEX
  5
634
  8
0
  6
CONTINUOUS
 62
     9
 10
-690.9275582458085
 20
190.0744974520596
 30
0.0
  0
SEQEND
  5
9A2
  8
0
  6
CONTINUOUS
 62
     9
  0
LINE
  5
DC
  8
0
  6
CONTINUOUS
 62
     9
 10
-690.9275582458085
 20
188.5765531499277
 30
0.0
 11
-690.9275582458085
 21
190.0744974520596
 31
0.0
  0
LINE
  5
DD
  8
0
  6
CONTINUOUS
 62
     9
 10
-693.9234468500722
 20
258.4275582458086
 30
0.0
 11
-692.4255025479404
 21
258.4275582458086
 31
0.0
  0
LINE
  5
DE
  8
0
  6
CONTINUOUS
 62
     9
 10
-692.4255025479405
 20
258.4275582458086
 30
0.0
 11
-692.4255025479405
 21
191.5724417541914
 31
0.0
  0
POLYLINE
  5
DF
  8
0
  6
CONTINUOUS
 62
     9
 66
     1
 10
0.0
 20
0.0
 30
0.0
  0
VERTEX
  5
635
  8
0
  6
CONTINUOUS
 62
     9
 10
-912.5744974520595
 20
258.4275582458087
 30
0.0
  0
VERTEX
  5
636
  8
0
  6
CONTINUOUS
 62
     9
 10
-912.60253854943
 20
258.7207313280796
 30
0.0
  0
VERTEX
  5
637
  8
0
  6
CONTINUOUS
 62
     9
 10
-912.6871861218584
 20
259.0023619489394
 30
0.0
  0
VERTEX
  5
638
  8
0
  6
CONTINUOUS
 62
     9
 10
-912.8251985090129
 20
259.2616647924527
 30
0.0
  0
VERTEX
  5
639
  8
0
  6
CONTINUOUS
 62
     9
 10
-913.011290393573
 20
259.4887096064271
 30
0.0
  0
VERTEX
  5
63A
  8
0
  6
CONTINUOUS
 62
     9
 10
-913.2383352075474
 20
259.6748014909872
 30
0.0
  0
VERTEX
  5
63B
  8
0
  6
CONTINUOUS
 62
     9
 10
-913.4976380510607
 20
259.8128138781417
 30
0.0
  0
VERTEX
  5
63C
  8
0
  6
CONTINUOUS
 62
     9
 10
-913.7792686719205
 20
259.89746145057
 30
0.0
  0
VERTEX
  5
63D
  8
0
  6
CONTINUOUS
 62
     9
 10
-914.0724417541913
 20
259.9255025479405
 30
0.0
  0
SEQEND
  5
9A3
  8
0
  6
CONTINUOUS
 62
     9
  0
LINE
  5
E0
  8
0
  6
CONTINUOUS
 62
     9
 10
-914.0724417541915
 20
259.9255025479405
 30
0.0
 11
-914.0724417541915
 21
261.4234468500724
 31
0.0
  0
CIRCLE
  5
E1
  8
0
  6
CONTINUOUS
 62
     9
 10
-507.5000000000001
 20
257.5
 30
0.0
 40
4.487249772973045
  0
POLYLINE
  5
E2
  8
0
  6
CONTINUOUS
 62
     9
 66
     1
 10
0.0
 20
0.0
 30
0.0
  0
VERTEX
  5
63E
  8
0
  6
CONTINUOUS
 62
     9
 10
-582.5744974520594
 20
258.4275582458087
 30
0.0
  0
VERTEX
  5
63F
  8
0
  6
CONTINUOUS
 62
     9
 10
-582.6025385494299
 20
258.7207313280796
 30
0.0
  0
VERTEX
  5
640
  8
0
  6
CONTINUOUS
 62
     9
 10
-582.6871861218583
 20
259.0023619489394
 30
0.0
  0
VERTEX
  5
641
  8
0
  6
CONTINUOUS
 62
     9
 10
-582.8251985090128
 20
259.2616647924527
 30
0.0
  0
VERTEX
  5
642
  8
0
  6
CONTINUOUS
 62
     9
 10
-583.0112903935728
 20
259.4887096064271
 30
0.0
  0
VERTEX
  5
643
  8
0
  6
CONTINUOUS
 62
     9
 10
-583.2383352075473
 20
259.6748014909872
 30
0.0
  0
VERTEX
  5
644
  8
0
  6
CONTINUOUS
 62
     9
 10
-583.4976380510606
 20
259.8128138781417
 30
0.0
  0
VERTEX
  5
645
  8
0
  6
CONTINUOUS
 62
     9
 10
-583.7792686719204
 20
259.89746145057
 30
0.0
  0
VERTEX
  5
646
  8
0
  6
CONTINUOUS
 62
     9
 10
-584.0724417541912
 20
259.9255025479405
 30
0.0
  0
SEQEND
  5
9A4
  8
0
  6
CONTINUOUS
 62
     9
  0
LINE
  5
E3
  8
0
  6
CONTINUOUS
 62
     9
 10
-584.0724417541912
 20
259.9255025479405
 30
0.0
 11
-584.0724417541912
 21
261.4234468500724
 31
0.0
  0
LINE
  5
E4
  8
0
  6
CONTINUOUS
 62
     9
 10
-582.5744974520594
 20
258.4275582458087
 30
0.0
 11
-581.0765531499276
 21
258.4275582458087
 31
0.0
  0
CIRCLE
  5
E5
  8
0
  6
CONTINUOUS
 62
     9
 10
-1097.5
 20
257.5
 30
0.0
 40
4.487249772973045
  0
CIRCLE
  5
E6
  8
0
  6
CONTINUOUS
 62
     9
 10
-1097.5
 20
192.5
 30
0.0
 40
4.487249772973045
  0
LINE
  5
E7
  8
0
  6
CONTINUOUS
 62
     9
 10
-1020.927558245809
 20
259.9255025479405
 30
0.0
 11
-1020.927558245809
 21
261.4234468500724
 31
0.0
  0
POLYLINE
  5
E8
  8
0
  6
CONTINUOUS
 62
     9
 66
     1
 10
0.0
 20
0.0
 30
0.0
  0
VERTEX
  5
647
  8
0
  6
CONTINUOUS
 62
     9
 10
-1020.927558245809
 20
259.9255025479405
 30
0.0
  0
VERTEX
  5
648
  8
0
  6
CONTINUOUS
 62
     9
 10
-1021.22073132808
 20
259.8974614505699
 30
0.0
  0
VERTEX
  5
649
  8
0
  6
CONTINUOUS
 62
     9
 10
-1021.502361948939
 20
259.8128138781416
 30
0.0
  0
VERTEX
  5
64A
  8
0
  6
CONTINUOUS
 62
     9
 10
-1021.761664792453
 20
259.6748014909871
 30
0.0
  0
VERTEX
  5
64B
  8
0
  6
CONTINUOUS
 62
     9
 10
-1021.988709606427
 20
259.488709606427
 30
0.0
  0
VERTEX
  5
64C
  8
0
  6
CONTINUOUS
 62
     9
 10
-1022.174801490987
 20
259.2616647924527
 30
0.0
  0
VERTEX
  5
64D
  8
0
  6
CONTINUOUS
 62
     9
 10
-1022.312813878142
 20
259.0023619489394
 30
0.0
  0
VERTEX
  5
64E
  8
0
  6
CONTINUOUS
 62
     9
 10
-1022.39746145057
 20
258.7207313280796
 30
0.0
  0
VERTEX
  5
64F
  8
0
  6
CONTINUOUS
 62
     9
 10
-1022.425502547941
 20
258.4275582458086
 30
0.0
  0
SEQEND
  5
9A5
  8
0
  6
CONTINUOUS
 62
     9
  0
LINE
  5
E9
  8
0
  6
CONTINUOUS
 62
     9
 10
-1023.923446850072
 20
258.4275582458086
 30
0.0
 11
-1022.42550254794
 21
258.4275582458086
 31
0.0
  0
LINE
  5
EA
  8
0
  6
CONTINUOUS
 62
     9
 10
-584.0724417541913
 20
188.5765531499277
 30
0.0
 11
-584.0724417541913
 21
190.0744974520596
 31
0.0
  0
POLYLINE
  5
EB
  8
0
  6
CONTINUOUS
 62
     9
 66
     1
 10
0.0
 20
0.0
 30
0.0
  0
VERTEX
  5
650
  8
0
  6
CONTINUOUS
 62
     9
 10
-584.0724417541912
 20
190.0744974520595
 30
0.0
  0
VERTEX
  5
651
  8
0
  6
CONTINUOUS
 62
     9
 10
-583.7792686719204
 20
190.1025385494301
 30
0.0
  0
VERTEX
  5
652
  8
0
  6
CONTINUOUS
 62
     9
 10
-583.4976380510606
 20
190.1871861218584
 30
0.0
  0
VERTEX
  5
653
  8
0
  6
CONTINUOUS
 62
     9
 10
-583.2383352075472
 20
190.3251985090129
 30
0.0
  0
VERTEX
  5
654
  8
0
  6
CONTINUOUS
 62
     9
 10
-583.0112903935728
 20
190.511290393573
 30
0.0
  0
VERTEX
  5
655
  8
0
  6
CONTINUOUS
 62
     9
 10
-582.8251985090128
 20
190.7383352075474
 30
0.0
  0
VERTEX
  5
656
  8
0
  6
CONTINUOUS
 62
     9
 10
-582.6871861218583
 20
190.9976380510606
 30
0.0
  0
VERTEX
  5
657
  8
0
  6
CONTINUOUS
 62
     9
 10
-582.6025385494299
 20
191.2792686719204
 30
0.0
  0
VERTEX
  5
658
  8
0
  6
CONTINUOUS
 62
     9
 10
-582.5744974520594
 20
191.5724417541914
 30
0.0
  0
SEQEND
  5
9A6
  8
0
  6
CONTINUOUS
 62
     9
  0
LINE
  5
EC
  8
0
  6
CONTINUOUS
 62
     9
 10
-582.5744974520594
 20
191.5724417541914
 30
0.0
 11
-581.0765531499276
 21
191.5724417541914
 31
0.0
  0
LINE
  5
ED
  8
0
  6
CONTINUOUS
 62
     9
 10
-847.55
 20
223.7755004540539
 30
0.0
 11
-832.5500000000001
 21
223.7755004540539
 31
0.0
  0
LINE
  5
EE
  8
0
  6
CONTINUOUS
 62
     9
 10
-832.5500000000001
 20
223.7755004540539
 30
0.0
 11
-832.5500000000001
 21
222.7758431290783
 31
0.0
  0
LINE
  5
EF
  8
0
  6
CONTINUOUS
 62
     9
 10
-847.55
 20
223.7755004540539
 30
0.0
 11
-847.55
 21
222.7758431290783
 31
0.0
  0
LINE
  5
F0
  8
0
  6
CONTINUOUS
 62
     9
 10
-582.5744974520594
 20
191.5724417541914
 30
0.0
 11
-582.5744974520594
 21
258.4275582458087
 31
0.0
  0
LINE
  5
F1
  8
0
  6
CONTINUOUS
 62
     9
 10
-760.7499999999998
 20
246.9872497729731
 30
0.0
 11
-769.15
 21
246.9872497729731
 31
0.0
  0
LINE
  5
F2
  8
0
  6
CONTINUOUS
 62
     9
 10
-690.9275582458085
 20
190.0744974520596
 30
0.0
 11
-584.0724417541913
 21
190.0744974520596
 31
0.0
  0
LINE
  5
F3
  8
0
  6
CONTINUOUS
 62
     9
 10
-772.4499999999999
 20
226.2244995459461
 30
0.0
 11
-772.4499999999999
 21
227.2241568709217
 31
0.0
  0
ARC
  5
F4
  8
0
  6
CONTINUOUS
 62
     9
 10
-772.4499999999999
 20
225.0
 30
0.0
 40
1.224499545946124
 50
90.0
 51
270.0000000000059
  0
LINE
  5
F5
  8
0
  6
CONTINUOUS
 62
     9
 10
-772.4499999999997
 20
222.7758431290783
 30
0.0
 11
-772.4499999999998
 21
223.7755004540539
 31
0.0
  0
CIRCLE
  5
F6
  8
0
  6
CONTINUOUS
 62
     9
 10
-507.5000000000001
 20
192.5
 30
0.0
 40
4.487249772973045
  0
LINE
  5
F7
  8
0
  6
CONTINUOUS
 62
     9
 10
-756.2627502270269
 20
239.5
 30
0.0
 11
-756.2627502270269
 21
241.0
 31
0.0
  0
ARC
  5
F8
  8
0
  6
CONTINUOUS
 62
     7
 10
-760.75
 20
239.5
 30
0.0
 40
4.487249772973063
 50
269.9999999999999
 51
0.0000000000003411
  0
LINE
  5
F9
  8
0
  6
CONTINUOUS
 62
     9
 10
-832.55
 20
227.2241568709217
 30
0.0
 11
-832.55
 21
226.2244995459461
 31
0.0
  0
LINE
  5
FA
  8
0
  6
CONTINUOUS
 62
     9
 10
-832.55
 20
226.2244995459461
 30
0.0
 11
-847.5500000000001
 21
226.2244995459461
 31
0.0
  0
LINE
  5
FB
  8
0
  6
CONTINUOUS
 62
     9
 10
-847.55
 20
227.2241568709217
 30
0.0
 11
-847.55
 21
226.2244995459461
 31
0.0
  0
LINE
  5
FC
  8
0
  6
CONTINUOUS
 62
     9
 10
-769.1499999999999
 20
235.0127502270269
 30
0.0
 11
-760.75
 21
235.0127502270269
 31
0.0
  0
LINE
  5
FD
  8
0
  6
CONTINUOUS
 62
     9
 10
-756.2627502270269
 20
241.0
 30
0.0
 11
-756.2627502270269
 21
242.5
 31
0.0
  0
LINE
  5
FE
  8
0
  6
CONTINUOUS
 62
     9
 10
-757.4499999999999
 20
226.2244995459461
 30
0.0
 11
-772.45
 21
226.2244995459461
 31
0.0
  0
LINE
  5
FF
  8
0
  6
CONTINUOUS
 62
     9
 10
-757.4499999999999
 20
226.2244995459461
 30
0.0
 11
-757.4499999999998
 21
227.2241568709217
 31
0.0
  0
LINE
  5
100
  8
0
  6
CONTINUOUS
 62
     9
 10
-728.0724417541913
 20
261.4234468500724
 30
0.0
 11
-728.0724417541913
 21
259.9255025479405
 31
0.0
  0
LINE
  5
101
  8
0
  6
CONTINUOUS
 62
     9
 10
-728.0724417541913
 20
259.9255025479404
 30
0.0
 11
-751.6275582458086
 21
259.9255025479404
 31
0.0
  0
LINE
  5
102
  8
0
  6
CONTINUOUS
 62
     9
 10
-751.6275582458086
 20
261.4234468500724
 30
0.0
 11
-751.6275582458086
 21
259.9255025479405
 31
0.0
  0
LINE
  5
103
  8
0
  6
CONTINUOUS
 62
     9
 10
-728.0724417541913
 20
188.5765531499277
 30
0.0
 11
-728.0724417541913
 21
190.0744974520596
 31
0.0
  0
LINE
  5
104
  8
0
  6
CONTINUOUS
 62
     9
 10
-751.6275582458086
 20
190.0744974520595
 30
0.0
 11
-751.6275582458086
 21
188.5765531499277
 31
0.0
  0
LINE
  5
105
  8
0
  6
CONTINUOUS
 62
     9
 10
-751.6275582458086
 20
190.0744974520595
 30
0.0
 11
-728.0724417541913
 21
190.0744974520595
 31
0.0
  0
POLYLINE
  5
106
  8
0
  6
CONTINUOUS
 62
     9
 66
     1
 10
0.0
 20
0.0
 30
0.0
  0
VERTEX
  5
659
  8
0
  6
CONTINUOUS
 62
     9
 10
-751.6275582458087
 20
259.9255025479404
 30
0.0
  0
VERTEX
  5
65A
  8
0
  6
CONTINUOUS
 62
     9
 10
-751.9207313280796
 20
259.8974614505699
 30
0.0
  0
VERTEX
  5
65B
  8
0
  6
CONTINUOUS
 62
     9
 10
-752.2023619489394
 20
259.8128138781416
 30
0.0
  0
VERTEX
  5
65C
  8
0
  6
CONTINUOUS
 62
     9
 10
-752.4616647924527
 20
259.6748014909871
 30
0.0
  0
VERTEX
  5
65D
  8
0
  6
CONTINUOUS
 62
     9
 10
-752.6887096064271
 20
259.488709606427
 30
0.0
  0
VERTEX
  5
65E
  8
0
  6
CONTINUOUS
 62
     9
 10
-752.8748014909871
 20
259.2616647924527
 30
0.0
  0
VERTEX
  5
65F
  8
0
  6
CONTINUOUS
 62
     9
 10
-753.0128138781416
 20
259.0023619489394
 30
0.0
  0
VERTEX
  5
660
  8
0
  6
CONTINUOUS
 62
     9
 10
-753.09746145057
 20
258.7207313280796
 30
0.0
  0
VERTEX
  5
661
  8
0
  6
CONTINUOUS
 62
     9
 10
-753.1255025479405
 20
258.4275582458086
 30
0.0
  0
SEQEND
  5
9A7
  8
0
  6
CONTINUOUS
 62
     9
  0
LINE
  5
107
  8
0
  6
CONTINUOUS
 62
     9
 10
-754.6234468500724
 20
258.4275582458086
 30
0.0
 11
-753.1255025479404
 21
258.4275582458086
 31
0.0
  0
ARC
  5
108
  8
0
  6
CONTINUOUS
 62
     7
 10
-760.75
 20
242.5
 30
0.0
 40
4.487249772973066
 50
0.0
 51
89.99999999999824
  0
POLYLINE
  5
109
  8
0
  6
CONTINUOUS
 62
     9
 66
     1
 10
0.0
 20
0.0
 30
0.0
  0
VERTEX
  5
662
  8
0
  6
CONTINUOUS
 62
     9
 10
-876.9275582458087
 20
259.9255025479404
 30
0.0
  0
VERTEX
  5
663
  8
0
  6
CONTINUOUS
 62
     9
 10
-877.2207313280795
 20
259.8974614505699
 30
0.0
  0
VERTEX
  5
664
  8
0
  6
CONTINUOUS
 62
     9
 10
-877.5023619489393
 20
259.8128138781416
 30
0.0
  0
VERTEX
  5
665
  8
0
  6
CONTINUOUS
 62
     9
 10
-877.7616647924527
 20
259.6748014909871
 30
0.0
  0
VERTEX
  5
666
  8
0
  6
CONTINUOUS
 62
     9
 10
-877.988709606427
 20
259.488709606427
 30
0.0
  0
VERTEX
  5
667
  8
0
  6
CONTINUOUS
 62
     9
 10
-878.1748014909871
 20
259.2616647924527
 30
0.0
  0
VERTEX
  5
668
  8
0
  6
CONTINUOUS
 62
     9
 10
-878.3128138781416
 20
259.0023619489394
 30
0.0
  0
VERTEX
  5
669
  8
0
  6
CONTINUOUS
 62
     9
 10
-878.39746145057
 20
258.7207313280796
 30
0.0
  0
VERTEX
  5
66A
  8
0
  6
CONTINUOUS
 62
     9
 10
-878.4255025479405
 20
258.4275582458086
 30
0.0
  0
SEQEND
  5
9A8
  8
0
  6
CONTINUOUS
 62
     9
  0
LINE
  5
10A
  8
0
  6
CONTINUOUS
 62
     9
 10
-876.9275582458085
 20
259.9255025479404
 30
0.0
 11
-876.9275582458085
 21
261.4234468500723
 31
0.0
  0
LINE
  5
10B
  8
0
  6
CONTINUOUS
 62
     9
 10
-725.0765531499277
 20
258.4275582458086
 30
0.0
 11
-726.5744974520596
 21
258.4275582458086
 31
0.0
  0
POLYLINE
  5
10C
  8
0
  6
CONTINUOUS
 62
     9
 66
     1
 10
0.0
 20
0.0
 30
0.0
  0
VERTEX
  5
66B
  8
0
  6
CONTINUOUS
 62
     9
 10
-726.5744974520595
 20
258.4275582458086
 30
0.0
  0
VERTEX
  5
66C
  8
0
  6
CONTINUOUS
 62
     9
 10
-726.60253854943
 20
258.7207313280796
 30
0.0
  0
VERTEX
  5
66D
  8
0
  6
CONTINUOUS
 62
     9
 10
-726.6871861218584
 20
259.0023619489394
 30
0.0
  0
VERTEX
  5
66E
  8
0
  6
CONTINUOUS
 62
     9
 10
-726.8251985090129
 20
259.2616647924527
 30
0.0
  0
VERTEX
  5
66F
  8
0
  6
CONTINUOUS
 62
     9
 10
-727.011290393573
 20
259.488709606427
 30
0.0
  0
VERTEX
  5
670
  8
0
  6
CONTINUOUS
 62
     9
 10
-727.2383352075473
 20
259.6748014909871
 30
0.0
  0
VERTEX
  5
671
  8
0
  6
CONTINUOUS
 62
     9
 10
-727.4976380510607
 20
259.8128138781416
 30
0.0
  0
VERTEX
  5
672
  8
0
  6
CONTINUOUS
 62
     9
 10
-727.7792686719205
 20
259.89746145057
 30
0.0
  0
VERTEX
  5
673
  8
0
  6
CONTINUOUS
 62
     9
 10
-728.0724417541913
 20
259.9255025479404
 30
0.0
  0
SEQEND
  5
9A9
  8
0
  6
CONTINUOUS
 62
     9
  0
ARC
  5
10D
  8
0
  6
CONTINUOUS
 62
     7
 10
-769.15
 20
242.5
 30
0.0
 40
4.487249772973063
 50
89.99999999999991
 51
179.9999999999996
  0
LINE
  5
10E
  8
0
  6
CONTINUOUS
 62
     9
 10
-850.3765531499278
 20
258.4275582458086
 30
0.0
 11
-851.8744974520596
 21
258.4275582458086
 31
0.0
  0
POLYLINE
  5
10F
  8
0
  6
CONTINUOUS
 62
     9
 66
     1
 10
0.0
 20
0.0
 30
0.0
  0
VERTEX
  5
674
  8
0
  6
CONTINUOUS
 62
     9
 10
-851.8744974520595
 20
258.4275582458086
 30
0.0
  0
VERTEX
  5
675
  8
0
  6
CONTINUOUS
 62
     9
 10
-851.90253854943
 20
258.7207313280796
 30
0.0
  0
VERTEX
  5
676
  8
0
  6
CONTINUOUS
 62
     9
 10
-851.9871861218583
 20
259.0023619489394
 30
0.0
  0
VERTEX
  5
677
  8
0
  6
CONTINUOUS
 62
     9
 10
-852.1251985090129
 20
259.2616647924527
 30
0.0
  0
VERTEX
  5
678
  8
0
  6
CONTINUOUS
 62
     9
 10
-852.3112903935729
 20
259.488709606427
 30
0.0
  0
VERTEX
  5
679
  8
0
  6
CONTINUOUS
 62
     9
 10
-852.5383352075472
 20
259.6748014909871
 30
0.0
  0
VERTEX
  5
67A
  8
0
  6
CONTINUOUS
 62
     9
 10
-852.7976380510605
 20
259.8128138781416
 30
0.0
  0
VERTEX
  5
67B
  8
0
  6
CONTINUOUS
 62
     9
 10
-853.0792686719204
 20
259.89746145057
 30
0.0
  0
VERTEX
  5
67C
  8
0
  6
CONTINUOUS
 62
     9
 10
-853.3724417541913
 20
259.9255025479404
 30
0.0
  0
SEQEND
  5
9AA
  8
0
  6
CONTINUOUS
 62
     9
  0
LINE
  5
110
  8
0
  6
CONTINUOUS
 62
     9
 10
-853.3724417541914
 20
259.9255025479404
 30
0.0
 11
-853.3724417541914
 21
261.4234468500723
 31
0.0
  0
LINE
  5
111
  8
0
  6
CONTINUOUS
 62
     9
 10
-584.0724417541912
 20
259.9255025479405
 30
0.0
 11
-690.9275582458085
 21
259.9255025479405
 31
0.0
  0
LINE
  5
112
  8
0
  6
CONTINUOUS
 62
     9
 10
-690.9275582458085
 20
259.9255025479405
 30
0.0
 11
-690.9275582458085
 21
261.4234468500724
 31
0.0
  0
POLYLINE
  5
113
  8
0
  6
CONTINUOUS
 62
     9
 66
     1
 10
0.0
 20
0.0
 30
0.0
  0
VERTEX
  5
67D
  8
0
  6
CONTINUOUS
 62
     9
 10
-690.9275582458085
 20
259.9255025479404
 30
0.0
  0
VERTEX
  5
67E
  8
0
  6
CONTINUOUS
 62
     9
 10
-691.2207313280794
 20
259.8974614505699
 30
0.0
  0
VERTEX
  5
67F
  8
0
  6
CONTINUOUS
 62
     9
 10
-691.5023619489392
 20
259.8128138781416
 30
0.0
  0
VERTEX
  5
680
  8
0
  6
CONTINUOUS
 62
     9
 10
-691.7616647924526
 20
259.6748014909871
 30
0.0
  0
VERTEX
  5
681
  8
0
  6
CONTINUOUS
 62
     9
 10
-691.9887096064269
 20
259.488709606427
 30
0.0
  0
VERTEX
  5
682
  8
0
  6
CONTINUOUS
 62
     9
 10
-692.174801490987
 20
259.2616647924527
 30
0.0
  0
VERTEX
  5
683
  8
0
  6
CONTINUOUS
 62
     9
 10
-692.3128138781415
 20
259.0023619489394
 30
0.0
  0
VERTEX
  5
684
  8
0
  6
CONTINUOUS
 62
     9
 10
-692.3974614505698
 20
258.7207313280796
 30
0.0
  0
VERTEX
  5
685
  8
0
  6
CONTINUOUS
 62
     9
 10
-692.4255025479404
 20
258.4275582458086
 30
0.0
  0
SEQEND
  5
9AB
  8
0
  6
CONTINUOUS
 62
     9
  0
LINE
  5
114
  8
0
  6
CONTINUOUS
 62
     9
 10
-851.8744974520596
 20
191.5724417541914
 30
0.0
 11
-851.8744974520596
 21
258.4275582458086
 31
0.0
  0
LINE
  5
115
  8
0
  6
CONTINUOUS
 62
     9
 10
-851.8744974520596
 20
191.5724417541914
 30
0.0
 11
-850.3765531499276
 21
191.5724417541914
 31
0.0
  0
LINE
  5
116
  8
0
  6
CONTINUOUS
 62
     9
 10
-757.4499999999999
 20
222.7758431290783
 30
0.0
 11
-757.4499999999999
 21
223.7755004540539
 31
0.0
  0
ARC
  5
117
  8
0
  6
CONTINUOUS
 62
     9
 10
-757.4499999999999
 20
225.0
 30
0.0
 40
1.224499545946124
 50
270.0
 51
89.99999999999613
  0
LINE
  5
118
  8
0
  6
CONTINUOUS
 62
     9
 10
-876.9275582458085
 20
190.0744974520595
 30
0.0
 11
-853.3724417541913
 21
190.0744974520595
 31
0.0
  0
LINE
  5
119
  8
0
  6
CONTINUOUS
 62
     9
 10
-853.3724417541914
 20
188.5765531499277
 30
0.0
 11
-853.3724417541914
 21
190.0744974520596
 31
0.0
  0
LINE
  5
11A
  8
0
  6
CONTINUOUS
 62
     9
 10
-1023.923446850072
 20
191.5724417541914
 30
0.0
 11
-1022.42550254794
 21
191.5724417541914
 31
0.0
  0
POLYLINE
  5
11B
  8
0
  6
CONTINUOUS
 62
     9
 66
     1
 10
0.0
 20
0.0
 30
0.0
  0
VERTEX
  5
686
  8
0
  6
CONTINUOUS
 62
     9
 10
-1022.425502547941
 20
191.5724417541914
 30
0.0
  0
VERTEX
  5
687
  8
0
  6
CONTINUOUS
 62
     9
 10
-1022.39746145057
 20
191.2792686719204
 30
0.0
  0
VERTEX
  5
688
  8
0
  6
CONTINUOUS
 62
     9
 10
-1022.312813878142
 20
190.9976380510606
 30
0.0
  0
VERTEX
  5
689
  8
0
  6
CONTINUOUS
 62
     9
 10
-1022.174801490987
 20
190.7383352075474
 30
0.0
  0
VERTEX
  5
68A
  8
0
  6
CONTINUOUS
 62
     9
 10
-1021.988709606427
 20
190.511290393573
 30
0.0
  0
VERTEX
  5
68B
  8
0
  6
CONTINUOUS
 62
     9
 10
-1021.761664792453
 20
190.3251985090129
 30
0.0
  0
VERTEX
  5
68C
  8
0
  6
CONTINUOUS
 62
     9
 10
-1021.50236194894
 20
190.1871861218584
 30
0.0
  0
VERTEX
  5
68D
  8
0
  6
CONTINUOUS
 62
     9
 10
-1021.22073132808
 20
190.1025385494301
 30
0.0
  0
VERTEX
  5
68E
  8
0
  6
CONTINUOUS
 62
     9
 10
-1020.927558245809
 20
190.0744974520596
 30
0.0
  0
SEQEND
  5
9AC
  8
0
  6
CONTINUOUS
 62
     9
  0
LINE
  5
11C
  8
0
  6
CONTINUOUS
 62
     9
 10
-1020.927558245809
 20
188.5765531499277
 30
0.0
 11
-1020.927558245809
 21
190.0744974520596
 31
0.0
  0
CIRCLE
  5
11D
  8
0
  6
CONTINUOUS
 62
     9
 10
-709.5
 20
225.0
 30
0.0
 40
4.487249772973073
  0
LINE
  5
11E
  8
0
  6
CONTINUOUS
 62
     9
 10
-754.6234468500724
 20
191.5724417541914
 30
0.0
 11
-753.1255025479404
 21
191.5724417541914
 31
0.0
  0
POLYLINE
  5
11F
  8
0
  6
CONTINUOUS
 62
     9
 66
     1
 10
0.0
 20
0.0
 30
0.0
  0
VERTEX
  5
68F
  8
0
  6
CONTINUOUS
 62
     9
 10
-753.1255025479405
 20
191.5724417541914
 30
0.0
  0
VERTEX
  5
690
  8
0
  6
CONTINUOUS
 62
     9
 10
-753.09746145057
 20
191.2792686719204
 30
0.0
  0
VERTEX
  5
691
  8
0
  6
CONTINUOUS
 62
     9
 10
-753.0128138781416
 20
190.9976380510606
 30
0.0
  0
VERTEX
  5
692
  8
0
  6
CONTINUOUS
 62
     9
 10
-752.8748014909871
 20
190.7383352075474
 30
0.0
  0
VERTEX
  5
693
  8
0
  6
CONTINUOUS
 62
     9
 10
-752.6887096064271
 20
190.511290393573
 30
0.0
  0
VERTEX
  5
694
  8
0
  6
CONTINUOUS
 62
     9
 10
-752.4616647924528
 20
190.3251985090129
 30
0.0
  0
VERTEX
  5
695
  8
0
  6
CONTINUOUS
 62
     9
 10
-752.2023619489395
 20
190.1871861218584
 30
0.0
  0
VERTEX
  5
696
  8
0
  6
CONTINUOUS
 62
     9
 10
-751.9207313280796
 20
190.1025385494301
 30
0.0
  0
VERTEX
  5
697
  8
0
  6
CONTINUOUS
 62
     9
 10
-751.6275582458087
 20
190.0744974520595
 30
0.0
  0
SEQEND
  5
9AD
  8
0
  6
CONTINUOUS
 62
     9
  0
LINE
  5
120
  8
0
  6
CONTINUOUS
 62
     9
 10
-753.1255025479404
 20
258.4275582458086
 30
0.0
 11
-753.1255025479404
 21
191.5724417541914
 31
0.0
  0
CIRCLE
  5
121
  8
0
  6
CONTINUOUS
 62
     9
 10
-895.5
 20
225.0
 30
0.0
 40
4.487249772973073
  0
ARC
  5
122
  8
0
  6
CONTINUOUS
 62
     9
 10
-522.5
 20
225.0
 30
0.0
 40
1.224499545946124
 50
270.0
 51
89.99999999999982
  0
LINE
  5
123
  8
0
  6
CONTINUOUS
 62
     9
 10
-522.5
 20
227.2241568709217
 30
0.0
 11
-522.5
 21
226.2244995459461
 31
0.0
  0
LINE
  5
124
  8
0
  6
CONTINUOUS
 62
     9
 10
-522.5
 20
223.7755004540539
 30
0.0
 11
-522.5
 21
222.7758431290783
 31
0.0
  0
LINE
  5
125
  8
0
  6
CONTINUOUS
 62
     9
 10
-1032.5
 20
222.7758431290783
 30
0.0
 11
-1032.5
 21
223.7755004540539
 31
0.0
  0
ARC
  5
126
  8
0
  6
CONTINUOUS
 62
     9
 10
-1032.5
 20
225.0
 30
0.0
 40
1.224499545946124
 50
270.0
 51
89.99999999999739
  0
LINE
  5
127
  8
0
  6
CONTINUOUS
 62
     9
 10
-1032.5
 20
226.2244995459461
 30
0.0
 11
-1032.5
 21
227.2241568709217
 31
0.0
  0
LINE
  5
128
  8
0
  6
CONTINUOUS
 62
     9
 10
-1082.5
 20
222.7758431290783
 30
0.0
 11
-1082.5
 21
223.7755004540539
 31
0.0
  0
LINE
  5
129
  8
0
  6
CONTINUOUS
 62
     9
 10
-1082.5
 20
223.7755004540539
 30
0.0
 11
-1032.5
 21
223.7755004540539
 31
0.0
  0
LINE
  5
12A
  8
0
  6
CONTINUOUS
 62
     9
 10
-1032.5
 20
226.2244995459461
 30
0.0
 11
-1082.5
 21
226.2244995459461
 31
0.0
  0
LINE
  5
12B
  8
0
  6
CONTINUOUS
 62
     9
 10
-1082.5
 20
226.2244995459461
 30
0.0
 11
-1082.5
 21
227.2241568709217
 31
0.0
  0
LINE
  5
12C
  8
0
  6
CONTINUOUS
 62
     9
 10
-725.0765531499277
 20
191.5724417541914
 30
0.0
 11
-726.5744974520596
 21
191.5724417541914
 31
0.0
  0
LINE
  5
12D
  8
0
  6
CONTINUOUS
 62
     9
 10
-726.5744974520595
 20
191.5724417541914
 30
0.0
 11
-726.5744974520595
 21
258.4275582458086
 31
0.0
  0
POLYLINE
  5
12E
  8
0
  6
CONTINUOUS
 62
     9
 66
     1
 10
0.0
 20
0.0
 30
0.0
  0
VERTEX
  5
698
  8
0
  6
CONTINUOUS
 62
     9
 10
-728.0724417541913
 20
190.0744974520595
 30
0.0
  0
VERTEX
  5
699
  8
0
  6
CONTINUOUS
 62
     9
 10
-727.7792686719205
 20
190.1025385494301
 30
0.0
  0
VERTEX
  5
69A
  8
0
  6
CONTINUOUS
 62
     9
 10
-727.4976380510607
 20
190.1871861218584
 30
0.0
  0
VERTEX
  5
69B
  8
0
  6
CONTINUOUS
 62
     9
 10
-727.2383352075474
 20
190.3251985090129
 30
0.0
  0
VERTEX
  5
69C
  8
0
  6
CONTINUOUS
 62
     9
 10
-727.011290393573
 20
190.511290393573
 30
0.0
  0
VERTEX
  5
69D
  8
0
  6
CONTINUOUS
 62
     9
 10
-726.8251985090129
 20
190.7383352075474
 30
0.0
  0
VERTEX
  5
69E
  8
0
  6
CONTINUOUS
 62
     9
 10
-726.6871861218584
 20
190.9976380510606
 30
0.0
  0
VERTEX
  5
69F
  8
0
  6
CONTINUOUS
 62
     9
 10
-726.60253854943
 20
191.2792686719204
 30
0.0
  0
VERTEX
  5
6A0
  8
0
  6
CONTINUOUS
 62
     9
 10
-726.5744974520595
 20
191.5724417541914
 30
0.0
  0
SEQEND
  5
9AE
  8
0
  6
CONTINUOUS
 62
     9
  0
LINE
  5
12F
  8
0
  6
CONTINUOUS
 62
     9
 10
-914.0724417541915
 20
188.5765531499277
 30
0.0
 11
-914.0724417541915
 21
190.0744974520596
 31
0.0
  0
POLYLINE
  5
130
  8
0
  6
CONTINUOUS
 62
     9
 66
     1
 10
0.0
 20
0.0
 30
0.0
  0
VERTEX
  5
6A1
  8
0
  6
CONTINUOUS
 62
     9
 10
-914.0724417541913
 20
190.0744974520595
 30
0.0
  0
VERTEX
  5
6A2
  8
0
  6
CONTINUOUS
 62
     9
 10
-913.7792686719205
 20
190.1025385494301
 30
0.0
  0
VERTEX
  5
6A3
  8
0
  6
CONTINUOUS
 62
     9
 10
-913.4976380510607
 20
190.1871861218584
 30
0.0
  0
VERTEX
  5
6A4
  8
0
  6
CONTINUOUS
 62
     9
 10
-913.2383352075474
 20
190.3251985090129
 30
0.0
  0
VERTEX
  5
6A5
  8
0
  6
CONTINUOUS
 62
     9
 10
-913.011290393573
 20
190.511290393573
 30
0.0
  0
VERTEX
  5
6A6
  8
0
  6
CONTINUOUS
 62
     9
 10
-912.8251985090129
 20
190.7383352075474
 30
0.0
  0
VERTEX
  5
6A7
  8
0
  6
CONTINUOUS
 62
     9
 10
-912.6871861218584
 20
190.9976380510606
 30
0.0
  0
VERTEX
  5
6A8
  8
0
  6
CONTINUOUS
 62
     9
 10
-912.60253854943
 20
191.2792686719204
 30
0.0
  0
VERTEX
  5
6A9
  8
0
  6
CONTINUOUS
 62
     9
 10
-912.5744974520595
 20
191.5724417541914
 30
0.0
  0
SEQEND
  5
9AF
  8
0
  6
CONTINUOUS
 62
     9
  0
LINE
  5
131
  8
0
  6
CONTINUOUS
 62
     9
 10
-1020.927558245809
 20
190.0744974520596
 30
0.0
 11
-914.0724417541915
 21
190.0744974520596
 31
0.0
  0
ARC
  5
132
  8
0
  6
CONTINUOUS
 62
     9
 10
-832.55
 20
225.0
 30
0.0
 40
1.224499545946124
 50
269.9999999999941
 51
90.0
  0
POLYLINE
  5
133
  8
0
  6
CONTINUOUS
 62
     9
 66
     1
 10
0.0
 20
0.0
 30
0.0
  0
VERTEX
  5
6AA
  8
0
  6
CONTINUOUS
 62
     9
 10
-826.7275582458087
 20
259.9255025479405
 30
0.0
  0
VERTEX
  5
6AB
  8
0
  6
CONTINUOUS
 62
     9
 10
-827.0207313280796
 20
259.8974614505699
 30
0.0
  0
VERTEX
  5
6AC
  8
0
  6
CONTINUOUS
 62
     9
 10
-827.3023619489395
 20
259.8128138781416
 30
0.0
  0
VERTEX
  5
6AD
  8
0
  6
CONTINUOUS
 62
     9
 10
-827.5616647924528
 20
259.6748014909871
 30
0.0
  0
VERTEX
  5
6AE
  8
0
  6
CONTINUOUS
 62
     9
 10
-827.7887096064271
 20
259.4887096064271
 30
0.0
  0
VERTEX
  5
6AF
  8
0
  6
CONTINUOUS
 62
     9
 10
-827.9748014909873
 20
259.2616647924527
 30
0.0
  0
VERTEX
  5
6B0
  8
0
  6
CONTINUOUS
 62
     9
 10
-828.1128138781418
 20
259.0023619489394
 30
0.0
  0
VERTEX
  5
6B1
  8
0
  6
CONTINUOUS
 62
     9
 10
-828.19746145057
 20
258.7207313280796
 30
0.0
  0
VERTEX
  5
6B2
  8
0
  6
CONTINUOUS
 62
     9
 10
-828.2255025479406
 20
258.4275582458086
 30
0.0
  0
SEQEND
  5
9B0
  8
0
  6
CONTINUOUS
 62
     9
  0
LINE
  5
134
  8
0
  6
CONTINUOUS
 62
     9
 10
-826.7275582458085
 20
261.4234468500724
 30
0.0
 11
-826.7275582458085
 21
259.9255025479405
 31
0.0
  0
LINE
  5
135
  8
0
  6
CONTINUOUS
 62
     9
 10
-772.4499999999998
 20
223.7755004540539
 30
0.0
 11
-757.4499999999999
 21
223.7755004540539
 31
0.0
  0
LINE
  5
136
  8
0
  6
CONTINUOUS
 62
     9
 10
-1022.42550254794
 20
258.4275582458086
 30
0.0
 11
-1022.42550254794
 21
191.5724417541914
 31
0.0
  0
LINE
  5
137
  8
0
  6
CONTINUOUS
 62
     9
 10
-914.0724417541915
 20
259.9255025479405
 30
0.0
 11
-1020.927558245809
 21
259.9255025479405
 31
0.0
  0
CIRCLE
  5
138
  8
0
  6
CONTINUOUS
 62
     9
 10
-1097.5
 20
225.0
 30
0.0
 40
4.487249772973045
  0
LINE
  5
139
  8
0
  6
CONTINUOUS
 62
     9
 10
-522.5
 20
226.2244995459461
 30
0.0
 11
-572.5
 21
226.2244995459461
 31
0.0
  0
LINE
  5
13A
  8
0
  6
CONTINUOUS
 62
     9
 10
-572.5
 20
227.2241568709217
 30
0.0
 11
-572.5
 21
226.2244995459461
 31
0.0
  0
POLYLINE
  5
13B
  8
0
  6
CONTINUOUS
 62
     9
 66
     1
 10
0.0
 20
0.0
 30
0.0
  0
VERTEX
  5
6B3
  8
0
  6
CONTINUOUS
 62
     9
 10
-853.3724417541913
 20
190.0744974520596
 30
0.0
  0
VERTEX
  5
6B4
  8
0
  6
CONTINUOUS
 62
     9
 10
-853.0792686719204
 20
190.1025385494301
 30
0.0
  0
VERTEX
  5
6B5
  8
0
  6
CONTINUOUS
 62
     9
 10
-852.7976380510605
 20
190.1871861218584
 30
0.0
  0
VERTEX
  5
6B6
  8
0
  6
CONTINUOUS
 62
     9
 10
-852.5383352075472
 20
190.3251985090129
 30
0.0
  0
VERTEX
  5
6B7
  8
0
  6
CONTINUOUS
 62
     9
 10
-852.3112903935729
 20
190.511290393573
 30
0.0
  0
VERTEX
  5
6B8
  8
0
  6
CONTINUOUS
 62
     9
 10
-852.1251985090129
 20
190.7383352075474
 30
0.0
  0
VERTEX
  5
6B9
  8
0
  6
CONTINUOUS
 62
     9
 10
-851.9871861218584
 20
190.9976380510606
 30
0.0
  0
VERTEX
  5
6BA
  8
0
  6
CONTINUOUS
 62
     9
 10
-851.90253854943
 20
191.2792686719204
 30
0.0
  0
VERTEX
  5
6BB
  8
0
  6
CONTINUOUS
 62
     9
 10
-851.8744974520595
 20
191.5724417541914
 30
0.0
  0
SEQEND
  5
9B1
  8
0
  6
CONTINUOUS
 62
     9
  0
LINE
  5
13C
  8
0
  6
CONTINUOUS
 62
     9
 10
-778.2724417541914
 20
259.9255025479404
 30
0.0
 11
-778.2724417541914
 21
261.4234468500723
 31
0.0
  0
LINE
  5
13D
  8
0
  6
CONTINUOUS
 62
     9
 10
-778.2724417541914
 20
259.9255025479404
 30
0.0
 11
-826.7275582458086
 21
259.9255025479404
 31
0.0
  0
LINE
  5
13E
  8
0
  6
CONTINUOUS
 62
     9
 10
-853.3724417541914
 20
259.9255025479404
 30
0.0
 11
-876.9275582458087
 21
259.9255025479404
 31
0.0
  0
ARC
  5
13F
  8
0
  6
CONTINUOUS
 62
     9
 10
-1082.5
 20
225.0
 30
0.0
 40
1.224499545946124
 50
90.0
 51
269.9999999999998
  0
POLYLINE
  5
140
  8
0
  6
CONTINUOUS
 62
     9
 66
     1
 10
0.0
 20
0.0
 30
0.0
  0
VERTEX
  5
6BC
  8
0
  6
CONTINUOUS
 62
     9
 10
-778.2724417541914
 20
190.0744974520595
 30
0.0
  0
VERTEX
  5
6BD
  8
0
  6
CONTINUOUS
 62
     9
 10
-777.9792686719205
 20
190.1025385494301
 30
0.0
  0
VERTEX
  5
6BE
  8
0
  6
CONTINUOUS
 62
     9
 10
-777.6976380510607
 20
190.1871861218584
 30
0.0
  0
VERTEX
  5
6BF
  8
0
  6
CONTINUOUS
 62
     9
 10
-777.4383352075473
 20
190.3251985090129
 30
0.0
  0
VERTEX
  5
6C0
  8
0
  6
CONTINUOUS
 62
     9
 10
-777.211290393573
 20
190.511290393573
 30
0.0
  0
VERTEX
  5
6C1
  8
0
  6
CONTINUOUS
 62
     9
 10
-777.025198509013
 20
190.7383352075474
 30
0.0
  0
VERTEX
  5
6C2
  8
0
  6
CONTINUOUS
 62
     9
 10
-776.8871861218585
 20
190.9976380510606
 30
0.0
  0
VERTEX
  5
6C3
  8
0
  6
CONTINUOUS
 62
     9
 10
-776.8025385494301
 20
191.2792686719204
 30
0.0
  0
VERTEX
  5
6C4
  8
0
  6
CONTINUOUS
 62
     9
 10
-776.7744974520596
 20
191.5724417541914
 30
0.0
  0
SEQEND
  5
9B2
  8
0
  6
CONTINUOUS
 62
     9
  0
LINE
  5
141
  8
0
  6
CONTINUOUS
 62
     9
 10
-776.7744974520594
 20
191.5724417541914
 30
0.0
 11
-775.2765531499276
 21
191.5724417541914
 31
0.0
  0
LINE
  5
142
  8
0
  6
CONTINUOUS
 62
     9
 10
-778.2724417541914
 20
188.5765531499277
 30
0.0
 11
-778.2724417541914
 21
190.0744974520596
 31
0.0
  0
LINE
  5
143
  8
0
  6
CONTINUOUS
 62
     9
 10
-776.7744974520594
 20
191.5724417541914
 30
0.0
 11
-776.7744974520594
 21
258.4275582458087
 31
0.0
  0
LINE
  5
144
  8
0
  6
CONTINUOUS
 62
     9
 10
-775.2765531499277
 20
258.4275582458086
 30
0.0
 11
-776.7744974520596
 21
258.4275582458086
 31
0.0
  0
POLYLINE
  5
145
  8
0
  6
CONTINUOUS
 62
     9
 66
     1
 10
0.0
 20
0.0
 30
0.0
  0
VERTEX
  5
6C5
  8
0
  6
CONTINUOUS
 62
     9
 10
-776.7744974520596
 20
258.4275582458086
 30
0.0
  0
VERTEX
  5
6C6
  8
0
  6
CONTINUOUS
 62
     9
 10
-776.8025385494301
 20
258.7207313280796
 30
0.0
  0
VERTEX
  5
6C7
  8
0
  6
CONTINUOUS
 62
     9
 10
-776.8871861218583
 20
259.0023619489394
 30
0.0
  0
VERTEX
  5
6C8
  8
0
  6
CONTINUOUS
 62
     9
 10
-777.025198509013
 20
259.2616647924527
 30
0.0
  0
VERTEX
  5
6C9
  8
0
  6
CONTINUOUS
 62
     9
 10
-777.211290393573
 20
259.488709606427
 30
0.0
  0
VERTEX
  5
6CA
  8
0
  6
CONTINUOUS
 62
     9
 10
-777.4383352075473
 20
259.6748014909871
 30
0.0
  0
VERTEX
  5
6CB
  8
0
  6
CONTINUOUS
 62
     9
 10
-777.6976380510607
 20
259.8128138781416
 30
0.0
  0
VERTEX
  5
6CC
  8
0
  6
CONTINUOUS
 62
     9
 10
-777.9792686719205
 20
259.89746145057
 30
0.0
  0
VERTEX
  5
6CD
  8
0
  6
CONTINUOUS
 62
     9
 10
-778.2724417541914
 20
259.9255025479404
 30
0.0
  0
SEQEND
  5
9B3
  8
0
  6
CONTINUOUS
 62
     9
  0
ARC
  5
146
  8
0
  6
CONTINUOUS
 62
     9
 10
-844.2499999999999
 20
241.0
 30
0.0
 40
4.487249772973066
 50
90.00000000000212
 51
270.0
  0
LINE
  5
147
  8
0
  6
CONTINUOUS
 62
     9
 10
-826.7275582458086
 20
190.0744974520595
 30
0.0
 11
-778.2724417541914
 21
190.0744974520595
 31
0.0
  0
ARC
  5
148
  8
0
  6
CONTINUOUS
 62
     9
 10
-572.5
 20
225.0
 30
0.0
 40
1.224499545946124
 50
90.00000000000261
 51
270.0
  0
LINE
  5
149
  8
0
  6
CONTINUOUS
 62
     9
 10
-572.5
 20
223.7755004540539
 30
0.0
 11
-572.5
 21
222.7758431290783
 31
0.0
  0
LINE
  5
14A
  8
0
  6
CONTINUOUS
 62
     9
 10
-572.5
 20
223.7755004540539
 30
0.0
 11
-522.5
 21
223.7755004540539
 31
0.0
  0
CIRCLE
  5
14B
  8
0
  6
CONTINUOUS
 62
     9
 10
-507.5000000000001
 20
225.0
 30
0.0
 40
4.487249772973045
  0
ARC
  5
14C
  8
0
  6
CONTINUOUS
 62
     7
 10
-835.8499999999999
 20
241.0
 30
0.0
 40
4.487249772973066
 50
269.9999999999986
 51
90.0
  0
ARC
  5
14D
  8
0
  6
CONTINUOUS
 62
     9
 10
-847.55
 20
225.0
 30
0.0
 40
1.224499545946124
 50
90.0000000000039
 51
270.0
  0
LINE
  5
14E
  8
0
  6
CONTINUOUS
 62
     9
 10
-844.2499999999999
 20
236.5127502270269
 30
0.0
 11
-835.85
 21
236.5127502270269
 31
0.0
  0
LINE
  5
14F
  8
0
  6
CONTINUOUS
 62
     9
 10
-835.8499999999999
 20
245.4872497729731
 30
0.0
 11
-844.2500000000001
 21
245.4872497729731
 31
0.0
  0
LINE
  5
150
  8
0
  6
CONTINUOUS
 62
     9
 10
-835.85
 20
236.6967371455266
 30
0.0
 11
-844.2499999999999
 21
236.6967371455266
 31
0.0
  0
LINE
  5
151
  8
0
  6
CONTINUOUS
 62
     9
 10
-835.85
 20
236.5127502270269
 30
0.0
 11
-835.85
 21
236.6967371455266
 31
0.0
  0
LINE
  5
152
  8
0
  6
CONTINUOUS
 62
     9
 10
-844.2499999999999
 20
236.5127502270269
 30
0.0
 11
-844.2499999999999
 21
236.6967371455266
 31
0.0
  0
ARC
  5
153
  8
0
  6
CONTINUOUS
 62
     9
 10
-844.2499999999999
 20
241.0
 30
0.0
 40
4.303262854473447
 50
90.00000000000222
 51
270.0
  0
LINE
  5
154
  8
0
  6
CONTINUOUS
 62
     9
 10
-844.2500000000001
 20
245.4872497729731
 30
0.0
 11
-844.2500000000001
 21
245.3032628544734
 31
0.0
  0
LINE
  5
155
  8
0
  6
CONTINUOUS
 62
     9
 10
-844.2500000000001
 20
245.3032628544734
 30
0.0
 11
-835.8499999999999
 21
245.3032628544734
 31
0.0
  0
LINE
  5
156
  8
0
  6
CONTINUOUS
 62
     9
 10
-835.8499999999999
 20
245.4872497729731
 30
0.0
 11
-835.8499999999999
 21
245.3032628544734
 31
0.0
  0
ARC
  5
157
  8
0
  6
CONTINUOUS
 62
     9
 10
-835.8499999999999
 20
241.0
 30
0.0
 40
4.303262854473445
 50
269.9999999999985
 51
90.0
  0
POLYLINE
  5
158
  8
0
  6
CONTINUOUS
 62
     7
 66
     1
 10
0.0
 20
0.0
 30
0.0
  0
VERTEX
  5
6CE
  8
0
  6
CONTINUOUS
 62
     7
 10
-1128.548155585661
 20
165.449788716471
 30
0.0
  0
VERTEX
  5
6CF
  8
0
  6
CONTINUOUS
 62
     7
 10
-1128.519394196662
 20
165.1573359258279
 30
0.0
  0
VERTEX
  5
6D0
  8
0
  6
CONTINUOUS
 62
     7
 10
-1128.434211474766
 20
164.876240454436
 30
0.0
  0
VERTEX
  5
6D1
  8
0
  6
CONTINUOUS
 62
     7
 10
-1128.295869574368
 20
164.617267124166
 30
0.0
  0
VERTEX
  5
6D2
  8
0
  6
CONTINUOUS
 62
     7
 10
-1128.109666431817
 20
164.3903335681835
 30
0.0
  0
VERTEX
  5
6D3
  8
0
  6
CONTINUOUS
 62
     7
 10
-1127.882732875834
 20
164.2041304256316
 30
0.0
  0
VERTEX
  5
6D4
  8
0
  6
CONTINUOUS
 62
     7
 10
-1127.623759545564
 20
164.0657885252337
 30
0.0
  0
VERTEX
  5
6D5
  8
0
  6
CONTINUOUS
 62
     7
 10
-1127.342664074172
 20
163.9806058033376
 30
0.0
  0
VERTEX
  5
6D6
  8
0
  6
CONTINUOUS
 62
     7
 10
-1127.050211283529
 20
163.9518444143392
 30
0.0
  0
SEQEND
  5
9B4
  8
0
  6
CONTINUOUS
 62
     7
  0
LINE
  5
159
  8
0
  6
CONTINUOUS
 62
     9
 10
-1128.548155585661
 20
165.449788716471
 30
0.0
 11
-1127.552335956243
 21
166.4456083458889
 31
0.0
  0
LINE
  5
15A
  8
0
  6
CONTINUOUS
 62
     9
 10
-1126.054391654111
 20
164.947664043757
 30
0.0
 11
-1127.050211283529
 21
163.9518444143392
 31
0.0
  0
POLYLINE
  5
15B
  8
0
  6
CONTINUOUS
 62
     7
 66
     1
 10
0.0
 20
0.0
 30
0.0
  0
VERTEX
  5
6D7
  8
0
  6
CONTINUOUS
 62
     7
 10
-476.4518444143391
 20
284.550211283529
 30
0.0
  0
VERTEX
  5
6D8
  8
0
  6
CONTINUOUS
 62
     7
 10
-476.4806058033375
 20
284.8426640741721
 30
0.0
  0
VERTEX
  5
6D9
  8
0
  6
CONTINUOUS
 62
     7
 10
-476.5657885252337
 20
285.1237595455641
 30
0.0
  0
VERTEX
  5
6DA
  8
0
  6
CONTINUOUS
 62
     7
 10
-476.7041304256315
 20
285.3827328758341
 30
0.0
  0
VERTEX
  5
6DB
  8
0
  6
CONTINUOUS
 62
     7
 10
-476.8903335681835
 20
285.6096664318167
 30
0.0
  0
VERTEX
  5
6DC
  8
0
  6
CONTINUOUS
 62
     7
 10
-477.1172671241661
 20
285.7958695743685
 30
0.0
  0
VERTEX
  5
6DD
  8
0
  6
CONTINUOUS
 62
     7
 10
-477.3762404544361
 20
285.9342114747664
 30
0.0
  0
VERTEX
  5
6DE
  8
0
  6
CONTINUOUS
 62
     7
 10
-477.6573359258281
 20
286.0193941966625
 30
0.0
  0
VERTEX
  5
6DF
  8
0
  6
CONTINUOUS
 62
     7
 10
-477.9497887164712
 20
286.0481555856609
 30
0.0
  0
SEQEND
  5
9B5
  8
0
  6
CONTINUOUS
 62
     7
  0
LINE
  5
15C
  8
0
  6
CONTINUOUS
 62
     9
 10
-476.4518444143391
 20
284.550211283529
 30
0.0
 11
-477.447664043757
 21
283.5543916541111
 31
0.0
  0
LINE
  5
15D
  8
0
  6
CONTINUOUS
 62
     9
 10
-478.9456083458889
 20
285.052335956243
 30
0.0
 11
-477.9497887164709
 21
286.0481555856608
 31
0.0
  0
POLYLINE
  5
15E
  8
0
  6
CONTINUOUS
 62
     7
 66
     1
 10
0.0
 20
0.0
 30
0.0
  0
VERTEX
  5
6E0
  8
0
  6
CONTINUOUS
 62
     7
 10
-1127.050211283529
 20
286.0481555856608
 30
0.0
  0
VERTEX
  5
6E1
  8
0
  6
CONTINUOUS
 62
     7
 10
-1127.342664074172
 20
286.0193941966625
 30
0.0
  0
VERTEX
  5
6E2
  8
0
  6
CONTINUOUS
 62
     7
 10
-1127.623759545564
 20
285.9342114747663
 30
0.0
  0
VERTEX
  5
6E3
  8
0
  6
CONTINUOUS
 62
     7
 10
-1127.882732875834
 20
285.7958695743685
 30
0.0
  0
VERTEX
  5
6E4
  8
0
  6
CONTINUOUS
 62
     7
 10
-1128.109666431817
 20
285.6096664318165
 30
0.0
  0
VERTEX
  5
6E5
  8
0
  6
CONTINUOUS
 62
     7
 10
-1128.295869574368
 20
285.382732875834
 30
0.0
  0
VERTEX
  5
6E6
  8
0
  6
CONTINUOUS
 62
     7
 10
-1128.434211474766
 20
285.123759545564
 30
0.0
  0
VERTEX
  5
6E7
  8
0
  6
CONTINUOUS
 62
     7
 10
-1128.519394196662
 20
284.842664074172
 30
0.0
  0
VERTEX
  5
6E8
  8
0
  6
CONTINUOUS
 62
     7
 10
-1128.548155585661
 20
284.550211283529
 30
0.0
  0
SEQEND
  5
9B6
  8
0
  6
CONTINUOUS
 62
     7
  0
LINE
  5
15F
  8
0
  6
CONTINUOUS
 62
     9
 10
-1127.050211283529
 20
286.0481555856608
 30
0.0
 11
-1126.054391654111
 21
285.052335956243
 31
0.0
  0
LINE
  5
160
  8
0
  6
CONTINUOUS
 62
     9
 10
-1127.552335956243
 20
283.5543916541111
 30
0.0
 11
-1128.548155585661
 21
284.550211283529
 31
0.0
  0
POLYLINE
  5
161
  8
0
  6
CONTINUOUS
 62
     7
 66
     1
 10
0.0
 20
0.0
 30
0.0
  0
VERTEX
  5
6E9
  8
0
  6
CONTINUOUS
 62
     7
 10
-477.9497887164712
 20
163.9518444143392
 30
0.0
  0
VERTEX
  5
6EA
  8
0
  6
CONTINUOUS
 62
     7
 10
-477.6573359258281
 20
163.9806058033375
 30
0.0
  0
VERTEX
  5
6EB
  8
0
  6
CONTINUOUS
 62
     7
 10
-477.3762404544361
 20
164.0657885252336
 30
0.0
  0
VERTEX
  5
6EC
  8
0
  6
CONTINUOUS
 62
     7
 10
-477.1172671241661
 20
164.2041304256315
 30
0.0
  0
VERTEX
  5
6ED
  8
0
  6
CONTINUOUS
 62
     7
 10
-476.8903335681835
 20
164.3903335681834
 30
0.0
  0
VERTEX
  5
6EE
  8
0
  6
CONTINUOUS
 62
     7
 10
-476.7041304256315
 20
164.6172671241659
 30
0.0
  0
VERTEX
  5
6EF
  8
0
  6
CONTINUOUS
 62
     7
 10
-476.5657885252337
 20
164.8762404544359
 30
0.0
  0
VERTEX
  5
6F0
  8
0
  6
CONTINUOUS
 62
     7
 10
-476.4806058033375
 20
165.1573359258279
 30
0.0
  0
VERTEX
  5
6F1
  8
0
  6
CONTINUOUS
 62
     7
 10
-476.4518444143391
 20
165.449788716471
 30
0.0
  0
SEQEND
  5
9B7
  8
0
  6
CONTINUOUS
 62
     7
  0
LINE
  5
162
  8
0
  6
CONTINUOUS
 62
     9
 10
-477.9497887164708
 20
163.9518444143392
 30
0.0
 11
-478.9456083458888
 21
164.947664043757
 31
0.0
  0
LINE
  5
163
  8
0
  6
CONTINUOUS
 62
     9
 10
-477.447664043757
 20
166.4456083458889
 30
0.0
 11
-476.4518444143391
 21
165.449788716471
 31
0.0
  0
LINE
  5
164
  8
0
  6
CONTINUOUS
 62
     7
 10
-490.75
 20
286.0481555856608
 30
0.0
 11
-477.9497887164712
 21
286.0481555856608
 31
0.0
  0
LINE
  5
165
  8
0
  6
CONTINUOUS
 62
     7
 10
-1127.050211283529
 20
286.0481555856608
 30
0.0
 11
-494.2499999999999
 21
286.0481555856608
 31
0.0
  0
LINE
  5
166
  8
0
  6
CONTINUOUS
 62
     7
 10
-494.2499999999999
 20
286.0481555856608
 30
0.0
 11
-494.2231286109155
 21
285.9943759306486
 31
0.0
  0
LINE
  5
167
  8
0
  6
CONTINUOUS
 62
     7
 10
-493.2234712859401
 20
285.9433400270947
 30
0.0
 11
-494.2231286109155
 21
285.9943759306486
 31
0.0
  0
LINE
  5
168
  8
0
  6
CONTINUOUS
 62
     7
 10
-493.2234712859401
 20
285.9433400270947
 30
0.0
 11
-491.7765287140602
 21
285.9433400270947
 31
0.0
  0
LINE
  5
169
  8
0
  6
CONTINUOUS
 62
     7
 10
-490.7768713890845
 20
285.9943759306486
 30
0.0
 11
-491.7765287140602
 21
285.9433400270947
 31
0.0
  0
LINE
  5
16A
  8
0
  6
CONTINUOUS
 62
     7
 10
-490.7768713890846
 20
285.9943759306486
 30
0.0
 11
-490.75
 21
286.0481555856608
 31
0.0
  0
LINE
  5
16B
  8
0
  6
CONTINUOUS
 62
     7
 10
-1114.25
 20
163.9518444143392
 30
0.0
 11
-1127.050211283529
 21
163.9518444143392
 31
0.0
  0
LINE
  5
16C
  8
0
  6
CONTINUOUS
 62
     7
 10
-477.9497887164712
 20
163.9518444143392
 30
0.0
 11
-1110.75
 21
163.9518444143392
 31
0.0
  0
LINE
  5
16D
  8
0
  6
CONTINUOUS
 62
     7
 10
-1110.75
 20
163.9518444143392
 30
0.0
 11
-1110.776871389084
 21
164.0056240693515
 31
0.0
  0
LINE
  5
16E
  8
0
  6
CONTINUOUS
 62
     7
 10
-1111.77652871406
 20
164.0566599729052
 30
0.0
 11
-1110.776871389084
 21
164.0056240693514
 31
0.0
  0
LINE
  5
16F
  8
0
  6
CONTINUOUS
 62
     7
 10
-1111.77652871406
 20
164.0566599729052
 30
0.0
 11
-1113.22347128594
 21
164.0566599729052
 31
0.0
  0
LINE
  5
170
  8
0
  6
CONTINUOUS
 62
     7
 10
-1114.223128610915
 20
164.0056240693515
 30
0.0
 11
-1113.22347128594
 21
164.0566599729053
 31
0.0
  0
LINE
  5
171
  8
0
  6
CONTINUOUS
 62
     7
 10
-1114.223128610915
 20
164.0056240693514
 30
0.0
 11
-1114.25
 21
163.9518444143391
 31
0.0
  0
LINE
  5
172
  8
0
  6
CONTINUOUS
 62
     7
 10
-476.4518444143391
 20
194.8999999999999
 30
0.0
 11
-476.5566599729053
 21
194.9523718431382
 31
0.0
  0
LINE
  5
173
  8
0
  6
CONTINUOUS
 62
     7
 10
-476.4518444143391
 20
194.8999999999999
 30
0.0
 11
-476.4518444143391
 21
165.449788716471
 31
0.0
  0
LINE
  5
174
  8
0
  6
CONTINUOUS
 62
     7
 10
-476.4518444143391
 20
284.550211283529
 30
0.0
 11
-476.4518444143391
 21
255.0999999999999
 31
0.0
  0
LINE
  5
175
  8
0
  6
CONTINUOUS
 62
     7
 10
-476.5566599729053
 20
255.0476281568615
 30
0.0
 11
-476.4518444143391
 21
255.0999999999999
 31
0.0
  0
LINE
  5
176
  8
0
  6
CONTINUOUS
 62
     7
 10
-476.5566599729053
 20
194.9523718431383
 30
0.0
 11
-476.5566599729053
 21
255.0476281568615
 31
0.0
  0
LINE
  5
177
  8
0
  6
CONTINUOUS
 62
     7
 10
-1128.548155585661
 20
165.449788716471
 30
0.0
 11
-1128.548155585661
 21
194.8999999999999
 31
0.0
  0
LINE
  5
178
  8
0
  6
CONTINUOUS
 62
     7
 10
-1128.443340027095
 20
194.9523718431383
 30
0.0
 11
-1128.548155585661
 21
194.8999999999999
 31
0.0
  0
LINE
  5
179
  8
0
  6
CONTINUOUS
 62
     7
 10
-1128.443340027095
 20
255.0476281568615
 30
0.0
 11
-1128.443340027095
 21
194.9523718431382
 31
0.0
  0
LINE
  5
17A
  8
0
  6
CONTINUOUS
 62
     7
 10
-1128.548155585661
 20
255.0999999999999
 30
0.0
 11
-1128.443340027095
 21
255.0476281568615
 31
0.0
  0
LINE
  5
17B
  8
0
  6
CONTINUOUS
 62
     7
 10
-1128.548155585661
 20
255.0999999999999
 30
0.0
 11
-1128.548155585661
 21
284.550211283529
 31
0.0
  0
LINE
  5
17C
  8
0
  6
CONTINUOUS
 62
     9
 10
-1082.5
 20
225.8306825211353
 30
0.0
 11
-1032.5
 21
225.8306825211353
 31
0.0
  0
LINE
  5
17D
  8
0
  6
CONTINUOUS
 62
     9
 10
-1082.5
 20
226.2244995459461
 30
0.0
 11
-1082.5
 21
225.8306825211353
 31
0.0
  0
LINE
  5
17E
  8
0
  6
CONTINUOUS
 62
     9
 10
-1032.5
 20
226.2244995459461
 30
0.0
 11
-1032.5
 21
225.8306825211353
 31
0.0
  0
ARC
  5
17F
  8
0
  6
CONTINUOUS
 62
     9
 10
-572.5
 20
225.0
 30
0.0
 40
0.8306825211353538
 50
90.00000000000398
 51
270.0
  0
LINE
  5
180
  8
0
  6
CONTINUOUS
 62
     9
 10
-572.5
 20
223.7755004540539
 30
0.0
 11
-572.5
 21
224.1693174788647
 31
0.0
  0
LINE
  5
181
  8
0
  6
CONTINUOUS
 62
     9
 10
-572.5
 20
226.2244995459461
 30
0.0
 11
-572.5
 21
225.8306825211353
 31
0.0
  0
LINE
  5
182
  8
0
  6
CONTINUOUS
 62
     9
 10
-572.5
 20
225.8306825211353
 30
0.0
 11
-522.5
 21
225.8306825211353
 31
0.0
  0
LINE
  5
183
  8
0
  6
CONTINUOUS
 62
     9
 10
-522.5
 20
226.2244995459461
 30
0.0
 11
-522.5
 21
225.8306825211353
 31
0.0
  0
LINE
  5
184
  8
0
  6
CONTINUOUS
 62
     9
 10
-522.5
 20
224.1693174788647
 30
0.0
 11
-572.5
 21
224.1693174788647
 31
0.0
  0
LINE
  5
185
  8
0
  6
CONTINUOUS
 62
     9
 10
-522.5
 20
223.7755004540539
 30
0.0
 11
-522.5
 21
224.1693174788647
 31
0.0
  0
ARC
  5
186
  8
0
  6
CONTINUOUS
 62
     9
 10
-1032.5
 20
225.0
 30
0.0
 40
0.8306825211353538
 50
270.0000000000001
 51
89.99999999999618
  0
LINE
  5
187
  8
0
  6
CONTINUOUS
 62
     9
 10
-1032.5
 20
223.7755004540539
 30
0.0
 11
-1032.5
 21
224.1693174788647
 31
0.0
  0
LINE
  5
188
  8
0
  6
CONTINUOUS
 62
     9
 10
-772.4499999999999
 20
225.8306825211353
 30
0.0
 11
-757.4499999999998
 21
225.8306825211353
 31
0.0
  0
LINE
  5
189
  8
0
  6
CONTINUOUS
 62
     9
 10
-772.4499999999999
 20
226.2244995459461
 30
0.0
 11
-772.4499999999999
 21
225.8306825211353
 31
0.0
  0
LINE
  5
18A
  8
0
  6
CONTINUOUS
 62
     9
 10
-757.4499999999999
 20
226.2244995459461
 30
0.0
 11
-757.4499999999999
 21
225.8306825211353
 31
0.0
  0
ARC
  5
18B
  8
0
  6
CONTINUOUS
 62
     9
 10
-832.55
 20
225.0
 30
0.0
 40
0.8306825211353538
 50
269.9999999999914
 51
90.0
  0
LINE
  5
18C
  8
0
  6
CONTINUOUS
 62
     9
 10
-832.55
 20
226.2244995459461
 30
0.0
 11
-832.55
 21
225.8306825211353
 31
0.0
  0
LINE
  5
18D
  8
0
  6
CONTINUOUS
 62
     9
 10
-832.5500000000001
 20
223.7755004540539
 30
0.0
 11
-832.5500000000001
 21
224.1693174788647
 31
0.0
  0
ARC
  5
18E
  8
0
  6
CONTINUOUS
 62
     9
 10
-772.4499999999999
 20
225.0
 30
0.0
 40
0.8306825211353538
 50
90.0
 51
270.0000000000086
  0
LINE
  5
18F
  8
0
  6
CONTINUOUS
 62
     9
 10
-772.4499999999998
 20
223.7755004540539
 30
0.0
 11
-772.4499999999998
 21
224.1693174788647
 31
0.0
  0
ARC
  5
190
  8
0
  6
CONTINUOUS
 62
     9
 10
-847.55
 20
225.0
 30
0.0
 40
0.8306825211353538
 50
90.0000000000058
 51
270.0
  0
LINE
  5
191
  8
0
  6
CONTINUOUS
 62
     9
 10
-847.55
 20
223.7755004540539
 30
0.0
 11
-847.55
 21
224.1693174788647
 31
0.0
  0
LINE
  5
192
  8
0
  6
CONTINUOUS
 62
     9
 10
-847.55
 20
226.2244995459461
 30
0.0
 11
-847.55
 21
225.8306825211353
 31
0.0
  0
ARC
  5
193
  8
0
  6
CONTINUOUS
 62
     9
 10
-522.5
 20
225.0
 30
0.0
 40
0.8306825211353538
 50
270.000000000001
 51
90.0
  0
ARC
  5
194
  8
0
  6
CONTINUOUS
 62
     9
 10
-1082.5
 20
225.0
 30
0.0
 40
0.8306825211353538
 50
90.00000000000097
 51
270.0
  0
LINE
  5
195
  8
0
  6
CONTINUOUS
 62
     9
 10
-1082.5
 20
223.7755004540539
 30
0.0
 11
-1082.5
 21
224.1693174788647
 31
0.0
  0
LINE
  5
196
  8
0
  6
CONTINUOUS
 62
     9
 10
-757.4499999999999
 20
224.1693174788647
 30
0.0
 11
-772.4499999999998
 21
224.1693174788647
 31
0.0
  0
LINE
  5
197
  8
0
  6
CONTINUOUS
 62
     9
 10
-757.4499999999999
 20
223.7755004540539
 30
0.0
 11
-757.4499999999999
 21
224.1693174788647
 31
0.0
  0
LINE
  5
198
  8
0
  6
CONTINUOUS
 62
     9
 10
-1032.5
 20
224.1693174788647
 30
0.0
 11
-1082.5
 21
224.1693174788647
 31
0.0
  0
ARC
  5
199
  8
0
  6
CONTINUOUS
 62
     9
 10
-757.4499999999999
 20
225.0
 30
0.0
 40
0.8306825211353538
 50
270.0000000000001
 51
89.99999999999426
  0
LINE
  5
19A
  8
0
  6
CONTINUOUS
 62
     9
 10
-832.5500000000001
 20
224.1693174788647
 30
0.0
 11
-847.55
 21
224.1693174788647
 31
0.0
  0
LINE
  5
19B
  8
0
  6
CONTINUOUS
 62
     9
 10
-847.55
 20
225.8306825211353
 30
0.0
 11
-832.5499999999998
 21
225.8306825211353
 31
0.0
  0
LINE
  5
19C
  8
0
  6
CONTINUOUS
 62
     9
 10
-876.9275582458085
 20
259.9255025479404
 30
0.0
 11
-876.5827934636038
 21
259.5807377657356
 31
0.0
  0
ARC
  5
19D
  8
0
  6
CONTINUOUS
 62
     7
 10
-876.583215621832
 20
258.0826124160696
 30
0.0
 40
1.498125409146234
 50
89.98385456589074
 51
134.983687336602
  0
ARC
  5
19E
  8
0
  6
CONTINUOUS
 62
     7
 10
-876.58261241607
 20
258.0832156218323
 30
0.0
 40
1.498125409145838
 50
135.0163126691984
 51
180.0161454341204
  0
LINE
  5
19F
  8
0
  6
CONTINUOUS
 62
     9
 10
-878.0807377657356
 20
258.0827934636038
 30
0.0
 11
-878.4255025479405
 21
258.4275582458086
 31
0.0
  0
LINE
  5
1A0
  8
0
  6
CONTINUOUS
 62
     9
 10
-912.5744974520595
 20
258.4275582458086
 30
0.0
 11
-912.9192622342644
 21
258.0827934636038
 31
0.0
  0
ARC
  5
1A1
  8
0
  6
CONTINUOUS
 62
     7
 10
-914.4173875839303
 20
258.0832156218322
 30
0.0
 40
1.498125409146116
 50
359.9838545658849
 51
44.98368733375231
  0
ARC
  5
1A2
  8
0
  6
CONTINUOUS
 62
     7
 10
-914.4167843781679
 20
258.0826124160698
 30
0.0
 40
1.498125409146061
 50
45.0163126663503
 51
90.01614543411671
  0
LINE
  5
1A3
  8
0
  6
CONTINUOUS
 62
     9
 10
-914.4172065363962
 20
259.5807377657357
 30
0.0
 11
-914.0724417541915
 21
259.9255025479404
 31
0.0
  0
LINE
  5
1A4
  8
0
  6
CONTINUOUS
 62
     9
 10
-878.4255025479405
 20
191.5724417541914
 30
0.0
 11
-878.0807377657356
 21
191.9172065363962
 31
0.0
  0
ARC
  5
1A5
  8
0
  6
CONTINUOUS
 62
     7
 10
-876.5826124160699
 20
191.9167843781678
 30
0.0
 40
1.498125409145936
 50
179.9838545658807
 51
224.9836873308164
  0
ARC
  5
1A6
  8
0
  6
CONTINUOUS
 62
     7
 10
-876.583215621832
 20
191.9173875839305
 30
0.0
 40
1.4981254091464
 50
225.0163126634172
 51
270.0161454341066
  0
LINE
  5
1A7
  8
0
  6
CONTINUOUS
 62
     9
 10
-876.5827934636039
 20
190.4192622342643
 30
0.0
 11
-876.9275582458087
 21
190.0744974520596
 31
0.0
  0
LINE
  5
1A8
  8
0
  6
CONTINUOUS
 62
     9
 10
-690.9275582458085
 20
259.9255025479405
 30
0.0
 11
-690.5827934636037
 21
259.5807377657358
 31
0.0
  0
ARC
  5
1A9
  8
0
  6
CONTINUOUS
 62
     7
 10
-690.5833154346014
 20
258.0828535785967
 30
0.0
 40
1.497884278085167
 50
89.98003401448386
 51
134.9875078849892
  0
ARC
  5
1AA
  8
0
  6
CONTINUOUS
 62
     7
 10
-690.5826124160698
 20
258.0832156218322
 30
0.0
 40
1.498125409146061
 50
135.0163126661869
 51
180.0161454341162
  0
LINE
  5
1AB
  8
0
  6
CONTINUOUS
 62
     9
 10
-692.0807377657356
 20
258.0827934636038
 30
0.0
 11
-692.4255025479405
 21
258.4275582458086
 31
0.0
  0
LINE
  5
1AC
  8
0
  6
CONTINUOUS
 62
     9
 10
-914.0724417541915
 20
190.0744974520596
 30
0.0
 11
-914.4172065363962
 21
190.4192622342644
 31
0.0
  0
ARC
  5
1AD
  8
0
  6
CONTINUOUS
 62
     7
 10
-914.4167843781679
 20
191.9173875839302
 30
0.0
 40
1.498125409146067
 50
269.9838545658844
 51
314.9836873337653
  0
ARC
  5
1AE
  8
0
  6
CONTINUOUS
 62
     7
 10
-914.4173875839302
 20
191.9167843781678
 30
0.0
 40
1.498125409146074
 50
315.0163126663634
 51
0.0161454341153444
  0
LINE
  5
1AF
  8
0
  6
CONTINUOUS
 62
     9
 10
-912.9192622342644
 20
191.9172065363962
 30
0.0
 11
-912.5744974520595
 21
191.5724417541914
 31
0.0
  0
LINE
  5
1B0
  8
0
  6
CONTINUOUS
 62
     9
 10
-1020.927558245809
 20
259.9255025479405
 30
0.0
 11
-1020.582793463604
 21
259.5807377657357
 31
0.0
  0
ARC
  5
1B1
  8
0
  6
CONTINUOUS
 62
     7
 10
-1020.583215621832
 20
258.0826124160699
 30
0.0
 40
1.498125409146039
 50
89.98385456588385
 51
134.9836873334563
  0
ARC
  5
1B2
  8
0
  6
CONTINUOUS
 62
     7
 10
-1020.58261241607
 20
258.0832156218322
 30
0.0
 40
1.498125409146116
 50
135.0163126660548
 51
180.0161454341154
  0
LINE
  5
1B3
  8
0
  6
CONTINUOUS
 62
     9
 10
-1022.080737765736
 20
258.0827934636038
 30
0.0
 11
-1022.42550254794
 21
258.4275582458086
 31
0.0
  0
LINE
  5
1B4
  8
0
  6
CONTINUOUS
 62
     9
 10
-728.0724417541913
 20
190.0744974520595
 30
0.0
 11
-728.4172065363962
 21
190.4192622342643
 31
0.0
  0
ARC
  5
1B5
  8
0
  6
CONTINUOUS
 62
     7
 10
-728.4166845653987
 20
191.9171464214036
 30
0.0
 40
1.497884278085463
 50
269.9800340144866
 51
314.9875078880845
  0
ARC
  5
1B6
  8
0
  6
CONTINUOUS
 62
     7
 10
-728.41738758393
 20
191.9167843781678
 30
0.0
 40
1.498125409145936
 50
315.0163126692841
 51
0.0161454341193235
  0
LINE
  5
1B7
  8
0
  6
CONTINUOUS
 62
     9
 10
-726.9192622342642
 20
191.9172065363962
 30
0.0
 11
-726.5744974520595
 21
191.5724417541914
 31
0.0
  0
LINE
  5
1B8
  8
0
  6
CONTINUOUS
 62
     9
 10
-851.8744974520596
 20
258.4275582458086
 30
0.0
 11
-852.2192622342643
 21
258.0827934636038
 31
0.0
  0
ARC
  5
1B9
  8
0
  6
CONTINUOUS
 62
     7
 10
-853.7173875839302
 20
258.0832156218321
 30
0.0
 40
1.498125409146095
 50
359.9838545658841
 51
44.98368733374445
  0
ARC
  5
1BA
  8
0
  6
CONTINUOUS
 62
     7
 10
-853.7167843781679
 20
258.0826124160698
 30
0.0
 40
1.498125409146053
 50
45.0163126663424
 51
90.0161454341162
  0
LINE
  5
1BB
  8
0
  6
CONTINUOUS
 62
     9
 10
-853.7172065363962
 20
259.5807377657356
 30
0.0
 11
-853.3724417541914
 21
259.9255025479404
 31
0.0
  0
LINE
  5
1BC
  8
0
  6
CONTINUOUS
 62
     9
 10
-1022.42550254794
 20
191.5724417541914
 30
0.0
 11
-1022.080737765736
 21
191.9172065363962
 31
0.0
  0
ARC
  5
1BD
  8
0
  6
CONTINUOUS
 62
     7
 10
-1020.58261241607
 20
191.9167843781677
 30
0.0
 40
1.498125409145783
 50
179.9838545658793
 51
224.9836873336428
  0
ARC
  5
1BE
  8
0
  6
CONTINUOUS
 62
     7
 10
-1020.583215621832
 20
191.9173875839302
 30
0.0
 40
1.498125409146074
 50
225.0163126662362
 51
270.0161454341151
  0
LINE
  5
1BF
  8
0
  6
CONTINUOUS
 62
     9
 10
-1020.582793463604
 20
190.4192622342643
 30
0.0
 11
-1020.927558245809
 21
190.0744974520596
 31
0.0
  0
LINE
  5
1C0
  8
0
  6
CONTINUOUS
 62
     9
 10
-853.3724417541914
 20
190.0744974520595
 30
0.0
 11
-853.7172065363962
 21
190.4192622342643
 31
0.0
  0
ARC
  5
1C1
  8
0
  6
CONTINUOUS
 62
     7
 10
-853.7167843781644
 20
191.9173875839241
 30
0.0
 40
1.498125409139969
 50
269.9838545657511
 51
314.9836872495023
  0
ARC
  5
1C2
  8
0
  6
CONTINUOUS
 62
     7
 10
-853.7173875839364
 20
191.9167843781713
 30
0.0
 40
1.498125409152277
 50
315.0163125821023
 51
0.0161454339839224
  0
LINE
  5
1C3
  8
0
  6
CONTINUOUS
 62
     9
 10
-852.2192622342643
 20
191.9172065363962
 30
0.0
 11
-851.8744974520596
 21
191.5724417541914
 31
0.0
  0
LINE
  5
1C4
  8
0
  6
CONTINUOUS
 62
     9
 10
-584.0724417541913
 20
190.0744974520596
 30
0.0
 11
-584.4172065363962
 21
190.4192622342644
 31
0.0
  0
ARC
  5
1C5
  8
0
  6
CONTINUOUS
 62
     7
 10
-584.4166845653984
 20
191.9171464214033
 30
0.0
 40
1.49788427808514
 50
269.9800340144844
 51
314.9875078852905
  0
ARC
  5
1C6
  8
0
  6
CONTINUOUS
 62
     7
 10
-584.4173875839305
 20
191.916784378168
 30
0.0
 40
1.498125409146366
 50
315.0163126664927
 51
0.0161454341108538
  0
LINE
  5
1C7
  8
0
  6
CONTINUOUS
 62
     9
 10
-582.9192622342642
 20
191.9172065363962
 30
0.0
 11
-582.5744974520594
 21
191.5724417541914
 31
0.0
  0
LINE
  5
1C8
  8
0
  6
CONTINUOUS
 62
     9
 10
-726.5744974520595
 20
258.4275582458086
 30
0.0
 11
-726.9192622342642
 21
258.0827934636038
 31
0.0
  0
ARC
  5
1C9
  8
0
  6
CONTINUOUS
 62
     7
 10
-728.417146421403
 20
258.0833154346017
 30
0.0
 40
1.497884278084874
 50
359.9800340144783
 51
44.98750788216745
  0
ARC
  5
1CA
  8
0
  6
CONTINUOUS
 62
     7
 10
-728.4167843781679
 20
258.0826124160695
 30
0.0
 40
1.498125409146303
 50
45.01631266336381
 51
90.01614543411243
  0
LINE
  5
1CB
  8
0
  6
CONTINUOUS
 62
     9
 10
-728.4172065363962
 20
259.5807377657356
 30
0.0
 11
-728.0724417541913
 21
259.9255025479404
 31
0.0
  0
LINE
  5
1CC
  8
0
  6
CONTINUOUS
 62
     9
 10
-776.7744974520594
 20
258.4275582458086
 30
0.0
 11
-777.1192622342643
 21
258.0827934636038
 31
0.0
  0
POLYLINE
  5
1CD
  8
0
  6
CONTINUOUS
 62
     7
 66
     1
 10
0.0
 20
0.0
 30
0.0
  0
VERTEX
  5
6F2
  8
0
  6
CONTINUOUS
 62
     7
 10
-777.1192622342644
 20
258.0827934636038
 30
0.0
  0
VERTEX
  5
6F3
  8
0
  6
CONTINUOUS
 62
     7
 10
-777.1480236232627
 20
258.3752462542469
 30
0.0
  0
VERTEX
  5
6F4
  8
0
  6
CONTINUOUS
 62
     7
 10
-777.2332063451589
 20
258.6563417256389
 30
0.0
  0
VERTEX
  5
6F5
  8
0
  6
CONTINUOUS
 62
     7
 10
-777.3715482455568
 20
258.9153150559088
 30
0.0
  0
VERTEX
  5
6F6
  8
0
  6
CONTINUOUS
 62
     7
 10
-777.5577513881086
 20
259.1422486118914
 30
0.0
  0
VERTEX
  5
6F7
  8
0
  6
CONTINUOUS
 62
     7
 10
-777.7846849440912
 20
259.3284517544432
 30
0.0
  0
VERTEX
  5
6F8
  8
0
  6
CONTINUOUS
 62
     7
 10
-778.0436582743611
 20
259.4667936548411
 30
0.0
  0
VERTEX
  5
6F9
  8
0
  6
CONTINUOUS
 62
     7
 10
-778.3247537457531
 20
259.5519763767373
 30
0.0
  0
VERTEX
  5
6FA
  8
0
  6
CONTINUOUS
 62
     7
 10
-778.6172065363962
 20
259.5807377657356
 30
0.0
  0
SEQEND
  5
9B8
  8
0
  6
CONTINUOUS
 62
     7
  0
LINE
  5
1CE
  8
0
  6
CONTINUOUS
 62
     9
 10
-778.6172065363962
 20
259.5807377657357
 30
0.0
 11
-778.2724417541914
 21
259.9255025479405
 31
0.0
  0
LINE
  5
1CF
  8
0
  6
CONTINUOUS
 62
     9
 10
-778.2724417541914
 20
190.0744974520595
 30
0.0
 11
-778.6172065363961
 21
190.4192622342643
 31
0.0
  0
POLYLINE
  5
1D0
  8
0
  6
CONTINUOUS
 62
     7
 66
     1
 10
0.0
 20
0.0
 30
0.0
  0
VERTEX
  5
6FB
  8
0
  6
CONTINUOUS
 62
     7
 10
-778.6172065363961
 20
190.4192622342643
 30
0.0
  0
VERTEX
  5
6FC
  8
0
  6
CONTINUOUS
 62
     7
 10
-778.3247537457531
 20
190.4480236232627
 30
0.0
  0
VERTEX
  5
6FD
  8
0
  6
CONTINUOUS
 62
     7
 10
-778.0436582743611
 20
190.5332063451589
 30
0.0
  0
VERTEX
  5
6FE
  8
0
  6
CONTINUOUS
 62
     7
 10
-777.7846849440912
 20
190.6715482455567
 30
0.0
  0
VERTEX
  5
6FF
  8
0
  6
CONTINUOUS
 62
     7
 10
-777.5577513881086
 20
190.8577513881086
 30
0.0
  0
VERTEX
  5
700
  8
0
  6
CONTINUOUS
 62
     7
 10
-777.3715482455567
 20
191.0846849440912
 30
0.0
  0
VERTEX
  5
701
  8
0
  6
CONTINUOUS
 62
     7
 10
-777.2332063451588
 20
191.3436582743611
 30
0.0
  0
VERTEX
  5
702
  8
0
  6
CONTINUOUS
 62
     7
 10
-777.1480236232627
 20
191.6247537457531
 30
0.0
  0
VERTEX
  5
703
  8
0
  6
CONTINUOUS
 62
     7
 10
-777.1192622342644
 20
191.9172065363962
 30
0.0
  0
SEQEND
  5
9B9
  8
0
  6
CONTINUOUS
 62
     7
  0
LINE
  5
1D1
  8
0
  6
CONTINUOUS
 62
     9
 10
-777.1192622342643
 20
191.9172065363962
 30
0.0
 11
-776.7744974520594
 21
191.5724417541914
 31
0.0
  0
LINE
  5
1D2
  8
0
  6
CONTINUOUS
 62
     9
 10
-582.5744974520594
 20
258.4275582458087
 30
0.0
 11
-582.9192622342642
 21
258.0827934636038
 31
0.0
  0
ARC
  5
1D3
  8
0
  6
CONTINUOUS
 62
     7
 10
-584.4171464214032
 20
258.0833154346015
 30
0.0
 40
1.497884278085303
 50
359.9800340144852
 51
44.98750788525876
  0
ARC
  5
1D4
  8
0
  6
CONTINUOUS
 62
     7
 10
-584.4167843781677
 20
258.0826124160698
 30
0.0
 40
1.498125409146088
 50
45.01631266645972
 51
90.01614543411513
  0
LINE
  5
1D5
  8
0
  6
CONTINUOUS
 62
     9
 10
-584.4172065363961
 20
259.5807377657357
 30
0.0
 11
-584.0724417541912
 21
259.9255025479404
 31
0.0
  0
LINE
  5
1D6
  8
0
  6
CONTINUOUS
 62
     9
 10
-753.1255025479404
 20
191.5724417541914
 30
0.0
 11
-752.7807377657356
 21
191.9172065363962
 31
0.0
  0
ARC
  5
1D7
  8
0
  6
CONTINUOUS
 62
     7
 10
-751.282853578587
 20
191.9166845654032
 30
0.0
 40
1.497884278094799
 50
179.9800340146619
 51
224.9875079692652
  0
ARC
  5
1D8
  8
0
  6
CONTINUOUS
 62
     7
 10
-751.2832156218356
 20
191.9173875839241
 30
0.0
 40
1.498125409139941
 50
225.0163127505109
 51
270.0161454342455
  0
LINE
  5
1D9
  8
0
  6
CONTINUOUS
 62
     9
 10
-751.2827934636039
 20
190.4192622342643
 30
0.0
 11
-751.6275582458086
 21
190.0744974520595
 31
0.0
  0
LINE
  5
1DA
  8
0
  6
CONTINUOUS
 62
     9
 10
-751.6275582458086
 20
259.9255025479404
 30
0.0
 11
-751.2827934636039
 21
259.5807377657356
 31
0.0
  0
ARC
  5
1DB
  8
0
  6
CONTINUOUS
 62
     7
 10
-751.2833154346015
 20
258.0828535785967
 30
0.0
 40
1.497884278085142
 50
89.98003401448521
 51
134.9875078851016
  0
ARC
  5
1DC
  8
0
  6
CONTINUOUS
 62
     7
 10
-751.2826124160696
 20
258.0832156218321
 30
0.0
 40
1.498125409146185
 50
135.0163126662337
 51
180.0161454341138
  0
LINE
  5
1DD
  8
0
  6
CONTINUOUS
 62
     9
 10
-752.7807377657356
 20
258.0827934636038
 30
0.0
 11
-753.1255025479404
 21
258.4275582458086
 31
0.0
  0
LINE
  5
1DE
  8
0
  6
CONTINUOUS
 62
     9
 10
-692.4255025479405
 20
191.5724417541914
 30
0.0
 11
-692.0807377657356
 21
191.9172065363962
 31
0.0
  0
ARC
  5
1DF
  8
0
  6
CONTINUOUS
 62
     7
 10
-690.5828535785967
 20
191.9166845653985
 30
0.0
 40
1.497884278085122
 50
179.9800340144832
 51
224.9875078850348
  0
ARC
  5
1E0
  8
0
  6
CONTINUOUS
 62
     7
 10
-690.5832156218321
 20
191.9173875839303
 30
0.0
 40
1.498125409146116
 50
225.0163126662321
 51
270.0161454341151
  0
LINE
  5
1E1
  8
0
  6
CONTINUOUS
 62
     9
 10
-690.5827934636037
 20
190.4192622342644
 30
0.0
 11
-690.9275582458085
 21
190.0744974520596
 31
0.0
  0
LINE
  5
1E2
  8
0
  6
CONTINUOUS
 62
     9
 10
-826.7275582458086
 20
259.9255025479404
 30
0.0
 11
-826.3827934636039
 21
259.5807377657356
 31
0.0
  0
POLYLINE
  5
1E3
  8
0
  6
CONTINUOUS
 62
     7
 66
     1
 10
0.0
 20
0.0
 30
0.0
  0
VERTEX
  5
704
  8
0
  6
CONTINUOUS
 62
     7
 10
-826.3827934636038
 20
259.5807377657356
 30
0.0
  0
VERTEX
  5
705
  8
0
  6
CONTINUOUS
 62
     7
 10
-826.6752462542469
 20
259.5519763767373
 30
0.0
  0
VERTEX
  5
706
  8
0
  6
CONTINUOUS
 62
     7
 10
-826.9563417256388
 20
259.4667936548411
 30
0.0
  0
VERTEX
  5
707
  8
0
  6
CONTINUOUS
 62
     7
 10
-827.2153150559087
 20
259.3284517544432
 30
0.0
  0
VERTEX
  5
708
  8
0
  6
CONTINUOUS
 62
     7
 10
-827.4422486118914
 20
259.1422486118914
 30
0.0
  0
VERTEX
  5
709
  8
0
  6
CONTINUOUS
 62
     7
 10
-827.6284517544432
 20
258.9153150559088
 30
0.0
  0
VERTEX
  5
70A
  8
0
  6
CONTINUOUS
 62
     7
 10
-827.7667936548411
 20
258.6563417256389
 30
0.0
  0
VERTEX
  5
70B
  8
0
  6
CONTINUOUS
 62
     7
 10
-827.8519763767373
 20
258.3752462542469
 30
0.0
  0
VERTEX
  5
70C
  8
0
  6
CONTINUOUS
 62
     7
 10
-827.8807377657356
 20
258.0827934636038
 30
0.0
  0
SEQEND
  5
9BA
  8
0
  6
CONTINUOUS
 62
     7
  0
LINE
  5
1E4
  8
0
  6
CONTINUOUS
 62
     9
 10
-827.8807377657356
 20
258.0827934636038
 30
0.0
 11
-828.2255025479404
 21
258.4275582458087
 31
0.0
  0
LINE
  5
1E5
  8
0
  6
CONTINUOUS
 62
     9
 10
-828.2255025479404
 20
191.5724417541914
 30
0.0
 11
-827.8807377657356
 21
191.9172065363962
 31
0.0
  0
POLYLINE
  5
1E6
  8
0
  6
CONTINUOUS
 62
     7
 66
     1
 10
0.0
 20
0.0
 30
0.0
  0
VERTEX
  5
70D
  8
0
  6
CONTINUOUS
 62
     7
 10
-827.8807377657356
 20
191.9172065363962
 30
0.0
  0
VERTEX
  5
70E
  8
0
  6
CONTINUOUS
 62
     7
 10
-827.8519763767373
 20
191.6247537457531
 30
0.0
  0
VERTEX
  5
70F
  8
0
  6
CONTINUOUS
 62
     7
 10
-827.7667936548412
 20
191.3436582743611
 30
0.0
  0
VERTEX
  5
710
  8
0
  6
CONTINUOUS
 62
     7
 10
-827.6284517544433
 20
191.0846849440912
 30
0.0
  0
VERTEX
  5
711
  8
0
  6
CONTINUOUS
 62
     7
 10
-827.4422486118914
 20
190.8577513881086
 30
0.0
  0
VERTEX
  5
712
  8
0
  6
CONTINUOUS
 62
     7
 10
-827.2153150559088
 20
190.6715482455567
 30
0.0
  0
VERTEX
  5
713
  8
0
  6
CONTINUOUS
 62
     7
 10
-826.9563417256389
 20
190.5332063451589
 30
0.0
  0
VERTEX
  5
714
  8
0
  6
CONTINUOUS
 62
     7
 10
-826.6752462542469
 20
190.4480236232627
 30
0.0
  0
VERTEX
  5
715
  8
0
  6
CONTINUOUS
 62
     7
 10
-826.3827934636039
 20
190.4192622342643
 30
0.0
  0
SEQEND
  5
9BB
  8
0
  6
CONTINUOUS
 62
     7
  0
LINE
  5
1E7
  8
0
  6
CONTINUOUS
 62
     9
 10
-826.3827934636039
 20
190.4192622342643
 30
0.0
 11
-826.7275582458085
 21
190.0744974520596
 31
0.0
  0
LINE
  5
1E8
  8
0
  6
CONTINUOUS
 62
     9
 10
-726.9192623020784
 20
191.9172065364007
 30
0.0
 11
-726.9873924116463
 21
191.9172110213791
 31
0.0
  0
LINE
  5
1E9
  8
0
  6
CONTINUOUS
 62
     7
 10
-726.9873923473322
 20
258.0827934636038
 30
0.0
 11
-726.9873924116463
 21
191.9172110213791
 31
0.0
  0
LINE
  5
1EA
  8
0
  6
CONTINUOUS
 62
     9
 10
-726.9192622342642
 20
258.0827934636038
 30
0.0
 11
-726.9873923473322
 21
258.0827934636038
 31
0.0
  0
LINE
  5
1EB
  8
0
  6
CONTINUOUS
 62
     9
 10
-878.0807377657356
 20
258.0827934636038
 30
0.0
 11
-878.0126076526677
 21
258.0827934636038
 31
0.0
  0
LINE
  5
1EC
  8
0
  6
CONTINUOUS
 62
     7
 10
-878.0126076526677
 20
258.0827934636038
 30
0.0
 11
-878.0126075883536
 21
191.9172110213791
 31
0.0
  0
LINE
  5
1ED
  8
0
  6
CONTINUOUS
 62
     9
 10
-878.0807376979214
 20
191.9172065364007
 30
0.0
 11
-878.0126075883536
 21
191.9172110213791
 31
0.0
  0
LINE
  5
1EE
  8
0
  6
CONTINUOUS
 62
     9
 10
-1022.080737765736
 20
258.0827934636038
 30
0.0
 11
-1022.012607652668
 21
258.0827934636038
 31
0.0
  0
LINE
  5
1EF
  8
0
  6
CONTINUOUS
 62
     7
 10
-1022.012607652668
 20
258.0827934636038
 30
0.0
 11
-1022.012607588353
 21
191.9172110213792
 31
0.0
  0
LINE
  5
1F0
  8
0
  6
CONTINUOUS
 62
     9
 10
-1022.080737697921
 20
191.9172065364006
 30
0.0
 11
-1022.012607588353
 21
191.9172110213792
 31
0.0
  0
LINE
  5
1F1
  8
0
  6
CONTINUOUS
 62
     9
 10
-876.582793463604
 20
190.4192622342644
 30
0.0
 11
-876.582793463604
 21
190.4873923473323
 31
0.0
  0
LINE
  5
1F2
  8
0
  6
CONTINUOUS
 62
     7
 10
-876.582793463604
 20
190.4873923473323
 30
0.0
 11
-853.717211021342
 21
190.487392411646
 31
0.0
  0
LINE
  5
1F3
  8
0
  6
CONTINUOUS
 62
     9
 10
-853.7172065364007
 20
190.4192623020781
 30
0.0
 11
-853.7172110213419
 21
190.487392411646
 31
0.0
  0
LINE
  5
1F4
  8
0
  6
CONTINUOUS
 62
     9
 10
-692.0807376979213
 20
258.0827934635993
 30
0.0
 11
-692.0126075883535
 21
258.0827889786208
 31
0.0
  0
LINE
  5
1F5
  8
0
  6
CONTINUOUS
 62
     7
 10
-692.0126076526677
 20
191.9172065363962
 30
0.0
 11
-692.0126075883535
 21
258.0827889786208
 31
0.0
  0
LINE
  5
1F6
  8
0
  6
CONTINUOUS
 62
     9
 10
-692.0807377657356
 20
191.9172065363962
 30
0.0
 11
-692.0126076526677
 21
191.9172065363962
 31
0.0
  0
LINE
  5
1F7
  8
0
  6
CONTINUOUS
 62
     9
 10
-582.9192623020784
 20
191.9172065364006
 30
0.0
 11
-582.9873924116463
 21
191.9172110213792
 31
0.0
  0
LINE
  5
1F8
  8
0
  6
CONTINUOUS
 62
     7
 10
-582.9873923473322
 20
258.0827934636038
 30
0.0
 11
-582.9873924116464
 21
191.9172110213792
 31
0.0
  0
LINE
  5
1F9
  8
0
  6
CONTINUOUS
 62
     9
 10
-582.9192622342642
 20
258.0827934636038
 30
0.0
 11
-582.9873923473322
 21
258.0827934636038
 31
0.0
  0
LINE
  5
1FA
  8
0
  6
CONTINUOUS
 62
     9
 10
-751.2827934635992
 20
190.4192623020781
 30
0.0
 11
-751.2827889786581
 21
190.487392411646
 31
0.0
  0
LINE
  5
1FB
  8
0
  6
CONTINUOUS
 62
     7
 10
-728.417206536396
 20
190.4873923473323
 30
0.0
 11
-751.282788978658
 21
190.487392411646
 31
0.0
  0
LINE
  5
1FC
  8
0
  6
CONTINUOUS
 62
     9
 10
-728.417206536396
 20
190.4192622342644
 30
0.0
 11
-728.417206536396
 21
190.4873923473323
 31
0.0
  0
LINE
  5
1FD
  8
0
  6
CONTINUOUS
 62
     9
 10
-853.7172065363962
 20
259.5807377657357
 30
0.0
 11
-853.7172065363962
 21
259.5126076526678
 31
0.0
  0
LINE
  5
1FE
  8
0
  6
CONTINUOUS
 62
     7
 10
-853.7172065363962
 20
259.5126076526678
 30
0.0
 11
-876.5827889786209
 21
259.5126075883535
 31
0.0
  0
LINE
  5
1FF
  8
0
  6
CONTINUOUS
 62
     9
 10
-876.5827934635995
 20
259.5807376979214
 30
0.0
 11
-876.582788978621
 21
259.5126075883535
 31
0.0
  0
LINE
  5
200
  8
0
  6
CONTINUOUS
 62
     9
 10
-912.9192622342644
 20
191.9172065363962
 30
0.0
 11
-912.9873923473323
 21
191.9172065363962
 31
0.0
  0
LINE
  5
201
  8
0
  6
CONTINUOUS
 62
     7
 10
-912.9873923473323
 20
191.9172065363962
 30
0.0
 11
-912.9873924116465
 21
258.0827889786208
 31
0.0
  0
LINE
  5
202
  8
0
  6
CONTINUOUS
 62
     9
 10
-912.9192623020787
 20
258.0827934635993
 30
0.0
 11
-912.9873924116465
 21
258.0827889786208
 31
0.0
  0
LINE
  5
203
  8
0
  6
CONTINUOUS
 62
     9
 10
-1020.582793463604
 20
190.4192622342643
 30
0.0
 11
-1020.582793463604
 21
190.4873923473323
 31
0.0
  0
LINE
  5
204
  8
0
  6
CONTINUOUS
 62
     7
 10
-1020.582793463604
 20
190.4873923473323
 30
0.0
 11
-914.4172110213792
 21
190.4873924116465
 31
0.0
  0
LINE
  5
205
  8
0
  6
CONTINUOUS
 62
     9
 10
-914.4172065364006
 20
190.4192623020786
 30
0.0
 11
-914.4172110213793
 21
190.4873924116465
 31
0.0
  0
LINE
  5
206
  8
0
  6
CONTINUOUS
 62
     9
 10
-690.5827934635993
 20
190.4192623020786
 30
0.0
 11
-690.5827889786207
 21
190.4873924116465
 31
0.0
  0
LINE
  5
207
  8
0
  6
CONTINUOUS
 62
     7
 10
-584.4172065363962
 20
190.4873923473323
 30
0.0
 11
-690.5827889786208
 21
190.4873924116465
 31
0.0
  0
LINE
  5
208
  8
0
  6
CONTINUOUS
 62
     9
 10
-584.4172065363962
 20
190.4192622342643
 30
0.0
 11
-584.4172065363962
 21
190.4873923473323
 31
0.0
  0
LINE
  5
209
  8
0
  6
CONTINUOUS
 62
     9
 10
-914.4172065363962
 20
259.5807377657357
 30
0.0
 11
-914.4172065363962
 21
259.5126076526678
 31
0.0
  0
LINE
  5
20A
  8
0
  6
CONTINUOUS
 62
     7
 10
-914.4172065363962
 20
259.5126076526678
 30
0.0
 11
-1020.582788978621
 21
259.5126075883535
 31
0.0
  0
LINE
  5
20B
  8
0
  6
CONTINUOUS
 62
     9
 10
-1020.582793463599
 20
259.5807376979214
 30
0.0
 11
-1020.582788978621
 21
259.5126075883536
 31
0.0
  0
LINE
  5
20C
  8
0
  6
CONTINUOUS
 62
     9
 10
-584.4172065364006
 20
259.5807376979214
 30
0.0
 11
-584.417211021379
 21
259.5126075883536
 31
0.0
  0
LINE
  5
20D
  8
0
  6
CONTINUOUS
 62
     7
 10
-690.5827934636037
 20
259.5126076526678
 30
0.0
 11
-584.4172110213789
 21
259.5126075883535
 31
0.0
  0
LINE
  5
20E
  8
0
  6
CONTINUOUS
 62
     9
 10
-690.5827934636037
 20
259.5807377657357
 30
0.0
 11
-690.5827934636037
 21
259.5126076526678
 31
0.0
  0
LINE
  5
20F
  8
0
  6
CONTINUOUS
 62
     9
 10
-752.7807376979214
 20
258.0827934635993
 30
0.0
 11
-752.7126075883535
 21
258.082788978621
 31
0.0
  0
LINE
  5
210
  8
0
  6
CONTINUOUS
 62
     7
 10
-752.7126076526677
 20
191.9172065363962
 30
0.0
 11
-752.7126075883534
 21
258.082788978621
 31
0.0
  0
LINE
  5
211
  8
0
  6
CONTINUOUS
 62
     9
 10
-752.7807377657356
 20
191.9172065363962
 30
0.0
 11
-752.7126076526677
 21
191.9172065363962
 31
0.0
  0
LINE
  5
212
  8
0
  6
CONTINUOUS
 62
     9
 10
-728.4172065364005
 20
259.5807376979214
 30
0.0
 11
-728.4172110213789
 21
259.5126075883535
 31
0.0
  0
LINE
  5
213
  8
0
  6
CONTINUOUS
 62
     7
 10
-751.2827934636038
 20
259.5126076526678
 30
0.0
 11
-728.417211021379
 21
259.5126075883535
 31
0.0
  0
LINE
  5
214
  8
0
  6
CONTINUOUS
 62
     9
 10
-751.2827934636038
 20
259.5807377657357
 30
0.0
 11
-751.2827934636038
 21
259.5126076526678
 31
0.0
  0
LINE
  5
215
  8
0
  6
CONTINUOUS
 62
     9
 10
-852.2192622342643
 20
191.9172065363962
 30
0.0
 11
-852.2873923473323
 21
191.9172065363962
 31
0.0
  0
LINE
  5
216
  8
0
  6
CONTINUOUS
 62
     7
 10
-852.2873923473323
 20
191.9172065363962
 30
0.0
 11
-852.2873924116465
 21
258.082788978621
 31
0.0
  0
LINE
  5
217
  8
0
  6
CONTINUOUS
 62
     9
 10
-852.2192623020785
 20
258.0827934635993
 30
0.0
 11
-852.2873924116464
 21
258.082788978621
 31
0.0
  0
LINE
  5
218
  8
0
  6
CONTINUOUS
 62
     7
 10
-827.8807377657356
 20
191.9172065363962
 30
0.0
 11
-827.8807377657356
 21
258.0827934636038
 31
0.0
  0
LINE
  5
219
  8
0
  6
CONTINUOUS
 62
     7
 10
-777.1192622342643
 20
258.0827934636038
 30
0.0
 11
-777.1192622342643
 21
191.9172065363962
 31
0.0
  0
LINE
  5
21A
  8
0
  6
CONTINUOUS
 62
     7
 10
-778.6172065363962
 20
259.5807377657357
 30
0.0
 11
-826.3827934636039
 21
259.5807377657357
 31
0.0
  0
LINE
  5
21B
  8
0
  6
CONTINUOUS
 62
     7
 10
-826.3827934636039
 20
190.4192622342643
 30
0.0
 11
-778.6172065363961
 21
190.4192622342643
 31
0.0
  0
ARC
  5
21C
  8
0
  6
CONTINUOUS
 62
     7
 10
-728.4164674450395
 20
258.0835324930049
 30
0.0
 40
1.429075288797403
 50
359.9703701632515
 51
90.02981213673957
  0
ARC
  5
21D
  8
0
  6
CONTINUOUS
 62
     7
 10
-876.5835325549605
 20
258.0835324930049
 30
0.0
 40
1.429075288797403
 50
89.97018786326042
 51
180.0296298367485
  0
ARC
  5
21E
  8
0
  6
CONTINUOUS
 62
     7
 10
-690.5835325549605
 20
191.9164675069951
 30
0.0
 40
1.429075288797389
 50
179.9703701632529
 51
270.0298121367491
  0
ARC
  5
21F
  8
0
  6
CONTINUOUS
 62
     7
 10
-914.4164674450394
 20
191.9164675069951
 30
0.0
 40
1.429075288797389
 50
269.9701878632509
 51
0.0296298367471195
  0
ARC
  5
220
  8
0
  6
CONTINUOUS
 62
     7
 10
-751.2835324930048
 20
258.0835325549604
 30
0.0
 40
1.4290752887975
 50
89.97037016325288
 51
180.0298121367384
  0
ARC
  5
221
  8
0
  6
CONTINUOUS
 62
     7
 10
-853.7164675069952
 20
258.0835325549604
 30
0.0
 40
1.4290752887975
 50
359.9701878632615
 51
90.02962983674706
  0
ARC
  5
222
  8
0
  6
CONTINUOUS
 62
     7
 10
-584.4164674450392
 20
258.0835324930052
 30
0.0
 40
1.429075288797125
 50
359.9703701632417
 51
90.02981213674904
  0
ARC
  5
223
  8
0
  6
CONTINUOUS
 62
     7
 10
-1020.583532554961
 20
258.0835324930052
 30
0.0
 40
1.429075288797125
 50
89.97018786325094
 51
180.0296298367583
  0
ARC
  5
224
  8
0
  6
CONTINUOUS
 62
     7
 10
-751.283532555766
 20
191.9164675061891
 30
0.0
 40
1.429075287992315
 50
179.9703701309193
 51
270.0298121675665
  0
ARC
  5
225
  8
0
  6
CONTINUOUS
 62
     7
 10
-853.716467444234
 20
191.9164675061891
 30
0.0
 40
1.429075287992315
 50
269.9701878324335
 51
0.0296298690806793
  0
ARC
  5
226
  8
0
  6
CONTINUOUS
 62
     7
 10
-690.583532493005
 20
258.0835325549606
 30
0.0
 40
1.429075288797326
 50
89.97037016324985
 51
180.0298121367521
  0
ARC
  5
227
  8
0
  6
CONTINUOUS
 62
     7
 10
-914.416467506995
 20
258.0835325549606
 30
0.0
 40
1.429075288797326
 50
359.9701878632479
 51
90.02962983675012
  0
ARC
  5
228
  8
0
  6
CONTINUOUS
 62
     7
 10
-584.4164675069949
 20
191.9164674450394
 30
0.0
 40
1.429075288797285
 50
269.9703701632454
 51
0.0298121367515591
  0
ARC
  5
229
  8
0
  6
CONTINUOUS
 62
     7
 10
-1020.583532493005
 20
191.9164674450394
 30
0.0
 40
1.429075288797285
 50
179.9701878632484
 51
270.0296298367547
  0
ARC
  5
22A
  8
0
  6
CONTINUOUS
 62
     7
 10
-876.5835324930049
 20
191.9164674450396
 30
0.0
 40
1.429075288797437
 50
179.9701878632593
 51
270.0296298367418
  0
ARC
  5
22B
  8
0
  6
CONTINUOUS
 62
     7
 10
-728.4164675069951
 20
191.9164674450396
 30
0.0
 40
1.429075288797437
 50
269.9703701632582
 51
0.029812136740702
  0
LINE
  5
22C
  8
0
  6
CONTINUOUS
 62
     9
 10
-913.9016874711428
 20
258.0827933460691
 30
0.0
 11
-913.1511321211964
 21
258.0827934636038
 31
0.0
  0
POLYLINE
  5
22D
  8
0
  6
CONTINUOUS
 62
     7
 66
     1
 10
0.0
 20
0.0
 30
0.0
  0
VERTEX
  5
716
  8
0
  6
CONTINUOUS
 62
     7
 10
-914.4172065320823
 20
258.5983125288571
 30
0.0
  0
VERTEX
  5
717
  8
0
  6
CONTINUOUS
 62
     7
 10
-914.3956859373101
 20
258.5978538914756
 30
0.0
  0
VERTEX
  5
718
  8
0
  6
CONTINUOUS
 62
     7
 10
-914.3741848624451
 20
258.5964843270806
 30
0.0
  0
VERTEX
  5
719
  8
0
  6
CONTINUOUS
 62
     7
 10
-914.3527598726517
 20
258.5942133412287
 30
0.0
  0
VERTEX
  5
71A
  8
0
  6
CONTINUOUS
 62
     7
 10
-914.3314675330938
 20
258.5910504394764
 30
0.0
  0
VERTEX
  5
71B
  8
0
  6
CONTINUOUS
 62
     7
 10
-914.3097070438731
 20
258.5868678232836
 30
0.0
  0
VERTEX
  5
71C
  8
0
  6
CONTINUOUS
 62
     7
 10
-914.2881253404719
 20
258.5817553506101
 30
0.0
  0
VERTEX
  5
71D
  8
0
  6
CONTINUOUS
 62
     7
 10
-914.2667799845665
 20
258.5757309668309
 30
0.0
  0
VERTEX
  5
71E
  8
0
  6
CONTINUOUS
 62
     7
 10
-914.2457285378339
 20
258.5688126173206
 30
0.0
  0
VERTEX
  5
71F
  8
0
  6
CONTINUOUS
 62
     7
 10
-914.2255823879211
 20
258.5612430603785
 30
0.0
  0
VERTEX
  5
720
  8
0
  6
CONTINUOUS
 62
     7
 10
-914.2057477134293
 20
258.5528443725367
 30
0.0
  0
VERTEX
  5
721
  8
0
  6
CONTINUOUS
 62
     7
 10
-914.1862748896588
 20
258.5436379631529
 30
0.0
  0
VERTEX
  5
722
  8
0
  6
CONTINUOUS
 62
     7
 10
-914.1672142919092
 20
258.5336452415847
 30
0.0
  0
VERTEX
  5
723
  8
0
  6
CONTINUOUS
 62
     7
 10
-914.1480549743143
 20
258.5225492502033
 30
0.0
  0
VERTEX
  5
724
  8
0
  6
CONTINUOUS
 62
     7
 10
-914.1293697802814
 20
258.5106342251975
 30
0.0
  0
VERTEX
  5
725
  8
0
  6
CONTINUOUS
 62
     7
 10
-914.1112126980812
 20
258.4979296768274
 30
0.0
  0
VERTEX
  5
726
  8
0
  6
CONTINUOUS
 62
     7
 10
-914.0936377159842
 20
258.4844651153529
 30
0.0
  0
VERTEX
  5
727
  8
0
  6
CONTINUOUS
 62
     7
 10
-914.0770984100728
 20
258.4706218097539
 30
0.0
  0
VERTEX
  5
728
  8
0
  6
CONTINUOUS
 62
     7
 10
-914.0611513030557
 20
258.4560706598421
 30
0.0
  0
VERTEX
  5
729
  8
0
  6
CONTINUOUS
 62
     7
 10
-914.0458439354838
 20
258.4408486329447
 30
0.0
  0
VERTEX
  5
72A
  8
0
  6
CONTINUOUS
 62
     7
 10
-914.0312238479091
 20
258.4249926963891
 30
0.0
  0
VERTEX
  5
72B
  8
0
  6
CONTINUOUS
 62
     7
 10
-914.016885491681
 20
258.4079980009381
 30
0.0
  0
VERTEX
  5
72C
  8
0
  6
CONTINUOUS
 62
     7
 10
-914.0032945874493
 20
258.3903729881578
 30
0.0
  0
VERTEX
  5
72D
  8
0
  6
CONTINUOUS
 62
     7
 10
-913.9904813469649
 20
258.3721738986643
 30
0.0
  0
VERTEX
  5
72E
  8
0
  6
CONTINUOUS
 62
     7
 10
-913.9784759819789
 20
258.3534569730735
 30
0.0
  0
VERTEX
  5
72F
  8
0
  6
CONTINUOUS
 62
     7
 10
-913.9678801115899
 20
258.3353132752927
 30
0.0
  0
VERTEX
  5
730
  8
0
  6
CONTINUOUS
 62
     7
 10
-913.9580143786027
 20
258.3167432459687
 30
0.0
  0
VERTEX
  5
731
  8
0
  6
CONTINUOUS
 62
     7
 10
-913.9488990331912
 20
258.2977933602527
 30
0.0
  0
VERTEX
  5
732
  8
0
  6
CONTINUOUS
 62
     7
 10
-913.9405543255297
 20
258.2785100932959
 30
0.0
  0
VERTEX
  5
733
  8
0
  6
CONTINUOUS
 62
     7
 10
-913.9327949902529
 20
258.2583784890638
 30
0.0
  0
VERTEX
  5
734
  8
0
  6
CONTINUOUS
 62
     7
 10
-913.9258610727074
 20
258.2379286484922
 30
0.0
  0
VERTEX
  5
735
  8
0
  6
CONTINUOUS
 62
     7
 10
-913.9197713272108
 20
258.2172119306313
 30
0.0
  0
VERTEX
  5
736
  8
0
  6
CONTINUOUS
 62
     7
 10
-913.9145445080801
 20
258.1962796945315
 30
0.0
  0
VERTEX
  5
737
  8
0
  6
CONTINUOUS
 62
     7
 10
-913.9106724174985
 20
258.1777266112351
 30
0.0
  0
VERTEX
  5
738
  8
0
  6
CONTINUOUS
 62
     7
 10
-913.9074798051007
 20
258.1590382274422
 30
0.0
  0
VERTEX
  5
739
  8
0
  6
CONTINUOUS
 62
     7
 10
-913.9049773890522
 20
258.140251507461
 30
0.0
  0
VERTEX
  5
73A
  8
0
  6
CONTINUOUS
 62
     7
 10
-913.9031552183086
 20
258.1211470840577
 30
0.0
  0
VERTEX
  5
73B
  8
0
  6
CONTINUOUS
 62
     7
 10
-913.9020557994744
 20
258.1019806716606
 30
0.0
  0
VERTEX
  5
73C
  8
0
  6
CONTINUOUS
 62
     7
 10
-913.9016874711428
 20
258.0827933460691
 30
0.0
  0
SEQEND
  5
9BC
  8
0
  6
CONTINUOUS
 62
     7
  0
LINE
  5
22E
  8
0
  6
CONTINUOUS
 62
     9
 10
-914.4172065320823
 20
258.5983125288571
 30
0.0
 11
-914.4172065320823
 21
259.3488678788036
 31
0.0
  0
ARC
  5
22F
  8
0
  6
CONTINUOUS
 62
     7
 10
-914.4163767558458
 20
258.0836232441513
 30
0.0
 40
1.265244906745325
 50
359.9624239335407
 51
90.03757587123998
  0
LINE
  5
230
  8
0
  6
CONTINUOUS
 62
     9
 10
-583.9016874711427
 20
258.0827933461432
 30
0.0
 11
-583.1511321211963
 21
258.0827934636038
 31
0.0
  0
POLYLINE
  5
231
  8
0
  6
CONTINUOUS
 62
     7
 66
     1
 10
0.0
 20
0.0
 30
0.0
  0
VERTEX
  5
73D
  8
0
  6
CONTINUOUS
 62
     7
 10
-583.9016874711427
 20
258.0827933461432
 30
0.0
  0
VERTEX
  5
73E
  8
0
  6
CONTINUOUS
 62
     7
 10
-583.9021531136462
 20
258.1043461196611
 30
0.0
  0
VERTEX
  5
73F
  8
0
  6
CONTINUOUS
 62
     7
 10
-583.9035414009574
 20
258.1258787589714
 30
0.0
  0
VERTEX
  5
740
  8
0
  6
CONTINUOUS
 62
     7
 10
-583.9058393847247
 20
258.1473340174241
 30
0.0
  0
VERTEX
  5
741
  8
0
  6
CONTINUOUS
 62
     7
 10
-583.9090341165968
 20
258.1686546483691
 30
0.0
  0
VERTEX
  5
742
  8
0
  6
CONTINUOUS
 62
     7
 10
-583.9132524030354
 20
258.1904472359565
 30
0.0
  0
VERTEX
  5
743
  8
0
  6
CONTINUOUS
 62
     7
 10
-583.9184010421105
 20
258.2120596411299
 30
0.0
  0
VERTEX
  5
744
  8
0
  6
CONTINUOUS
 62
     7
 10
-583.924460667349
 20
258.2334348747847
 30
0.0
  0
VERTEX
  5
745
  8
0
  6
CONTINUOUS
 62
     7
 10
-583.9314119122766
 20
258.2545159478165
 30
0.0
  0
VERTEX
  5
746
  8
0
  6
CONTINUOUS
 62
     7
 10
-583.9390074572257
 20
258.2746842226177
 30
0.0
  0
VERTEX
  5
747
  8
0
  6
CONTINUOUS
 62
     7
 10
-583.9474287012407
 20
258.2945416012776
 30
0.0
  0
VERTEX
  5
748
  8
0
  6
CONTINUOUS
 62
     7
 10
-583.9566548265218
 20
258.314037920895
 30
0.0
  0
VERTEX
  5
749
  8
0
  6
CONTINUOUS
 62
     7
 10
-583.9666650152687
 20
258.3331230185689
 30
0.0
  0
VERTEX
  5
74A
  8
0
  6
CONTINUOUS
 62
     7
 10
-583.9777754892265
 20
258.3523051848467
 30
0.0
  0
VERTEX
  5
74B
  8
0
  6
CONTINUOUS
 62
     7
 10
-583.9897048482561
 20
258.3710133320607
 30
0.0
  0
VERTEX
  5
74C
  8
0
  6
CONTINUOUS
 62
     7
 10
-584.0024252636482
 20
258.3891921312285
 30
0.0
  0
VERTEX
  5
74D
  8
0
  6
CONTINUOUS
 62
     7
 10
-584.0159089066934
 20
258.4067862533677
 30
0.0
  0
VERTEX
  5
74E
  8
0
  6
CONTINUOUS
 62
     7
 10
-584.0298069224059
 20
258.4233720293135
 30
0.0
  0
VERTEX
  5
74F
  8
0
  6
CONTINUOUS
 62
     7
 10
-584.0444221152339
 20
258.4393569226579
 30
0.0
  0
VERTEX
  5
750
  8
0
  6
CONTINUOUS
 62
     7
 10
-584.0597132767966
 20
258.454696337378
 30
0.0
  0
VERTEX
  5
751
  8
0
  6
CONTINUOUS
 62
     7
 10
-584.0756391987126
 20
258.4693456774513
 30
0.0
  0
VERTEX
  5
752
  8
0
  6
CONTINUOUS
 62
     7
 10
-584.0927073846851
 20
258.4837156319214
 30
0.0
  0
VERTEX
  5
753
  8
0
  6
CONTINUOUS
 62
     7
 10
-584.1104063925259
 20
258.4973360650455
 30
0.0
  0
VERTEX
  5
754
  8
0
  6
CONTINUOUS
 62
     7
 10
-584.1286811289224
 20
258.5101746258284
 30
0.0
  0
VERTEX
  5
755
  8
0
  6
CONTINUOUS
 62
     7
 10
-584.1474765005617
 20
258.5221989632749
 30
0.0
  0
VERTEX
  5
756
  8
0
  6
CONTINUOUS
 62
     7
 10
-584.1656415465123
 20
258.5327738132873
 30
0.0
  0
VERTEX
  5
757
  8
0
  6
CONTINUOUS
 62
     7
 10
-584.184233980381
 20
258.5426144466278
 30
0.0
  0
VERTEX
  5
758
  8
0
  6
CONTINUOUS
 62
     7
 10
-584.2032071775059
 20
258.5516996413527
 30
0.0
  0
VERTEX
  5
759
  8
0
  6
CONTINUOUS
 62
     7
 10
-584.2225145132259
 20
258.5600081755188
 30
0.0
  0
VERTEX
  5
75A
  8
0
  6
CONTINUOUS
 62
     7
 10
-584.2426783943071
 20
258.5677257526091
 30
0.0
  0
VERTEX
  5
75B
  8
0
  6
CONTINUOUS
 62
     7
 10
-584.2631610943055
 20
258.5746105421721
 30
0.0
  0
VERTEX
  5
75C
  8
0
  6
CONTINUOUS
 62
     7
 10
-584.283910279412
 20
258.5806443694005
 30
0.0
  0
VERTEX
  5
75D
  8
0
  6
CONTINUOUS
 62
     7
 10
-584.3048736158172
 20
258.585809059487
 30
0.0
  0
VERTEX
  5
75E
  8
0
  6
CONTINUOUS
 62
     7
 10
-584.3232479313107
 20
258.5895841337319
 30
0.0
  0
VERTEX
  5
75F
  8
0
  6
CONTINUOUS
 62
     7
 10
-584.341752974713
 20
258.5926922261096
 30
0.0
  0
VERTEX
  5
760
  8
0
  6
CONTINUOUS
 62
     7
 10
-584.360352604698
 20
258.59512453664
 30
0.0
  0
VERTEX
  5
761
  8
0
  6
CONTINUOUS
 62
     7
 10
-584.3792578944943
 20
258.5968919634012
 30
0.0
  0
VERTEX
  5
762
  8
0
  6
CONTINUOUS
 62
     7
 10
-584.3982222920448
 20
258.5979564659653
 30
0.0
  0
VERTEX
  5
763
  8
0
  6
CONTINUOUS
 62
     7
 10
-584.4172065363962
 20
258.5983125288571
 30
0.0
  0
SEQEND
  5
9BD
  8
0
  6
CONTINUOUS
 62
     7
  0
LINE
  5
232
  8
0
  6
CONTINUOUS
 62
     9
 10
-584.4172065363962
 20
258.5983125288571
 30
0.0
 11
-584.4172065363962
 21
259.3488678788036
 31
0.0
  0
ARC
  5
233
  8
0
  6
CONTINUOUS
 62
     7
 10
-584.4163745639103
 20
258.0836254360896
 30
0.0
 40
1.265242716249751
 50
359.9623246078158
 51
90.03767539218863
  0
LINE
  5
234
  8
0
  6
CONTINUOUS
 62
     9
 10
-690.5827933460951
 20
258.5983125288572
 30
0.0
 11
-690.5827934636037
 21
259.3488678788037
 31
0.0
  0
POLYLINE
  5
235
  8
0
  6
CONTINUOUS
 62
     7
 66
     1
 10
0.0
 20
0.0
 30
0.0
  0
VERTEX
  5
764
  8
0
  6
CONTINUOUS
 62
     7
 10
-690.5827933460951
 20
258.5983125288572
 30
0.0
  0
VERTEX
  5
765
  8
0
  6
CONTINUOUS
 62
     7
 10
-690.6043461196202
 20
258.5978468863526
 30
0.0
  0
VERTEX
  5
766
  8
0
  6
CONTINUOUS
 62
     7
 10
-690.6258787589379
 20
258.5964585990419
 30
0.0
  0
VERTEX
  5
767
  8
0
  6
CONTINUOUS
 62
     7
 10
-690.647334017398
 20
258.5941606152753
 30
0.0
  0
VERTEX
  5
768
  8
0
  6
CONTINUOUS
 62
     7
 10
-690.6686546483502
 20
258.5909658834034
 30
0.0
  0
VERTEX
  5
769
  8
0
  6
CONTINUOUS
 62
     7
 10
-690.6904472359446
 20
258.5867475969644
 30
0.0
  0
VERTEX
  5
76A
  8
0
  6
CONTINUOUS
 62
     7
 10
-690.7120596411252
 20
258.5815989578884
 30
0.0
  0
VERTEX
  5
76B
  8
0
  6
CONTINUOUS
 62
     7
 10
-690.7334348747869
 20
258.575539332649
 30
0.0
  0
VERTEX
  5
76C
  8
0
  6
CONTINUOUS
 62
     7
 10
-690.7545159478254
 20
258.5685880877197
 30
0.0
  0
VERTEX
  5
76D
  8
0
  6
CONTINUOUS
 62
     7
 10
-690.7746842226338
 20
258.5609925427682
 30
0.0
  0
VERTEX
  5
76E
  8
0
  6
CONTINUOUS
 62
     7
 10
-690.7945416013007
 20
258.5525712987502
 30
0.0
  0
VERTEX
  5
76F
  8
0
  6
CONTINUOUS
 62
     7
 10
-690.8140379209249
 20
258.5433451734655
 30
0.0
  0
VERTEX
  5
770
  8
0
  6
CONTINUOUS
 62
     7
 10
-690.8331230186051
 20
258.5333349847143
 30
0.0
  0
VERTEX
  5
771
  8
0
  6
CONTINUOUS
 62
     7
 10
-690.8523051848896
 20
258.522224510751
 30
0.0
  0
VERTEX
  5
772
  8
0
  6
CONTINUOUS
 62
     7
 10
-690.8710133321097
 20
258.510295151715
 30
0.0
  0
VERTEX
  5
773
  8
0
  6
CONTINUOUS
 62
     7
 10
-690.8891921312827
 20
258.4975747363158
 30
0.0
  0
VERTEX
  5
774
  8
0
  6
CONTINUOUS
 62
     7
 10
-690.9067862534266
 20
258.4840910932625
 30
0.0
  0
VERTEX
  5
775
  8
0
  6
CONTINUOUS
 62
     7
 10
-690.9233720293664
 20
258.4701930775501
 30
0.0
  0
VERTEX
  5
776
  8
0
  6
CONTINUOUS
 62
     7
 10
-690.9393569227044
 20
258.4555778847222
 30
0.0
  0
VERTEX
  5
777
  8
0
  6
CONTINUOUS
 62
     7
 10
-690.9546963374186
 20
258.4402867231601
 30
0.0
  0
VERTEX
  5
778
  8
0
  6
CONTINUOUS
 62
     7
 10
-690.9693456774859
 20
258.4243608012449
 30
0.0
  0
VERTEX
  5
779
  8
0
  6
CONTINUOUS
 62
     7
 10
-690.9837156319502
 20
258.4072926152741
 30
0.0
  0
VERTEX
  5
77A
  8
0
  6
CONTINUOUS
 62
     7
 10
-690.9973360650686
 20
258.3895936074355
 30
0.0
  0
VERTEX
  5
77B
  8
0
  6
CONTINUOUS
 62
     7
 10
-691.0101746258465
 20
258.3713188710417
 30
0.0
  0
VERTEX
  5
77C
  8
0
  6
CONTINUOUS
 62
     7
 10
-691.0221989632882
 20
258.3525234994053
 30
0.0
  0
VERTEX
  5
77D
  8
0
  6
CONTINUOUS
 62
     7
 10
-691.0327738132988
 20
258.3343584534537
 30
0.0
  0
VERTEX
  5
77E
  8
0
  6
CONTINUOUS
 62
     7
 10
-691.0426144466376
 20
258.3157660195843
 30
0.0
  0
VERTEX
  5
77F
  8
0
  6
CONTINUOUS
 62
     7
 10
-691.051699641361
 20
258.2967928224587
 30
0.0
  0
VERTEX
  5
780
  8
0
  6
CONTINUOUS
 62
     7
 10
-691.0600081755256
 20
258.2774854867382
 30
0.0
  0
VERTEX
  5
781
  8
0
  6
CONTINUOUS
 62
     7
 10
-691.0677257526144
 20
258.2573216056565
 30
0.0
  0
VERTEX
  5
782
  8
0
  6
CONTINUOUS
 62
     7
 10
-691.0746105421758
 20
258.2368389056579
 30
0.0
  0
VERTEX
  5
783
  8
0
  6
CONTINUOUS
 62
     7
 10
-691.0806443694031
 20
258.2160897205514
 30
0.0
  0
VERTEX
  5
784
  8
0
  6
CONTINUOUS
 62
     7
 10
-691.0858090594886
 20
258.1951263841461
 30
0.0
  0
VERTEX
  5
785
  8
0
  6
CONTINUOUS
 62
     7
 10
-691.0895841337317
 20
258.1767520686582
 30
0.0
  0
VERTEX
  5
786
  8
0
  6
CONTINUOUS
 62
     7
 10
-691.092692226108
 20
258.1582470252618
 30
0.0
  0
VERTEX
  5
787
  8
0
  6
CONTINUOUS
 62
     7
 10
-691.0951245366377
 20
258.1396473952827
 30
0.0
  0
VERTEX
  5
788
  8
0
  6
CONTINUOUS
 62
     7
 10
-691.096891963399
 20
258.1207421054928
 30
0.0
  0
VERTEX
  5
789
  8
0
  6
CONTINUOUS
 62
     7
 10
-691.0979564659639
 20
258.1017777079488
 30
0.0
  0
VERTEX
  5
78A
  8
0
  6
CONTINUOUS
 62
     7
 10
-691.0983125288572
 20
258.0827934636038
 30
0.0
  0
SEQEND
  5
9BE
  8
0
  6
CONTINUOUS
 62
     7
  0
LINE
  5
236
  8
0
  6
CONTINUOUS
 62
     9
 10
-691.0983125288572
 20
258.0827934636038
 30
0.0
 11
-691.8488678788036
 21
258.0827934636038
 31
0.0
  0
ARC
  5
237
  8
0
  6
CONTINUOUS
 62
     7
 10
-690.5836254360877
 20
258.0836254360876
 30
0.0
 40
1.265242716251769
 50
89.96232460790193
 51
180.0376753920968
  0
LINE
  5
238
  8
0
  6
CONTINUOUS
 62
     7
 10
-1020.582793346064
 20
258.5983125288571
 30
0.0
 11
-914.4172065320823
 21
258.598312528857
 31
0.0
  0
LINE
  5
239
  8
0
  6
CONTINUOUS
 62
     9
 10
-1020.582793346064
 20
258.5983125288571
 30
0.0
 11
-1020.582793463604
 21
259.3488678788036
 31
0.0
  0
LINE
  5
23A
  8
0
  6
CONTINUOUS
 62
     7
 10
-1020.582793463604
 20
259.3488678788037
 30
0.0
 11
-914.4172065320823
 21
259.3488678788037
 31
0.0
  0
LINE
  5
23B
  8
0
  6
CONTINUOUS
 62
     7
 10
-584.4172065363962
 20
258.5983125288571
 30
0.0
 11
-690.5827933460951
 21
258.5983125288572
 31
0.0
  0
LINE
  5
23C
  8
0
  6
CONTINUOUS
 62
     7
 10
-583.9016874711428
 20
191.9172065363962
 30
0.0
 11
-583.9016874711427
 21
258.0827933461432
 31
0.0
  0
POLYLINE
  5
23D
  8
0
  6
CONTINUOUS
 62
     7
 66
     1
 10
0.0
 20
0.0
 30
0.0
  0
VERTEX
  5
78B
  8
0
  6
CONTINUOUS
 62
     7
 10
-584.4172066539011
 20
191.4016874711428
 30
0.0
  0
VERTEX
  5
78C
  8
0
  6
CONTINUOUS
 62
     7
 10
-584.3956538803768
 20
191.4021531136472
 30
0.0
  0
VERTEX
  5
78D
  8
0
  6
CONTINUOUS
 62
     7
 10
-584.37412124106
 20
191.4035414009578
 30
0.0
  0
VERTEX
  5
78E
  8
0
  6
CONTINUOUS
 62
     7
 10
-584.3526659826009
 20
191.4058393847243
 30
0.0
  0
VERTEX
  5
78F
  8
0
  6
CONTINUOUS
 62
     7
 10
-584.3313453516496
 20
191.4090341165959
 30
0.0
  0
VERTEX
  5
790
  8
0
  6
CONTINUOUS
 62
     7
 10
-584.309552764056
 20
191.4132524030346
 30
0.0
  0
VERTEX
  5
791
  8
0
  6
CONTINUOUS
 62
     7
 10
-584.2879403588764
 20
191.4184010421103
 30
0.0
  0
VERTEX
  5
792
  8
0
  6
CONTINUOUS
 62
     7
 10
-584.2665651252155
 20
191.4244606673494
 30
0.0
  0
VERTEX
  5
793
  8
0
  6
CONTINUOUS
 62
     7
 10
-584.2454840521776
 20
191.4314119122784
 30
0.0
  0
VERTEX
  5
794
  8
0
  6
CONTINUOUS
 62
     7
 10
-584.22531577737
 20
191.4390074572294
 30
0.0
  0
VERTEX
  5
795
  8
0
  6
CONTINUOUS
 62
     7
 10
-584.205458398704
 20
191.447428701247
 30
0.0
  0
VERTEX
  5
796
  8
0
  6
CONTINUOUS
 62
     7
 10
-584.1859620790806
 20
191.4566548265312
 30
0.0
  0
VERTEX
  5
797
  8
0
  6
CONTINUOUS
 62
     7
 10
-584.1668769814011
 20
191.4666650152819
 30
0.0
  0
VERTEX
  5
798
  8
0
  6
CONTINUOUS
 62
     7
 10
-584.1476948151173
 20
191.4777754892445
 30
0.0
  0
VERTEX
  5
799
  8
0
  6
CONTINUOUS
 62
     7
 10
-584.1289866678981
 20
191.4897048482797
 30
0.0
  0
VERTEX
  5
79A
  8
0
  6
CONTINUOUS
 62
     7
 10
-584.1108078687256
 20
191.5024252636782
 30
0.0
  0
VERTEX
  5
79B
  8
0
  6
CONTINUOUS
 62
     7
 10
-584.0932137465821
 20
191.5159089067304
 30
0.0
  0
VERTEX
  5
79C
  8
0
  6
CONTINUOUS
 62
     7
 10
-584.0766279706422
 20
191.5298069224425
 30
0.0
  0
VERTEX
  5
79D
  8
0
  6
CONTINUOUS
 62
     7
 10
-584.0606430773034
 20
191.5444221152701
 30
0.0
  0
VERTEX
  5
79E
  8
0
  6
CONTINUOUS
 62
     7
 10
-584.0453036625889
 20
191.5597132768319
 30
0.0
  0
VERTEX
  5
79F
  8
0
  6
CONTINUOUS
 62
     7
 10
-584.0306543225213
 20
191.5756391987469
 30
0.0
  0
VERTEX
  5
7A0
  8
0
  6
CONTINUOUS
 62
     7
 10
-584.016284368057
 20
191.5927073847181
 30
0.0
  0
VERTEX
  5
7A1
  8
0
  6
CONTINUOUS
 62
     7
 10
-584.0026639349385
 20
191.6104063925573
 30
0.0
  0
VERTEX
  5
7A2
  8
0
  6
CONTINUOUS
 62
     7
 10
-583.9898253741612
 20
191.6286811289519
 30
0.0
  0
VERTEX
  5
7A3
  8
0
  6
CONTINUOUS
 62
     7
 10
-583.9778010367202
 20
191.6474765005892
 30
0.0
  0
VERTEX
  5
7A4
  8
0
  6
CONTINUOUS
 62
     7
 10
-583.9672261867129
 20
191.6656415465375
 30
0.0
  0
VERTEX
  5
7A5
  8
0
  6
CONTINUOUS
 62
     7
 10
-583.9573855533775
 20
191.6842339804033
 30
0.0
  0
VERTEX
  5
7A6
  8
0
  6
CONTINUOUS
 62
     7
 10
-583.9483003586572
 20
191.7032071775253
 30
0.0
  0
VERTEX
  5
7A7
  8
0
  6
CONTINUOUS
 62
     7
 10
-583.9399918244955
 20
191.7225145132419
 30
0.0
  0
VERTEX
  5
7A8
  8
0
  6
CONTINUOUS
 62
     7
 10
-583.932274247409
 20
191.7426783943191
 30
0.0
  0
VERTEX
  5
7A9
  8
0
  6
CONTINUOUS
 62
     7
 10
-583.9253894578493
 20
191.7631610943128
 30
0.0
  0
VERTEX
  5
7AA
  8
0
  6
CONTINUOUS
 62
     7
 10
-583.919355630623
 20
191.7839102794142
 30
0.0
  0
VERTEX
  5
7AB
  8
0
  6
CONTINUOUS
 62
     7
 10
-583.9141909405375
 20
191.8048736158141
 30
0.0
  0
VERTEX
  5
7AC
  8
0
  6
CONTINUOUS
 62
     7
 10
-583.9104158662911
 20
191.8232479313087
 30
0.0
  0
VERTEX
  5
7AD
  8
0
  6
CONTINUOUS
 62
     7
 10
-583.9073077739112
 20
191.8417529747118
 30
0.0
  0
VERTEX
  5
7AE
  8
0
  6
CONTINUOUS
 62
     7
 10
-583.9048754633775
 20
191.8603526046976
 30
0.0
  0
VERTEX
  5
7AF
  8
0
  6
CONTINUOUS
 62
     7
 10
-583.9031080366118
 20
191.8792578944939
 30
0.0
  0
VERTEX
  5
7B0
  8
0
  6
CONTINUOUS
 62
     7
 10
-583.902043534042
 20
191.8982222920444
 30
0.0
  0
VERTEX
  5
7B1
  8
0
  6
CONTINUOUS
 62
     7
 10
-583.9016874711428
 20
191.9172065363962
 30
0.0
  0
SEQEND
  5
9BF
  8
0
  6
CONTINUOUS
 62
     7
  0
LINE
  5
23E
  8
0
  6
CONTINUOUS
 62
     7
 10
-690.5827934636038
 20
191.4016874711429
 30
0.0
 11
-584.4172066539012
 21
191.4016874711428
 31
0.0
  0
POLYLINE
  5
23F
  8
0
  6
CONTINUOUS
 62
     7
 66
     1
 10
0.0
 20
0.0
 30
0.0
  0
VERTEX
  5
7B2
  8
0
  6
CONTINUOUS
 62
     7
 10
-691.0983125288572
 20
191.9172066539465
 30
0.0
  0
VERTEX
  5
7B3
  8
0
  6
CONTINUOUS
 62
     7
 10
-691.0978468863508
 20
191.8956538804132
 30
0.0
  0
VERTEX
  5
7B4
  8
0
  6
CONTINUOUS
 62
     7
 10
-691.0964585990388
 20
191.8741212410875
 30
0.0
  0
VERTEX
  5
7B5
  8
0
  6
CONTINUOUS
 62
     7
 10
-691.0941606152712
 20
191.8526659826194
 30
0.0
  0
VERTEX
  5
7B6
  8
0
  6
CONTINUOUS
 62
     7
 10
-691.0909658833981
 20
191.8313453516591
 30
0.0
  0
VERTEX
  5
7B7
  8
0
  6
CONTINUOUS
 62
     7
 10
-691.0867475969573
 20
191.8095527640569
 30
0.0
  0
VERTEX
  5
7B8
  8
0
  6
CONTINUOUS
 62
     7
 10
-691.0815989578795
 20
191.7879403588688
 30
0.0
  0
VERTEX
  5
7B9
  8
0
  6
CONTINUOUS
 62
     7
 10
-691.0755393326376
 20
191.7665651251994
 30
0.0
  0
VERTEX
  5
7BA
  8
0
  6
CONTINUOUS
 62
     7
 10
-691.0685880877055
 20
191.7454840521534
 30
0.0
  0
VERTEX
  5
7BB
  8
0
  6
CONTINUOUS
 62
     7
 10
-691.0609925427509
 20
191.7253157773372
 30
0.0
  0
VERTEX
  5
7BC
  8
0
  6
CONTINUOUS
 62
     7
 10
-691.0525712987289
 20
191.7054583986629
 30
0.0
  0
VERTEX
  5
7BD
  8
0
  6
CONTINUOUS
 62
     7
 10
-691.0433451734399
 20
191.6859620790316
 30
0.0
  0
VERTEX
  5
7BE
  8
0
  6
CONTINUOUS
 62
     7
 10
-691.0333349846837
 20
191.6668769813445
 30
0.0
  0
VERTEX
  5
7BF
  8
0
  6
CONTINUOUS
 62
     7
 10
-691.0222245107145
 20
191.647694815053
 30
0.0
  0
VERTEX
  5
7C0
  8
0
  6
CONTINUOUS
 62
     7
 10
-691.0102951516717
 20
191.6289866678265
 30
0.0
  0
VERTEX
  5
7C1
  8
0
  6
CONTINUOUS
 62
     7
 10
-690.9975747362647
 20
191.6108078686474
 30
0.0
  0
VERTEX
  5
7C2
  8
0
  6
CONTINUOUS
 62
     7
 10
-690.9840910932031
 20
191.5932137464986
 30
0.0
  0
VERTEX
  5
7C3
  8
0
  6
CONTINUOUS
 62
     7
 10
-690.9701930774887
 20
191.5766279705628
 30
0.0
  0
VERTEX
  5
7C4
  8
0
  6
CONTINUOUS
 62
     7
 10
-690.955577884659
 20
191.560643077229
 30
0.0
  0
VERTEX
  5
7C5
  8
0
  6
CONTINUOUS
 62
     7
 10
-690.9402867230949
 20
191.5453036625194
 30
0.0
  0
VERTEX
  5
7C6
  8
0
  6
CONTINUOUS
 62
     7
 10
-690.9243608011782
 20
191.5306543224565
 30
0.0
  0
VERTEX
  5
7C7
  8
0
  6
CONTINUOUS
 62
     7
 10
-690.9072926152062
 20
191.5162843679968
 30
0.0
  0
VERTEX
  5
7C8
  8
0
  6
CONTINUOUS
 62
     7
 10
-690.8895936073668
 20
191.5026639348827
 30
0.0
  0
VERTEX
  5
7C9
  8
0
  6
CONTINUOUS
 62
     7
 10
-690.8713188709725
 20
191.4898253741091
 30
0.0
  0
VERTEX
  5
7CA
  8
0
  6
CONTINUOUS
 62
     7
 10
-690.852523499336
 20
191.4778010366712
 30
0.0
  0
VERTEX
  5
7CB
  8
0
  6
CONTINUOUS
 62
     7
 10
-690.834358453383
 20
191.4672261866633
 30
0.0
  0
VERTEX
  5
7CC
  8
0
  6
CONTINUOUS
 62
     7
 10
-690.8157660195124
 20
191.4573855533271
 30
0.0
  0
VERTEX
  5
7CD
  8
0
  6
CONTINUOUS
 62
     7
 10
-690.7967928223856
 20
191.4483003586063
 30
0.0
  0
VERTEX
  5
7CE
  8
0
  6
CONTINUOUS
 62
     7
 10
-690.7774854866642
 20
191.4399918244443
 30
0.0
  0
VERTEX
  5
7CF
  8
0
  6
CONTINUOUS
 62
     7
 10
-690.7573216055816
 20
191.4322742473582
 30
0.0
  0
VERTEX
  5
7D0
  8
0
  6
CONTINUOUS
 62
     7
 10
-690.7368389055822
 20
191.4253894577992
 30
0.0
  0
VERTEX
  5
7D1
  8
0
  6
CONTINUOUS
 62
     7
 10
-690.7160897204751
 20
191.4193556305748
 30
0.0
  0
VERTEX
  5
7D2
  8
0
  6
CONTINUOUS
 62
     7
 10
-690.6951263840693
 20
191.4141909404922
 30
0.0
  0
VERTEX
  5
7D3
  8
0
  6
CONTINUOUS
 62
     7
 10
-690.6767520685937
 20
191.4104158662541
 30
0.0
  0
VERTEX
  5
7D4
  8
0
  6
CONTINUOUS
 62
     7
 10
-690.6582470252097
 20
191.4073077738819
 30
0.0
  0
VERTEX
  5
7D5
  8
0
  6
CONTINUOUS
 62
     7
 10
-690.6396473952432
 20
191.4048754633557
 30
0.0
  0
VERTEX
  5
7D6
  8
0
  6
CONTINUOUS
 62
     7
 10
-690.6207421054663
 20
191.4031080365974
 30
0.0
  0
VERTEX
  5
7D7
  8
0
  6
CONTINUOUS
 62
     7
 10
-690.6017777079355
 20
191.4020435340347
 30
0.0
  0
VERTEX
  5
7D8
  8
0
  6
CONTINUOUS
 62
     7
 10
-690.5827934636038
 20
191.4016874711429
 30
0.0
  0
SEQEND
  5
9C0
  8
0
  6
CONTINUOUS
 62
     7
  0
LINE
  5
240
  8
0
  6
CONTINUOUS
 62
     7
 10
-691.0983125288572
 20
258.0827934636038
 30
0.0
 11
-691.0983125288572
 21
191.9172066539465
 31
0.0
  0
CIRCLE
  5
241
  8
0
  6
CONTINUOUS
 62
     9
 10
-672.5
 20
225.0000000000001
 30
0.0
 40
12.98707843546085
  0
ARC
  5
242
  8
0
  6
CONTINUOUS
 62
     9
 10
-608.0
 20
225.0000000000001
 30
0.0
 40
7.495655605297489
 50
89.99999999999977
 51
270.0
  0
LINE
  5
243
  8
0
  6
CONTINUOUS
 62
     9
 10
-597.0
 20
217.5043443947026
 30
0.0
 11
-608.0000000000001
 21
217.5043443947026
 31
0.0
  0
ARC
  5
244
  8
0
  6
CONTINUOUS
 62
     9
 10
-597.0
 20
225.0000000000001
 30
0.0
 40
7.495655605297488
 50
270.0000000000005
 51
90.0
  0
LINE
  5
245
  8
0
  6
CONTINUOUS
 62
     9
 10
-608.0
 20
232.4956556052975
 30
0.0
 11
-597.0
 21
232.4956556052975
 31
0.0
  0
LINE
  5
246
  8
0
  6
CONTINUOUS
 62
     7
 10
-914.4172066539309
 20
191.4016874711429
 30
0.0
 11
-1020.582793467918
 21
191.4016874711429
 31
0.0
  0
POLYLINE
  5
247
  8
0
  6
CONTINUOUS
 62
     7
 66
     1
 10
0.0
 20
0.0
 30
0.0
  0
VERTEX
  5
7D9
  8
0
  6
CONTINUOUS
 62
     7
 10
-1020.582793467918
 20
191.4016874711429
 30
0.0
  0
VERTEX
  5
7DA
  8
0
  6
CONTINUOUS
 62
     7
 10
-1020.604314062686
 20
191.4021461085226
 30
0.0
  0
VERTEX
  5
7DB
  8
0
  6
CONTINUOUS
 62
     7
 10
-1020.625815137548
 20
191.403515672916
 30
0.0
  0
VERTEX
  5
7DC
  8
0
  6
CONTINUOUS
 62
     7
 10
-1020.647240127338
 20
191.4057866587665
 30
0.0
  0
VERTEX
  5
7DD
  8
0
  6
CONTINUOUS
 62
     7
 10
-1020.668532466892
 20
191.4089495605173
 30
0.0
  0
VERTEX
  5
7DE
  8
0
  6
CONTINUOUS
 62
     7
 10
-1020.69029295611
 20
191.4131321767089
 30
0.0
  0
VERTEX
  5
7DF
  8
0
  6
CONTINUOUS
 62
     7
 10
-1020.711874659508
 20
191.4182446493811
 30
0.0
  0
VERTEX
  5
7E0
  8
0
  6
CONTINUOUS
 62
     7
 10
-1020.73322001541
 20
191.4242690331589
 30
0.0
  0
VERTEX
  5
7E1
  8
0
  6
CONTINUOUS
 62
     7
 10
-1020.75427146214
 20
191.4311873826673
 30
0.0
  0
VERTEX
  5
7E2
  8
0
  6
CONTINUOUS
 62
     7
 10
-1020.774417612049
 20
191.4387569396076
 30
0.0
  0
VERTEX
  5
7E3
  8
0
  6
CONTINUOUS
 62
     7
 10
-1020.794252286538
 20
191.4471556274471
 30
0.0
  0
VERTEX
  5
7E4
  8
0
  6
CONTINUOUS
 62
     7
 10
-1020.813725110305
 20
191.4563620368284
 30
0.0
  0
VERTEX
  5
7E5
  8
0
  6
CONTINUOUS
 62
     7
 10
-1020.832785708052
 20
191.4663547583937
 30
0.0
  0
VERTEX
  5
7E6
  8
0
  6
CONTINUOUS
 62
     7
 10
-1020.851945025644
 20
191.4774507497716
 30
0.0
  0
VERTEX
  5
7E7
  8
0
  6
CONTINUOUS
 62
     7
 10
-1020.870630219675
 20
191.4893657747735
 30
0.0
  0
VERTEX
  5
7E8
  8
0
  6
CONTINUOUS
 62
     7
 10
-1020.888787301873
 20
191.5020703231394
 30
0.0
  0
VERTEX
  5
7E9
  8
0
  6
CONTINUOUS
 62
     7
 10
-1020.906362283968
 20
191.5155348846093
 30
0.0
  0
VERTEX
  5
7EA
  8
0
  6
CONTINUOUS
 62
     7
 10
-1020.922901589882
 20
191.5293781902076
 30
0.0
  0
VERTEX
  5
7EB
  8
0
  6
CONTINUOUS
 62
     7
 10
-1020.938848696903
 20
191.5439293401188
 30
0.0
  0
VERTEX
  5
7EC
  8
0
  6
CONTINUOUS
 62
     7
 10
-1020.954156064478
 20
191.5591513670159
 30
0.0
  0
VERTEX
  5
7ED
  8
0
  6
CONTINUOUS
 62
     7
 10
-1020.968776152056
 20
191.5750073035716
 30
0.0
  0
VERTEX
  5
7EE
  8
0
  6
CONTINUOUS
 62
     7
 10
-1020.983114508287
 20
191.5920019990233
 30
0.0
  0
VERTEX
  5
7EF
  8
0
  6
CONTINUOUS
 62
     7
 10
-1020.996705412522
 20
191.6096270118046
 30
0.0
  0
VERTEX
  5
7F0
  8
0
  6
CONTINUOUS
 62
     7
 10
-1021.009518653009
 20
191.6278261012995
 30
0.0
  0
VERTEX
  5
7F1
  8
0
  6
CONTINUOUS
 62
     7
 10
-1021.021524017997
 20
191.6465430268919
 30
0.0
  0
VERTEX
  5
7F2
  8
0
  6
CONTINUOUS
 62
     7
 10
-1021.032119888385
 20
191.6646867246697
 30
0.0
  0
VERTEX
  5
7F3
  8
0
  6
CONTINUOUS
 62
     7
 10
-1021.041985621372
 20
191.6832567539907
 30
0.0
  0
VERTEX
  5
7F4
  8
0
  6
CONTINUOUS
 62
     7
 10
-1021.051100966782
 20
191.7022066397035
 30
0.0
  0
VERTEX
  5
7F5
  8
0
  6
CONTINUOUS
 62
     7
 10
-1021.059445674444
 20
191.7214899066571
 30
0.0
  0
VERTEX
  5
7F6
  8
0
  6
CONTINUOUS
 62
     7
 10
-1021.067205009721
 20
191.7416215108856
 30
0.0
  0
VERTEX
  5
7F7
  8
0
  6
CONTINUOUS
 62
     7
 10
-1021.074138927266
 20
191.7620713514534
 30
0.0
  0
VERTEX
  5
7F8
  8
0
  6
CONTINUOUS
 62
     7
 10
-1021.080228672764
 20
191.7827880693104
 30
0.0
  0
VERTEX
  5
7F9
  8
0
  6
CONTINUOUS
 62
     7
 10
-1021.085455491896
 20
191.8037203054064
 30
0.0
  0
VERTEX
  5
7FA
  8
0
  6
CONTINUOUS
 62
     7
 10
-1021.089327582484
 20
191.8222733887228
 30
0.0
  0
VERTEX
  5
7FB
  8
0
  6
CONTINUOUS
 62
     7
 10
-1021.092520194888
 20
191.840961772536
 30
0.0
  0
VERTEX
  5
7FC
  8
0
  6
CONTINUOUS
 62
     7
 10
-1021.095022610941
 20
191.8597484925377
 30
0.0
  0
VERTEX
  5
7FD
  8
0
  6
CONTINUOUS
 62
     7
 10
-1021.096844781687
 20
191.8788529159622
 30
0.0
  0
VERTEX
  5
7FE
  8
0
  6
CONTINUOUS
 62
     7
 10
-1021.097944200523
 20
191.8980193283805
 30
0.0
  0
VERTEX
  5
7FF
  8
0
  6
CONTINUOUS
 62
     7
 10
-1021.098312528857
 20
191.9172066539934
 30
0.0
  0
SEQEND
  5
9C1
  8
0
  6
CONTINUOUS
 62
     7
  0
LINE
  5
248
  8
0
  6
CONTINUOUS
 62
     7
 10
-1021.098312528857
 20
191.9172066539934
 30
0.0
 11
-1021.098312528857
 21
258.0827934679181
 31
0.0
  0
POLYLINE
  5
249
  8
0
  6
CONTINUOUS
 62
     7
 66
     1
 10
0.0
 20
0.0
 30
0.0
  0
VERTEX
  5
800
  8
0
  6
CONTINUOUS
 62
     7
 10
-1021.098312528857
 20
258.0827934679181
 30
0.0
  0
VERTEX
  5
801
  8
0
  6
CONTINUOUS
 62
     7
 10
-1021.097853891476
 20
258.1043140626896
 30
0.0
  0
VERTEX
  5
802
  8
0
  6
CONTINUOUS
 62
     7
 10
-1021.096484327081
 20
258.1258151375538
 30
0.0
  0
VERTEX
  5
803
  8
0
  6
CONTINUOUS
 62
     7
 10
-1021.09421334123
 20
258.1472401273465
 30
0.0
  0
VERTEX
  5
804
  8
0
  6
CONTINUOUS
 62
     7
 10
-1021.091050439478
 20
258.1685324669037
 30
0.0
  0
VERTEX
  5
805
  8
0
  6
CONTINUOUS
 62
     7
 10
-1021.086867823285
 20
258.1902929561236
 30
0.0
  0
VERTEX
  5
806
  8
0
  6
CONTINUOUS
 62
     7
 10
-1021.081755350612
 20
258.2118746595243
 30
0.0
  0
VERTEX
  5
807
  8
0
  6
CONTINUOUS
 62
     7
 10
-1021.075730966833
 20
258.2332200154289
 30
0.0
  0
VERTEX
  5
808
  8
0
  6
CONTINUOUS
 62
     7
 10
-1021.068812617323
 20
258.2542714621609
 30
0.0
  0
VERTEX
  5
809
  8
0
  6
CONTINUOUS
 62
     7
 10
-1021.061243060381
 20
258.2744176120729
 30
0.0
  0
VERTEX
  5
80A
  8
0
  6
CONTINUOUS
 62
     7
 10
-1021.05284437254
 20
258.2942522865639
 30
0.0
  0
VERTEX
  5
80B
  8
0
  6
CONTINUOUS
 62
     7
 10
-1021.043637963156
 20
258.3137251103339
 30
0.0
  0
VERTEX
  5
80C
  8
0
  6
CONTINUOUS
 62
     7
 10
-1021.033645241588
 20
258.3327857080828
 30
0.0
  0
VERTEX
  5
80D
  8
0
  6
CONTINUOUS
 62
     7
 10
-1021.022549250208
 20
258.3519450256769
 30
0.0
  0
VERTEX
  5
80E
  8
0
  6
CONTINUOUS
 62
     7
 10
-1021.010634225203
 20
258.3706302197092
 30
0.0
  0
VERTEX
  5
80F
  8
0
  6
CONTINUOUS
 62
     7
 10
-1020.997929676833
 20
258.388787301909
 30
0.0
  0
VERTEX
  5
810
  8
0
  6
CONTINUOUS
 62
     7
 10
-1020.98446511536
 20
258.4063622840056
 30
0.0
  0
VERTEX
  5
811
  8
0
  6
CONTINUOUS
 62
     7
 10
-1020.970621809761
 20
258.4229015899182
 30
0.0
  0
VERTEX
  5
812
  8
0
  6
CONTINUOUS
 62
     7
 10
-1020.956070659849
 20
258.4388486969369
 30
0.0
  0
VERTEX
  5
813
  8
0
  6
CONTINUOUS
 62
     7
 10
-1020.940848632951
 20
258.4541560645102
 30
0.0
  0
VERTEX
  5
814
  8
0
  6
CONTINUOUS
 62
     7
 10
-1020.924992696395
 20
258.4687761520863
 30
0.0
  0
VERTEX
  5
815
  8
0
  6
CONTINUOUS
 62
     7
 10
-1020.907998000944
 20
258.4831145083157
 30
0.0
  0
VERTEX
  5
816
  8
0
  6
CONTINUOUS
 62
     7
 10
-1020.890372988163
 20
258.4967054125487
 30
0.0
  0
VERTEX
  5
817
  8
0
  6
CONTINUOUS
 62
     7
 10
-1020.872173898669
 20
258.5095186530343
 30
0.0
  0
VERTEX
  5
818
  8
0
  6
CONTINUOUS
 62
     7
 10
-1020.853456973077
 20
258.5215240180213
 30
0.0
  0
VERTEX
  5
819
  8
0
  6
CONTINUOUS
 62
     7
 10
-1020.835313275297
 20
258.5321198884104
 30
0.0
  0
VERTEX
  5
81A
  8
0
  6
CONTINUOUS
 62
     7
 10
-1020.816743245973
 20
258.5419856213975
 30
0.0
  0
VERTEX
  5
81B
  8
0
  6
CONTINUOUS
 62
     7
 10
-1020.797793360257
 20
258.5511009668089
 30
0.0
  0
VERTEX
  5
81C
  8
0
  6
CONTINUOUS
 62
     7
 10
-1020.7785100933
 20
258.5594456744704
 30
0.0
  0
VERTEX
  5
81D
  8
0
  6
CONTINUOUS
 62
     7
 10
-1020.758378489068
 20
258.5672050097469
 30
0.0
  0
VERTEX
  5
81E
  8
0
  6
CONTINUOUS
 62
     7
 10
-1020.737928648496
 20
258.5741389272921
 30
0.0
  0
VERTEX
  5
81F
  8
0
  6
CONTINUOUS
 62
     7
 10
-1020.717211930635
 20
258.5802286727885
 30
0.0
  0
VERTEX
  5
820
  8
0
  6
CONTINUOUS
 62
     7
 10
-1020.696279694535
 20
258.585455491919
 30
0.0
  0
VERTEX
  5
821
  8
0
  6
CONTINUOUS
 62
     7
 10
-1020.677726611237
 20
258.5893275825005
 30
0.0
  0
VERTEX
  5
822
  8
0
  6
CONTINUOUS
 62
     7
 10
-1020.659038227443
 20
258.5925201948985
 30
0.0
  0
VERTEX
  5
823
  8
0
  6
CONTINUOUS
 62
     7
 10
-1020.64025150746
 20
258.5950226109471
 30
0.0
  0
VERTEX
  5
824
  8
0
  6
CONTINUOUS
 62
     7
 10
-1020.621147084056
 20
258.5968447816909
 30
0.0
  0
VERTEX
  5
825
  8
0
  6
CONTINUOUS
 62
     7
 10
-1020.601980671657
 20
258.5979442005251
 30
0.0
  0
VERTEX
  5
826
  8
0
  6
CONTINUOUS
 62
     7
 10
-1020.582793346064
 20
258.5983125288571
 30
0.0
  0
SEQEND
  5
9C2
  8
0
  6
CONTINUOUS
 62
     7
  0
LINE
  5
24A
  8
0
  6
CONTINUOUS
 62
     7
 10
-913.9016874711428
 20
258.0827933460691
 30
0.0
 11
-913.9016874711428
 21
191.917206532081
 31
0.0
  0
POLYLINE
  5
24B
  8
0
  6
CONTINUOUS
 62
     7
 66
     1
 10
0.0
 20
0.0
 30
0.0
  0
VERTEX
  5
827
  8
0
  6
CONTINUOUS
 62
     7
 10
-913.9016874711428
 20
191.917206532081
 30
0.0
  0
VERTEX
  5
828
  8
0
  6
CONTINUOUS
 62
     7
 10
-913.9021461085232
 20
191.8956859373125
 30
0.0
  0
VERTEX
  5
829
  8
0
  6
CONTINUOUS
 62
     7
 10
-913.9035156729162
 20
191.8741848624513
 30
0.0
  0
VERTEX
  5
82A
  8
0
  6
CONTINUOUS
 62
     7
 10
-913.9057866587658
 20
191.8527598726615
 30
0.0
  0
VERTEX
  5
82B
  8
0
  6
CONTINUOUS
 62
     7
 10
-913.9089495605152
 20
191.8314675331071
 30
0.0
  0
VERTEX
  5
82C
  8
0
  6
CONTINUOUS
 62
     7
 10
-913.9131321767051
 20
191.8097070438902
 30
0.0
  0
VERTEX
  5
82D
  8
0
  6
CONTINUOUS
 62
     7
 10
-913.9182446493754
 20
191.7881253404925
 30
0.0
  0
VERTEX
  5
82E
  8
0
  6
CONTINUOUS
 62
     7
 10
-913.9242690331515
 20
191.7667799845906
 30
0.0
  0
VERTEX
  5
82F
  8
0
  6
CONTINUOUS
 62
     7
 10
-913.9311873826585
 20
191.7457285378614
 30
0.0
  0
VERTEX
  5
830
  8
0
  6
CONTINUOUS
 62
     7
 10
-913.9387569395977
 20
191.7255823879516
 30
0.0
  0
VERTEX
  5
831
  8
0
  6
CONTINUOUS
 62
     7
 10
-913.9471556274369
 20
191.7057477134628
 30
0.0
  0
VERTEX
  5
832
  8
0
  6
CONTINUOUS
 62
     7
 10
-913.9563620368181
 20
191.686274889695
 30
0.0
  0
VERTEX
  5
833
  8
0
  6
CONTINUOUS
 62
     7
 10
-913.9663547583838
 20
191.6672142919483
 30
0.0
  0
VERTEX
  5
834
  8
0
  6
CONTINUOUS
 62
     7
 10
-913.9774507497626
 20
191.6480549743563
 30
0.0
  0
VERTEX
  5
835
  8
0
  6
CONTINUOUS
 62
     7
 10
-913.9893657747657
 20
191.6293697803261
 30
0.0
  0
VERTEX
  5
836
  8
0
  6
CONTINUOUS
 62
     7
 10
-914.002070323133
 20
191.6112126981283
 30
0.0
  0
VERTEX
  5
837
  8
0
  6
CONTINUOUS
 62
     7
 10
-914.0155348846043
 20
191.5936377160335
 30
0.0
  0
VERTEX
  5
838
  8
0
  6
CONTINUOUS
 62
     7
 10
-914.0293781901988
 20
191.5770984101252
 30
0.0
  0
VERTEX
  5
839
  8
0
  6
CONTINUOUS
 62
     7
 10
-914.0439293401054
 20
191.5611513031102
 30
0.0
  0
VERTEX
  5
83A
  8
0
  6
CONTINUOUS
 62
     7
 10
-914.059151366997
 20
191.54584393554
 30
0.0
  0
VERTEX
  5
83B
  8
0
  6
CONTINUOUS
 62
     7
 10
-914.0750073035463
 20
191.5312238479661
 30
0.0
  0
VERTEX
  5
83C
  8
0
  6
CONTINUOUS
 62
     7
 10
-914.0920019989895
 20
191.5168854917385
 30
0.0
  0
VERTEX
  5
83D
  8
0
  6
CONTINUOUS
 62
     7
 10
-914.1096270117619
 20
191.5032945875066
 30
0.0
  0
VERTEX
  5
83E
  8
0
  6
CONTINUOUS
 62
     7
 10
-914.1278261012471
 20
191.4904813470213
 30
0.0
  0
VERTEX
  5
83F
  8
0
  6
CONTINUOUS
 62
     7
 10
-914.1465430268296
 20
191.4784759820339
 30
0.0
  0
VERTEX
  5
840
  8
0
  6
CONTINUOUS
 62
     7
 10
-914.1646867246136
 20
191.4678801116372
 30
0.0
  0
VERTEX
  5
841
  8
0
  6
CONTINUOUS
 62
     7
 10
-914.1832567539411
 20
191.4580143786427
 30
0.0
  0
VERTEX
  5
842
  8
0
  6
CONTINUOUS
 62
     7
 10
-914.2022066396613
 20
191.4488990332245
 30
0.0
  0
VERTEX
  5
843
  8
0
  6
CONTINUOUS
 62
     7
 10
-914.2214899066225
 20
191.4405543255568
 30
0.0
  0
VERTEX
  5
844
  8
0
  6
CONTINUOUS
 62
     7
 10
-914.2416215108605
 20
191.4327949902743
 30
0.0
  0
VERTEX
  5
845
  8
0
  6
CONTINUOUS
 62
     7
 10
-914.2620713514383
 20
191.4258610727239
 30
0.0
  0
VERTEX
  5
846
  8
0
  6
CONTINUOUS
 62
     7
 10
-914.2827880693058
 20
191.4197713272229
 30
0.0
  0
VERTEX
  5
847
  8
0
  6
CONTINUOUS
 62
     7
 10
-914.3037203054124
 20
191.4145445080887
 30
0.0
  0
VERTEX
  5
848
  8
0
  6
CONTINUOUS
 62
     7
 10
-914.3222733887177
 20
191.4106724175043
 30
0.0
  0
VERTEX
  5
849
  8
0
  6
CONTINUOUS
 62
     7
 10
-914.3409617725196
 20
191.4074798051041
 30
0.0
  0
VERTEX
  5
84A
  8
0
  6
CONTINUOUS
 62
     7
 10
-914.35974849251
 20
191.4049773890539
 30
0.0
  0
VERTEX
  5
84B
  8
0
  6
CONTINUOUS
 62
     7
 10
-914.378852915923
 20
191.403155218309
 30
0.0
  0
VERTEX
  5
84C
  8
0
  6
CONTINUOUS
 62
     7
 10
-914.3980193283297
 20
191.4020557994742
 30
0.0
  0
VERTEX
  5
84D
  8
0
  6
CONTINUOUS
 62
     7
 10
-914.4172066539309
 20
191.4016874711429
 30
0.0
  0
SEQEND
  5
9C3
  8
0
  6
CONTINUOUS
 62
     7
  0
CIRCLE
  5
24C
  8
0
  6
CONTINUOUS
 62
     9
 10
-932.5
 20
225.0000000000001
 30
0.0
 40
12.98707843546083
  0
ARC
  5
24D
  8
0
  6
CONTINUOUS
 62
     9
 10
-997.0
 20
225.0000000000001
 30
0.0
 40
7.495655605297488
 50
270.0
 51
90.00000000000021
  0
LINE
  5
24E
  8
0
  6
CONTINUOUS
 62
     9
 10
-1008.0
 20
232.4956556052975
 30
0.0
 11
-997.0
 21
232.4956556052975
 31
0.0
  0
ARC
  5
24F
  8
0
  6
CONTINUOUS
 62
     9
 10
-1008.0
 20
225.0000000000001
 30
0.0
 40
7.495655605297488
 50
90.0
 51
269.9999999999995
  0
LINE
  5
250
  8
0
  6
CONTINUOUS
 62
     9
 10
-997.0
 20
217.5043443947026
 30
0.0
 11
-1008.0
 21
217.5043443947026
 31
0.0
  0
LINE
  5
251
  8
0
  6
CONTINUOUS
 62
     7
 10
-584.4172065363962
 20
259.3488678788036
 30
0.0
 11
-690.5827934636037
 21
259.3488678788037
 31
0.0
  0
LINE
  5
252
  8
0
  6
CONTINUOUS
 62
     9
 10
-1021.098312528857
 20
258.0827934679181
 30
0.0
 11
-1021.848867878804
 21
258.0827934679181
 31
0.0
  0
ARC
  5
253
  8
0
  6
CONTINUOUS
 62
     7
 10
-1020.583623244152
 20
258.0836232441548
 30
0.0
 40
1.265244906744763
 50
89.96242393351802
 51
180.0375758712444
  0
LINE
  5
254
  8
0
  6
CONTINUOUS
 62
     9
 10
-913.9016874711428
 20
191.917206532081
 30
0.0
 11
-913.1511321211964
 21
191.917206532081
 31
0.0
  0
LINE
  5
255
  8
0
  6
CONTINUOUS
 62
     7
 10
-913.1511321211964
 20
258.0827934636038
 30
0.0
 11
-913.1511321211964
 21
191.917206532081
 31
0.0
  0
LINE
  5
256
  8
0
  6
CONTINUOUS
 62
     9
 10
-583.9016874711428
 20
191.9172065363962
 30
0.0
 11
-583.1511321211964
 21
191.9172065363962
 31
0.0
  0
LINE
  5
257
  8
0
  6
CONTINUOUS
 62
     7
 10
-583.1511321211964
 20
191.9172065363962
 30
0.0
 11
-583.1511321211963
 21
258.0827934636038
 31
0.0
  0
LINE
  5
258
  8
0
  6
CONTINUOUS
 62
     9
 10
-691.0983125288572
 20
191.9172066539465
 30
0.0
 11
-691.8488678788036
 21
191.9172065363962
 31
0.0
  0
LINE
  5
259
  8
0
  6
CONTINUOUS
 62
     7
 10
-691.8488678788036
 20
258.0827934636038
 30
0.0
 11
-691.8488678788035
 21
191.9172065363962
 31
0.0
  0
LINE
  5
25A
  8
0
  6
CONTINUOUS
 62
     9
 10
-1021.098312528857
 20
191.9172066539934
 30
0.0
 11
-1021.848867878804
 21
191.9172065363962
 31
0.0
  0
LINE
  5
25B
  8
0
  6
CONTINUOUS
 62
     7
 10
-1021.848867878804
 20
191.9172065363962
 30
0.0
 11
-1021.848867878804
 21
258.0827934679181
 31
0.0
  0
ARC
  5
25C
  8
0
  6
CONTINUOUS
 62
     7
 10
-597.0
 20
225.0000000000001
 30
0.0
 40
6.995674643765402
 50
270.0000000000005
 51
90.0
  0
LINE
  5
25D
  8
0
  6
CONTINUOUS
 62
     9
 10
-597.0
 20
232.4956556052975
 30
0.0
 11
-597.0
 21
231.9956746437655
 31
0.0
  0
LINE
  5
25E
  8
0
  6
CONTINUOUS
 62
     9
 10
-597.0
 20
218.0043253562347
 30
0.0
 11
-597.0
 21
217.5043443947026
 31
0.0
  0
LINE
  5
25F
  8
0
  6
CONTINUOUS
 62
     9
 10
-997.0
 20
231.9956746437655
 30
0.0
 11
-1008.0
 21
231.9956746437655
 31
0.0
  0
LINE
  5
260
  8
0
  6
CONTINUOUS
 62
     9
 10
-1008.0
 20
231.9956746437655
 30
0.0
 11
-1008.0
 21
232.4956556052975
 31
0.0
  0
LINE
  5
261
  8
0
  6
CONTINUOUS
 62
     9
 10
-997.0
 20
231.9956746437655
 30
0.0
 11
-997.0
 21
232.4956556052975
 31
0.0
  0
LINE
  5
262
  8
0
  6
CONTINUOUS
 62
     9
 10
-597.0
 20
231.9956746437655
 30
0.0
 11
-608.0
 21
231.9956746437655
 31
0.0
  0
LINE
  5
263
  8
0
  6
CONTINUOUS
 62
     9
 10
-608.0
 20
232.4956556052975
 30
0.0
 11
-608.0
 21
231.9956746437655
 31
0.0
  0
ARC
  5
264
  8
0
  6
CONTINUOUS
 62
     9
 10
-608.0
 20
225.0000000000001
 30
0.0
 40
6.995674643765402
 50
89.99999999999977
 51
270.0
  0
LINE
  5
265
  8
0
  6
CONTINUOUS
 62
     9
 10
-608.0
 20
218.0043253562347
 30
0.0
 11
-608.0
 21
217.5043443947026
 31
0.0
  0
ARC
  5
266
  8
0
  6
CONTINUOUS
 62
     9
 10
-1008.0
 20
225.0000000000001
 30
0.0
 40
6.995674643765402
 50
90.0
 51
269.9999999999995
  0
LINE
  5
267
  8
0
  6
CONTINUOUS
 62
     9
 10
-1008.0
 20
217.5043443947026
 30
0.0
 11
-1008.0
 21
218.0043253562347
 31
0.0
  0
LINE
  5
268
  8
0
  6
CONTINUOUS
 62
     9
 10
-997.0
 20
217.5043443947026
 30
0.0
 11
-997.0
 21
218.0043253562347
 31
0.0
  0
ARC
  5
269
  8
0
  6
CONTINUOUS
 62
     7
 10
-997.0
 20
225.0000000000001
 30
0.0
 40
6.995674643765402
 50
270.0
 51
90.00000000000021
  0
ARC
  5
26A
  8
0
  6
CONTINUOUS
 62
     7
 10
-997.0
 20
225.0
 30
0.0
 40
5.499999999999999
 50
270.0
 51
90.0
  0
LINE
  5
26B
  8
0
  6
CONTINUOUS
 62
     9
 10
-997.0
 20
231.3660254037845
 30
0.0
 11
-997.0
 21
230.5
 31
0.0
  0
ARC
  5
26C
  8
0
  6
CONTINUOUS
 62
     7
 10
-997.0
 20
225.0
 30
0.0
 40
6.366025403784465
 50
270.0
 51
90.0
  0
LINE
  5
26D
  8
0
  6
CONTINUOUS
 62
     9
 10
-997.0
 20
218.6339745962156
 30
0.0
 11
-997.0
 21
219.5
 31
0.0
  0
LINE
  5
26E
  8
0
  6
CONTINUOUS
 62
     7
 10
-1001.75
 20
231.3660254037844
 30
0.0
 11
-1001.776185921569
 21
230.7886751345948
 31
0.0
  0
LINE
  5
26F
  8
0
  6
CONTINUOUS
 62
     7
 10
-997.0
 20
231.3660254037845
 30
0.0
 11
-1001.75
 21
231.3660254037844
 31
0.0
  0
LINE
  5
270
  8
0
  6
CONTINUOUS
 62
     7
 10
-1008.0
 20
230.5
 30
0.0
 11
-997.0
 21
230.5
 31
0.0
  0
LINE
  5
271
  8
0
  6
CONTINUOUS
 62
     9
 10
-1008.0
 20
231.3660254037844
 30
0.0
 11
-1008.0
 21
230.5
 31
0.0
  0
LINE
  5
272
  8
0
  6
CONTINUOUS
 62
     7
 10
-1003.25
 20
231.3660254037844
 30
0.0
 11
-1008.0
 21
231.3660254037844
 31
0.0
  0
LINE
  5
273
  8
0
  6
CONTINUOUS
 62
     7
 10
-1003.223814078431
 20
230.7886751345948
 30
0.0
 11
-1003.25
 21
231.3660254037844
 31
0.0
  0
LINE
  5
274
  8
0
  6
CONTINUOUS
 62
     7
 10
-1001.776185921569
 20
230.7886751345948
 30
0.0
 11
-1003.223814078431
 21
230.7886751345948
 31
0.0
  0
LINE
  5
275
  8
0
  6
CONTINUOUS
 62
     7
 10
-603.2499999999998
 20
218.6339745962156
 30
0.0
 11
-603.2238140784306
 21
219.2113248654052
 31
0.0
  0
LINE
  5
276
  8
0
  6
CONTINUOUS
 62
     7
 10
-608.0
 20
218.6339745962156
 30
0.0
 11
-603.2499999999999
 21
218.6339745962156
 31
0.0
  0
LINE
  5
277
  8
0
  6
CONTINUOUS
 62
     9
 10
-608.0
 20
218.6339745962156
 30
0.0
 11
-608.0
 21
219.5
 31
0.0
  0
LINE
  5
278
  8
0
  6
CONTINUOUS
 62
     7
 10
-608.0
 20
219.5
 30
0.0
 11
-597.0
 21
219.5
 31
0.0
  0
LINE
  5
279
  8
0
  6
CONTINUOUS
 62
     9
 10
-597.0
 20
218.6339745962156
 30
0.0
 11
-597.0
 21
219.5
 31
0.0
  0
LINE
  5
27A
  8
0
  6
CONTINUOUS
 62
     7
 10
-601.7499999999999
 20
218.6339745962156
 30
0.0
 11
-597.0
 21
218.6339745962155
 31
0.0
  0
LINE
  5
27B
  8
0
  6
CONTINUOUS
 62
     7
 10
-601.7761859215691
 20
219.2113248654052
 30
0.0
 11
-601.7499999999999
 21
218.6339745962156
 31
0.0
  0
LINE
  5
27C
  8
0
  6
CONTINUOUS
 62
     7
 10
-603.2238140784307
 20
219.2113248654052
 30
0.0
 11
-601.7761859215691
 21
219.2113248654052
 31
0.0
  0
LINE
  5
27D
  8
0
  6
CONTINUOUS
 62
     9
 10
-1008.0
 20
218.6339745962156
 30
0.0
 11
-1008.0
 21
219.5
 31
0.0
  0
LINE
  5
27E
  8
0
  6
CONTINUOUS
 62
     7
 10
-997.0
 20
219.5
 30
0.0
 11
-1008.0
 21
219.5
 31
0.0
  0
LINE
  5
27F
  8
0
  6
CONTINUOUS
 62
     7
 10
-1001.75
 20
218.6339745962156
 30
0.0
 11
-997.0000000000001
 21
218.6339745962156
 31
0.0
  0
LINE
  5
280
  8
0
  6
CONTINUOUS
 62
     7
 10
-1001.776185921569
 20
219.2113248654052
 30
0.0
 11
-1001.75
 21
218.6339745962156
 31
0.0
  0
LINE
  5
281
  8
0
  6
CONTINUOUS
 62
     7
 10
-1003.223814078431
 20
219.2113248654052
 30
0.0
 11
-1001.776185921569
 21
219.2113248654052
 31
0.0
  0
LINE
  5
282
  8
0
  6
CONTINUOUS
 62
     7
 10
-1003.25
 20
218.6339745962156
 30
0.0
 11
-1003.223814078431
 21
219.2113248654052
 31
0.0
  0
LINE
  5
283
  8
0
  6
CONTINUOUS
 62
     7
 10
-1008.0
 20
218.6339745962156
 30
0.0
 11
-1003.25
 21
218.6339745962156
 31
0.0
  0
ARC
  5
284
  8
0
  6
CONTINUOUS
 62
     7
 10
-1008.0
 20
225.0
 30
0.0
 40
5.499999999999999
 50
90.0
 51
270.0
  0
ARC
  5
285
  8
0
  6
CONTINUOUS
 62
     7
 10
-1008.0
 20
225.0
 30
0.0
 40
6.366025403784465
 50
90.0
 51
270.0
  0
ARC
  5
286
  8
0
  6
CONTINUOUS
 62
     7
 10
-608.0
 20
225.0
 30
0.0
 40
5.499999999999999
 50
90.0
 51
270.0
  0
ARC
  5
287
  8
0
  6
CONTINUOUS
 62
     7
 10
-608.0
 20
225.0
 30
0.0
 40
6.366025403784464
 50
90.0
 51
270.0
  0
LINE
  5
288
  8
0
  6
CONTINUOUS
 62
     9
 10
-608.0
 20
231.3660254037845
 30
0.0
 11
-608.0
 21
230.5
 31
0.0
  0
LINE
  5
289
  8
0
  6
CONTINUOUS
 62
     7
 10
-597.0
 20
230.5
 30
0.0
 11
-608.0
 21
230.5
 31
0.0
  0
ARC
  5
28A
  8
0
  6
CONTINUOUS
 62
     7
 10
-597.0
 20
225.0
 30
0.0
 40
5.499999999999999
 50
270.0
 51
90.0
  0
LINE
  5
28B
  8
0
  6
CONTINUOUS
 62
     9
 10
-597.0
 20
231.3660254037844
 30
0.0
 11
-597.0
 21
230.5
 31
0.0
  0
LINE
  5
28C
  8
0
  6
CONTINUOUS
 62
     7
 10
-603.2499999999998
 20
231.3660254037844
 30
0.0
 11
-607.9999999999999
 21
231.3660254037845
 31
0.0
  0
LINE
  5
28D
  8
0
  6
CONTINUOUS
 62
     7
 10
-603.2238140784307
 20
230.7886751345948
 30
0.0
 11
-603.2499999999999
 21
231.3660254037844
 31
0.0
  0
LINE
  5
28E
  8
0
  6
CONTINUOUS
 62
     7
 10
-601.7761859215691
 20
230.7886751345948
 30
0.0
 11
-603.2238140784307
 21
230.7886751345948
 31
0.0
  0
LINE
  5
28F
  8
0
  6
CONTINUOUS
 62
     7
 10
-601.7499999999999
 20
231.3660254037844
 30
0.0
 11
-601.7761859215691
 21
230.7886751345948
 31
0.0
  0
LINE
  5
290
  8
0
  6
CONTINUOUS
 62
     7
 10
-597.0
 20
231.3660254037844
 30
0.0
 11
-601.7499999999999
 21
231.3660254037844
 31
0.0
  0
ARC
  5
291
  8
0
  6
CONTINUOUS
 62
     7
 10
-597.0
 20
225.0
 30
0.0
 40
6.366025403784465
 50
270.0
 51
90.00000000000011
  0
LINE
  5
292
  8
0
  6
CONTINUOUS
 62
     9
 10
-1008.0
 20
218.0043253562347
 30
0.0
 11
-996.9999999999999
 21
218.0043253562347
 31
0.0
  0
LINE
  5
293
  8
0
  6
CONTINUOUS
 62
     9
 10
-608.0
 20
218.0043253562347
 30
0.0
 11
-597.0
 21
218.0043253562347
 31
0.0
  0
CIRCLE
  5
294
  8
0
  6
CONTINUOUS
 62
     9
 10
-932.5
 20
225.0000000000001
 30
0.0
 40
12.48724977297307
  0
CIRCLE
  5
295
  8
0
  6
CONTINUOUS
 62
     9
 10
-672.5
 20
225.0000000000001
 30
0.0
 40
12.48724977297305
  0
LINE
  5
296
  8
0
  6
CONTINUOUS
 62
     9
 10
-1020.582793467918
 20
191.4016874711429
 30
0.0
 11
-1020.582793467918
 21
190.6511321211964
 31
0.0
  0
ARC
  5
297
  8
0
  6
CONTINUOUS
 62
     7
 10
-1020.583623244154
 20
191.916376755849
 30
0.0
 40
1.265244906745616
 50
179.9624239335542
 51
270.0375758712262
  0
LINE
  5
298
  8
0
  6
CONTINUOUS
 62
     9
 10
-690.5827934636038
 20
191.4016874711429
 30
0.0
 11
-690.5827934636038
 21
190.6511321211964
 31
0.0
  0
ARC
  5
299
  8
0
  6
CONTINUOUS
 62
     7
 10
-690.5836254360865
 20
191.9163745639134
 30
0.0
 40
1.265242716252788
 50
179.9623246079528
 51
270.0376753920465
  0
LINE
  5
29A
  8
0
  6
CONTINUOUS
 62
     9
 10
-584.4172066539011
 20
191.4016874711428
 30
0.0
 11
-584.4172065363962
 21
190.6511321211964
 31
0.0
  0
ARC
  5
29B
  8
0
  6
CONTINUOUS
 62
     7
 10
-584.4163745639122
 20
191.9163745639121
 30
0.0
 40
1.265242716251505
 50
269.9623246078957
 51
0.0376753921065642
  0
LINE
  5
29C
  8
0
  6
CONTINUOUS
 62
     9
 10
-914.4172066539309
 20
191.4016874711429
 30
0.0
 11
-914.4172065363962
 21
190.6511321211964
 31
0.0
  0
ARC
  5
29D
  8
0
  6
CONTINUOUS
 62
     7
 10
-914.416376755849
 20
191.9163767558462
 30
0.0
 40
1.265244906745608
 50
269.9624239335532
 51
0.0375758711610956
  0
LINE
  5
29E
  8
0
  6
CONTINUOUS
 62
     7
 10
-914.4172065363961
 20
190.6511321211964
 30
0.0
 11
-1020.582793467918
 21
190.6511321211964
 31
0.0
  0
LINE
  5
29F
  8
0
  6
CONTINUOUS
 62
     7
 10
-690.5827934636038
 20
190.6511321211964
 30
0.0
 11
-584.4172065363962
 21
190.6511321211964
 31
0.0
  0
CIRCLE
  5
2A0
  8
0
  6
CONTINUOUS
 62
     7
 10
-802.5
 20
225.0
 30
0.0
 40
14.65
  0
CIRCLE
  5
2A1
  8
0
  6
CONTINUOUS
 62
     7
 10
-802.5
 20
225.0
 30
0.0
 40
13.63254759356272
  0
CIRCLE
  5
2A2
  8
0
  6
CONTINUOUS
 62
     7
 10
-835.8499999999999
 20
241.0
 30
0.0
 40
3.749999999999982
  0
CIRCLE
  5
2A3
  8
0
  6
CONTINUOUS
 62
     7
 10
-844.2499999999999
 20
241.0
 30
0.0
 40
3.749999999999982
  0
LINE
  5
2A4
  8
0
  6
CONTINUOUS
 62
     7
 10
-764.5
 20
239.5
 30
0.0
 11
-764.5
 21
242.5
 31
0.0
  0
LINE
  5
2A5
  8
0
  6
CONTINUOUS
 62
     9
 10
-764.5
 20
242.5
 30
0.0
 11
-763.0
 21
242.5
 31
0.0
  0
LINE
  5
2A6
  8
0
  6
CONTINUOUS
 62
     7
 10
-763.0
 20
242.5
 30
0.0
 11
-763.0000000000001
 21
241.9226497308104
 31
0.0
  0
LINE
  5
2A7
  8
0
  6
CONTINUOUS
 62
     7
 10
-763.0
 20
241.9226497308104
 30
0.0
 11
-763.0
 21
240.0773502691896
 31
0.0
  0
LINE
  5
2A8
  8
0
  6
CONTINUOUS
 62
     7
 10
-763.0000000000001
 20
239.5
 30
0.0
 11
-763.0000000000001
 21
240.0773502691896
 31
0.0
  0
LINE
  5
2A9
  8
0
  6
CONTINUOUS
 62
     9
 10
-764.5
 20
239.5
 30
0.0
 11
-763.0000000000001
 21
239.5
 31
0.0
  0
CIRCLE
  5
2AA
  8
0
  6
CONTINUOUS
 62
     7
 10
-709.5
 20
225.0
 30
0.0
 40
3.749999999999976
  0
ARC
  5
2AB
  8
0
  6
CONTINUOUS
 62
     7
 10
-709.5
 20
225.0
 30
0.0
 40
2.250000000000016
 50
103.8723797868413
 51
166.1276202131612
  0
ARC
  5
2AC
  8
0
  6
CONTINUOUS
 62
     7
 10
-709.5
 20
224.9999999999999
 30
0.0
 40
2.250000000000003
 50
166.12762021316
 51
193.8723797868399
  0
ARC
  5
2AD
  8
0
  6
CONTINUOUS
 62
     7
 10
-709.5
 20
225.0
 30
0.0
 40
2.250000000000001
 50
193.8723797868413
 51
256.1276202131621
  0
ARC
  5
2AE
  8
0
  6
CONTINUOUS
 62
     7
 10
-709.4999999999999
 20
225.0
 30
0.0
 40
2.25
 50
256.12762021316
 51
283.8723797868399
  0
ARC
  5
2AF
  8
0
  6
CONTINUOUS
 62
     7
 10
-709.5
 20
225.0
 30
0.0
 40
2.250000000000028
 50
283.8723797868419
 51
346.1276202131615
  0
ARC
  5
2B0
  8
0
  6
CONTINUOUS
 62
     7
 10
-709.5
 20
225.0000000000001
 30
0.0
 40
2.250000000000001
 50
346.1276202131601
 51
13.87237978683982
  0
ARC
  5
2B1
  8
0
  6
CONTINUOUS
 62
     7
 10
-709.5
 20
225.0
 30
0.0
 40
2.249999999999972
 50
13.87237978684119
 51
76.1276202131614
  0
ARC
  5
2B2
  8
0
  6
CONTINUOUS
 62
     7
 10
-709.5
 20
225.0
 30
0.0
 40
2.249999999999974
 50
76.1276202131614
 51
103.8723797868413
  0
CIRCLE
  5
2B3
  8
0
  6
CONTINUOUS
 62
     7
 10
-507.5000000000001
 20
192.5
 30
0.0
 40
3.749999999999976
  0
ARC
  5
2B4
  8
0
  6
CONTINUOUS
 62
     7
 10
-507.5000000000001
 20
192.5
 30
0.0
 40
2.249999999999988
 50
283.8723797868385
 51
346.1276202131587
  0
ARC
  5
2B5
  8
0
  6
CONTINUOUS
 62
     7
 10
-507.5000000000001
 20
192.4999999999999
 30
0.0
 40
2.250000000000016
 50
346.1276202131604
 51
13.87237978683982
  0
ARC
  5
2B6
  8
0
  6
CONTINUOUS
 62
     7
 10
-507.5000000000001
 20
192.5
 30
0.0
 40
2.249999999999997
 50
13.87237978683806
 51
76.12762021315847
  0
ARC
  5
2B7
  8
0
  6
CONTINUOUS
 62
     7
 10
-507.4999999999999
 20
192.5
 30
0.0
 40
2.250000000000002
 50
76.12762021315986
 51
103.8723797868399
  0
ARC
  5
2B8
  8
0
  6
CONTINUOUS
 62
     7
 10
-507.5000000000001
 20
192.5
 30
0.0
 40
2.249999999999996
 50
103.8723797868385
 51
166.1276202131595
  0
ARC
  5
2B9
  8
0
  6
CONTINUOUS
 62
     7
 10
-507.5000000000001
 20
192.5
 30
0.0
 40
2.250000000000016
 50
166.1276202131605
 51
193.8723797868398
  0
ARC
  5
2BA
  8
0
  6
CONTINUOUS
 62
     7
 10
-507.5000000000001
 20
192.5
 30
0.0
 40
2.250000000000005
 50
193.8723797868388
 51
256.1276202131585
  0
ARC
  5
2BB
  8
0
  6
CONTINUOUS
 62
     7
 10
-507.5000000000001
 20
192.5
 30
0.0
 40
2.249999999999975
 50
256.1276202131585
 51
283.8723797868385
  0
ARC
  5
2BC
  8
0
  6
CONTINUOUS
 62
     7
 10
-769.15
 20
239.5
 30
0.0
 40
3.75000000000001
 50
179.9999999999999
 51
0.0
  0
LINE
  5
2BD
  8
0
  6
CONTINUOUS
 62
     9
 10
-772.9
 20
239.5
 30
0.0
 11
-771.4000000000001
 21
239.5
 31
0.0
  0
ARC
  5
2BE
  8
0
  6
CONTINUOUS
 62
     7
 10
-769.15
 20
239.5
 30
0.0
 40
2.250000000000002
 50
180.000000000001
 51
193.8723797868409
  0
ARC
  5
2BF
  8
0
  6
CONTINUOUS
 62
     7
 10
-769.15
 20
239.5
 30
0.0
 40
2.250000000000026
 50
193.8723797868409
 51
256.1276202131587
  0
ARC
  5
2C0
  8
0
  6
CONTINUOUS
 62
     7
 10
-769.15
 20
239.5
 30
0.0
 40
2.250000000000002
 50
256.1276202131601
 51
283.8723797868399
  0
ARC
  5
2C1
  8
0
  6
CONTINUOUS
 62
     7
 10
-769.15
 20
239.5
 30
0.0
 40
2.250000000000002
 50
283.8723797868383
 51
346.127620213159
  0
ARC
  5
2C2
  8
0
  6
CONTINUOUS
 62
     7
 10
-769.15
 20
239.5
 30
0.0
 40
2.250000000000002
 50
346.1276202131601
 51
0.0
  0
LINE
  5
2C3
  8
0
  6
CONTINUOUS
 62
     9
 10
-766.8999999999999
 20
239.5
 30
0.0
 11
-765.4
 21
239.5
 31
0.0
  0
LINE
  5
2C4
  8
0
  6
CONTINUOUS
 62
     7
 10
-766.8999999999999
 20
239.5
 30
0.0
 11
-766.8999999999999
 21
240.0773502691896
 31
0.0
  0
LINE
  5
2C5
  8
0
  6
CONTINUOUS
 62
     7
 10
-766.9
 20
240.0773502691896
 30
0.0
 11
-766.8999999999999
 21
241.9226497308104
 31
0.0
  0
LINE
  5
2C6
  8
0
  6
CONTINUOUS
 62
     7
 10
-766.8999999999999
 20
242.5000000000001
 30
0.0
 11
-766.8999999999999
 21
241.9226497308104
 31
0.0
  0
LINE
  5
2C7
  8
0
  6
CONTINUOUS
 62
     9
 10
-766.8999999999999
 20
242.5000000000001
 30
0.0
 11
-765.4000000000001
 21
242.5
 31
0.0
  0
LINE
  5
2C8
  8
0
  6
CONTINUOUS
 62
     7
 10
-765.4
 20
242.5
 30
0.0
 11
-765.4
 21
239.5
 31
0.0
  0
ARC
  5
2C9
  8
0
  6
CONTINUOUS
 62
     7
 10
-760.75
 20
239.5
 30
0.0
 40
3.75000000000001
 50
180.0
 51
0.0
  0
ARC
  5
2CA
  8
0
  6
CONTINUOUS
 62
     7
 10
-760.75
 20
239.5
 30
0.0
 40
2.250000000000002
 50
180.0000000000011
 51
193.8723797868406
  0
ARC
  5
2CB
  8
0
  6
CONTINUOUS
 62
     7
 10
-760.75
 20
239.5
 30
0.0
 40
2.250000000000002
 50
193.8723797868406
 51
256.1276202131603
  0
ARC
  5
2CC
  8
0
  6
CONTINUOUS
 62
     7
 10
-760.75
 20
239.5
 30
0.0
 40
2.250000000000002
 50
256.1276202131601
 51
283.8723797868399
  0
ARC
  5
2CD
  8
0
  6
CONTINUOUS
 62
     7
 10
-760.75
 20
239.5
 30
0.0
 40
2.250000000000004
 50
283.87237978684
 51
346.1276202131598
  0
ARC
  5
2CE
  8
0
  6
CONTINUOUS
 62
     7
 10
-760.7499999999999
 20
239.5
 30
0.0
 40
2.250000000000002
 50
346.1276202131606
 51
0.0
  0
LINE
  5
2CF
  8
0
  6
CONTINUOUS
 62
     9
 10
-758.4999999999999
 20
239.5
 30
0.0
 11
-757.0
 21
239.5
 31
0.0
  0
LINE
  5
2D0
  8
0
  6
CONTINUOUS
 62
     7
 10
-758.4999999999999
 20
239.5
 30
0.0
 11
-758.4999999999999
 21
240.0773502691896
 31
0.0
  0
LINE
  5
2D1
  8
0
  6
CONTINUOUS
 62
     7
 10
-758.5
 20
240.0773502691896
 30
0.0
 11
-758.5
 21
241.9226497308104
 31
0.0
  0
LINE
  5
2D2
  8
0
  6
CONTINUOUS
 62
     7
 10
-758.4999999999999
 20
242.5000000000001
 30
0.0
 11
-758.4999999999999
 21
241.9226497308104
 31
0.0
  0
LINE
  5
2D3
  8
0
  6
CONTINUOUS
 62
     9
 10
-758.4999999999999
 20
242.5000000000001
 30
0.0
 11
-757.0
 21
242.5
 31
0.0
  0
LINE
  5
2D4
  8
0
  6
CONTINUOUS
 62
     7
 10
-757.0
 20
242.5
 30
0.0
 11
-757.0
 21
239.5
 31
0.0
  0
CIRCLE
  5
2D5
  8
0
  6
CONTINUOUS
 62
     7
 10
-1097.5
 20
257.5
 30
0.0
 40
3.749999999999976
  0
ARC
  5
2D6
  8
0
  6
CONTINUOUS
 62
     7
 10
-1097.5
 20
257.5
 30
0.0
 40
2.249999999999988
 50
103.8723797868385
 51
166.1276202131587
  0
ARC
  5
2D7
  8
0
  6
CONTINUOUS
 62
     7
 10
-1097.5
 20
257.5000000000001
 30
0.0
 40
2.250000000000016
 50
166.1276202131603
 51
193.8723797868398
  0
ARC
  5
2D8
  8
0
  6
CONTINUOUS
 62
     7
 10
-1097.5
 20
257.5
 30
0.0
 40
2.249999999999999
 50
193.8723797868381
 51
256.1276202131584
  0
ARC
  5
2D9
  8
0
  6
CONTINUOUS
 62
     7
 10
-1097.5
 20
257.5
 30
0.0
 40
2.250000000000002
 50
256.1276202131598
 51
283.8723797868399
  0
ARC
  5
2DA
  8
0
  6
CONTINUOUS
 62
     7
 10
-1097.5
 20
257.5
 30
0.0
 40
2.249999999999996
 50
283.8723797868384
 51
346.1276202131595
  0
ARC
  5
2DB
  8
0
  6
CONTINUOUS
 62
     7
 10
-1097.5
 20
257.4999999999999
 30
0.0
 40
2.250000000000016
 50
346.1276202131605
 51
13.87237978683982
  0
ARC
  5
2DC
  8
0
  6
CONTINUOUS
 62
     7
 10
-1097.5
 20
257.5
 30
0.0
 40
2.24999999999995
 50
13.87237978683878
 51
76.12762021315848
  0
ARC
  5
2DD
  8
0
  6
CONTINUOUS
 62
     7
 10
-1097.5
 20
257.5
 30
0.0
 40
2.249999999999975
 50
76.12762021315848
 51
103.8723797868385
  0
CIRCLE
  5
2DE
  8
0
  6
CONTINUOUS
 62
     7
 10
-507.5000000000001
 20
225.0
 30
0.0
 40
3.749999999999976
  0
ARC
  5
2DF
  8
0
  6
CONTINUOUS
 62
     7
 10
-844.2499999999999
 20
241.0
 30
0.0
 40
2.249999999999988
 50
103.8723797868385
 51
166.1276202131588
  0
ARC
  5
2E0
  8
0
  6
CONTINUOUS
 62
     7
 10
-844.2499999999999
 20
241.0000000000001
 30
0.0
 40
2.250000000000002
 50
166.1276202131605
 51
193.8723797868399
  0
ARC
  5
2E1
  8
0
  6
CONTINUOUS
 62
     7
 10
-844.2499999999999
 20
241.0
 30
0.0
 40
2.249999999999992
 50
193.8723797868381
 51
256.127620213159
  0
ARC
  5
2E2
  8
0
  6
CONTINUOUS
 62
     7
 10
-844.2499999999999
 20
241.0
 30
0.0
 40
2.250000000000002
 50
256.1276202131603
 51
283.8723797868399
  0
ARC
  5
2E3
  8
0
  6
CONTINUOUS
 62
     7
 10
-844.2499999999999
 20
241.0
 30
0.0
 40
2.249999999999996
 50
283.8723797868384
 51
346.1276202131592
  0
ARC
  5
2E4
  8
0
  6
CONTINUOUS
 62
     7
 10
-844.2499999999999
 20
241.0
 30
0.0
 40
2.250000000000002
 50
346.1276202131603
 51
13.87237978683987
  0
ARC
  5
2E5
  8
0
  6
CONTINUOUS
 62
     7
 10
-844.2499999999999
 20
241.0
 30
0.0
 40
2.249999999999972
 50
13.87237978683896
 51
76.12762021315905
  0
ARC
  5
2E6
  8
0
  6
CONTINUOUS
 62
     7
 10
-844.2499999999999
 20
241.0
 30
0.0
 40
2.249999999999973
 50
76.12762021315902
 51
103.8723797868385
  0
CIRCLE
  5
2E7
  8
0
  6
CONTINUOUS
 62
     7
 10
-1097.5
 20
225.0
 30
0.0
 40
3.749999999999976
  0
ARC
  5
2E8
  8
0
  6
CONTINUOUS
 62
     7
 10
-1097.5
 20
225.0
 30
0.0
 40
2.250000000000001
 50
76.12762021316018
 51
103.8723797868399
  0
ARC
  5
2E9
  8
0
  6
CONTINUOUS
 62
     7
 10
-1097.5
 20
225.0
 30
0.0
 40
2.249999999999974
 50
103.8723797868415
 51
166.1276202131611
  0
ARC
  5
2EA
  8
0
  6
CONTINUOUS
 62
     7
 10
-1097.5
 20
225.0
 30
0.0
 40
2.250000000000013
 50
166.1276202131603
 51
193.8723797868397
  0
ARC
  5
2EB
  8
0
  6
CONTINUOUS
 62
     7
 10
-1097.5
 20
225.0
 30
0.0
 40
2.249999999999958
 50
193.8723797868396
 51
256.1276202131586
  0
ARC
  5
2EC
  8
0
  6
CONTINUOUS
 62
     7
 10
-1097.5
 20
225.0
 30
0.0
 40
2.250000000000001
 50
256.12762021316
 51
283.8723797868399
  0
ARC
  5
2ED
  8
0
  6
CONTINUOUS
 62
     7
 10
-1097.5
 20
225.0
 30
0.0
 40
2.249999999999974
 50
283.8723797868386
 51
346.1276202131597
  0
ARC
  5
2EE
  8
0
  6
CONTINUOUS
 62
     7
 10
-1097.5
 20
225.0
 30
0.0
 40
2.250000000000018
 50
346.1276202131604
 51
13.87237978684016
  0
ARC
  5
2EF
  8
0
  6
CONTINUOUS
 62
     7
 10
-1097.5
 20
225.0
 30
0.0
 40
2.249999999999962
 50
13.87237978684016
 51
76.1276202131614
  0
CIRCLE
  5
2F0
  8
0
  6
CONTINUOUS
 62
     7
 10
-895.5
 20
225.0
 30
0.0
 40
3.749999999999976
  0
LINE
  5
2F1
  8
0
  6
CONTINUOUS
 62
     7
 10
-772.9
 20
239.5
 30
0.0
 11
-772.9
 21
242.5
 31
0.0
  0
LINE
  5
2F2
  8
0
  6
CONTINUOUS
 62
     9
 10
-772.9
 20
242.5
 30
0.0
 11
-771.4000000000001
 21
242.5
 31
0.0
  0
LINE
  5
2F3
  8
0
  6
CONTINUOUS
 62
     7
 10
-771.4
 20
242.5
 30
0.0
 11
-771.4
 21
241.9226497308104
 31
0.0
  0
LINE
  5
2F4
  8
0
  6
CONTINUOUS
 62
     7
 10
-771.4
 20
241.9226497308104
 30
0.0
 11
-771.4
 21
240.0773502691896
 31
0.0
  0
LINE
  5
2F5
  8
0
  6
CONTINUOUS
 62
     7
 10
-771.4
 20
239.5
 30
0.0
 11
-771.3999999999999
 21
240.0773502691896
 31
0.0
  0
ARC
  5
2F6
  8
0
  6
CONTINUOUS
 62
     7
 10
-760.75
 20
242.5
 30
0.0
 40
3.75000000000001
 50
0.0
 51
180.0
  0
ARC
  5
2F7
  8
0
  6
CONTINUOUS
 62
     7
 10
-760.75
 20
242.5
 30
0.0
 40
2.250000000000002
 50
0.0000000000008835
 51
13.87237978684038
  0
ARC
  5
2F8
  8
0
  6
CONTINUOUS
 62
     7
 10
-760.75
 20
242.5
 30
0.0
 40
2.250000000000078
 50
13.87237978684037
 51
76.12762021315734
  0
ARC
  5
2F9
  8
0
  6
CONTINUOUS
 62
     7
 10
-760.7499999999999
 20
242.5
 30
0.0
 40
2.250000000000002
 50
76.1276202131603
 51
103.8723797868399
  0
ARC
  5
2FA
  8
0
  6
CONTINUOUS
 62
     7
 10
-760.75
 20
242.5
 30
0.0
 40
2.250000000000002
 50
103.8723797868369
 51
166.1276202131582
  0
ARC
  5
2FB
  8
0
  6
CONTINUOUS
 62
     7
 10
-760.75
 20
242.5
 30
0.0
 40
2.25
 50
166.1276202131582
 51
180.0
  0
CIRCLE
  5
2FC
  8
0
  6
CONTINUOUS
 62
     7
 10
-1097.5
 20
192.5
 30
0.0
 40
3.749999999999976
  0
ARC
  5
2FD
  8
0
  6
CONTINUOUS
 62
     7
 10
-1097.5
 20
192.5
 30
0.0
 40
2.250000000000016
 50
283.8723797868413
 51
346.1276202131607
  0
ARC
  5
2FE
  8
0
  6
CONTINUOUS
 62
     7
 10
-1097.5
 20
192.5
 30
0.0
 40
2.250000000000019
 50
346.1276202131597
 51
13.87237978683982
  0
ARC
  5
2FF
  8
0
  6
CONTINUOUS
 62
     7
 10
-1097.5
 20
192.5
 30
0.0
 40
2.249999999999968
 50
13.87237978684085
 51
76.1276202131614
  0
ARC
  5
300
  8
0
  6
CONTINUOUS
 62
     7
 10
-1097.5
 20
192.5
 30
0.0
 40
2.250000000000002
 50
76.12762021315999
 51
103.8723797868399
  0
ARC
  5
301
  8
0
  6
CONTINUOUS
 62
     7
 10
-1097.5
 20
192.5
 30
0.0
 40
2.250000000000022
 50
103.8723797868412
 51
166.1276202131621
  0
ARC
  5
302
  8
0
  6
CONTINUOUS
 62
     7
 10
-1097.5
 20
192.4999999999999
 30
0.0
 40
2.250000000000014
 50
166.1276202131604
 51
193.8723797868398
  0
ARC
  5
303
  8
0
  6
CONTINUOUS
 62
     7
 10
-1097.5
 20
192.5
 30
0.0
 40
2.250000000000032
 50
193.8723797868415
 51
256.1276202131614
  0
ARC
  5
304
  8
0
  6
CONTINUOUS
 62
     7
 10
-1097.5
 20
192.5
 30
0.0
 40
2.249999999999975
 50
256.1276202131614
 51
283.8723797868412
  0
ARC
  5
305
  8
0
  6
CONTINUOUS
 62
     7
 10
-769.15
 20
242.5
 30
0.0
 40
3.75000000000001
 50
0.0
 51
180.0
  0
ARC
  5
306
  8
0
  6
CONTINUOUS
 62
     7
 10
-895.5
 20
225.0
 30
0.0
 40
2.249999999999988
 50
103.8723797868385
 51
166.1276202131591
  0
ARC
  5
307
  8
0
  6
CONTINUOUS
 62
     7
 10
-895.5
 20
225.0000000000001
 30
0.0
 40
2.250000000000001
 50
166.1276202131604
 51
193.8723797868398
  0
ARC
  5
308
  8
0
  6
CONTINUOUS
 62
     7
 10
-895.5
 20
225.0
 30
0.0
 40
2.250000000000002
 50
193.8723797868384
 51
256.1276202131585
  0
ARC
  5
309
  8
0
  6
CONTINUOUS
 62
     7
 10
-895.5
 20
225.0
 30
0.0
 40
2.250000000000001
 50
256.1276202131605
 51
283.8723797868399
  0
ARC
  5
30A
  8
0
  6
CONTINUOUS
 62
     7
 10
-895.5
 20
225.0
 30
0.0
 40
2.249999999999989
 50
283.8723797868378
 51
346.1276202131589
  0
ARC
  5
30B
  8
0
  6
CONTINUOUS
 62
     7
 10
-895.5
 20
224.9999999999999
 30
0.0
 40
2.250000000000002
 50
346.1276202131604
 51
13.87237978683987
  0
ARC
  5
30C
  8
0
  6
CONTINUOUS
 62
     7
 10
-895.5
 20
225.0
 30
0.0
 40
2.249999999999975
 50
13.87237978683859
 51
76.12762021315883
  0
ARC
  5
30D
  8
0
  6
CONTINUOUS
 62
     7
 10
-895.5
 20
225.0
 30
0.0
 40
2.249999999999974
 50
76.12762021315885
 51
103.8723797868385
  0
CIRCLE
  5
30E
  8
0
  6
CONTINUOUS
 62
     7
 10
-507.5000000000001
 20
257.5
 30
0.0
 40
3.749999999999976
  0
ARC
  5
30F
  8
0
  6
CONTINUOUS
 62
     7
 10
-507.5000000000001
 20
257.5
 30
0.0
 40
2.250000000000016
 50
103.8723797868413
 51
166.1276202131607
  0
ARC
  5
310
  8
0
  6
CONTINUOUS
 62
     7
 10
-507.5000000000001
 20
257.4999999999999
 30
0.0
 40
2.250000000000019
 50
166.1276202131596
 51
193.8723797868398
  0
ARC
  5
311
  8
0
  6
CONTINUOUS
 62
     7
 10
-507.5000000000001
 20
257.5
 30
0.0
 40
2.250000000000025
 50
193.8723797868409
 51
256.1276202131614
  0
ARC
  5
312
  8
0
  6
CONTINUOUS
 62
     7
 10
-507.4999999999999
 20
257.5
 30
0.0
 40
2.250000000000002
 50
256.12762021316
 51
283.8723797868399
  0
ARC
  5
313
  8
0
  6
CONTINUOUS
 62
     7
 10
-507.5000000000001
 20
257.5
 30
0.0
 40
2.250000000000022
 50
283.8723797868412
 51
346.1276202131621
  0
ARC
  5
314
  8
0
  6
CONTINUOUS
 62
     7
 10
-507.5000000000001
 20
257.5000000000001
 30
0.0
 40
2.250000000000014
 50
346.1276202131604
 51
13.87237978683982
  0
ARC
  5
315
  8
0
  6
CONTINUOUS
 62
     7
 10
-507.5000000000001
 20
257.5
 30
0.0
 40
2.249999999999975
 50
13.87237978684151
 51
76.12762021316136
  0
ARC
  5
316
  8
0
  6
CONTINUOUS
 62
     7
 10
-507.5000000000001
 20
257.5
 30
0.0
 40
2.249999999999975
 50
76.1276202131614
 51
103.8723797868413
  0
ARC
  5
317
  8
0
  6
CONTINUOUS
 62
     7
 10
-507.4999999999999
 20
225.0
 30
0.0
 40
2.25
 50
76.12762021316003
 51
103.8723797868399
  0
ARC
  5
318
  8
0
  6
CONTINUOUS
 62
     7
 10
-507.5000000000001
 20
225.0
 30
0.0
 40
2.249999999999973
 50
103.8723797868387
 51
166.1276202131601
  0
ARC
  5
319
  8
0
  6
CONTINUOUS
 62
     7
 10
-507.4999999999999
 20
225.0
 30
0.0
 40
2.250000000000016
 50
166.1276202131601
 51
193.8723797868397
  0
ARC
  5
31A
  8
0
  6
CONTINUOUS
 62
     7
 10
-507.5000000000001
 20
225.0
 30
0.0
 40
2.249999999999964
 50
193.8723797868404
 51
256.1276202131614
  0
ARC
  5
31B
  8
0
  6
CONTINUOUS
 62
     7
 10
-507.4999999999999
 20
225.0
 30
0.0
 40
2.25
 50
256.1276202131601
 51
283.87237978684
  0
ARC
  5
31C
  8
0
  6
CONTINUOUS
 62
     7
 10
-507.5000000000001
 20
225.0
 30
0.0
 40
2.249999999999975
 50
283.8723797868414
 51
346.1276202131605
  0
ARC
  5
31D
  8
0
  6
CONTINUOUS
 62
     7
 10
-507.4999999999999
 20
225.0
 30
0.0
 40
2.250000000000012
 50
346.1276202131605
 51
13.87237978683982
  0
ARC
  5
31E
  8
0
  6
CONTINUOUS
 62
     7
 10
-507.5000000000001
 20
225.0
 30
0.0
 40
2.249999999999953
 50
13.8723797868391
 51
76.12762021315847
  0
ARC
  5
31F
  8
0
  6
CONTINUOUS
 62
     7
 10
-769.15
 20
242.5
 30
0.0
 40
2.250000000000002
 50
0.0000000000009718
 51
13.87237978684018
  0
ARC
  5
320
  8
0
  6
CONTINUOUS
 62
     7
 10
-769.15
 20
242.5
 30
0.0
 40
2.250000000000004
 50
13.87237978684018
 51
76.12762021315922
  0
ARC
  5
321
  8
0
  6
CONTINUOUS
 62
     7
 10
-769.15
 20
242.5
 30
0.0
 40
2.250000000000002
 50
76.12762021316041
 51
103.8723797868399
  0
ARC
  5
322
  8
0
  6
CONTINUOUS
 62
     7
 10
-769.15
 20
242.5
 30
0.0
 40
2.24999999999999
 50
103.8723797868387
 51
166.127620213159
  0
ARC
  5
323
  8
0
  6
CONTINUOUS
 62
     7
 10
-769.15
 20
242.5
 30
0.0
 40
2.250000000000002
 50
166.127620213159
 51
180.0
  0
ARC
  5
324
  8
0
  6
CONTINUOUS
 62
     7
 10
-835.8499999999999
 20
241.0
 30
0.0
 40
2.249999999999988
 50
103.8723797868385
 51
166.1276202131588
  0
ARC
  5
325
  8
0
  6
CONTINUOUS
 62
     7
 10
-835.8499999999999
 20
241.0000000000001
 30
0.0
 40
2.250000000000002
 50
166.1276202131605
 51
193.8723797868399
  0
ARC
  5
326
  8
0
  6
CONTINUOUS
 62
     7
 10
-835.8499999999999
 20
241.0
 30
0.0
 40
2.249999999999992
 50
193.8723797868381
 51
256.127620213159
  0
ARC
  5
327
  8
0
  6
CONTINUOUS
 62
     7
 10
-835.8499999999999
 20
241.0
 30
0.0
 40
2.250000000000002
 50
256.1276202131603
 51
283.8723797868399
  0
ARC
  5
328
  8
0
  6
CONTINUOUS
 62
     7
 10
-835.8499999999999
 20
241.0
 30
0.0
 40
2.249999999999996
 50
283.8723797868384
 51
346.1276202131592
  0
ARC
  5
329
  8
0
  6
CONTINUOUS
 62
     7
 10
-835.8499999999999
 20
241.0
 30
0.0
 40
2.250000000000002
 50
346.1276202131603
 51
13.87237978683987
  0
ARC
  5
32A
  8
0
  6
CONTINUOUS
 62
     7
 10
-835.8499999999999
 20
241.0
 30
0.0
 40
2.249999999999975
 50
13.87237978683896
 51
76.12762021315905
  0
ARC
  5
32B
  8
0
  6
CONTINUOUS
 62
     7
 10
-835.8499999999999
 20
241.0
 30
0.0
 40
2.249999999999973
 50
76.12762021315902
 51
103.8723797868385
  0
LINE
  5
32C
  8
0
  6
CONTINUOUS
 62
     9
 10
-728.4172067124455
 20
191.4016874711429
 30
0.0
 11
-728.417206536396
 21
190.6511321211964
 31
0.0
  0
POLYLINE
  5
32D
  8
0
  6
CONTINUOUS
 62
     7
 66
     1
 10
0.0
 20
0.0
 30
0.0
  0
VERTEX
  5
84E
  8
0
  6
CONTINUOUS
 62
     7
 10
-728.4172067124455
 20
191.4016874711429
 30
0.0
  0
VERTEX
  5
84F
  8
0
  6
CONTINUOUS
 62
     7
 10
-728.395381921028
 20
191.4022343849423
 30
0.0
  0
VERTEX
  5
850
  8
0
  6
CONTINUOUS
 62
     7
 10
-728.3735850753019
 20
191.4038379081083
 30
0.0
  0
VERTEX
  5
851
  8
0
  6
CONTINUOUS
 62
     7
 10
-728.3518808314574
 20
191.4064422214522
 30
0.0
  0
VERTEX
  5
852
  8
0
  6
CONTINUOUS
 62
     7
 10
-728.3303338456845
 20
191.4099915057855
 30
0.0
  0
VERTEX
  5
853
  8
0
  6
CONTINUOUS
 62
     7
 10
-728.3082751385404
 20
191.4145993854487
 30
0.0
  0
VERTEX
  5
854
  8
0
  6
CONTINUOUS
 62
     7
 10
-728.2864106375683
 20
191.4201342003582
 30
0.0
  0
VERTEX
  5
855
  8
0
  6
CONTINUOUS
 62
     7
 10
-728.2647895244488
 20
191.4265600439587
 30
0.0
  0
VERTEX
  5
856
  8
0
  6
CONTINUOUS
 62
     7
 10
-728.2434609808616
 20
191.4338410096952
 30
0.0
  0
VERTEX
  5
857
  8
0
  6
CONTINUOUS
 62
     7
 10
-728.2164098328656
 20
191.4444628225453
 30
0.0
  0
VERTEX
  5
858
  8
0
  6
CONTINUOUS
 62
     7
 10
-728.1899171399353
 20
191.4564549465763
 30
0.0
  0
VERTEX
  5
859
  8
0
  6
CONTINUOUS
 62
     7
 10
-728.1640921946838
 20
191.469782157349
 30
0.0
  0
VERTEX
  5
85A
  8
0
  6
CONTINUOUS
 62
     7
 10
-728.1447143914696
 20
191.4809436438458
 30
0.0
  0
VERTEX
  5
85B
  8
0
  6
CONTINUOUS
 62
     7
 10
-728.1257978625654
 20
191.4929080858817
 30
0.0
  0
VERTEX
  5
85C
  8
0
  6
CONTINUOUS
 62
     7
 10
-728.1074139145726
 20
191.5056708346302
 30
0.0
  0
VERTEX
  5
85D
  8
0
  6
CONTINUOUS
 62
     7
 10
-728.089633854093
 20
191.5192272412647
 30
0.0
  0
VERTEX
  5
85E
  8
0
  6
CONTINUOUS
 62
     7
 10
-728.0723311179454
 20
191.533784764067
 30
0.0
  0
VERTEX
  5
85F
  8
0
  6
CONTINUOUS
 62
     7
 10
-728.0557586097568
 20
191.5492106355431
 30
0.0
  0
VERTEX
  5
860
  8
0
  6
CONTINUOUS
 62
     7
 10
-728.0399823164316
 20
191.5654490959777
 30
0.0
  0
VERTEX
  5
861
  8
0
  6
CONTINUOUS
 62
     7
 10
-728.0250682248749
 20
191.5824443856557
 30
0.0
  0
VERTEX
  5
862
  8
0
  6
CONTINUOUS
 62
     7
 10
-728.0104634679776
 20
191.6008700781964
 30
0.0
  0
VERTEX
  5
863
  8
0
  6
CONTINUOUS
 62
     7
 10
-727.9967355530154
 20
191.6199892253773
 30
0.0
  0
VERTEX
  5
864
  8
0
  6
CONTINUOUS
 62
     7
 10
-727.9838919178734
 20
191.6397174487836
 30
0.0
  0
VERTEX
  5
865
  8
0
  6
CONTINUOUS
 62
     7
 10
-727.9719400004369
 20
191.65997037
 30
0.0
  0
VERTEX
  5
866
  8
0
  6
CONTINUOUS
 62
     7
 10
-727.9595187266807
 20
191.6833844441663
 30
0.0
  0
VERTEX
  5
867
  8
0
  6
CONTINUOUS
 62
     7
 10
-727.9482117977931
 20
191.7073731828694
 30
0.0
  0
VERTEX
  5
868
  8
0
  6
CONTINUOUS
 62
     7
 10
-727.9380452073204
 20
191.7318514323071
 30
0.0
  0
VERTEX
  5
869
  8
0
  6
CONTINUOUS
 62
     7
 10
-727.9288578308531
 20
191.7572997618819
 30
0.0
  0
VERTEX
  5
86A
  8
0
  6
CONTINUOUS
 62
     7
 10
-727.9209041528803
 20
191.783176334503
 30
0.0
  0
VERTEX
  5
86B
  8
0
  6
CONTINUOUS
 62
     7
 10
-727.9142379012054
 20
191.8093966421715
 30
0.0
  0
VERTEX
  5
86C
  8
0
  6
CONTINUOUS
 62
     7
 10
-727.9105364395446
 20
191.8270266492864
 30
0.0
  0
VERTEX
  5
86D
  8
0
  6
CONTINUOUS
 62
     7
 10
-727.9074463026259
 20
191.844779285691
 30
0.0
  0
VERTEX
  5
86E
  8
0
  6
CONTINUOUS
 62
     7
 10
-727.9049913655418
 20
191.8626248454347
 30
0.0
  0
VERTEX
  5
86F
  8
0
  6
CONTINUOUS
 62
     7
 10
-727.9031769151949
 20
191.8807693114942
 30
0.0
  0
VERTEX
  5
870
  8
0
  6
CONTINUOUS
 62
     7
 10
-727.9020650952219
 20
191.8989768236238
 30
0.0
  0
VERTEX
  5
871
  8
0
  6
CONTINUOUS
 62
     7
 10
-727.9016874711428
 20
191.9172065363962
 30
0.0
  0
SEQEND
  5
9C4
  8
0
  6
CONTINUOUS
 62
     7
  0
LINE
  5
32E
  8
0
  6
CONTINUOUS
 62
     9
 10
-727.9016874711428
 20
191.9172065363962
 30
0.0
 11
-727.1511321211963
 21
191.9172065363962
 31
0.0
  0
ARC
  5
32F
  8
0
  6
CONTINUOUS
 62
     7
 10
-728.4167814988713
 20
191.9157452054244
 30
0.0
 40
1.264613155655724
 50
269.9807428408808
 51
346.9517091717867
  0
POLYLINE
  5
330
  8
0
  6
CONTINUOUS
 62
     7
 66
     1
 10
0.0
 20
0.0
 30
0.0
  0
VERTEX
  5
872
  8
0
  6
CONTINUOUS
 62
     7
 10
-727.184820500181
 20
191.6302307028794
 30
0.0
  0
VERTEX
  5
873
  8
0
  6
CONTINUOUS
 62
     7
 10
-727.1597750179419
 20
191.7717838694801
 30
0.0
  0
VERTEX
  5
874
  8
0
  6
CONTINUOUS
 62
     7
 10
-727.1511321211963
 20
191.9172065363962
 30
0.0
  0
SEQEND
  5
9C5
  8
0
  6
CONTINUOUS
 62
     7
  0
LINE
  5
331
  8
0
  6
CONTINUOUS
 62
     9
 10
-751.2827932875568
 20
258.5983125288572
 30
0.0
 11
-751.2827934636038
 21
259.3488678788037
 31
0.0
  0
POLYLINE
  5
332
  8
0
  6
CONTINUOUS
 62
     7
 66
     1
 10
0.0
 20
0.0
 30
0.0
  0
VERTEX
  5
875
  8
0
  6
CONTINUOUS
 62
     7
 10
-751.2827932875568
 20
258.5983125288572
 30
0.0
  0
VERTEX
  5
876
  8
0
  6
CONTINUOUS
 62
     7
 10
-751.3046180789735
 20
258.5977656150578
 30
0.0
  0
VERTEX
  5
877
  8
0
  6
CONTINUOUS
 62
     7
 10
-751.326414924699
 20
258.5961620918915
 30
0.0
  0
VERTEX
  5
878
  8
0
  6
CONTINUOUS
 62
     7
 10
-751.3481191685428
 20
258.5935577785469
 30
0.0
  0
VERTEX
  5
879
  8
0
  6
CONTINUOUS
 62
     7
 10
-751.3696661543148
 20
258.590008494213
 30
0.0
  0
VERTEX
  5
87A
  8
0
  6
CONTINUOUS
 62
     7
 10
-751.3917248614583
 20
258.5854006145491
 30
0.0
  0
VERTEX
  5
87B
  8
0
  6
CONTINUOUS
 62
     7
 10
-751.4135893624295
 20
258.5798657996392
 30
0.0
  0
VERTEX
  5
87C
  8
0
  6
CONTINUOUS
 62
     7
 10
-751.4352104755484
 20
258.5734399560382
 30
0.0
  0
VERTEX
  5
87D
  8
0
  6
CONTINUOUS
 62
     7
 10
-751.4565390191348
 20
258.5661589903016
 30
0.0
  0
VERTEX
  5
87E
  8
0
  6
CONTINUOUS
 62
     7
 10
-751.4835901671298
 20
258.5555371774516
 30
0.0
  0
VERTEX
  5
87F
  8
0
  6
CONTINUOUS
 62
     7
 10
-751.5100828600592
 20
258.5435450534213
 30
0.0
  0
VERTEX
  5
880
  8
0
  6
CONTINUOUS
 62
     7
 10
-751.53590780531
 20
258.5302178426496
 30
0.0
  0
VERTEX
  5
881
  8
0
  6
CONTINUOUS
 62
     7
 10
-751.5552856085236
 20
258.519056356154
 30
0.0
  0
VERTEX
  5
882
  8
0
  6
CONTINUOUS
 62
     7
 10
-751.5742021374274
 20
258.5070919141194
 30
0.0
  0
VERTEX
  5
883
  8
0
  6
CONTINUOUS
 62
     7
 10
-751.59258608542
 20
258.4943291653724
 30
0.0
  0
VERTEX
  5
884
  8
0
  6
CONTINUOUS
 62
     7
 10
-751.6103661458993
 20
258.4807727587395
 30
0.0
  0
VERTEX
  5
885
  8
0
  6
CONTINUOUS
 62
     7
 10
-751.6276688820504
 20
258.4662152359355
 30
0.0
  0
VERTEX
  5
886
  8
0
  6
CONTINUOUS
 62
     7
 10
-751.6442413902424
 20
258.4507893644573
 30
0.0
  0
VERTEX
  5
887
  8
0
  6
CONTINUOUS
 62
     7
 10
-751.6600176835703
 20
258.4345509040201
 30
0.0
  0
VERTEX
  5
888
  8
0
  6
CONTINUOUS
 62
     7
 10
-751.6749317751294
 20
258.417555614339
 30
0.0
  0
VERTEX
  5
889
  8
0
  6
CONTINUOUS
 62
     7
 10
-751.6895365320289
 20
258.3991299217945
 30
0.0
  0
VERTEX
  5
88A
  8
0
  6
CONTINUOUS
 62
     7
 10
-751.7032644469932
 20
258.3800107746094
 30
0.0
  0
VERTEX
  5
88B
  8
0
  6
CONTINUOUS
 62
     7
 10
-751.716108082137
 20
258.360282551199
 30
0.0
  0
VERTEX
  5
88C
  8
0
  6
CONTINUOUS
 62
     7
 10
-751.7280599995751
 20
258.3400296299783
 30
0.0
  0
VERTEX
  5
88D
  8
0
  6
CONTINUOUS
 62
     7
 10
-751.7404812733305
 20
258.3166155558126
 30
0.0
  0
VERTEX
  5
88E
  8
0
  6
CONTINUOUS
 62
     7
 10
-751.7517882022179
 20
258.2926268171103
 30
0.0
  0
VERTEX
  5
88F
  8
0
  6
CONTINUOUS
 62
     7
 10
-751.7619547926906
 20
258.2681485676734
 30
0.0
  0
VERTEX
  5
890
  8
0
  6
CONTINUOUS
 62
     7
 10
-751.7711421691582
 20
258.2427002380999
 30
0.0
  0
VERTEX
  5
891
  8
0
  6
CONTINUOUS
 62
     7
 10
-751.7790958471311
 20
258.21682366548
 30
0.0
  0
VERTEX
  5
892
  8
0
  6
CONTINUOUS
 62
     7
 10
-751.7857620988062
 20
258.1906033578125
 30
0.0
  0
VERTEX
  5
893
  8
0
  6
CONTINUOUS
 62
     7
 10
-751.7894635604663
 20
258.1729733507007
 30
0.0
  0
VERTEX
  5
894
  8
0
  6
CONTINUOUS
 62
     7
 10
-751.7925536973839
 20
258.1552207142988
 30
0.0
  0
VERTEX
  5
895
  8
0
  6
CONTINUOUS
 62
     7
 10
-751.7950086344666
 20
258.137375154558
 30
0.0
  0
VERTEX
  5
896
  8
0
  6
CONTINUOUS
 62
     7
 10
-751.7968230848118
 20
258.1192306885009
 30
0.0
  0
VERTEX
  5
897
  8
0
  6
CONTINUOUS
 62
     7
 10
-751.7979349047819
 20
258.1010231763737
 30
0.0
  0
VERTEX
  5
898
  8
0
  6
CONTINUOUS
 62
     7
 10
-751.7983125288571
 20
258.0827934636038
 30
0.0
  0
SEQEND
  5
9C6
  8
0
  6
CONTINUOUS
 62
     7
  0
LINE
  5
333
  8
0
  6
CONTINUOUS
 62
     9
 10
-751.7983125288571
 20
258.0827934636038
 30
0.0
 11
-752.5488678788035
 21
258.0827934636038
 31
0.0
  0
ARC
  5
334
  8
0
  6
CONTINUOUS
 62
     7
 10
-751.2832185011162
 20
258.0842547945441
 30
0.0
 40
1.264613155687319
 50
89.98074284143964
 51
166.9517091711971
  0
POLYLINE
  5
335
  8
0
  6
CONTINUOUS
 62
     7
 66
     1
 10
0.0
 20
0.0
 30
0.0
  0
VERTEX
  5
899
  8
0
  6
CONTINUOUS
 62
     7
 10
-752.5151794998343
 20
258.369769297109
 30
0.0
  0
VERTEX
  5
89A
  8
0
  6
CONTINUOUS
 62
     7
 10
-752.5402249820673
 20
258.2282161305145
 30
0.0
  0
VERTEX
  5
89B
  8
0
  6
CONTINUOUS
 62
     7
 10
-752.5488678788035
 20
258.0827934636038
 30
0.0
  0
SEQEND
  5
9C7
  8
0
  6
CONTINUOUS
 62
     7
  0
LINE
  5
336
  8
0
  6
CONTINUOUS
 62
     9
 10
-728.4172065363961
 20
258.5983125288571
 30
0.0
 11
-728.4172065363961
 21
259.3488678788036
 31
0.0
  0
LINE
  5
337
  8
0
  6
CONTINUOUS
 62
     7
 10
-728.4172065363961
 20
258.5983125288571
 30
0.0
 11
-751.2827932875568
 21
258.5983125288572
 31
0.0
  0
LINE
  5
338
  8
0
  6
CONTINUOUS
 62
     7
 10
-728.4172065363961
 20
259.3488678788036
 30
0.0
 11
-751.2827934636038
 21
259.3488678788037
 31
0.0
  0
LINE
  5
339
  8
0
  6
CONTINUOUS
 62
     9
 10
-727.9016874711428
 20
258.0827932875882
 30
0.0
 11
-727.1511321211963
 21
258.0827934636038
 31
0.0
  0
POLYLINE
  5
33A
  8
0
  6
CONTINUOUS
 62
     7
 66
     1
 10
0.0
 20
0.0
 30
0.0
  0
VERTEX
  5
89C
  8
0
  6
CONTINUOUS
 62
     7
 10
-727.9016874711428
 20
258.0827932875882
 30
0.0
  0
VERTEX
  5
89D
  8
0
  6
CONTINUOUS
 62
     7
 10
-727.9022343849412
 20
258.1046180789984
 30
0.0
  0
VERTEX
  5
89E
  8
0
  6
CONTINUOUS
 62
     7
 10
-727.9038379081063
 20
258.1264149247174
 30
0.0
  0
VERTEX
  5
89F
  8
0
  6
CONTINUOUS
 62
     7
 10
-727.9064422214497
 20
258.148119168555
 30
0.0
  0
VERTEX
  5
8A0
  8
0
  6
CONTINUOUS
 62
     7
 10
-727.9099915057819
 20
258.1696661543207
 30
0.0
  0
VERTEX
  5
8A1
  8
0
  6
CONTINUOUS
 62
     7
 10
-727.9145993854437
 20
258.1917248614579
 30
0.0
  0
VERTEX
  5
8A2
  8
0
  6
CONTINUOUS
 62
     7
 10
-727.9201342003513
 20
258.2135893624229
 30
0.0
  0
VERTEX
  5
8A3
  8
0
  6
CONTINUOUS
 62
     7
 10
-727.9265600439496
 20
258.2352104755356
 30
0.0
  0
VERTEX
  5
8A4
  8
0
  6
CONTINUOUS
 62
     7
 10
-727.9338410096834
 20
258.2565390191161
 30
0.0
  0
VERTEX
  5
8A5
  8
0
  6
CONTINUOUS
 62
     7
 10
-727.9444628225289
 20
258.2835901671035
 30
0.0
  0
VERTEX
  5
8A6
  8
0
  6
CONTINUOUS
 62
     7
 10
-727.9564549465545
 20
258.3100828600255
 30
0.0
  0
VERTEX
  5
8A7
  8
0
  6
CONTINUOUS
 62
     7
 10
-727.9697821573209
 20
258.3359078052692
 30
0.0
  0
VERTEX
  5
8A8
  8
0
  6
CONTINUOUS
 62
     7
 10
-727.9809436438118
 20
258.3552856084775
 30
0.0
  0
VERTEX
  5
8A9
  8
0
  6
CONTINUOUS
 62
     7
 10
-727.9929080858412
 20
258.3742021373764
 30
0.0
  0
VERTEX
  5
8AA
  8
0
  6
CONTINUOUS
 62
     7
 10
-728.0056708345828
 20
258.3925860853644
 30
0.0
  0
VERTEX
  5
8AB
  8
0
  6
CONTINUOUS
 62
     7
 10
-728.0192272412096
 20
258.4103661458397
 30
0.0
  0
VERTEX
  5
8AC
  8
0
  6
CONTINUOUS
 62
     7
 10
-728.0337847640103
 20
258.4276688819913
 30
0.0
  0
VERTEX
  5
8AD
  8
0
  6
CONTINUOUS
 62
     7
 10
-728.0492106354852
 20
258.4442413901841
 30
0.0
  0
VERTEX
  5
8AE
  8
0
  6
CONTINUOUS
 62
     7
 10
-728.0654490959189
 20
258.4600176835133
 30
0.0
  0
VERTEX
  5
8AF
  8
0
  6
CONTINUOUS
 62
     7
 10
-728.0824443855964
 20
258.4749317750737
 30
0.0
  0
VERTEX
  5
8B0
  8
0
  6
CONTINUOUS
 62
     7
 10
-728.1008700781372
 20
258.4895365319749
 30
0.0
  0
VERTEX
  5
8B1
  8
0
  6
CONTINUOUS
 62
     7
 10
-728.1199892253186
 20
258.5032644469408
 30
0.0
  0
VERTEX
  5
8B2
  8
0
  6
CONTINUOUS
 62
     7
 10
-728.1397174487255
 20
258.5161080820865
 30
0.0
  0
VERTEX
  5
8B3
  8
0
  6
CONTINUOUS
 62
     7
 10
-728.1599703699426
 20
258.5280599995265
 30
0.0
  0
VERTEX
  5
8B4
  8
0
  6
CONTINUOUS
 62
     7
 10
-728.1833844441068
 20
258.5404812732855
 30
0.0
  0
VERTEX
  5
8B5
  8
0
  6
CONTINUOUS
 62
     7
 10
-728.2073731828076
 20
258.5517882021762
 30
0.0
  0
VERTEX
  5
8B6
  8
0
  6
CONTINUOUS
 62
     7
 10
-728.2318514322432
 20
258.5619547926524
 30
0.0
  0
VERTEX
  5
8B7
  8
0
  6
CONTINUOUS
 62
     7
 10
-728.2572997618155
 20
258.5711421691235
 30
0.0
  0
VERTEX
  5
8B8
  8
0
  6
CONTINUOUS
 62
     7
 10
-728.2831763344344
 20
258.5790958471003
 30
0.0
  0
VERTEX
  5
8B9
  8
0
  6
CONTINUOUS
 62
     7
 10
-728.3093966421009
 20
258.5857620987796
 30
0.0
  0
VERTEX
  5
8BA
  8
0
  6
CONTINUOUS
 62
     7
 10
-728.3270266492267
 20
258.5894635604457
 30
0.0
  0
VERTEX
  5
8BB
  8
0
  6
CONTINUOUS
 62
     7
 10
-728.3447792856425
 20
258.5925536973686
 30
0.0
  0
VERTEX
  5
8BC
  8
0
  6
CONTINUOUS
 62
     7
 10
-728.3626248453976
 20
258.5950086344561
 30
0.0
  0
VERTEX
  5
8BD
  8
0
  6
CONTINUOUS
 62
     7
 10
-728.3807693114692
 20
258.5968230848051
 30
0.0
  0
VERTEX
  5
8BE
  8
0
  6
CONTINUOUS
 62
     7
 10
-728.3989768236113
 20
258.5979349047788
 30
0.0
  0
VERTEX
  5
8BF
  8
0
  6
CONTINUOUS
 62
     7
 10
-728.4172065363961
 20
258.5983125288571
 30
0.0
  0
SEQEND
  5
9C8
  8
0
  6
CONTINUOUS
 62
     7
  0
ARC
  5
33B
  8
0
  6
CONTINUOUS
 62
     7
 10
-728.41574520543
 20
258.0832185011275
 30
0.0
 40
1.264613155661365
 50
359.9807428409291
 51
76.95170916561113
  0
POLYLINE
  5
33C
  8
0
  6
CONTINUOUS
 62
     7
 66
     1
 10
0.0
 20
0.0
 30
0.0
  0
VERTEX
  5
8C0
  8
0
  6
CONTINUOUS
 62
     7
 10
-728.1302307027509
 20
259.3151794997925
 30
0.0
  0
VERTEX
  5
8C1
  8
0
  6
CONTINUOUS
 62
     7
 10
-728.271783869413
 20
259.3402249820531
 30
0.0
  0
VERTEX
  5
8C2
  8
0
  6
CONTINUOUS
 62
     7
 10
-728.4172065363961
 20
259.3488678788036
 30
0.0
  0
SEQEND
  5
9C9
  8
0
  6
CONTINUOUS
 62
     7
  0
LINE
  5
33D
  8
0
  6
CONTINUOUS
 62
     7
 10
-751.2827934636038
 20
191.4016874711429
 30
0.0
 11
-728.4172067124455
 21
191.4016874711429
 31
0.0
  0
POLYLINE
  5
33E
  8
0
  6
CONTINUOUS
 62
     7
 66
     1
 10
0.0
 20
0.0
 30
0.0
  0
VERTEX
  5
8C3
  8
0
  6
CONTINUOUS
 62
     7
 10
-751.7983125288571
 20
191.917206712417
 30
0.0
  0
VERTEX
  5
8C4
  8
0
  6
CONTINUOUS
 62
     7
 10
-751.7977656150595
 20
191.895381921008
 30
0.0
  0
VERTEX
  5
8C5
  8
0
  6
CONTINUOUS
 62
     7
 10
-751.7961620918949
 20
191.8735850752902
 30
0.0
  0
VERTEX
  5
8C6
  8
0
  6
CONTINUOUS
 62
     7
 10
-751.7935577785524
 20
191.8518808314538
 30
0.0
  0
VERTEX
  5
8C7
  8
0
  6
CONTINUOUS
 62
     7
 10
-751.7900084942213
 20
191.8303338456891
 30
0.0
  0
VERTEX
  5
8C8
  8
0
  6
CONTINUOUS
 62
     7
 10
-751.785400614561
 20
191.8082751385529
 30
0.0
  0
VERTEX
  5
8C9
  8
0
  6
CONTINUOUS
 62
     7
 10
-751.7798657996547
 20
191.7864106375889
 30
0.0
  0
VERTEX
  5
8CA
  8
0
  6
CONTINUOUS
 62
     7
 10
-751.7734399560578
 20
191.7647895244772
 30
0.0
  0
VERTEX
  5
8CB
  8
0
  6
CONTINUOUS
 62
     7
 10
-751.7661589903254
 20
191.7434609808976
 30
0.0
  0
VERTEX
  5
8CC
  8
0
  6
CONTINUOUS
 62
     7
 10
-751.7555371774812
 20
191.7164098329114
 30
0.0
  0
VERTEX
  5
8CD
  8
0
  6
CONTINUOUS
 62
     7
 10
-751.743545053457
 20
191.6899171399905
 30
0.0
  0
VERTEX
  5
8CE
  8
0
  6
CONTINUOUS
 62
     7
 10
-751.7302178426918
 20
191.6640921947479
 30
0.0
  0
VERTEX
  5
8CF
  8
0
  6
CONTINUOUS
 62
     7
 10
-751.7190563562017
 20
191.6447143915404
 30
0.0
  0
VERTEX
  5
8D0
  8
0
  6
CONTINUOUS
 62
     7
 10
-751.7070919141731
 20
191.6257978626423
 30
0.0
  0
VERTEX
  5
8D1
  8
0
  6
CONTINUOUS
 62
     7
 10
-751.6943291654327
 20
191.6074139146551
 30
0.0
  0
VERTEX
  5
8D2
  8
0
  6
CONTINUOUS
 62
     7
 10
-751.680772758807
 20
191.5896338541803
 30
0.0
  0
VERTEX
  5
8D3
  8
0
  6
CONTINUOUS
 62
     7
 10
-751.666215236008
 20
191.5723311180295
 30
0.0
  0
VERTEX
  5
8D4
  8
0
  6
CONTINUOUS
 62
     7
 10
-751.6507893645356
 20
191.5557586098371
 30
0.0
  0
VERTEX
  5
8D5
  8
0
  6
CONTINUOUS
 62
     7
 10
-751.6345509041046
 20
191.5399823165079
 30
0.0
  0
VERTEX
  5
8D6
  8
0
  6
CONTINUOUS
 62
     7
 10
-751.6175556144298
 20
191.5250682249471
 30
0.0
  0
VERTEX
  5
8D7
  8
0
  6
CONTINUOUS
 62
     7
 10
-751.5991299218922
 20
191.5104634680456
 30
0.0
  0
VERTEX
  5
8D8
  8
0
  6
CONTINUOUS
 62
     7
 10
-751.580010774714
 20
191.496735553079
 30
0.0
  0
VERTEX
  5
8D9
  8
0
  6
CONTINUOUS
 62
     7
 10
-751.5602825513104
 20
191.4838919179326
 30
0.0
  0
VERTEX
  5
8DA
  8
0
  6
CONTINUOUS
 62
     7
 10
-751.5400296300965
 20
191.4719400004917
 30
0.0
  0
VERTEX
  5
8DB
  8
0
  6
CONTINUOUS
 62
     7
 10
-751.5166155559311
 20
191.4595187267294
 30
0.0
  0
VERTEX
  5
8DC
  8
0
  6
CONTINUOUS
 62
     7
 10
-751.492626817229
 20
191.4482117978358
 30
0.0
  0
VERTEX
  5
8DD
  8
0
  6
CONTINUOUS
 62
     7
 10
-751.4681485677919
 20
191.438045207357
 30
0.0
  0
VERTEX
  5
8DE
  8
0
  6
CONTINUOUS
 62
     7
 10
-751.4427002382174
 20
191.4288578308835
 30
0.0
  0
VERTEX
  5
8DF
  8
0
  6
CONTINUOUS
 62
     7
 10
-751.4168236655963
 20
191.4209041529047
 30
0.0
  0
VERTEX
  5
8E0
  8
0
  6
CONTINUOUS
 62
     7
 10
-751.3906033579274
 20
191.4142379012238
 30
0.0
  0
VERTEX
  5
8E1
  8
0
  6
CONTINUOUS
 62
     7
 10
-751.3729733507971
 20
191.4105364395564
 30
0.0
  0
VERTEX
  5
8E2
  8
0
  6
CONTINUOUS
 62
     7
 10
-751.3552207143766
 20
191.4074463026323
 30
0.0
  0
VERTEX
  5
8E3
  8
0
  6
CONTINUOUS
 62
     7
 10
-751.3373751546169
 20
191.4049913655442
 30
0.0
  0
VERTEX
  5
8E4
  8
0
  6
CONTINUOUS
 62
     7
 10
-751.3192306885403
 20
191.4031769151946
 30
0.0
  0
VERTEX
  5
8E5
  8
0
  6
CONTINUOUS
 62
     7
 10
-751.3010231763934
 20
191.4020650952209
 30
0.0
  0
VERTEX
  5
8E6
  8
0
  6
CONTINUOUS
 62
     7
 10
-751.2827934636038
 20
191.4016874711429
 30
0.0
  0
SEQEND
  5
9CA
  8
0
  6
CONTINUOUS
 62
     7
  0
LINE
  5
33F
  8
0
  6
CONTINUOUS
 62
     7
 10
-751.7983125288571
 20
258.0827934636038
 30
0.0
 11
-751.7983125288571
 21
191.9172067124171
 31
0.0
  0
LINE
  5
340
  8
0
  6
CONTINUOUS
 62
     7
 10
-727.9016874711428
 20
191.9172065363962
 30
0.0
 11
-727.9016874711428
 21
258.0827932875882
 31
0.0
  0
LINE
  5
341
  8
0
  6
CONTINUOUS
 62
     9
 10
-877.0983125288572
 20
191.9172067124639
 30
0.0
 11
-877.8488678788036
 21
191.9172065363962
 31
0.0
  0
POLYLINE
  5
342
  8
0
  6
CONTINUOUS
 62
     7
 66
     1
 10
0.0
 20
0.0
 30
0.0
  0
VERTEX
  5
8E7
  8
0
  6
CONTINUOUS
 62
     7
 10
-876.5827934691299
 20
191.4016874711429
 30
0.0
  0
VERTEX
  5
8E8
  8
0
  6
CONTINUOUS
 62
     7
 10
-876.6046086280409
 20
191.402226549735
 30
0.0
  0
VERTEX
  5
8E9
  8
0
  6
CONTINUOUS
 62
     7
 10
-876.6263966697155
 20
191.4038099241865
 30
0.0
  0
VERTEX
  5
8EA
  8
0
  6
CONTINUOUS
 62
     7
 10
-876.6480934192122
 20
191.4063868187381
 30
0.0
  0
VERTEX
  5
8EB
  8
0
  6
CONTINUOUS
 62
     7
 10
-876.6696347015891
 20
191.4099064576303
 30
0.0
  0
VERTEX
  5
8EC
  8
0
  6
CONTINUOUS
 62
     7
 10
-876.691685525899
 20
191.4144847672556
 30
0.0
  0
VERTEX
  5
8ED
  8
0
  6
CONTINUOUS
 62
     7
 10
-876.713542724232
 20
191.4199930322787
 30
0.0
  0
VERTEX
  5
8EE
  8
0
  6
CONTINUOUS
 62
     7
 10
-876.7351562183949
 20
191.4263964935708
 30
0.0
  0
VERTEX
  5
8EF
  8
0
  6
CONTINUOUS
 62
     7
 10
-876.7564759301949
 20
191.4336603920026
 30
0.0
  0
VERTEX
  5
8F0
  8
0
  6
CONTINUOUS
 62
     7
 10
-876.7835210738866
 20
191.4442723822546
 30
0.0
  0
VERTEX
  5
8F1
  8
0
  6
CONTINUOUS
 62
     7
 10
-876.8100042435108
 20
191.4562639837095
 30
0.0
  0
VERTEX
  5
8F2
  8
0
  6
CONTINUOUS
 62
     7
 10
-876.8358154790695
 20
191.4695979360188
 30
0.0
  0
VERTEX
  5
8F3
  8
0
  6
CONTINUOUS
 62
     7
 10
-876.8551841786528
 20
191.4807708108873
 30
0.0
  0
VERTEX
  5
8F4
  8
0
  6
CONTINUOUS
 62
     7
 10
-876.8740899606561
 20
191.4927481511006
 30
0.0
  0
VERTEX
  5
8F5
  8
0
  6
CONTINUOUS
 62
     7
 10
-876.8924629187403
 20
191.5055232350154
 30
0.0
  0
VERTEX
  5
8F6
  8
0
  6
CONTINUOUS
 62
     7
 10
-876.9102331465667
 20
191.5190893409882
 30
0.0
  0
VERTEX
  5
8F7
  8
0
  6
CONTINUOUS
 62
     7
 10
-876.9274776420218
 20
191.5336021408177
 30
0.0
  0
VERTEX
  5
8F8
  8
0
  6
CONTINUOUS
 62
     7
 10
-876.944001863892
 20
191.548971587387
 30
0.0
  0
VERTEX
  5
8F9
  8
0
  6
CONTINUOUS
 62
     7
 10
-876.9597353290304
 20
191.5651478344156
 30
0.0
  0
VERTEX
  5
8FA
  8
0
  6
CONTINUOUS
 62
     7
 10
-876.9746075542897
 20
191.5820810356228
 30
0.0
  0
VERTEX
  5
8FB
  8
0
  6
CONTINUOUS
 62
     7
 10
-876.9891657645705
 20
191.6004413679252
 30
0.0
  0
VERTEX
  5
8FC
  8
0
  6
CONTINUOUS
 62
     7
 10
-877.0028492046263
 20
191.6194936581073
 30
0.0
  0
VERTEX
  5
8FD
  8
0
  6
CONTINUOUS
 62
     7
 10
-877.0156530038731
 20
191.6391523347999
 30
0.0
  0
VERTEX
  5
8FE
  8
0
  6
CONTINUOUS
 62
     7
 10
-877.0275722917269
 20
191.6593318266343
 30
0.0
  0
VERTEX
  5
8FF
  8
0
  6
CONTINUOUS
 62
     7
 10
-877.0400011809764
 20
191.6827231103879
 30
0.0
  0
VERTEX
  5
900
  8
0
  6
CONTINUOUS
 62
     7
 10
-877.0513235712399
 20
191.7066860634577
 30
0.0
  0
VERTEX
  5
901
  8
0
  6
CONTINUOUS
 62
     7
 10
-877.0615155009838
 20
191.7311359335553
 30
0.0
  0
VERTEX
  5
902
  8
0
  6
CONTINUOUS
 62
     7
 10
-877.0707378596375
 20
191.756544646684
 30
0.0
  0
VERTEX
  5
903
  8
0
  6
CONTINUOUS
 62
     7
 10
-877.0787390916707
 20
191.7823797133454
 30
0.0
  0
VERTEX
  5
904
  8
0
  6
CONTINUOUS
 62
     7
 10
-877.0854649702901
 20
191.8085585863217
 30
0.0
  0
VERTEX
  5
905
  8
0
  6
CONTINUOUS
 62
     7
 10
-877.0892427875397
 20
191.8263181117219
 30
0.0
  0
VERTEX
  5
906
  8
0
  6
CONTINUOUS
 62
     7
 10
-877.0924018611868
 20
191.8442034137136
 30
0.0
  0
VERTEX
  5
907
  8
0
  6
CONTINUOUS
 62
     7
 10
-877.094916210431
 20
191.8621845189355
 30
0.0
  0
VERTEX
  5
908
  8
0
  6
CONTINUOUS
 62
     7
 10
-877.0967791241022
 20
191.8804737072129
 30
0.0
  0
VERTEX
  5
909
  8
0
  6
CONTINUOUS
 62
     7
 10
-877.0979231944302
 20
191.8988285741172
 30
0.0
  0
VERTEX
  5
90A
  8
0
  6
CONTINUOUS
 62
     7
 10
-877.0983125288572
 20
191.9172067124639
 30
0.0
  0
SEQEND
  5
9CB
  8
0
  6
CONTINUOUS
 62
     7
  0
LINE
  5
343
  8
0
  6
CONTINUOUS
 62
     9
 10
-876.5827934691299
 20
191.4016874711429
 30
0.0
 11
-876.5827934691299
 21
190.6511321211964
 31
0.0
  0
ARC
  5
344
  8
0
  6
CONTINUOUS
 62
     7
 10
-876.5836756213458
 20
191.9148484063103
 30
0.0
 40
1.263716593012251
 50
193.0142738131191
 51
270.0399959953385
  0
POLYLINE
  5
345
  8
0
  6
CONTINUOUS
 62
     7
 66
     1
 10
0.0
 20
0.0
 30
0.0
  0
VERTEX
  5
90B
  8
0
  6
CONTINUOUS
 62
     7
 10
-877.8149323818749
 20
191.630267280608
 30
0.0
  0
VERTEX
  5
90C
  8
0
  6
CONTINUOUS
 62
     7
 10
-877.8401307412878
 20
191.771786710928
 30
0.0
  0
VERTEX
  5
90D
  8
0
  6
CONTINUOUS
 62
     7
 10
-877.8488678788036
 20
191.9172065363962
 30
0.0
  0
SEQEND
  5
9CC
  8
0
  6
CONTINUOUS
 62
     7
  0
LINE
  5
346
  8
0
  6
CONTINUOUS
 62
     9
 10
-751.2827934636038
 20
191.4016874711429
 30
0.0
 11
-751.2827934636038
 21
190.6511321211964
 31
0.0
  0
LINE
  5
347
  8
0
  6
CONTINUOUS
 62
     7
 10
-751.2827934636038
 20
190.6511321211964
 30
0.0
 11
-728.417206536396
 21
190.6511321211964
 31
0.0
  0
LINE
  5
348
  8
0
  6
CONTINUOUS
 62
     7
 10
-853.7172067124203
 20
191.4016874711429
 30
0.0
 11
-876.5827934691299
 21
191.4016874711429
 31
0.0
  0
LINE
  5
349
  8
0
  6
CONTINUOUS
 62
     9
 10
-853.7172067124203
 20
191.4016874711429
 30
0.0
 11
-853.7172065363962
 21
190.6511321211964
 31
0.0
  0
LINE
  5
34A
  8
0
  6
CONTINUOUS
 62
     7
 10
-853.7172065363962
 20
190.6511321211964
 30
0.0
 11
-876.5827934691299
 21
190.6511321211964
 31
0.0
  0
POLYLINE
  5
34B
  8
0
  6
CONTINUOUS
 62
     7
 66
     1
 10
0.0
 20
0.0
 30
0.0
  0
VERTEX
  5
90E
  8
0
  6
CONTINUOUS
 62
     7
 10
-853.2016874711429
 20
191.91720653087
 30
0.0
  0
VERTEX
  5
90F
  8
0
  6
CONTINUOUS
 62
     7
 10
-853.2022265497336
 20
191.8953913719617
 30
0.0
  0
VERTEX
  5
910
  8
0
  6
CONTINUOUS
 62
     7
 10
-853.203809924183
 20
191.8736033302896
 30
0.0
  0
VERTEX
  5
911
  8
0
  6
CONTINUOUS
 62
     7
 10
-853.2063868187319
 20
191.8519065807954
 30
0.0
  0
VERTEX
  5
912
  8
0
  6
CONTINUOUS
 62
     7
 10
-853.209906457621
 20
191.8303652984206
 30
0.0
  0
VERTEX
  5
913
  8
0
  6
CONTINUOUS
 62
     7
 10
-853.2144847672429
 20
191.8083144741132
 30
0.0
  0
VERTEX
  5
914
  8
0
  6
CONTINUOUS
 62
     7
 10
-853.2199930322628
 20
191.7864572757825
 30
0.0
  0
VERTEX
  5
915
  8
0
  6
CONTINUOUS
 62
     7
 10
-853.2263964935518
 20
191.7648437816217
 30
0.0
  0
VERTEX
  5
916
  8
0
  6
CONTINUOUS
 62
     7
 10
-853.2336603919807
 20
191.743524069824
 30
0.0
  0
VERTEX
  5
917
  8
0
  6
CONTINUOUS
 62
     7
 10
-853.2442723822297
 20
191.7164789261346
 30
0.0
  0
VERTEX
  5
918
  8
0
  6
CONTINUOUS
 62
     7
 10
-853.2562639836823
 20
191.6899957565129
 30
0.0
  0
VERTEX
  5
919
  8
0
  6
CONTINUOUS
 62
     7
 10
-853.2695979359895
 20
191.6641845209568
 30
0.0
  0
VERTEX
  5
91A
  8
0
  6
CONTINUOUS
 62
     7
 10
-853.2807708108569
 20
191.6448158213753
 30
0.0
  0
VERTEX
  5
91B
  8
0
  6
CONTINUOUS
 62
     7
 10
-853.2927481510694
 20
191.625910039374
 30
0.0
  0
VERTEX
  5
91C
  8
0
  6
CONTINUOUS
 62
     7
 10
-853.3055232349833
 20
191.6075370812917
 30
0.0
  0
VERTEX
  5
91D
  8
0
  6
CONTINUOUS
 62
     7
 10
-853.3190893409551
 20
191.589766853467
 30
0.0
  0
VERTEX
  5
91E
  8
0
  6
CONTINUOUS
 62
     7
 10
-853.3336021407788
 20
191.5725223580186
 30
0.0
  0
VERTEX
  5
91F
  8
0
  6
CONTINUOUS
 62
     7
 10
-853.3489715873411
 20
191.555998136154
 30
0.0
  0
VERTEX
  5
920
  8
0
  6
CONTINUOUS
 62
     7
 10
-853.3651478343618
 20
191.5402646710201
 30
0.0
  0
VERTEX
  5
921
  8
0
  6
CONTINUOUS
 62
     7
 10
-853.3820810355601
 20
191.5253924457643
 30
0.0
  0
VERTEX
  5
922
  8
0
  6
CONTINUOUS
 62
     7
 10
-853.4004413678514
 20
191.5108342354865
 30
0.0
  0
VERTEX
  5
923
  8
0
  6
CONTINUOUS
 62
     7
 10
-853.4194936580217
 20
191.4971507954326
 30
0.0
  0
VERTEX
  5
924
  8
0
  6
CONTINUOUS
 62
     7
 10
-853.4391523347022
 20
191.4843469961868
 30
0.0
  0
VERTEX
  5
925
  8
0
  6
CONTINUOUS
 62
     7
 10
-853.4593318265242
 20
191.472427708333
 30
0.0
  0
VERTEX
  5
926
  8
0
  6
CONTINUOUS
 62
     7
 10
-853.4827231102822
 20
191.459998819073
 30
0.0
  0
VERTEX
  5
927
  8
0
  6
CONTINUOUS
 62
     7
 10
-853.5066860633574
 20
191.4486764287998
 30
0.0
  0
VERTEX
  5
928
  8
0
  6
CONTINUOUS
 62
     7
 10
-853.531135933461
 20
191.438484499047
 30
0.0
  0
VERTEX
  5
929
  8
0
  6
CONTINUOUS
 62
     7
 10
-853.556544646597
 20
191.429262140385
 30
0.0
  0
VERTEX
  5
92A
  8
0
  6
CONTINUOUS
 62
     7
 10
-853.5823797132663
 20
191.4212609083445
 30
0.0
  0
VERTEX
  5
92B
  8
0
  6
CONTINUOUS
 62
     7
 10
-853.6085585862512
 20
191.414535029719
 30
0.0
  0
VERTEX
  5
92C
  8
0
  6
CONTINUOUS
 62
     7
 10
-853.6263181116555
 20
191.4107572124666
 30
0.0
  0
VERTEX
  5
92D
  8
0
  6
CONTINUOUS
 62
     7
 10
-853.6442034136512
 20
191.407598138817
 30
0.0
  0
VERTEX
  5
92E
  8
0
  6
CONTINUOUS
 62
     7
 10
-853.6621845188774
 20
191.4050837895708
 30
0.0
  0
VERTEX
  5
92F
  8
0
  6
CONTINUOUS
 62
     7
 10
-853.6804737071596
 20
191.4032208758982
 30
0.0
  0
VERTEX
  5
930
  8
0
  6
CONTINUOUS
 62
     7
 10
-853.6988285740688
 20
191.4020768055694
 30
0.0
  0
VERTEX
  5
931
  8
0
  6
CONTINUOUS
 62
     7
 10
-853.7172067124203
 20
191.4016874711429
 30
0.0
  0
SEQEND
  5
9CD
  8
0
  6
CONTINUOUS
 62
     7
  0
LINE
  5
34C
  8
0
  6
CONTINUOUS
 62
     9
 10
-853.2016874711429
 20
191.91720653087
 30
0.0
 11
-852.4511321211963
 21
191.91720653087
 31
0.0
  0
ARC
  5
34D
  8
0
  6
CONTINUOUS
 62
     7
 10
-853.7148484063182
 20
191.9163243786467
 30
0.0
 40
1.263716593020125
 50
283.0142738110079
 51
0.0399959956739053
  0
POLYLINE
  5
34E
  8
0
  6
CONTINUOUS
 62
     7
 66
     1
 10
0.0
 20
0.0
 30
0.0
  0
VERTEX
  5
932
  8
0
  6
CONTINUOUS
 62
     7
 10
-853.4302672806593
 20
190.6850676180996
 30
0.0
  0
VERTEX
  5
933
  8
0
  6
CONTINUOUS
 62
     7
 10
-853.5717867109547
 20
190.6598692587013
 30
0.0
  0
VERTEX
  5
934
  8
0
  6
CONTINUOUS
 62
     7
 10
-853.7172065363962
 20
190.6511321211964
 30
0.0
  0
SEQEND
  5
9CE
  8
0
  6
CONTINUOUS
 62
     7
  0
LINE
  5
34F
  8
0
  6
CONTINUOUS
 62
     9
 10
-751.7983125288571
 20
191.917206712417
 30
0.0
 11
-752.5488678788035
 21
191.9172065363962
 31
0.0
  0
ARC
  5
350
  8
0
  6
CONTINUOUS
 62
     7
 10
-751.2842547945559
 20
191.9167814988722
 30
0.0
 40
1.264613155675499
 50
179.9807428409147
 51
256.9517091701816
  0
POLYLINE
  5
351
  8
0
  6
CONTINUOUS
 62
     7
 66
     1
 10
0.0
 20
0.0
 30
0.0
  0
VERTEX
  5
935
  8
0
  6
CONTINUOUS
 62
     7
 10
-751.5697692971399
 20
190.6848205001706
 30
0.0
  0
VERTEX
  5
936
  8
0
  6
CONTINUOUS
 62
     7
 10
-751.4282161305296
 20
190.6597750179359
 30
0.0
  0
VERTEX
  5
937
  8
0
  6
CONTINUOUS
 62
     7
 10
-751.2827934636038
 20
190.6511321211964
 30
0.0
  0
SEQEND
  5
9CF
  8
0
  6
CONTINUOUS
 62
     7
  0
LINE
  5
352
  8
0
  6
CONTINUOUS
 62
     7
 10
-752.5488678788035
 20
258.0827934636038
 30
0.0
 11
-752.5488678788035
 21
191.9172065363963
 31
0.0
  0
LINE
  5
353
  8
0
  6
CONTINUOUS
 62
     9
 10
-876.5827932875238
 20
258.5983125288571
 30
0.0
 11
-876.5827934636038
 21
259.3488678788036
 31
0.0
  0
POLYLINE
  5
354
  8
0
  6
CONTINUOUS
 62
     7
 66
     1
 10
0.0
 20
0.0
 30
0.0
  0
VERTEX
  5
938
  8
0
  6
CONTINUOUS
 62
     7
 10
-877.0983125288572
 20
258.0827934691274
 30
0.0
  0
VERTEX
  5
939
  8
0
  6
CONTINUOUS
 62
     7
 10
-877.0977734502675
 20
258.1046086280327
 30
0.0
  0
VERTEX
  5
93A
  8
0
  6
CONTINUOUS
 62
     7
 10
-877.0961900758186
 20
258.1263966697019
 30
0.0
  0
VERTEX
  5
93B
  8
0
  6
CONTINUOUS
 62
     7
 10
-877.09361318127
 20
258.1480934191932
 30
0.0
  0
VERTEX
  5
93C
  8
0
  6
CONTINUOUS
 62
     7
 10
-877.090093542381
 20
258.169634701565
 30
0.0
  0
VERTEX
  5
93D
  8
0
  6
CONTINUOUS
 62
     7
 10
-877.0855152327593
 20
258.1916855258696
 30
0.0
  0
VERTEX
  5
93E
  8
0
  6
CONTINUOUS
 62
     7
 10
-877.08000696774
 20
258.2135427241976
 30
0.0
  0
VERTEX
  5
93F
  8
0
  6
CONTINUOUS
 62
     7
 10
-877.0736035064518
 20
258.2351562183557
 30
0.0
  0
VERTEX
  5
940
  8
0
  6
CONTINUOUS
 62
     7
 10
-877.066339608024
 20
258.2564759301508
 30
0.0
  0
VERTEX
  5
941
  8
0
  6
CONTINUOUS
 62
     7
 10
-877.0557276177775
 20
258.2835210738367
 30
0.0
  0
VERTEX
  5
942
  8
0
  6
CONTINUOUS
 62
     7
 10
-877.0437360163282
 20
258.3100042434552
 30
0.0
  0
VERTEX
  5
943
  8
0
  6
CONTINUOUS
 62
     7
 10
-877.0304020640249
 20
258.3358154790086
 30
0.0
  0
VERTEX
  5
944
  8
0
  6
CONTINUOUS
 62
     7
 10
-877.0192291891613
 20
258.355184178588
 30
0.0
  0
VERTEX
  5
945
  8
0
  6
CONTINUOUS
 62
     7
 10
-877.007251848953
 20
258.3740899605875
 30
0.0
  0
VERTEX
  5
946
  8
0
  6
CONTINUOUS
 62
     7
 10
-876.9944767650437
 20
258.3924629186685
 30
0.0
  0
VERTEX
  5
947
  8
0
  6
CONTINUOUS
 62
     7
 10
-876.9809106590767
 20
258.410233146492
 30
0.0
  0
VERTEX
  5
948
  8
0
  6
CONTINUOUS
 62
     7
 10
-876.9663978592521
 20
258.427477641946
 30
0.0
  0
VERTEX
  5
949
  8
0
  6
CONTINUOUS
 62
     7
 10
-876.9510284126881
 20
258.4440018638159
 30
0.0
  0
VERTEX
  5
94A
  8
0
  6
CONTINUOUS
 62
     7
 10
-876.9348521656651
 20
258.4597353289544
 30
0.0
  0
VERTEX
  5
94B
  8
0
  6
CONTINUOUS
 62
     7
 10
-876.9179189644636
 20
258.4746075542142
 30
0.0
  0
VERTEX
  5
94C
  8
0
  6
CONTINUOUS
 62
     7
 10
-876.8995586321677
 20
258.489165764496
 30
0.0
  0
VERTEX
  5
94D
  8
0
  6
CONTINUOUS
 62
     7
 10
-876.8805063419923
 20
258.5028492045531
 30
0.0
  0
VERTEX
  5
94E
  8
0
  6
CONTINUOUS
 62
     7
 10
-876.8608476653063
 20
258.5156530038017
 30
0.0
  0
VERTEX
  5
94F
  8
0
  6
CONTINUOUS
 62
     7
 10
-876.8406681734784
 20
258.5275722916577
 30
0.0
  0
VERTEX
  5
950
  8
0
  6
CONTINUOUS
 62
     7
 10
-876.817276889726
 20
258.5400011809135
 30
0.0
  0
VERTEX
  5
951
  8
0
  6
CONTINUOUS
 62
     7
 10
-876.793313936657
 20
258.5513235711832
 30
0.0
  0
VERTEX
  5
952
  8
0
  6
CONTINUOUS
 62
     7
 10
-876.76886406656
 20
258.5615155009332
 30
0.0
  0
VERTEX
  5
953
  8
0
  6
CONTINUOUS
 62
     7
 10
-876.7434553534316
 20
258.5707378595934
 30
0.0
  0
VERTEX
  5
954
  8
0
  6
CONTINUOUS
 62
     7
 10
-876.7176202867703
 20
258.5787390916332
 30
0.0
  0
VERTEX
  5
955
  8
0
  6
CONTINUOUS
 62
     7
 10
-876.6914414137937
 20
258.5854649702593
 30
0.0
  0
VERTEX
  5
956
  8
0
  6
CONTINUOUS
 62
     7
 10
-876.6736818883734
 20
258.5892427875174
 30
0.0
  0
VERTEX
  5
957
  8
0
  6
CONTINUOUS
 62
     7
 10
-876.6557965863611
 20
258.5924018611718
 30
0.0
  0
VERTEX
  5
958
  8
0
  6
CONTINUOUS
 62
     7
 10
-876.6378154811183
 20
258.594916210422
 30
0.0
  0
VERTEX
  5
959
  8
0
  6
CONTINUOUS
 62
     7
 10
-876.6195262928192
 20
258.5967791240976
 30
0.0
  0
VERTEX
  5
95A
  8
0
  6
CONTINUOUS
 62
     7
 10
-876.6011714258927
 20
258.5979231944285
 30
0.0
  0
VERTEX
  5
95B
  8
0
  6
CONTINUOUS
 62
     7
 10
-876.5827932875238
 20
258.5983125288571
 30
0.0
  0
SEQEND
  5
9D0
  8
0
  6
CONTINUOUS
 62
     7
  0
LINE
  5
355
  8
0
  6
CONTINUOUS
 62
     9
 10
-877.0983125288572
 20
258.0827934691274
 30
0.0
 11
-877.8488678788036
 21
258.0827934691274
 31
0.0
  0
ARC
  5
356
  8
0
  6
CONTINUOUS
 62
     7
 10
-876.5851515937095
 20
258.0836756213571
 30
0.0
 40
1.263716592992562
 50
103.0142738159001
 51
180.0399959959695
  0
POLYLINE
  5
357
  8
0
  6
CONTINUOUS
 62
     7
 66
     1
 10
0.0
 20
0.0
 30
0.0
  0
VERTEX
  5
95C
  8
0
  6
CONTINUOUS
 62
     7
 10
-876.869732719467
 20
259.3149323818532
 30
0.0
  0
VERTEX
  5
95D
  8
0
  6
CONTINUOUS
 62
     7
 10
-876.7282132891111
 20
259.3401307412811
 30
0.0
  0
VERTEX
  5
95E
  8
0
  6
CONTINUOUS
 62
     7
 10
-876.5827934636039
 20
259.3488678788036
 30
0.0
  0
SEQEND
  5
9D1
  8
0
  6
CONTINUOUS
 62
     7
  0
LINE
  5
358
  8
0
  6
CONTINUOUS
 62
     7
 10
-727.1511321211963
 20
191.9172065363962
 30
0.0
 11
-727.1511321211963
 21
258.0827934636038
 31
0.0
  0
LINE
  5
359
  8
0
  6
CONTINUOUS
 62
     7
 10
-877.0983125288572
 20
191.9172067124639
 30
0.0
 11
-877.0983125288572
 21
258.0827934691274
 31
0.0
  0
LINE
  5
35A
  8
0
  6
CONTINUOUS
 62
     7
 10
-877.8488678788036
 20
191.9172065363962
 30
0.0
 11
-877.8488678788036
 21
258.0827934691273
 31
0.0
  0
LINE
  5
35B
  8
0
  6
CONTINUOUS
 62
     9
 10
-853.2016874711429
 20
258.0827932875544
 30
0.0
 11
-852.4511321211963
 21
258.0827934636038
 31
0.0
  0
POLYLINE
  5
35C
  8
0
  6
CONTINUOUS
 62
     7
 66
     1
 10
0.0
 20
0.0
 30
0.0
  0
VERTEX
  5
95F
  8
0
  6
CONTINUOUS
 62
     7
 10
-853.7172065308704
 20
258.5983125288571
 30
0.0
  0
VERTEX
  5
960
  8
0
  6
CONTINUOUS
 62
     7
 10
-853.6953913719593
 20
258.5977734502653
 30
0.0
  0
VERTEX
  5
961
  8
0
  6
CONTINUOUS
 62
     7
 10
-853.6736033302849
 20
258.5961900758142
 30
0.0
  0
VERTEX
  5
962
  8
0
  6
CONTINUOUS
 62
     7
 10
-853.6519065807881
 20
258.5936131812633
 30
0.0
  0
VERTEX
  5
963
  8
0
  6
CONTINUOUS
 62
     7
 10
-853.6303652984112
 20
258.5900935423718
 30
0.0
  0
VERTEX
  5
964
  8
0
  6
CONTINUOUS
 62
     7
 10
-853.6083144741013
 20
258.5855152327474
 30
0.0
  0
VERTEX
  5
965
  8
0
  6
CONTINUOUS
 62
     7
 10
-853.5864572757683
 20
258.580006967725
 30
0.0
  0
VERTEX
  5
966
  8
0
  6
CONTINUOUS
 62
     7
 10
-853.5648437816052
 20
258.5736035064337
 30
0.0
  0
VERTEX
  5
967
  8
0
  6
CONTINUOUS
 62
     7
 10
-853.5435240698054
 20
258.5663396080025
 30
0.0
  0
VERTEX
  5
968
  8
0
  6
CONTINUOUS
 62
     7
 10
-853.5164789261133
 20
258.5557276177508
 30
0.0
  0
VERTEX
  5
969
  8
0
  6
CONTINUOUS
 62
     7
 10
-853.4899957564892
 20
258.5437360162961
 30
0.0
  0
VERTEX
  5
96A
  8
0
  6
CONTINUOUS
 62
     7
 10
-853.4641845209304
 20
258.5304020639866
 30
0.0
  0
VERTEX
  5
96B
  8
0
  6
CONTINUOUS
 62
     7
 10
-853.4448158213471
 20
258.5192291891177
 30
0.0
  0
VERTEX
  5
96C
  8
0
  6
CONTINUOUS
 62
     7
 10
-853.425910039344
 20
258.5072518489038
 30
0.0
  0
VERTEX
  5
96D
  8
0
  6
CONTINUOUS
 62
     7
 10
-853.4075370812599
 20
258.4944767649882
 30
0.0
  0
VERTEX
  5
96E
  8
0
  6
CONTINUOUS
 62
     7
 10
-853.3897668534336
 20
258.4809106590147
 30
0.0
  0
VERTEX
  5
96F
  8
0
  6
CONTINUOUS
 62
     7
 10
-853.3725223579821
 20
258.4663978591872
 30
0.0
  0
VERTEX
  5
970
  8
0
  6
CONTINUOUS
 62
     7
 10
-853.355998136115
 20
258.4510284126203
 30
0.0
  0
VERTEX
  5
971
  8
0
  6
CONTINUOUS
 62
     7
 10
-853.3402646709794
 20
258.4348521655946
 30
0.0
  0
VERTEX
  5
972
  8
0
  6
CONTINUOUS
 62
     7
 10
-853.3253924457225
 20
258.4179189643906
 30
0.0
  0
VERTEX
  5
973
  8
0
  6
CONTINUOUS
 62
     7
 10
-853.310834235444
 20
258.3995586320924
 30
0.0
  0
VERTEX
  5
974
  8
0
  6
CONTINUOUS
 62
     7
 10
-853.29715079539
 20
258.3805063419148
 30
0.0
  0
VERTEX
  5
975
  8
0
  6
CONTINUOUS
 62
     7
 10
-853.2843469961447
 20
258.3608476652269
 30
0.0
  0
VERTEX
  5
976
  8
0
  6
CONTINUOUS
 62
     7
 10
-853.2724277082918
 20
258.3406681733974
 30
0.0
  0
VERTEX
  5
977
  8
0
  6
CONTINUOUS
 62
     7
 10
-853.2599988190391
 20
258.3172768896422
 30
0.0
  0
VERTEX
  5
978
  8
0
  6
CONTINUOUS
 62
     7
 10
-853.2486764287728
 20
258.2933139365706
 30
0.0
  0
VERTEX
  5
979
  8
0
  6
CONTINUOUS
 62
     7
 10
-853.2384844990262
 20
258.2688640664711
 30
0.0
  0
VERTEX
  5
97A
  8
0
  6
CONTINUOUS
 62
     7
 10
-853.2292621403699
 20
258.2434553533401
 30
0.0
  0
VERTEX
  5
97B
  8
0
  6
CONTINUOUS
 62
     7
 10
-853.221260908334
 20
258.2176202866762
 30
0.0
  0
VERTEX
  5
97C
  8
0
  6
CONTINUOUS
 62
     7
 10
-853.2145350297127
 20
258.1914414136972
 30
0.0
  0
VERTEX
  5
97D
  8
0
  6
CONTINUOUS
 62
     7
 10
-853.2107572124623
 20
258.1736818882971
 30
0.0
  0
VERTEX
  5
97E
  8
0
  6
CONTINUOUS
 62
     7
 10
-853.2075981388144
 20
258.1557965863054
 30
0.0
  0
VERTEX
  5
97F
  8
0
  6
CONTINUOUS
 62
     7
 10
-853.2050837895695
 20
258.1378154810835
 30
0.0
  0
VERTEX
  5
980
  8
0
  6
CONTINUOUS
 62
     7
 10
-853.2032208758981
 20
258.1195262928058
 30
0.0
  0
VERTEX
  5
981
  8
0
  6
CONTINUOUS
 62
     7
 10
-853.20207680557
 20
258.1011714259013
 30
0.0
  0
VERTEX
  5
982
  8
0
  6
CONTINUOUS
 62
     7
 10
-853.2016874711429
 20
258.0827932875544
 30
0.0
  0
SEQEND
  5
9D2
  8
0
  6
CONTINUOUS
 62
     7
  0
LINE
  5
35D
  8
0
  6
CONTINUOUS
 62
     9
 10
-853.7172065308704
 20
258.5983125288571
 30
0.0
 11
-853.7172065308704
 21
259.3488678788036
 31
0.0
  0
ARC
  5
35E
  8
0
  6
CONTINUOUS
 62
     7
 10
-853.7163243786541
 20
258.0851515936869
 30
0.0
 40
1.263716593015083
 50
13.01427381331399
 51
90.0399959953507
  0
POLYLINE
  5
35F
  8
0
  6
CONTINUOUS
 62
     7
 66
     1
 10
0.0
 20
0.0
 30
0.0
  0
VERTEX
  5
983
  8
0
  6
CONTINUOUS
 62
     7
 10
-852.4850676181233
 20
258.3697327193941
 30
0.0
  0
VERTEX
  5
984
  8
0
  6
CONTINUOUS
 62
     7
 10
-852.4598692587102
 20
258.2282132890734
 30
0.0
  0
VERTEX
  5
985
  8
0
  6
CONTINUOUS
 62
     7
 10
-852.4511321211963
 20
258.0827934636038
 30
0.0
  0
SEQEND
  5
9D3
  8
0
  6
CONTINUOUS
 62
     7
  0
LINE
  5
360
  8
0
  6
CONTINUOUS
 62
     7
 10
-876.5827932875238
 20
258.5983125288571
 30
0.0
 11
-853.7172065308703
 21
258.5983125288571
 31
0.0
  0
LINE
  5
361
  8
0
  6
CONTINUOUS
 62
     7
 10
-876.5827934636039
 20
259.3488678788036
 30
0.0
 11
-853.7172065308704
 21
259.3488678788036
 31
0.0
  0
LINE
  5
362
  8
0
  6
CONTINUOUS
 62
     7
 10
-853.2016874711429
 20
258.0827932875544
 30
0.0
 11
-853.2016874711429
 21
191.9172065308701
 31
0.0
  0
LINE
  5
363
  8
0
  6
CONTINUOUS
 62
     7
 10
-852.4511321211963
 20
258.0827934636038
 30
0.0
 11
-852.4511321211963
 21
191.9172065308701
 31
0.0
  0
LINE
  5
364
  8
0
  6
CONTINUOUS
 62
     7
 10
-931.9431163234822
 20
237.4611889055709
 30
0.0
 11
-931.9
 21
237.4462673429328
 31
0.0
  0
LINE
  5
365
  8
0
  6
CONTINUOUS
 62
     7
 10
-933.0568836765119
 20
237.4611889055711
 30
0.0
 11
-931.9431163234822
 21
237.4611889055709
 31
0.0
  0
LINE
  5
366
  8
0
  6
CONTINUOUS
 62
     7
 10
-933.1
 20
237.4462673429328
 30
0.0
 11
-933.056883676512
 21
237.4611889055711
 31
0.0
  0
ARC
  5
367
  8
0
  6
CONTINUOUS
 62
     7
 10
-932.5
 20
225.0000000000001
 30
0.0
 40
12.46072111764621
 50
92.75993384056095
 51
177.2400661594392
  0
LINE
  5
368
  8
0
  6
CONTINUOUS
 62
     7
 10
-944.9611889055709
 20
225.5568836765179
 30
0.0
 11
-944.9462673429327
 21
225.6000000000001
 31
0.0
  0
LINE
  5
369
  8
0
  6
CONTINUOUS
 62
     7
 10
-944.9611889055711
 20
224.4431163234881
 30
0.0
 11
-944.9611889055709
 21
225.5568836765179
 31
0.0
  0
LINE
  5
36A
  8
0
  6
CONTINUOUS
 62
     7
 10
-944.9462673429327
 20
224.4
 30
0.0
 11
-944.961188905571
 21
224.4431163234881
 31
0.0
  0
ARC
  5
36B
  8
0
  6
CONTINUOUS
 62
     7
 10
-932.5
 20
225.0000000000001
 30
0.0
 40
12.46072111764621
 50
182.759933840561
 51
267.2400661594388
  0
LINE
  5
36C
  8
0
  6
CONTINUOUS
 62
     7
 10
-933.0568836765178
 20
212.5388110944292
 30
0.0
 11
-933.1
 21
212.5537326570673
 31
0.0
  0
LINE
  5
36D
  8
0
  6
CONTINUOUS
 62
     7
 10
-931.943116323488
 20
212.5388110944289
 30
0.0
 11
-933.0568836765178
 21
212.5388110944292
 31
0.0
  0
LINE
  5
36E
  8
0
  6
CONTINUOUS
 62
     7
 10
-931.9
 20
212.5537326570672
 30
0.0
 11
-931.9431163234879
 21
212.5388110944289
 31
0.0
  0
ARC
  5
36F
  8
0
  6
CONTINUOUS
 62
     7
 10
-932.5
 20
225.0000000000001
 30
0.0
 40
12.46072111764621
 50
272.7599338405609
 51
357.2400661594388
  0
LINE
  5
370
  8
0
  6
CONTINUOUS
 62
     7
 10
-920.0388110944291
 20
224.4431163234822
 30
0.0
 11
-920.0537326570673
 21
224.4
 31
0.0
  0
LINE
  5
371
  8
0
  6
CONTINUOUS
 62
     7
 10
-920.0388110944289
 20
225.556883676512
 30
0.0
 11
-920.0388110944291
 21
224.4431163234822
 31
0.0
  0
LINE
  5
372
  8
0
  6
CONTINUOUS
 62
     7
 10
-920.0537326570671
 20
225.6
 30
0.0
 11
-920.0388110944289
 21
225.556883676512
 31
0.0
  0
ARC
  5
373
  8
0
  6
CONTINUOUS
 62
     7
 10
-932.5
 20
225.0000000000001
 30
0.0
 40
12.46072111764621
 50
2.759933840560703
 51
87.24006615943892
  0
ARC
  5
374
  8
0
  6
CONTINUOUS
 62
     7
 10
-672.5
 20
225.0000000000001
 30
0.0
 40
12.46072111764621
 50
182.7599338405612
 51
267.240066159439
  0
LINE
  5
375
  8
0
  6
CONTINUOUS
 62
     7
 10
-673.1
 20
212.5537326570673
 30
0.0
 11
-673.056883676512
 21
212.5388110944289
 31
0.0
  0
LINE
  5
376
  8
0
  6
CONTINUOUS
 62
     7
 10
-673.0568836765119
 20
212.5388110944289
 30
0.0
 11
-671.9431163234822
 21
212.5388110944292
 31
0.0
  0
LINE
  5
377
  8
0
  6
CONTINUOUS
 62
     7
 10
-671.9431163234822
 20
212.5388110944292
 30
0.0
 11
-671.9
 21
212.5537326570673
 31
0.0
  0
ARC
  5
378
  8
0
  6
CONTINUOUS
 62
     7
 10
-672.5
 20
225.0000000000001
 30
0.0
 40
12.46072111764621
 50
272.7599338405612
 51
357.2400661594389
  0
LINE
  5
379
  8
0
  6
CONTINUOUS
 62
     7
 10
-660.0537326570673
 20
224.4
 30
0.0
 11
-660.0388110944289
 21
224.4431163234881
 31
0.0
  0
LINE
  5
37A
  8
0
  6
CONTINUOUS
 62
     7
 10
-660.0388110944289
 20
224.4431163234881
 30
0.0
 11
-660.0388110944291
 21
225.5568836765179
 31
0.0
  0
LINE
  5
37B
  8
0
  6
CONTINUOUS
 62
     7
 10
-660.0388110944291
 20
225.5568836765179
 30
0.0
 11
-660.0537326570673
 21
225.6000000000001
 31
0.0
  0
ARC
  5
37C
  8
0
  6
CONTINUOUS
 62
     7
 10
-672.5
 20
225.0000000000001
 30
0.0
 40
12.46072111764621
 50
2.759933840560848
 51
87.24006615943904
  0
LINE
  5
37D
  8
0
  6
CONTINUOUS
 62
     7
 10
-671.9
 20
237.4462673429328
 30
0.0
 11
-671.9431163234879
 21
237.4611889055711
 31
0.0
  0
LINE
  5
37E
  8
0
  6
CONTINUOUS
 62
     7
 10
-671.943116323488
 20
237.4611889055711
 30
0.0
 11
-673.0568836765178
 21
237.4611889055709
 31
0.0
  0
LINE
  5
37F
  8
0
  6
CONTINUOUS
 62
     7
 10
-673.0568836765178
 20
237.4611889055709
 30
0.0
 11
-673.1
 21
237.4462673429328
 31
0.0
  0
ARC
  5
380
  8
0
  6
CONTINUOUS
 62
     7
 10
-672.5
 20
225.0000000000001
 30
0.0
 40
12.46072111764622
 50
92.75993384056125
 51
177.2400661594395
  0
LINE
  5
381
  8
0
  6
CONTINUOUS
 62
     7
 10
-684.9462673429327
 20
225.6
 30
0.0
 11
-684.9611889055711
 21
225.556883676512
 31
0.0
  0
LINE
  5
382
  8
0
  6
CONTINUOUS
 62
     7
 10
-684.9611889055711
 20
225.556883676512
 30
0.0
 11
-684.9611889055709
 21
224.4431163234822
 31
0.0
  0
LINE
  5
383
  8
0
  6
CONTINUOUS
 62
     7
 10
-684.9611889055709
 20
224.4431163234822
 30
0.0
 11
-684.9462673429327
 21
224.4
 31
0.0
  0
ARC
  5
384
  8
0
  6
CONTINUOUS
 62
     7
 10
-1008.0
 20
225.0000000000001
 30
0.0
 40
6.986909698313861
 50
90.0
 51
269.9999999999995
  0
LINE
  5
385
  8
0
  6
CONTINUOUS
 62
     9
 10
-1008.0
 20
218.0043253562347
 30
0.0
 11
-1008.0
 21
218.0130903016862
 31
0.0
  0
LINE
  5
386
  8
0
  6
CONTINUOUS
 62
     9
 10
-1008.0
 20
231.9956746437655
 30
0.0
 11
-1008.0
 21
231.9869096983139
 31
0.0
  0
LINE
  5
387
  8
0
  6
CONTINUOUS
 62
     9
 10
-997.0
 20
231.9956746437655
 30
0.0
 11
-997.0
 21
231.9869096983139
 31
0.0
  0
LINE
  5
388
  8
0
  6
CONTINUOUS
 62
     7
 10
-1001.75
 20
231.9869096983139
 30
0.0
 11
-997.0000000000001
 21
231.9869096983139
 31
0.0
  0
LINE
  5
389
  8
0
  6
CONTINUOUS
 62
     7
 10
-1001.776185921569
 20
231.9956365661047
 30
0.0
 11
-1001.75
 21
231.986909698314
 31
0.0
  0
LINE
  5
38A
  8
0
  6
CONTINUOUS
 62
     7
 10
-1003.223814078431
 20
231.9956365661047
 30
0.0
 11
-1001.776185921569
 21
231.9956365661047
 31
0.0
  0
LINE
  5
38B
  8
0
  6
CONTINUOUS
 62
     7
 10
-1003.25
 20
231.9869096983139
 30
0.0
 11
-1003.223814078431
 21
231.9956365661047
 31
0.0
  0
LINE
  5
38C
  8
0
  6
CONTINUOUS
 62
     7
 10
-1008.0
 20
231.9869096983139
 30
0.0
 11
-1003.25
 21
231.9869096983139
 31
0.0
  0
ARC
  5
38D
  8
0
  6
CONTINUOUS
 62
     7
 10
-597.0
 20
225.0000000000001
 30
0.0
 40
6.986909698313861
 50
270.0000000000005
 51
90.0
  0
LINE
  5
38E
  8
0
  6
CONTINUOUS
 62
     9
 10
-597.0
 20
231.9956746437655
 30
0.0
 11
-597.0
 21
231.9869096983139
 31
0.0
  0
LINE
  5
38F
  8
0
  6
CONTINUOUS
 62
     9
 10
-597.0
 20
218.0043253562347
 30
0.0
 11
-597.0
 21
218.0130903016862
 31
0.0
  0
LINE
  5
390
  8
0
  6
CONTINUOUS
 62
     7
 10
-603.2499999999998
 20
231.9869096983139
 30
0.0
 11
-603.2238140784306
 21
231.9956365661047
 31
0.0
  0
LINE
  5
391
  8
0
  6
CONTINUOUS
 62
     7
 10
-603.2499999999998
 20
231.9869096983139
 30
0.0
 11
-607.9999999999999
 21
231.9869096983139
 31
0.0
  0
LINE
  5
392
  8
0
  6
CONTINUOUS
 62
     9
 10
-608.0
 20
231.9956746437655
 30
0.0
 11
-608.0
 21
231.9869096983139
 31
0.0
  0
LINE
  5
393
  8
0
  6
CONTINUOUS
 62
     7
 10
-597.0
 20
231.9869096983139
 30
0.0
 11
-601.7499999999999
 21
231.9869096983139
 31
0.0
  0
LINE
  5
394
  8
0
  6
CONTINUOUS
 62
     7
 10
-601.7761859215691
 20
231.9956365661047
 30
0.0
 11
-601.7499999999999
 21
231.986909698314
 31
0.0
  0
LINE
  5
395
  8
0
  6
CONTINUOUS
 62
     7
 10
-603.2238140784307
 20
231.9956365661047
 30
0.0
 11
-601.7761859215691
 21
231.9956365661047
 31
0.0
  0
ARC
  5
396
  8
0
  6
CONTINUOUS
 62
     7
 10
-997.0
 20
225.0000000000001
 30
0.0
 40
6.986909698313861
 50
270.0
 51
90.00000000000021
  0
LINE
  5
397
  8
0
  6
CONTINUOUS
 62
     9
 10
-997.0
 20
218.0043253562347
 30
0.0
 11
-997.0
 21
218.0130903016862
 31
0.0
  0
ARC
  5
398
  8
0
  6
CONTINUOUS
 62
     7
 10
-608.0
 20
225.0000000000001
 30
0.0
 40
6.986909698313861
 50
89.99999999999977
 51
270.0
  0
LINE
  5
399
  8
0
  6
CONTINUOUS
 62
     9
 10
-608.0
 20
218.0043253562347
 30
0.0
 11
-608.0
 21
218.0130903016862
 31
0.0
  0
LINE
  5
39A
  8
0
  6
CONTINUOUS
 62
     7
 10
-608.0
 20
218.0130903016862
 30
0.0
 11
-603.2499999999998
 21
218.0130903016862
 31
0.0
  0
LINE
  5
39B
  8
0
  6
CONTINUOUS
 62
     7
 10
-603.2238140784307
 20
218.0043634338955
 30
0.0
 11
-603.2499999999999
 21
218.0130903016862
 31
0.0
  0
LINE
  5
39C
  8
0
  6
CONTINUOUS
 62
     7
 10
-601.7761859215691
 20
218.0043634338955
 30
0.0
 11
-603.2238140784307
 21
218.0043634338955
 31
0.0
  0
LINE
  5
39D
  8
0
  6
CONTINUOUS
 62
     7
 10
-601.7499999999999
 20
218.0130903016862
 30
0.0
 11
-601.7761859215691
 21
218.0043634338954
 31
0.0
  0
LINE
  5
39E
  8
0
  6
CONTINUOUS
 62
     7
 10
-601.7499999999999
 20
218.0130903016862
 30
0.0
 11
-597.0
 21
218.0130903016862
 31
0.0
  0
LINE
  5
39F
  8
0
  6
CONTINUOUS
 62
     7
 10
-1001.75
 20
218.0130903016862
 30
0.0
 11
-1001.776185921569
 21
218.0043634338954
 31
0.0
  0
LINE
  5
3A0
  8
0
  6
CONTINUOUS
 62
     7
 10
-997.0
 20
218.0130903016862
 30
0.0
 11
-1001.75
 21
218.0130903016862
 31
0.0
  0
LINE
  5
3A1
  8
0
  6
CONTINUOUS
 62
     7
 10
-1003.25
 20
218.0130903016862
 30
0.0
 11
-1008.0
 21
218.0130903016862
 31
0.0
  0
LINE
  5
3A2
  8
0
  6
CONTINUOUS
 62
     7
 10
-1003.223814078431
 20
218.0043634338955
 30
0.0
 11
-1003.25
 21
218.0130903016862
 31
0.0
  0
LINE
  5
3A3
  8
0
  6
CONTINUOUS
 62
     7
 10
-1001.776185921569
 20
218.0043634338955
 30
0.0
 11
-1003.223814078431
 21
218.0043634338955
 31
0.0
  0
LINE
  5
3A4
  8
0
  6
CONTINUOUS
 62
     7
 10
-603.2238140784307
 20
218.0043634338955
 30
0.0
 11
-603.2238140784307
 21
219.2113248654052
 31
0.0
  0
LINE
  5
3A5
  8
0
  6
CONTINUOUS
 62
     7
 10
-601.7761859215691
 20
219.2113248654052
 30
0.0
 11
-601.7761859215691
 21
218.0043634338954
 31
0.0
  0
LINE
  5
3A6
  8
0
  6
CONTINUOUS
 62
     7
 10
-601.7499999999999
 20
218.6339745962156
 30
0.0
 11
-601.7499999999999
 21
218.0130903016862
 31
0.0
  0
LINE
  5
3A7
  8
0
  6
CONTINUOUS
 62
     7
 10
-1003.223814078431
 20
219.2113248654052
 30
0.0
 11
-1003.223814078431
 21
218.0043634338954
 31
0.0
  0
LINE
  5
3A8
  8
0
  6
CONTINUOUS
 62
     7
 10
-1001.776185921569
 20
218.0043634338955
 30
0.0
 11
-1001.776185921569
 21
219.2113248654052
 31
0.0
  0
LINE
  5
3A9
  8
0
  6
CONTINUOUS
 62
     7
 10
-603.2499999999998
 20
218.0130903016862
 30
0.0
 11
-603.2499999999998
 21
218.6339745962156
 31
0.0
  0
LINE
  5
3AA
  8
0
  6
CONTINUOUS
 62
     7
 10
-1001.75
 20
231.9869096983139
 30
0.0
 11
-1001.75
 21
231.3660254037844
 31
0.0
  0
LINE
  5
3AB
  8
0
  6
CONTINUOUS
 62
     7
 10
-1001.776185921569
 20
231.9956365661047
 30
0.0
 11
-1001.776185921569
 21
230.7886751345948
 31
0.0
  0
LINE
  5
3AC
  8
0
  6
CONTINUOUS
 62
     7
 10
-603.2238140784307
 20
231.9956365661047
 30
0.0
 11
-603.2238140784307
 21
230.7886751345948
 31
0.0
  0
LINE
  5
3AD
  8
0
  6
CONTINUOUS
 62
     7
 10
-603.2499999999998
 20
231.3660254037844
 30
0.0
 11
-603.2499999999998
 21
231.986909698314
 31
0.0
  0
LINE
  5
3AE
  8
0
  6
CONTINUOUS
 62
     7
 10
-1003.223814078431
 20
230.7886751345948
 30
0.0
 11
-1003.223814078431
 21
231.9956365661047
 31
0.0
  0
LINE
  5
3AF
  8
0
  6
CONTINUOUS
 62
     7
 10
-601.7499999999999
 20
231.9869096983139
 30
0.0
 11
-601.7499999999999
 21
231.3660254037844
 31
0.0
  0
LINE
  5
3B0
  8
0
  6
CONTINUOUS
 62
     7
 10
-601.7761859215691
 20
230.7886751345948
 30
0.0
 11
-601.7761859215691
 21
231.9956365661047
 31
0.0
  0
LINE
  5
3B1
  8
0
  6
CONTINUOUS
 62
     7
 10
-1003.25
 20
231.3660254037844
 30
0.0
 11
-1003.25
 21
231.9869096983139
 31
0.0
  0
LINE
  5
3B2
  8
0
  6
CONTINUOUS
 62
     7
 10
-1003.25
 20
218.0130903016862
 30
0.0
 11
-1003.25
 21
218.6339745962156
 31
0.0
  0
LINE
  5
3B3
  8
0
  6
CONTINUOUS
 62
     7
 10
-1001.75
 20
218.6339745962156
 30
0.0
 11
-1001.75
 21
218.0130903016862
 31
0.0
  0
CIRCLE
  5
3B4
  8
0
  6
CONTINUOUS
 62
     7
 10
-932.5
 20
225.0
 30
0.0
 40
11.0
  0
LINE
  5
3B5
  8
0
  6
CONTINUOUS
 62
     7
 10
-920.5194180028578
 20
224.3176108077104
 30
0.0
 11
-921.2248971435533
 21
224.2502963408458
 31
0.0
  0
ARC
  5
3B6
  8
0
  6
CONTINUOUS
 62
     7
 10
-932.5
 20
225.0
 30
0.0
 40
12.00000000000004
 50
273.2599269503585
 51
356.7400730496422
  0
LINE
  5
3B7
  8
0
  6
CONTINUOUS
 62
     7
 10
-931.7502963408466
 20
213.7248971435533
 30
0.0
 11
-931.8176108077101
 21
213.0194180028579
 31
0.0
  0
LINE
  5
3B8
  8
0
  6
CONTINUOUS
 62
     7
 10
-933.2497036591542
 20
213.7248971435534
 30
0.0
 11
-931.7502963408466
 21
213.7248971435533
 31
0.0
  0
LINE
  5
3B9
  8
0
  6
CONTINUOUS
 62
     7
 10
-933.1823891922896
 20
213.0194180028578
 30
0.0
 11
-933.2497036591543
 21
213.7248971435534
 31
0.0
  0
ARC
  5
3BA
  8
0
  6
CONTINUOUS
 62
     7
 10
-932.5
 20
225.0
 30
0.0
 40
12.00000000000003
 50
183.2599269503584
 51
266.7400730496421
  0
LINE
  5
3BB
  8
0
  6
CONTINUOUS
 62
     7
 10
-943.7751028564467
 20
224.2502963408466
 30
0.0
 11
-944.4805819971422
 21
224.3176108077103
 31
0.0
  0
LINE
  5
3BC
  8
0
  6
CONTINUOUS
 62
     7
 10
-943.7751028564466
 20
225.7497036591542
 30
0.0
 11
-943.7751028564467
 21
224.2502963408466
 31
0.0
  0
LINE
  5
3BD
  8
0
  6
CONTINUOUS
 62
     7
 10
-944.4805819971422
 20
225.6823891922897
 30
0.0
 11
-943.7751028564466
 21
225.7497036591542
 31
0.0
  0
ARC
  5
3BE
  8
0
  6
CONTINUOUS
 62
     7
 10
-932.5
 20
225.0
 30
0.0
 40
12.00000000000004
 50
93.25992695035853
 51
176.7400730496421
  0
LINE
  5
3BF
  8
0
  6
CONTINUOUS
 62
     7
 10
-933.2497036591534
 20
236.2751028564468
 30
0.0
 11
-933.1823891922897
 21
236.9805819971422
 31
0.0
  0
LINE
  5
3C0
  8
0
  6
CONTINUOUS
 62
     7
 10
-931.7502963408458
 20
236.2751028564467
 30
0.0
 11
-933.2497036591534
 21
236.2751028564468
 31
0.0
  0
LINE
  5
3C1
  8
0
  6
CONTINUOUS
 62
     7
 10
-931.8176108077103
 20
236.9805819971422
 30
0.0
 11
-931.7502963408457
 21
236.2751028564467
 31
0.0
  0
ARC
  5
3C2
  8
0
  6
CONTINUOUS
 62
     7
 10
-932.5
 20
225.0
 30
0.0
 40
12.00000000000004
 50
3.259926950358698
 51
86.74007304964223
  0
LINE
  5
3C3
  8
0
  6
CONTINUOUS
 62
     7
 10
-921.2248971435532
 20
225.7497036591534
 30
0.0
 11
-920.5194180028578
 21
225.6823891922898
 31
0.0
  0
LINE
  5
3C4
  8
0
  6
CONTINUOUS
 62
     7
 10
-921.2248971435533
 20
224.2502963408458
 30
0.0
 11
-921.2248971435532
 21
225.7497036591534
 31
0.0
  0
CIRCLE
  5
3C5
  8
0
  6
CONTINUOUS
 62
     7
 10
-672.5
 20
225.0
 30
0.0
 40
11.00000000000001
  0
LINE
  5
3C6
  8
0
  6
CONTINUOUS
 62
     7
 10
-683.7751028564466
 20
224.2502963408458
 30
0.0
 11
-683.7751028564467
 21
225.7497036591534
 31
0.0
  0
LINE
  5
3C7
  8
0
  6
CONTINUOUS
 62
     7
 10
-683.7751028564467
 20
225.7497036591534
 30
0.0
 11
-684.480581997142
 21
225.6823891922898
 31
0.0
  0
ARC
  5
3C8
  8
0
  6
CONTINUOUS
 62
     7
 10
-672.5
 20
225.0
 30
0.0
 40
12.00000000000004
 50
93.25992695035788
 51
176.7400730496414
  0
LINE
  5
3C9
  8
0
  6
CONTINUOUS
 62
     7
 10
-673.1823891922896
 20
236.9805819971422
 30
0.0
 11
-673.2497036591543
 21
236.2751028564467
 31
0.0
  0
LINE
  5
3CA
  8
0
  6
CONTINUOUS
 62
     7
 10
-673.2497036591542
 20
236.2751028564467
 30
0.0
 11
-671.7502963408466
 21
236.2751028564468
 31
0.0
  0
LINE
  5
3CB
  8
0
  6
CONTINUOUS
 62
     7
 10
-671.7502963408466
 20
236.2751028564468
 30
0.0
 11
-671.8176108077101
 21
236.9805819971422
 31
0.0
  0
ARC
  5
3CC
  8
0
  6
CONTINUOUS
 62
     7
 10
-672.5
 20
225.0
 30
0.0
 40
12.00000000000003
 50
3.259926950357914
 51
86.74007304964142
  0
LINE
  5
3CD
  8
0
  6
CONTINUOUS
 62
     7
 10
-660.5194180028578
 20
225.6823891922897
 30
0.0
 11
-661.2248971435533
 21
225.7497036591542
 31
0.0
  0
LINE
  5
3CE
  8
0
  6
CONTINUOUS
 62
     7
 10
-661.2248971435533
 20
225.7497036591542
 30
0.0
 11
-661.2248971435532
 21
224.2502963408466
 31
0.0
  0
LINE
  5
3CF
  8
0
  6
CONTINUOUS
 62
     7
 10
-661.2248971435532
 20
224.2502963408466
 30
0.0
 11
-660.5194180028578
 21
224.3176108077103
 31
0.0
  0
ARC
  5
3D0
  8
0
  6
CONTINUOUS
 62
     7
 10
-672.5
 20
225.0
 30
0.0
 40
12.00000000000004
 50
273.2599269503579
 51
356.7400730496415
  0
LINE
  5
3D1
  8
0
  6
CONTINUOUS
 62
     7
 10
-671.8176108077103
 20
213.0194180028578
 30
0.0
 11
-671.7502963408457
 21
213.7248971435534
 31
0.0
  0
LINE
  5
3D2
  8
0
  6
CONTINUOUS
 62
     7
 10
-671.7502963408458
 20
213.7248971435534
 30
0.0
 11
-673.2497036591534
 21
213.7248971435533
 31
0.0
  0
LINE
  5
3D3
  8
0
  6
CONTINUOUS
 62
     7
 10
-673.2497036591534
 20
213.7248971435533
 30
0.0
 11
-673.1823891922897
 21
213.0194180028579
 31
0.0
  0
ARC
  5
3D4
  8
0
  6
CONTINUOUS
 62
     7
 10
-672.5
 20
225.0
 30
0.0
 40
12.00000000000004
 50
183.2599269503578
 51
266.7400730496415
  0
LINE
  5
3D5
  8
0
  6
CONTINUOUS
 62
     7
 10
-684.480581997142
 20
224.3176108077104
 30
0.0
 11
-683.7751028564466
 21
224.2502963408458
 31
0.0
  0
LINE
  5
3D6
  8
0
  6
CONTINUOUS
 62
     7
 10
-684.9611889055709
 20
224.4431163234822
 30
0.0
 11
-683.7751028564467
 21
224.2502963408458
 31
0.0
  0
LINE
  5
3D7
  8
0
  6
CONTINUOUS
 62
     7
 10
-683.7751028564467
 20
225.7497036591534
 30
0.0
 11
-684.9611889055711
 21
225.556883676512
 31
0.0
  0
LINE
  5
3D8
  8
0
  6
CONTINUOUS
 62
     7
 10
-921.2248971435532
 20
225.7497036591534
 30
0.0
 11
-920.0388110944289
 21
225.556883676512
 31
0.0
  0
LINE
  5
3D9
  8
0
  6
CONTINUOUS
 62
     7
 10
-920.0388110944291
 20
224.4431163234822
 30
0.0
 11
-921.2248971435532
 21
224.2502963408458
 31
0.0
  0
LINE
  5
3DA
  8
0
  6
CONTINUOUS
 62
     7
 10
-933.2497036591534
 20
236.2751028564468
 30
0.0
 11
-933.0568836765119
 21
237.4611889055711
 31
0.0
  0
LINE
  5
3DB
  8
0
  6
CONTINUOUS
 62
     7
 10
-931.9431163234822
 20
237.4611889055709
 30
0.0
 11
-931.7502963408458
 21
236.2751028564467
 31
0.0
  0
LINE
  5
3DC
  8
0
  6
CONTINUOUS
 62
     7
 10
-673.0568836765178
 20
237.4611889055709
 30
0.0
 11
-673.2497036591542
 21
236.2751028564467
 31
0.0
  0
LINE
  5
3DD
  8
0
  6
CONTINUOUS
 62
     7
 10
-671.7502963408466
 20
236.2751028564468
 30
0.0
 11
-671.943116323488
 21
237.4611889055711
 31
0.0
  0
LINE
  5
3DE
  8
0
  6
CONTINUOUS
 62
     7
 10
-931.7502963408466
 20
213.7248971435533
 30
0.0
 11
-931.943116323488
 21
212.5388110944289
 31
0.0
  0
LINE
  5
3DF
  8
0
  6
CONTINUOUS
 62
     7
 10
-933.0568836765178
 20
212.5388110944292
 30
0.0
 11
-933.2497036591542
 21
213.7248971435534
 31
0.0
  0
LINE
  5
3E0
  8
0
  6
CONTINUOUS
 62
     7
 10
-671.9431163234822
 20
212.5388110944292
 30
0.0
 11
-671.7502963408458
 21
213.7248971435534
 31
0.0
  0
LINE
  5
3E1
  8
0
  6
CONTINUOUS
 62
     7
 10
-673.2497036591534
 20
213.7248971435533
 30
0.0
 11
-673.0568836765119
 21
212.5388110944289
 31
0.0
  0
LINE
  5
3E2
  8
0
  6
CONTINUOUS
 62
     7
 10
-660.0388110944291
 20
225.5568836765179
 30
0.0
 11
-661.2248971435532
 21
225.7497036591542
 31
0.0
  0
LINE
  5
3E3
  8
0
  6
CONTINUOUS
 62
     7
 10
-661.2248971435532
 20
224.2502963408466
 30
0.0
 11
-660.0388110944289
 21
224.4431163234881
 31
0.0
  0
LINE
  5
3E4
  8
0
  6
CONTINUOUS
 62
     7
 10
-943.7751028564467
 20
224.2502963408466
 30
0.0
 11
-944.9611889055711
 21
224.4431163234881
 31
0.0
  0
LINE
  5
3E5
  8
0
  6
CONTINUOUS
 62
     7
 10
-944.9611889055709
 20
225.5568836765179
 30
0.0
 11
-943.7751028564467
 21
225.7497036591542
 31
0.0
  0
LINE
  5
3E6
  8
0
  6
CONTINUOUS
 62
     7
 10
-660.5194180028578
 20
224.3176108077103
 30
0.0
 11
-660.0537326570673
 21
224.4
 31
0.0
  0
LINE
  5
3E7
  8
0
  6
CONTINUOUS
 62
     7
 10
-671.8176108077101
 20
236.9805819971422
 30
0.0
 11
-671.9
 21
237.4462673429328
 31
0.0
  0
LINE
  5
3E8
  8
0
  6
CONTINUOUS
 62
     7
 10
-931.8176108077101
 20
213.0194180028578
 30
0.0
 11
-931.9
 21
212.5537326570672
 31
0.0
  0
LINE
  5
3E9
  8
0
  6
CONTINUOUS
 62
     7
 10
-944.4805819971422
 20
224.3176108077103
 30
0.0
 11
-944.9462673429327
 21
224.4
 31
0.0
  0
LINE
  5
3EA
  8
0
  6
CONTINUOUS
 62
     7
 10
-933.1823891922897
 20
236.9805819971422
 30
0.0
 11
-933.1
 21
237.4462673429328
 31
0.0
  0
LINE
  5
3EB
  8
0
  6
CONTINUOUS
 62
     7
 10
-684.480581997142
 20
225.6823891922898
 30
0.0
 11
-684.9462673429327
 21
225.6
 31
0.0
  0
LINE
  5
3EC
  8
0
  6
CONTINUOUS
 62
     7
 10
-673.1823891922897
 20
213.0194180028578
 30
0.0
 11
-673.1
 21
212.5537326570673
 31
0.0
  0
LINE
  5
3ED
  8
0
  6
CONTINUOUS
 62
     7
 10
-920.5194180028578
 20
225.6823891922898
 30
0.0
 11
-920.0537326570673
 21
225.6
 31
0.0
  0
LINE
  5
3EE
  8
0
  6
CONTINUOUS
 62
     7
 10
-673.1
 20
237.4462673429328
 30
0.0
 11
-673.1823891922896
 21
236.9805819971422
 31
0.0
  0
LINE
  5
3EF
  8
0
  6
CONTINUOUS
 62
     7
 10
-931.9
 20
237.4462673429328
 30
0.0
 11
-931.8176108077103
 21
236.9805819971422
 31
0.0
  0
LINE
  5
3F0
  8
0
  6
CONTINUOUS
 62
     7
 10
-684.9462673429327
 20
224.4
 30
0.0
 11
-684.480581997142
 21
224.3176108077104
 31
0.0
  0
LINE
  5
3F1
  8
0
  6
CONTINUOUS
 62
     7
 10
-944.9462673429327
 20
225.6000000000001
 30
0.0
 11
-944.4805819971422
 21
225.6823891922897
 31
0.0
  0
LINE
  5
3F2
  8
0
  6
CONTINUOUS
 62
     7
 10
-920.0537326570673
 20
224.4
 30
0.0
 11
-920.5194180028578
 21
224.3176108077104
 31
0.0
  0
LINE
  5
3F3
  8
0
  6
CONTINUOUS
 62
     7
 10
-933.1
 20
212.5537326570673
 30
0.0
 11
-933.1823891922896
 21
213.0194180028579
 31
0.0
  0
LINE
  5
3F4
  8
0
  6
CONTINUOUS
 62
     7
 10
-660.0537326570673
 20
225.6000000000001
 30
0.0
 11
-660.5194180028578
 21
225.6823891922897
 31
0.0
  0
LINE
  5
3F5
  8
0
  6
CONTINUOUS
 62
     7
 10
-671.9
 20
212.5537326570673
 30
0.0
 11
-671.8176108077103
 21
213.0194180028579
 31
0.0
  0
LINE
  5
3F6
  8
0
  6
CONTINUOUS
 62
     7
 10
-760.7499999999999
 20
243.75
 30
0.0
 11
-761.2894601517465
 21
244.684372391484
 31
0.0
  0
LINE
  5
3F7
  8
0
  6
CONTINUOUS
 62
     7
 10
-760.2105398482532
 20
244.684372391484
 30
0.0
 11
-760.7499999999999
 21
243.7499999999999
 31
0.0
  0
LINE
  5
3F8
  8
0
  6
CONTINUOUS
 62
     7
 10
-759.5
 20
239.5
 30
0.0
 11
-758.5
 21
240.0773502691896
 31
0.0
  0
LINE
  5
3F9
  8
0
  6
CONTINUOUS
 62
     7
 10
-758.565627608516
 20
238.9605398482533
 30
0.0
 11
-759.5
 21
239.5
 31
0.0
  0
LINE
  5
3FA
  8
0
  6
CONTINUOUS
 62
     7
 10
-767.9
 20
242.5000000000001
 30
0.0
 11
-766.8999999999999
 21
241.9226497308104
 31
0.0
  0
LINE
  5
3FB
  8
0
  6
CONTINUOUS
 62
     7
 10
-766.9656276085158
 20
243.0394601517467
 30
0.0
 11
-767.9
 21
242.5000000000001
 31
0.0
  0
LINE
  5
3FC
  8
0
  6
CONTINUOUS
 62
     7
 10
-770.4
 20
242.5000000000001
 30
0.0
 11
-771.4
 21
241.9226497308104
 31
0.0
  0
LINE
  5
3FD
  8
0
  6
CONTINUOUS
 62
     7
 10
-771.334372391484
 20
243.0394601517467
 30
0.0
 11
-770.4
 21
242.5000000000001
 31
0.0
  0
LINE
  5
3FE
  8
0
  6
CONTINUOUS
 62
     7
 10
-761.9999999999999
 20
239.5
 30
0.0
 11
-763.0
 21
240.0773502691896
 31
0.0
  0
LINE
  5
3FF
  8
0
  6
CONTINUOUS
 62
     7
 10
-762.9343723914841
 20
238.9605398482533
 30
0.0
 11
-761.9999999999999
 21
239.5
 31
0.0
  0
LINE
  5
400
  8
0
  6
CONTINUOUS
 62
     7
 10
-762.0
 20
242.5000000000001
 30
0.0
 11
-763.0
 21
241.9226497308104
 31
0.0
  0
LINE
  5
401
  8
0
  6
CONTINUOUS
 62
     7
 10
-762.934372391484
 20
243.0394601517467
 30
0.0
 11
-762.0
 21
242.5000000000001
 31
0.0
  0
LINE
  5
402
  8
0
  6
CONTINUOUS
 62
     7
 10
-769.15
 20
243.75
 30
0.0
 11
-769.6894601517466
 21
244.684372391484
 31
0.0
  0
LINE
  5
403
  8
0
  6
CONTINUOUS
 62
     7
 10
-768.6105398482533
 20
244.684372391484
 30
0.0
 11
-769.15
 21
243.75
 31
0.0
  0
LINE
  5
404
  8
0
  6
CONTINUOUS
 62
     7
 10
-769.15
 20
238.2500000000001
 30
0.0
 11
-768.6105398482533
 21
237.3156276085161
 31
0.0
  0
LINE
  5
405
  8
0
  6
CONTINUOUS
 62
     7
 10
-769.6894601517466
 20
237.3156276085161
 30
0.0
 11
-769.15
 21
238.2500000000001
 31
0.0
  0
LINE
  5
406
  8
0
  6
CONTINUOUS
 62
     7
 10
-770.4
 20
239.5
 30
0.0
 11
-771.4
 21
240.0773502691896
 31
0.0
  0
LINE
  5
407
  8
0
  6
CONTINUOUS
 62
     7
 10
-771.334372391484
 20
238.9605398482533
 30
0.0
 11
-770.3999999999999
 21
239.5
 31
0.0
  0
LINE
  5
408
  8
0
  6
CONTINUOUS
 62
     7
 10
-760.75
 20
238.2500000000001
 30
0.0
 11
-760.2105398482533
 21
237.3156276085161
 31
0.0
  0
LINE
  5
409
  8
0
  6
CONTINUOUS
 62
     7
 10
-761.2894601517467
 20
237.315627608516
 30
0.0
 11
-760.75
 21
238.2500000000001
 31
0.0
  0
LINE
  5
40A
  8
0
  6
CONTINUOUS
 62
     7
 10
-767.8999999999999
 20
239.5
 30
0.0
 11
-766.9
 21
240.0773502691896
 31
0.0
  0
LINE
  5
40B
  8
0
  6
CONTINUOUS
 62
     7
 10
-766.965627608516
 20
238.9605398482533
 30
0.0
 11
-767.9
 21
239.5
 31
0.0
  0
LINE
  5
40C
  8
0
  6
CONTINUOUS
 62
     7
 10
-758.5656276085159
 20
243.0394601517467
 30
0.0
 11
-759.5
 21
242.5000000000001
 31
0.0
  0
LINE
  5
40D
  8
0
  6
CONTINUOUS
 62
     7
 10
-759.5
 20
242.5000000000001
 30
0.0
 11
-758.5
 21
241.9226497308104
 31
0.0
  0
LINE
  5
40E
  8
0
  6
CONTINUOUS
 62
     7
 10
-1098.75
 20
225.0
 30
0.0
 11
-1099.684372391484
 21
224.4605398482534
 31
0.0
  0
LINE
  5
40F
  8
0
  6
CONTINUOUS
 62
     7
 10
-1099.684372391484
 20
225.5394601517466
 30
0.0
 11
-1098.75
 21
225.0
 31
0.0
  0
LINE
  5
410
  8
0
  6
CONTINUOUS
 62
     7
 10
-1096.960539848253
 20
227.184372391484
 30
0.0
 11
-1097.5
 21
226.2499999999999
 31
0.0
  0
LINE
  5
411
  8
0
  6
CONTINUOUS
 62
     7
 10
-1097.5
 20
226.2499999999999
 30
0.0
 11
-1098.039460151747
 21
227.1843723914839
 31
0.0
  0
LINE
  5
412
  8
0
  6
CONTINUOUS
 62
     7
 10
-711.684372391484
 20
224.4605398482533
 30
0.0
 11
-710.7499999999999
 21
224.9999999999999
 31
0.0
  0
LINE
  5
413
  8
0
  6
CONTINUOUS
 62
     7
 10
-710.7499999999999
 20
224.9999999999999
 30
0.0
 11
-711.684372391484
 21
225.5394601517466
 31
0.0
  0
LINE
  5
414
  8
0
  6
CONTINUOUS
 62
     7
 10
-1097.5
 20
193.7499999999999
 30
0.0
 11
-1096.960539848253
 21
194.684372391484
 31
0.0
  0
LINE
  5
415
  8
0
  6
CONTINUOUS
 62
     7
 10
-1098.039460151747
 20
194.684372391484
 30
0.0
 11
-1097.5
 21
193.7499999999999
 31
0.0
  0
LINE
  5
416
  8
0
  6
CONTINUOUS
 62
     7
 10
-834.6
 20
241.0
 30
0.0
 11
-833.6656276085159
 21
241.5394601517466
 31
0.0
  0
LINE
  5
417
  8
0
  6
CONTINUOUS
 62
     7
 10
-833.665627608516
 20
240.4605398482533
 30
0.0
 11
-834.6
 21
241.0
 31
0.0
  0
LINE
  5
418
  8
0
  6
CONTINUOUS
 62
     7
 10
-1097.5
 20
256.2500000000001
 30
0.0
 11
-1096.960539848253
 21
255.3156276085161
 31
0.0
  0
LINE
  5
419
  8
0
  6
CONTINUOUS
 62
     7
 10
-1098.039460151747
 20
255.3156276085161
 30
0.0
 11
-1097.5
 21
256.25
 31
0.0
  0
LINE
  5
41A
  8
0
  6
CONTINUOUS
 62
     7
 10
-506.2500000000001
 20
257.5000000000001
 30
0.0
 11
-505.315627608516
 21
256.9605398482534
 31
0.0
  0
LINE
  5
41B
  8
0
  6
CONTINUOUS
 62
     7
 10
-505.315627608516
 20
258.0394601517467
 30
0.0
 11
-506.2500000000001
 21
257.5000000000001
 31
0.0
  0
LINE
  5
41C
  8
0
  6
CONTINUOUS
 62
     7
 10
-710.0394601517467
 20
227.184372391484
 30
0.0
 11
-709.5
 21
226.2499999999999
 31
0.0
  0
LINE
  5
41D
  8
0
  6
CONTINUOUS
 62
     7
 10
-709.5
 20
226.2499999999999
 30
0.0
 11
-708.9605398482533
 21
227.184372391484
 31
0.0
  0
LINE
  5
41E
  8
0
  6
CONTINUOUS
 62
     7
 10
-509.684372391484
 20
256.9605398482533
 30
0.0
 11
-508.7499999999999
 21
257.4999999999999
 31
0.0
  0
LINE
  5
41F
  8
0
  6
CONTINUOUS
 62
     7
 10
-508.7499999999999
 20
257.4999999999999
 30
0.0
 11
-509.6843723914839
 21
258.0394601517466
 31
0.0
  0
LINE
  5
420
  8
0
  6
CONTINUOUS
 62
     7
 10
-709.4999999999999
 20
223.7500000000001
 30
0.0
 11
-710.0394601517465
 21
222.815627608516
 31
0.0
  0
LINE
  5
421
  8
0
  6
CONTINUOUS
 62
     7
 10
-708.9605398482532
 20
222.815627608516
 30
0.0
 11
-709.4999999999999
 21
223.7500000000001
 31
0.0
  0
LINE
  5
422
  8
0
  6
CONTINUOUS
 62
     7
 10
-508.7499999999999
 20
192.5
 30
0.0
 11
-509.684372391484
 21
191.9605398482534
 31
0.0
  0
LINE
  5
423
  8
0
  6
CONTINUOUS
 62
     7
 10
-509.6843723914839
 20
193.0394601517467
 30
0.0
 11
-508.7499999999998
 21
192.5
 31
0.0
  0
LINE
  5
424
  8
0
  6
CONTINUOUS
 62
     7
 10
-843.7105398482532
 20
243.1843723914839
 30
0.0
 11
-844.2499999999999
 21
242.25
 31
0.0
  0
LINE
  5
425
  8
0
  6
CONTINUOUS
 62
     7
 10
-844.2499999999999
 20
242.25
 30
0.0
 11
-844.7894601517465
 21
243.184372391484
 31
0.0
  0
LINE
  5
426
  8
0
  6
CONTINUOUS
 62
     7
 10
-896.0394601517468
 20
222.8156276085161
 30
0.0
 11
-895.5
 21
223.7500000000001
 31
0.0
  0
LINE
  5
427
  8
0
  6
CONTINUOUS
 62
     7
 10
-895.5
 20
223.7500000000001
 30
0.0
 11
-894.9605398482533
 21
222.815627608516
 31
0.0
  0
LINE
  5
428
  8
0
  6
CONTINUOUS
 62
     7
 10
-1099.684372391484
 20
191.9605398482533
 30
0.0
 11
-1098.75
 21
192.4999999999999
 31
0.0
  0
LINE
  5
429
  8
0
  6
CONTINUOUS
 62
     7
 10
-1098.75
 20
192.4999999999999
 30
0.0
 11
-1099.684372391484
 21
193.0394601517466
 31
0.0
  0
LINE
  5
42A
  8
0
  6
CONTINUOUS
 62
     7
 10
-896.7499999999999
 20
225.0000000000001
 30
0.0
 11
-897.684372391484
 21
224.4605398482534
 31
0.0
  0
LINE
  5
42B
  8
0
  6
CONTINUOUS
 62
     7
 10
-897.6843723914839
 20
225.5394601517467
 30
0.0
 11
-896.7499999999999
 21
225.0000000000001
 31
0.0
  0
LINE
  5
42C
  8
0
  6
CONTINUOUS
 62
     7
 10
-845.4999999999999
 20
241.0000000000001
 30
0.0
 11
-846.434372391484
 21
240.4605398482534
 31
0.0
  0
LINE
  5
42D
  8
0
  6
CONTINUOUS
 62
     7
 10
-846.4343723914839
 20
241.5394601517467
 30
0.0
 11
-845.4999999999999
 21
241.0000000000001
 31
0.0
  0
LINE
  5
42E
  8
0
  6
CONTINUOUS
 62
     7
 10
-507.4999999999999
 20
193.7499999999999
 30
0.0
 11
-508.0394601517466
 21
194.684372391484
 31
0.0
  0
LINE
  5
42F
  8
0
  6
CONTINUOUS
 62
     7
 10
-506.9605398482533
 20
194.6843723914839
 30
0.0
 11
-507.4999999999999
 21
193.7499999999999
 31
0.0
  0
LINE
  5
430
  8
0
  6
CONTINUOUS
 62
     7
 10
-1096.25
 20
257.4999999999999
 30
0.0
 11
-1095.315627608516
 21
258.0394601517466
 31
0.0
  0
LINE
  5
431
  8
0
  6
CONTINUOUS
 62
     7
 10
-1095.315627608516
 20
256.9605398482533
 30
0.0
 11
-1096.25
 21
257.4999999999999
 31
0.0
  0
LINE
  5
432
  8
0
  6
CONTINUOUS
 62
     7
 10
-507.4999999999999
 20
256.2500000000001
 30
0.0
 11
-508.0394601517466
 21
255.3156276085161
 31
0.0
  0
LINE
  5
433
  8
0
  6
CONTINUOUS
 62
     7
 10
-506.9605398482533
 20
255.315627608516
 30
0.0
 11
-507.4999999999999
 21
256.25
 31
0.0
  0
LINE
  5
434
  8
0
  6
CONTINUOUS
 62
     7
 10
-1095.315627608516
 20
193.0394601517467
 30
0.0
 11
-1096.25
 21
192.5
 31
0.0
  0
LINE
  5
435
  8
0
  6
CONTINUOUS
 62
     7
 10
-1096.25
 20
192.5
 30
0.0
 11
-1095.315627608516
 21
191.9605398482534
 31
0.0
  0
LINE
  5
436
  8
0
  6
CONTINUOUS
 62
     7
 10
-835.3105398482533
 20
243.1843723914839
 30
0.0
 11
-835.8499999999999
 21
242.25
 31
0.0
  0
LINE
  5
437
  8
0
  6
CONTINUOUS
 62
     7
 10
-835.8499999999999
 20
242.25
 30
0.0
 11
-836.3894601517467
 21
243.184372391484
 31
0.0
  0
LINE
  5
438
  8
0
  6
CONTINUOUS
 62
     7
 10
-843.0
 20
241.0
 30
0.0
 11
-842.0656276085159
 21
241.5394601517466
 31
0.0
  0
LINE
  5
439
  8
0
  6
CONTINUOUS
 62
     7
 10
-842.065627608516
 20
240.4605398482533
 30
0.0
 11
-843.0
 21
241.0
 31
0.0
  0
LINE
  5
43A
  8
0
  6
CONTINUOUS
 62
     7
 10
-1098.75
 20
257.5000000000001
 30
0.0
 11
-1099.684372391484
 21
256.9605398482534
 31
0.0
  0
LINE
  5
43B
  8
0
  6
CONTINUOUS
 62
     7
 10
-1099.684372391484
 20
258.0394601517467
 30
0.0
 11
-1098.75
 21
257.5000000000001
 31
0.0
  0
LINE
  5
43C
  8
0
  6
CONTINUOUS
 62
     7
 10
-844.2499999999999
 20
239.75
 30
0.0
 11
-843.7105398482532
 21
238.815627608516
 31
0.0
  0
LINE
  5
43D
  8
0
  6
CONTINUOUS
 62
     7
 10
-844.7894601517465
 20
238.8156276085161
 30
0.0
 11
-844.2499999999999
 21
239.75
 31
0.0
  0
LINE
  5
43E
  8
0
  6
CONTINUOUS
 62
     7
 10
-507.5000000000001
 20
258.75
 30
0.0
 11
-506.9605398482534
 21
259.684372391484
 31
0.0
  0
LINE
  5
43F
  8
0
  6
CONTINUOUS
 62
     7
 10
-508.0394601517467
 20
259.684372391484
 30
0.0
 11
-507.5000000000001
 21
258.75
 31
0.0
  0
LINE
  5
440
  8
0
  6
CONTINUOUS
 62
     7
 10
-895.5
 20
226.2499999999999
 30
0.0
 11
-896.0394601517467
 21
227.184372391484
 31
0.0
  0
LINE
  5
441
  8
0
  6
CONTINUOUS
 62
     7
 10
-894.9605398482532
 20
227.1843723914839
 30
0.0
 11
-895.5
 21
226.2499999999999
 31
0.0
  0
LINE
  5
442
  8
0
  6
CONTINUOUS
 62
     7
 10
-708.25
 20
225.0000000000001
 30
0.0
 11
-707.3156276085159
 21
224.4605398482534
 31
0.0
  0
LINE
  5
443
  8
0
  6
CONTINUOUS
 62
     7
 10
-707.3156276085159
 20
225.5394601517467
 30
0.0
 11
-708.25
 21
225.0000000000001
 31
0.0
  0
LINE
  5
444
  8
0
  6
CONTINUOUS
 62
     7
 10
-894.2500000000001
 20
224.9999999999999
 30
0.0
 11
-893.315627608516
 21
225.5394601517466
 31
0.0
  0
LINE
  5
445
  8
0
  6
CONTINUOUS
 62
     7
 10
-893.315627608516
 20
224.4605398482533
 30
0.0
 11
-894.25
 21
224.9999999999999
 31
0.0
  0
LINE
  5
446
  8
0
  6
CONTINUOUS
 62
     7
 10
-506.2500000000001
 20
192.4999999999999
 30
0.0
 11
-505.315627608516
 21
193.0394601517466
 31
0.0
  0
LINE
  5
447
  8
0
  6
CONTINUOUS
 62
     7
 10
-505.315627608516
 20
191.9605398482533
 30
0.0
 11
-506.2499999999999
 21
192.4999999999999
 31
0.0
  0
LINE
  5
448
  8
0
  6
CONTINUOUS
 62
     7
 10
-1096.960539848253
 20
259.684372391484
 30
0.0
 11
-1097.5
 21
258.7499999999999
 31
0.0
  0
LINE
  5
449
  8
0
  6
CONTINUOUS
 62
     7
 10
-1097.5
 20
258.75
 30
0.0
 11
-1098.039460151746
 21
259.684372391484
 31
0.0
  0
LINE
  5
44A
  8
0
  6
CONTINUOUS
 62
     7
 10
-1097.5
 20
191.25
 30
0.0
 11
-1098.039460151746
 21
190.315627608516
 31
0.0
  0
LINE
  5
44B
  8
0
  6
CONTINUOUS
 62
     7
 10
-1096.960539848253
 20
190.315627608516
 30
0.0
 11
-1097.5
 21
191.25
 31
0.0
  0
LINE
  5
44C
  8
0
  6
CONTINUOUS
 62
     7
 10
-835.8499999999999
 20
239.75
 30
0.0
 11
-835.3105398482533
 21
238.815627608516
 31
0.0
  0
LINE
  5
44D
  8
0
  6
CONTINUOUS
 62
     7
 10
-836.3894601517467
 20
238.8156276085161
 30
0.0
 11
-835.8499999999999
 21
239.75
 31
0.0
  0
LINE
  5
44E
  8
0
  6
CONTINUOUS
 62
     7
 10
-507.5000000000001
 20
191.25
 30
0.0
 11
-506.9605398482534
 21
190.315627608516
 31
0.0
  0
LINE
  5
44F
  8
0
  6
CONTINUOUS
 62
     7
 10
-508.0394601517467
 20
190.3156276085161
 30
0.0
 11
-507.5000000000001
 21
191.2500000000001
 31
0.0
  0
LINE
  5
450
  8
0
  6
CONTINUOUS
 62
     7
 10
-837.0999999999999
 20
241.0000000000001
 30
0.0
 11
-838.034372391484
 21
240.4605398482534
 31
0.0
  0
LINE
  5
451
  8
0
  6
CONTINUOUS
 62
     7
 10
-838.0343723914839
 20
241.5394601517467
 30
0.0
 11
-837.0999999999999
 21
241.0000000000001
 31
0.0
  0
LINE
  5
452
  8
0
  6
CONTINUOUS
 62
     7
 10
-506.2499999999999
 20
225.0
 30
0.0
 11
-505.315627608516
 21
224.4605398482534
 31
0.0
  0
LINE
  5
453
  8
0
  6
CONTINUOUS
 62
     7
 10
-505.315627608516
 20
225.5394601517467
 30
0.0
 11
-506.2500000000001
 21
225.0
 31
0.0
  0
LINE
  5
454
  8
0
  6
CONTINUOUS
 62
     7
 10
-1097.5
 20
223.7500000000001
 30
0.0
 11
-1096.960539848253
 21
222.8156276085161
 31
0.0
  0
LINE
  5
455
  8
0
  6
CONTINUOUS
 62
     7
 10
-1098.039460151747
 20
222.8156276085161
 30
0.0
 11
-1097.5
 21
223.7500000000001
 31
0.0
  0
LINE
  5
456
  8
0
  6
CONTINUOUS
 62
     7
 10
-508.0394601517466
 20
227.184372391484
 30
0.0
 11
-507.4999999999999
 21
226.2499999999999
 31
0.0
  0
LINE
  5
457
  8
0
  6
CONTINUOUS
 62
     7
 10
-507.4999999999999
 20
226.2499999999999
 30
0.0
 11
-506.9605398482533
 21
227.1843723914839
 31
0.0
  0
LINE
  5
458
  8
0
  6
CONTINUOUS
 62
     7
 10
-508.7499999999998
 20
225.0
 30
0.0
 11
-509.684372391484
 21
225.5394601517467
 31
0.0
  0
LINE
  5
459
  8
0
  6
CONTINUOUS
 62
     7
 10
-509.684372391484
 20
224.4605398482533
 30
0.0
 11
-508.7499999999998
 21
225.0
 31
0.0
  0
LINE
  5
45A
  8
0
  6
CONTINUOUS
 62
     7
 10
-1096.25
 20
225.0
 30
0.0
 11
-1095.315627608516
 21
225.5394601517467
 31
0.0
  0
LINE
  5
45B
  8
0
  6
CONTINUOUS
 62
     7
 10
-1095.315627608516
 20
224.4605398482533
 30
0.0
 11
-1096.25
 21
225.0
 31
0.0
  0
LINE
  5
45C
  8
0
  6
CONTINUOUS
 62
     7
 10
-506.9605398482533
 20
222.8156276085161
 30
0.0
 11
-507.4999999999999
 21
223.7500000000001
 31
0.0
  0
LINE
  5
45D
  8
0
  6
CONTINUOUS
 62
     7
 10
-507.4999999999999
 20
223.7500000000001
 30
0.0
 11
-508.0394601517466
 21
222.8156276085161
 31
0.0
  0
CIRCLE
  5
45E
  8
0
  6
CONTINUOUS
 62
     7
 10
-802.5
 20
225.0
 30
0.0
 40
11.15
  0
LINE
  5
45F
  8
0
  6
CONTINUOUS
 62
     9
 10
-772.4499999999998
 20
224.6691461413524
 30
0.0
 11
-772.4499999999998
 21
224.1693174788647
 31
0.0
  0
LINE
  5
460
  8
0
  6
CONTINUOUS
 62
     9
 10
-772.4499999999999
 20
224.6691461413524
 30
0.0
 11
-757.45
 21
224.6691461413524
 31
0.0
  0
LINE
  5
461
  8
0
  6
CONTINUOUS
 62
     9
 10
-757.4499999999999
 20
224.6691461413524
 30
0.0
 11
-757.4499999999999
 21
224.1693174788647
 31
0.0
  0
ARC
  5
462
  8
0
  6
CONTINUOUS
 62
     9
 10
-572.5
 20
225.0
 30
0.0
 40
0.3308538586475752
 50
90.00000000000963
 51
270.0
  0
LINE
  5
463
  8
0
  6
CONTINUOUS
 62
     9
 10
-572.5
 20
224.1693174788647
 30
0.0
 11
-572.5
 21
224.6691461413524
 31
0.0
  0
LINE
  5
464
  8
0
  6
CONTINUOUS
 62
     9
 10
-572.5
 20
225.3308538586476
 30
0.0
 11
-572.5
 21
225.8306825211353
 31
0.0
  0
ARC
  5
465
  8
0
  6
CONTINUOUS
 62
     9
 10
-847.55
 20
225.0
 30
0.0
 40
0.3308538586475752
 50
90.00000000001442
 51
270.0
  0
LINE
  5
466
  8
0
  6
CONTINUOUS
 62
     9
 10
-847.55
 20
224.1693174788647
 30
0.0
 11
-847.55
 21
224.6691461413524
 31
0.0
  0
LINE
  5
467
  8
0
  6
CONTINUOUS
 62
     9
 10
-847.55
 20
225.3308538586476
 30
0.0
 11
-847.55
 21
225.8306825211353
 31
0.0
  0
ARC
  5
468
  8
0
  6
CONTINUOUS
 62
     9
 10
-757.4499999999999
 20
225.0
 30
0.0
 40
0.3308538586475752
 50
270.0
 51
89.99999999998556
  0
LINE
  5
469
  8
0
  6
CONTINUOUS
 62
     9
 10
-757.4499999999999
 20
225.8306825211353
 30
0.0
 11
-757.4499999999999
 21
225.3308538586476
 31
0.0
  0
LINE
  5
46A
  8
0
  6
CONTINUOUS
 62
     9
 10
-772.4499999999999
 20
225.8306825211353
 30
0.0
 11
-772.4499999999999
 21
225.3308538586476
 31
0.0
  0
ARC
  5
46B
  8
0
  6
CONTINUOUS
 62
     9
 10
-772.4499999999999
 20
225.0
 30
0.0
 40
0.3308538586475752
 50
90.0
 51
270.0000000000084
  0
ARC
  5
46C
  8
0
  6
CONTINUOUS
 62
     9
 10
-832.55
 20
225.0
 30
0.0
 40
0.3308538586475752
 50
269.9999999999916
 51
90.0
  0
LINE
  5
46D
  8
0
  6
CONTINUOUS
 62
     9
 10
-832.55
 20
225.3308538586476
 30
0.0
 11
-832.55
 21
225.8306825211353
 31
0.0
  0
LINE
  5
46E
  8
0
  6
CONTINUOUS
 62
     9
 10
-832.5500000000001
 20
224.1693174788647
 30
0.0
 11
-832.55
 21
224.6691461413524
 31
0.0
  0
LINE
  5
46F
  8
0
  6
CONTINUOUS
 62
     9
 10
-522.5
 20
225.3308538586476
 30
0.0
 11
-522.5
 21
225.8306825211353
 31
0.0
  0
LINE
  5
470
  8
0
  6
CONTINUOUS
 62
     9
 10
-522.5
 20
225.3308538586476
 30
0.0
 11
-572.5
 21
225.3308538586476
 31
0.0
  0
LINE
  5
471
  8
0
  6
CONTINUOUS
 62
     9
 10
-1032.5
 20
225.3308538586476
 30
0.0
 11
-1082.5
 21
225.3308538586476
 31
0.0
  0
LINE
  5
472
  8
0
  6
CONTINUOUS
 62
     9
 10
-1082.5
 20
225.8306825211353
 30
0.0
 11
-1082.5
 21
225.3308538586476
 31
0.0
  0
LINE
  5
473
  8
0
  6
CONTINUOUS
 62
     9
 10
-1032.5
 20
225.8306825211353
 30
0.0
 11
-1032.5
 21
225.3308538586476
 31
0.0
  0
ARC
  5
474
  8
0
  6
CONTINUOUS
 62
     9
 10
-1082.5
 20
225.0
 30
0.0
 40
0.3308538586475752
 50
90.0
 51
270.0
  0
LINE
  5
475
  8
0
  6
CONTINUOUS
 62
     9
 10
-1082.5
 20
224.6691461413524
 30
0.0
 11
-1082.5
 21
224.1693174788647
 31
0.0
  0
LINE
  5
476
  8
0
  6
CONTINUOUS
 62
     9
 10
-847.55
 20
224.6691461413524
 30
0.0
 11
-832.5500000000001
 21
224.6691461413524
 31
0.0
  0
LINE
  5
477
  8
0
  6
CONTINUOUS
 62
     9
 10
-572.5
 20
224.6691461413524
 30
0.0
 11
-522.5
 21
224.6691461413524
 31
0.0
  0
LINE
  5
478
  8
0
  6
CONTINUOUS
 62
     9
 10
-522.5
 20
224.1693174788647
 30
0.0
 11
-522.5
 21
224.6691461413524
 31
0.0
  0
ARC
  5
479
  8
0
  6
CONTINUOUS
 62
     9
 10
-522.5
 20
225.0
 30
0.0
 40
0.3308538586475752
 50
270.0
 51
90.0
  0
LINE
  5
47A
  8
0
  6
CONTINUOUS
 62
     9
 10
-757.4499999999999
 20
225.3308538586476
 30
0.0
 11
-772.45
 21
225.3308538586476
 31
0.0
  0
LINE
  5
47B
  8
0
  6
CONTINUOUS
 62
     9
 10
-832.55
 20
225.3308538586476
 30
0.0
 11
-847.5500000000001
 21
225.3308538586476
 31
0.0
  0
LINE
  5
47C
  8
0
  6
CONTINUOUS
 62
     9
 10
-1082.5
 20
224.6691461413524
 30
0.0
 11
-1032.5
 21
224.6691461413524
 31
0.0
  0
LINE
  5
47D
  8
0
  6
CONTINUOUS
 62
     9
 10
-1032.5
 20
224.6691461413524
 30
0.0
 11
-1032.5
 21
224.1693174788647
 31
0.0
  0
ARC
  5
47E
  8
0
  6
CONTINUOUS
 62
     9
 10
-1032.5
 20
225.0
 30
0.0
 40
0.3308538586475752
 50
270.0
 51
89.9999999999904
  0
ENDBLK
  8
0
  0
BLOCK
  8
0
  2
D_FRAME_VIEW_2742
 70
     0
 10
0.0
 20
0.0
 30
0.0
  0
LINE
  5
483
  8
0
  6
CONTINUOUS
 62
     7
 10
-1114.25
 20
59.95001249999999
 30
0.0
 11
-1127.050211283529
 21
59.95001249999999
 31
0.0
  0
LINE
  5
484
  8
0
  6
CONTINUOUS
 62
     7
 10
-478.9456083458888
 20
78.95138296524543
 30
0.0
 11
-1126.054391654111
 21
78.95138296524543
 31
0.0
  0
LINE
  5
485
  8
0
  6
CONTINUOUS
 62
     7
 10
-477.9497887164712
 20
59.9500125
 30
0.0
 11
-1110.75
 21
59.95001249999999
 31
0.0
  0
LINE
  5
486
  8
0
  6
CONTINUOUS
 62
     7
 10
-1110.75
 20
59.95001249999999
 30
0.0
 11
-1110.776871389084
 21
60.97618944830787
 31
0.0
  0
ARC
  5
487
  8
0
  6
CONTINUOUS
 62
     7
 10
-1111.77652871406
 20
60.9500125
 30
0.0
 40
1.0
 50
1.500000000000171
 51
90.0
  0
LINE
  5
488
  8
0
  6
CONTINUOUS
 62
     7
 10
-1111.77652871406
 20
61.9500125
 30
0.0
 11
-1113.22347128594
 21
61.9500125
 31
0.0
  0
ARC
  5
489
  8
0
  6
CONTINUOUS
 62
     7
 10
-1113.22347128594
 20
60.9500125
 30
0.0
 40
1.0
 50
90.0
 51
178.5
  0
LINE
  5
48A
  8
0
  6
CONTINUOUS
 62
     7
 10
-1114.223128610915
 20
60.97618944830788
 30
0.0
 11
-1114.25
 21
59.9500125
 31
0.0
  0
LINE
  5
48B
  8
0
  6
CONTINUOUS
 62
     7
 10
-1127.050211283529
 20
59.9500125
 30
0.0
 11
-1128.548155585661
 21
59.9500125
 31
0.0
  0
LINE
  5
48C
  8
0
  6
CONTINUOUS
 62
     7
 10
-1128.548155585661
 20
59.95001249999999
 30
0.0
 11
-1127.552335956243
 21
78.9513829652454
 31
0.0
  0
LINE
  5
48D
  8
0
  6
CONTINUOUS
 62
     7
 10
-1126.054391654111
 20
78.95138296524543
 30
0.0
 11
-1127.550041106927
 21
78.95422067048106
 31
0.0
  0
LINE
  5
48E
  8
0
  6
CONTINUOUS
 62
     7
 10
-476.4518444143391
 20
59.95001250000001
 30
0.0
 11
-477.9497887164712
 21
59.95001250000001
 31
0.0
  0
LINE
  5
48F
  8
0
  6
CONTINUOUS
 62
     7
 10
-477.447664043757
 20
78.95138296524543
 30
0.0
 11
-477.4499588930732
 21
78.95422067048105
 31
0.0
  0
LINE
  5
490
  8
0
  6
CONTINUOUS
 62
     7
 10
-477.447664043757
 20
78.95138296524543
 30
0.0
 11
-476.4518444143391
 21
59.9500125
 31
0.0
  0
LINE
  5
491
  8
0
  6
CONTINUOUS
 62
     7
 10
-1127.550041106927
 20
78.95422067048108
 30
0.0
 11
-1127.552335956243
 21
78.95138296524544
 31
0.0
  0
LINE
  5
492
  8
0
  6
CONTINUOUS
 62
     7
 10
-1126.500106267697
 20
79.9500125
 30
0.0
 11
-1126.054391654111
 21
79.9500125
 31
0.0
  0
LINE
  5
493
  8
0
  6
CONTINUOUS
 62
     7
 10
-477.4499588930732
 20
78.95422067048105
 30
0.0
 11
-478.9456083458887
 21
78.95138296524543
 31
0.0
  0
LINE
  5
494
  8
0
  6
CONTINUOUS
 62
     7
 10
-478.9456083458888
 20
79.9500125
 30
0.0
 11
-478.4998882619365
 21
79.9500125
 31
0.0
  0
LINE
  5
495
  8
0
  6
CONTINUOUS
 62
     7
 10
-1126.054391654111
 20
79.9500125
 30
0.0
 11
-478.9456083458891
 21
79.9500125
 31
0.0
  0
LINE
  5
496
  8
0
  6
CONTINUOUS
 62
     7
 10
-1114.25
 20
59.95001250000001
 30
0.0
 11
-1110.75
 21
59.95001250000001
 31
0.0
  0
LINE
  5
497
  8
0
  6
CONTINUOUS
 62
     7
 10
-1126.500128952788
 20
79.9500125
 30
0.0
 11
-1127.551788642992
 21
78.95431086805205
 31
0.0
  0
LINE
  5
498
  8
0
  6
CONTINUOUS
 62
     7
 10
-477.4482113570079
 20
78.95431086805202
 30
0.0
 11
-478.4998710472119
 21
79.9500125
 31
0.0
  0
ENDBLK
  8
0
  0
BLOCK
  8
0
  2
D_FRAME_VIEW_2781
 70
     0
 10
0.0
 20
0.0
 30
0.0
  0
LINE
  5
49D
  8
0
  6
CONTINUOUS
 62
     7
 10
-372.4500125
 20
194.8999999999999
 30
0.0
 11
-374.4500125
 21
194.9523718431383
 31
0.0
  0
LINE
  5
49E
  8
0
  6
CONTINUOUS
 62
     7
 10
-372.4500125
 20
194.8999999999999
 30
0.0
 11
-372.4500125
 21
165.449788716471
 31
0.0
  0
LINE
  5
49F
  8
0
  6
CONTINUOUS
 62
     7
 10
-391.4513829652454
 20
283.5543916541111
 30
0.0
 11
-391.4513829652454
 21
166.445608345889
 31
0.0
  0
LINE
  5
4A0
  8
0
  6
CONTINUOUS
 62
     7
 10
-372.4500125
 20
284.550211283529
 30
0.0
 11
-372.4500125
 21
255.0999999999999
 31
0.0
  0
LINE
  5
4A1
  8
0
  6
CONTINUOUS
 62
     7
 10
-374.4500125
 20
255.0476281568615
 30
0.0
 11
-372.4500125
 21
255.0999999999999
 31
0.0
  0
LINE
  5
4A2
  8
0
  6
CONTINUOUS
 62
     7
 10
-374.4500125
 20
194.9523718431383
 30
0.0
 11
-374.4500125
 21
255.0476281568615
 31
0.0
  0
LINE
  5
4A3
  8
0
  6
CONTINUOUS
 62
     7
 10
-372.4500125
 20
286.0481555856608
 30
0.0
 11
-372.4500125
 21
284.550211283529
 31
0.0
  0
LINE
  5
4A4
  8
0
  6
CONTINUOUS
 62
     7
 10
-391.4513829652454
 20
285.052335956243
 30
0.0
 11
-391.454220670481
 21
285.0500411069268
 31
0.0
  0
LINE
  5
4A5
  8
0
  6
CONTINUOUS
 62
     7
 10
-391.4513829652454
 20
285.052335956243
 30
0.0
 11
-372.4500125
 21
286.0481555856608
 31
0.0
  0
LINE
  5
4A6
  8
0
  6
CONTINUOUS
 62
     7
 10
-372.4500125
 20
165.449788716471
 30
0.0
 11
-372.4500125
 21
163.9518444143392
 31
0.0
  0
LINE
  5
4A7
  8
0
  6
CONTINUOUS
 62
     7
 10
-372.4500125
 20
163.9518444143392
 30
0.0
 11
-391.4513829652454
 21
164.947664043757
 31
0.0
  0
LINE
  5
4A8
  8
0
  6
CONTINUOUS
 62
     7
 10
-391.4513829652454
 20
166.4456083458889
 30
0.0
 11
-391.454220670481
 21
164.9499588930732
 31
0.0
  0
LINE
  5
4A9
  8
0
  6
CONTINUOUS
 62
     7
 10
-391.454220670481
 20
285.0500411069268
 30
0.0
 11
-391.4513829652454
 21
283.5543916541111
 31
0.0
  0
LINE
  5
4AA
  8
0
  6
CONTINUOUS
 62
     7
 10
-392.4500125
 20
283.5543916541111
 30
0.0
 11
-392.4500125
 21
284.0001117380634
 31
0.0
  0
LINE
  5
4AB
  8
0
  6
CONTINUOUS
 62
     7
 10
-391.454220670481
 20
164.9499588930732
 30
0.0
 11
-391.4513829652454
 21
164.9476640437571
 31
0.0
  0
LINE
  5
4AC
  8
0
  6
CONTINUOUS
 62
     7
 10
-392.4500125
 20
165.9998937323034
 30
0.0
 11
-392.4500125
 21
166.4456083458889
 31
0.0
  0
LINE
  5
4AD
  8
0
  6
CONTINUOUS
 62
     7
 10
-392.4500125
 20
166.4456083458889
 30
0.0
 11
-392.4500125
 21
283.5543916541111
 31
0.0
  0
LINE
  5
4AE
  8
0
  6
CONTINUOUS
 62
     7
 10
-373.4500125
 20
194.9261859215691
 30
0.0
 11
-373.4500125
 21
196.7643267058773
 31
0.0
  0
LINE
  5
4AF
  8
0
  6
CONTINUOUS
 62
     7
 10
-373.4500125
 20
255.0738140784307
 30
0.0
 11
-373.4500125
 21
253.2356732941227
 31
0.0
  0
LINE
  5
4B0
  8
0
  6
CONTINUOUS
 62
     7
 10
-373.4500125
 20
229.2643267058774
 30
0.0
 11
-373.4500125
 21
220.7356732941227
 31
0.0
  0
LINE
  5
4B1
  8
0
  6
CONTINUOUS
 62
     9
 10
-374.4500125
 20
242.5
 30
0.0
 11
-373.4500125
 21
242.5
 31
0.0
  0
LINE
  5
4B2
  8
0
  6
CONTINUOUS
 62
     7
 10
-373.4500125
 20
239.5
 30
0.0
 11
-373.4500125
 21
242.5
 31
0.0
  0
LINE
  5
4B3
  8
0
  6
CONTINUOUS
 62
     9
 10
-374.4500125
 20
239.5
 30
0.0
 11
-373.4500125
 21
239.5
 31
0.0
  0
LINE
  5
4B4
  8
0
  6
CONTINUOUS
 62
     7
 10
-374.4500125
 20
246.7905126274465
 30
0.0
 11
-373.4500125
 21
246.7643267058773
 31
0.0
  0
LINE
  5
4B5
  8
0
  6
CONTINUOUS
 62
     7
 10
-373.4500125
 20
242.5
 30
0.0
 11
-373.4500125
 21
246.7643267058773
 31
0.0
  0
LINE
  5
4B6
  8
0
  6
CONTINUOUS
 62
     7
 10
-373.4500125
 20
235.2356732941227
 30
0.0
 11
-373.4500125
 21
239.5
 31
0.0
  0
LINE
  5
4B7
  8
0
  6
CONTINUOUS
 62
     7
 10
-374.4500125
 20
235.2094873725535
 30
0.0
 11
-373.4500125
 21
235.2356732941227
 31
0.0
  0
LINE
  5
4B8
  8
0
  6
CONTINUOUS
 62
     7
 10
-391.4543108680521
 20
285.0517886429921
 30
0.0
 11
-392.4500125
 21
284.000128952788
 31
0.0
  0
LINE
  5
4B9
  8
0
  6
CONTINUOUS
 62
     7
 10
-392.4500125
 20
165.999871047212
 30
0.0
 11
-391.4543108680521
 21
164.9482113570079
 31
0.0
  0
LINE
  5
4BA
  8
0
  6
CONTINUOUS
 62
     7
 10
-373.4500125
 20
196.7643267058773
 30
0.0
 11
-374.4500125
 21
196.7905126274465
 31
0.0
  0
LINE
  5
4BB
  8
0
  6
CONTINUOUS
 62
     7
 10
-374.4500125
 20
253.2094873725536
 30
0.0
 11
-373.4500125
 21
253.2356732941227
 31
0.0
  0
LINE
  5
4BC
  8
0
  6
CONTINUOUS
 62
     7
 10
-374.4500125
 20
220.7094873725535
 30
0.0
 11
-373.4500125
 21
220.7356732941227
 31
0.0
  0
LINE
  5
4BD
  8
0
  6
CONTINUOUS
 62
     7
 10
-373.4500125
 20
229.2643267058774
 30
0.0
 11
-374.4500125
 21
229.2905126274465
 31
0.0
  0
ENDBLK
  8
0
  0
ENDSEC
  0
SECTION
  2
ENTITIES
  0
LINE
  5
6F
  8
0
  6
CENTER
 62
     1
 10
-802.5000000000001
 20
161.9518444143392
 30
0.0
 11
-802.5000000000001
 21
288.0481555856608
 31
0.0
  0
INSERT
  5
47F
  8
0
  6
CONTINUOUS
 62
     7
  2
D_FRAME_VIEW_1484
 10
0.0
 20
0.0
 30
0.0
  0
INSERT
  5
499
  8
0
  6
CONTINUOUS
 62
     7
  2
D_FRAME_VIEW_2742
 10
0.0
 20
0.0
 30
0.0
  0
INSERT
  5
4BE
  8
0
  6
CONTINUOUS
 62
     7
  2
D_FRAME_VIEW_2781
 10
0.0
 20
0.0
 30
0.0
  0
LINE
  5
4BF
  8
0
  6
CENTER
 62
     1
 10
-802.5000000000001
 20
49.41214107005432
 30
0.0
 11
-802.5
 21
72.43958799001527
 31
0.0
  0
LINE
  5
4C0
  8
0
  6
CENTER
 62
     1
 10
-391.8788572058489
 20
225.0
 30
0.0
 11
-368.8514102858904
 21
225.0
 31
0.0
  0
TEXT
  5
4C1
  8
0
  6
CONTINUOUS
 62
     7
 10
-836.7044516693759
 20
10.94545454545455
 30
0.0
 40
8.0
  1
ＰＯＷ－１２６５
  0
LINE
  5
4C2
  8
0
  6
CENTER
 62
     1
 10
-1129.050211283529
 20
225.0
 30
0.0
 11
-475.9497887164712
 21
225.0
 31
0.0
  0
ENDSEC
  0
EOF
