  0
SECTION
  2
HEADER
  9
$ACADVER
  1
AC1014
  9
$ACADMAINTVER
 70
     9
  9
$DWGCODEPAGE
  3
ANSI_932
  9
$INSBASE
 10
0.0
 20
0.0
 30
0.0
  9
$EXTMIN
 10
626.5797899545468
 20
-24.52460998132631
 30
0.0
  9
$EXTMAX
 10
1056.579789954547
 20
326.1196972588888
 30
0.0
  9
$LIMMIN
 10
0.0
 20
0.0
  9
$LIMMAX
 10
12.0
 20
9.0
  9
$ORTHOMODE
 70
     0
  9
$REGENMODE
 70
     1
  9
$FILLMODE
 70
     1
  9
$QTEXTMODE
 70
     0
  9
$MIRRTEXT
 70
     1
  9
$DRAGMODE
 70
     2
  9
$LTSCALE
 40
1.0
  9
$OSMODE
 70
    37
  9
$ATTMODE
 70
     1
  9
$TEXTSIZE
 40
0.2
  9
$TRACEWID
 40
0.05
  9
$TEXTSTYLE
  7
STANDARD
  9
$CLAYER
  8
0
  9
$CELTYPE
  6
BYLAYER
  9
$CECOLOR
 62
   256
  9
$CELTSCALE
 40
1.0
  9
$DELOBJ
 70
     1
  9
$DISPSILH
 70
     0
  9
$DIMSCALE
 40
1.0
  9
$DIMASZ
 40
3.0
  9
$DIMEXO
 40
0.0625
  9
$DIMDLI
 40
0.38
  9
$DIMRND
 40
0.0
  9
$DIMDLE
 40
0.0
  9
$DIMEXE
 40
1.5
  9
$DIMTP
 40
0.0
  9
$DIMTM
 40
0.0
  9
$DIMTXT
 40
3.0
  9
$DIMCEN
 40
0.09
  9
$DIMTSZ
 40
0.0
  9
$DIMTOL
 70
     0
  9
$DIMLIM
 70
     0
  9
$DIMTIH
 70
     1
  9
$DIMTOH
 70
     1
  9
$DIMSE1
 70
     0
  9
$DIMSE2
 70
     0
  9
$DIMTAD
 70
     1
  9
$DIMZIN
 70
     0
  9
$DIMBLK
  1

  9
$DIMASO
 70
     1
  9
$DIMSHO
 70
     1
  9
$DIMPOST
  1

  9
$DIMAPOST
  1

  9
$DIMALT
 70
     0
  9
$DIMALTD
 70
     2
  9
$DIMALTF
 40
25.4
  9
$DIMLFAC
 40
1.0
  9
$DIMTOFL
 70
     0
  9
$DIMTVP
 40
0.0
  9
$DIMTIX
 70
     0
  9
$DIMSOXD
 70
     0
  9
$DIMSAH
 70
     0
  9
$DIMBLK1
  1

  9
$DIMBLK2
  1

  9
$DIMSTYLE
  2
STANDARD
  9
$DIMCLRD
 70
     0
  9
$DIMCLRE
 70
     0
  9
$DIMCLRT
 70
     0
  9
$DIMTFAC
 40
1.0
  9
$DIMGAP
 40
1.5
  9
$DIMJUST
 70
     0
  9
$DIMSD1
 70
     0
  9
$DIMSD2
 70
     0
  9
$DIMTOLJ
 70
     1
  9
$DIMTZIN
 70
     0
  9
$DIMALTZ
 70
     0
  9
$DIMALTTZ
 70
     0
  9
$DIMFIT
 70
     3
  9
$DIMUPT
 70
     0
  9
$DIMUNIT
 70
     2
  9
$DIMDEC
 70
     2
  9
$DIMTDEC
 70
     4
  9
$DIMALTU
 70
     2
  9
$DIMALTTD
 70
     2
  9
$DIMTXSTY
  7
ＭＳ_ゴシック
  9
$DIMAUNIT
 70
     0
  9
$LUNITS
 70
     2
  9
$LUPREC
 70
     4
  9
$SKETCHINC
 40
0.1
  9
$FILLETRAD
 40
0.5
  9
$AUNITS
 70
     0
  9
$AUPREC
 70
     0
  9
$MENU
  1
.
  9
$ELEVATION
 40
0.0
  9
$PELEVATION
 40
0.0
  9
$THICKNESS
 40
0.0
  9
$LIMCHECK
 70
     0
  9
$CHAMFERA
 40
0.0
  9
$CHAMFERB
 40
0.0
  9
$CHAMFERC
 40
0.0
  9
$CHAMFERD
 40
0.0
  9
$SKPOLY
 70
     0
  9
$TDCREATE
 40
2460293.756156829
  9
$TDUPDATE
 40
2460293.756157627
  9
$TDINDWG
 40
0.0000000116
  9
$TDUSRTIMER
 40
0.0000000116
  9
$USRTIMER
 70
     1
  9
$ANGBASE
 50
0.0
  9
$ANGDIR
 70
     0
  9
$PDMODE
 70
     0
  9
$PDSIZE
 40
0.0
  9
$PLINEWID
 40
0.0
  9
$COORDS
 70
     1
  9
$SPLFRAME
 70
     0
  9
$SPLINETYPE
 70
     6
  9
$SPLINESEGS
 70
     8
  9
$ATTDIA
 70
     0
  9
$ATTREQ
 70
     1
  9
$HANDLING
 70
     1
  9
$HANDSEED
  5
700
  9
$SURFTAB1
 70
     6
  9
$SURFTAB2
 70
     6
  9
$SURFTYPE
 70
     6
  9
$SURFU
 70
     6
  9
$SURFV
 70
     6
  9
$UCSNAME
  2

  9
$UCSORG
 10
0.0
 20
0.0
 30
0.0
  9
$UCSXDIR
 10
1.0
 20
0.0
 30
0.0
  9
$UCSYDIR
 10
0.0
 20
1.0
 30
0.0
  9
$PUCSNAME
  2

  9
$PUCSORG
 10
0.0
 20
0.0
 30
0.0
  9
$PUCSXDIR
 10
1.0
 20
0.0
 30
0.0
  9
$PUCSYDIR
 10
0.0
 20
1.0
 30
0.0
  9
$USERI1
 70
     0
  9
$USERI2
 70
     0
  9
$USERI3
 70
     0
  9
$USERI4
 70
     0
  9
$USERI5
 70
     0
  9
$USERR1
 40
0.0
  9
$USERR2
 40
0.0
  9
$USERR3
 40
0.0
  9
$USERR4
 40
0.0
  9
$USERR5
 40
0.0
  9
$WORLDVIEW
 70
     1
  9
$SHADEDGE
 70
     3
  9
$SHADEDIF
 70
    70
  9
$TILEMODE
 70
     1
  9
$MAXACTVP
 70
    64
  9
$PINSBASE
 10
0.0
 20
0.0
 30
0.0
  9
$PLIMCHECK
 70
     0
  9
$PEXTMIN
 10
1.000000000000000E+20
 20
1.000000000000000E+20
 30
1.000000000000000E+20
  9
$PEXTMAX
 10
-1.000000000000000E+20
 20
-1.000000000000000E+20
 30
-1.000000000000000E+20
  9
$PLIMMIN
 10
0.0
 20
0.0
  9
$PLIMMAX
 10
12.0
 20
9.0
  9
$UNITMODE
 70
     0
  9
$VISRETAIN
 70
     1
  9
$PLINEGEN
 70
     0
  9
$PSLTSCALE
 70
     1
  9
$TREEDEPTH
 70
  3020
  9
$PICKSTYLE
 70
     1
  9
$CMLSTYLE
  2
STANDARD
  9
$CMLJUST
 70
     0
  9
$CMLSCALE
 40
1.0
  9
$PROXYGRAPHICS
 70
     1
  9
$MEASUREMENT
 70
     1
  0
ENDSEC
  0
SECTION
  2
CLASSES
  0
CLASS
  1
ACDBDICTIONARYWDFLT
  2
AcDbDictionaryWithDefault
  3
ObjectDBX Classes
 90
        0
280
     0
281
     0
  0
CLASS
  1
VISUALSTYLE
  2
AcDbVisualStyle
  3
ObjectDBX Classes
 90
     4095
280
     0
281
     0
  0
CLASS
  1
MATERIAL
  2
AcDbMaterial
  3
ObjectDBX Classes
 90
     1153
280
     0
281
     0
  0
CLASS
  1
SCALE
  2
AcDbScale
  3
ObjectDBX Classes
 90
     1153
280
     0
281
     0
  0
CLASS
  1
TABLESTYLE
  2
AcDbTableStyle
  3
ObjectDBX Classes
 90
     4095
280
     0
281
     0
  0
CLASS
  1
MLEADERSTYLE
  2
AcDbMLeaderStyle
  3
ACDB_MLEADERSTYLE_CLASS
 90
     4095
280
     0
281
     0
  0
CLASS
  1
SUN
  2
AcDbSun
  3
SCENEOE
 90
     1153
280
     0
281
     0
  0
CLASS
  1
DICTIONARYVAR
  2
AcDbDictionaryVar
  3
ObjectDBX Classes
 90
        0
280
     0
281
     0
  0
CLASS
  1
XRECORD
  2
AcDbXrecord
  3
ObjectDBX Classes
 90
        0
280
     0
281
     0
  0
CLASS
  1
LWPOLYLINE
  2
AcDbPolyline
  3
ObjectDBX Classes
 90
        0
280
     0
281
     1
  0
CLASS
  1
HATCH
  2
AcDbHatch
  3
ObjectDBX Classes
 90
        0
280
     0
281
     1
  0
CLASS
  1
ACDBPLACEHOLDER
  2
AcDbPlaceHolder
  3
ObjectDBX Classes
 90
        0
280
     0
281
     0
  0
CLASS
  1
LAYOUT
  2
AcDbLayout
  3
ObjectDBX Classes
 90
        0
280
     0
281
     0
  0
ENDSEC
  0
SECTION
  2
TABLES
  0
TABLE
  2
VPORT
  5
8
102
{ACAD_XDICTIONARY
360
6F5
102
}
330
0
100
AcDbSymbolTable
 70
     1
  0
VPORT
  5
29
330
8
100
AcDbSymbolTableRecord
100
AcDbViewportTableRecord
  2
*ACTIVE
 70
     0
 10
0.0
 20
0.0
 11
1.0
 21
1.0
 12
841.5797899545469
 22
150.7975436387812
 13
0.0
 23
0.0
 14
0.5
 24
0.5
 15
0.5
 25
0.5
 16
0.0
 26
0.0
 36
1.0
 17
0.0
 27
0.0
 37
0.0
 40
350.6443072402151
 41
1.6
 42
50.0
 43
0.0
 44
0.0
 50
0.0
 51
0.0
 71
     0
 72
   100
 73
     1
 74
     3
 75
     0
 76
     0
 77
     0
 78
     0
  0
ENDTAB
  0
TABLE
  2
LTYPE
  5
5
330
0
100
AcDbSymbolTable
 70
     2
  0
LTYPE
  5
14
330
5
100
AcDbSymbolTableRecord
100
AcDbLinetypeTableRecord
  2
BYBLOCK
 70
     0
  3

 72
    65
 73
     0
 40
0.0
  0
LTYPE
  5
15
330
5
100
AcDbSymbolTableRecord
100
AcDbLinetypeTableRecord
  2
BYLAYER
 70
     0
  3

 72
    65
 73
     0
 40
0.0
  0
LTYPE
  5
16
330
5
100
AcDbSymbolTableRecord
100
AcDbLinetypeTableRecord
  2
CONTINUOUS
 70
     0
  3
Solid line
 72
    65
 73
     0
 40
0.0
  0
LTYPE
  5
1BB
330
5
100
AcDbSymbolTableRecord
100
AcDbLinetypeTableRecord
  2
CENTER
 70
     0
  3

 72
    65
 73
     0
 40
0.0
  0
ENDTAB
  0
TABLE
  2
LAYER
  5
2
330
0
100
AcDbSymbolTable
 70
     1
  0
LAYER
  5
10
330
2
100
AcDbSymbolTableRecord
100
AcDbLayerTableRecord
  2
0
 70
     0
 62
     7
  6
CONTINUOUS
  0
ENDTAB
  0
TABLE
  2
STYLE
  5
3
330
0
100
AcDbSymbolTable
 70
     2
  0
STYLE
  5
11
330
3
100
AcDbSymbolTableRecord
100
AcDbTextStyleTableRecord
  2
STANDARD
 70
     0
 40
0.0
 41
1.0
 50
0.0
 71
     0
 42
0.2
  3
txt
  4

  0
STYLE
  5
6E
330
3
100
AcDbSymbolTableRecord
100
AcDbTextStyleTableRecord
  2
ＭＳ_ゴシック
 70
     0
 40
0.0
 41
1.0
 50
0.0
 71
     0
 42
0.2
  3
ＭＳ ゴシック.shx
  4

  0
ENDTAB
  0
TABLE
  2
VIEW
  5
6
330
0
100
AcDbSymbolTable
 70
     0
  0
ENDTAB
  0
TABLE
  2
UCS
  5
7
330
0
100
AcDbSymbolTable
 70
     0
  0
ENDTAB
  0
TABLE
  2
APPID
  5
9
330
0
100
AcDbSymbolTable
 70
     2
  0
APPID
  5
12
330
9
100
AcDbSymbolTableRecord
100
AcDbRegAppTableRecord
  2
ACAD
 70
     0
  0
APPID
  5
6FF
330
9
100
AcDbSymbolTableRecord
100
AcDbRegAppTableRecord
  2
ACAD_MLEADERVER
 70
     0
  0
ENDTAB
  0
TABLE
  2
DIMSTYLE
  5
A
330
0
100
AcDbSymbolTable
 70
     1
  0
DIMSTYLE
105
27
330
A
100
AcDbSymbolTableRecord
100
AcDbDimStyleTableRecord
  2
STANDARD
 70
     0
  3

  4

  5

  6

  7

 40
1.0
 41
0.18
 42
0.0625
 43
0.38
 44
0.18
 45
0.0
 46
0.0
 47
0.0
 48
0.0
140
0.18
141
0.09
142
0.0
143
25.4
144
1.0
145
0.0
146
1.0
147
0.09
 71
     0
 72
     0
 73
     1
 74
     1
 75
     0
 76
     0
 77
     0
 78
     0
170
     0
171
     2
172
     0
173
     0
174
     0
175
     0
176
     0
177
     0
178
     0
270
     2
271
     4
272
     4
273
     2
274
     2
340
11
275
     0
280
     0
281
     0
282
     0
283
     1
284
     0
285
     0
286
     0
287
     3
288
     0
  0
ENDTAB
  0
TABLE
  2
BLOCK_RECORD
  5
1
330
0
100
AcDbSymbolTable
 70
     0
  0
BLOCK_RECORD
  5
1F
330
1
100
AcDbSymbolTableRecord
100
AcDbBlockTableRecord
  2
*MODEL_SPACE
  0
BLOCK_RECORD
  5
1B
330
1
100
AcDbSymbolTableRecord
100
AcDbBlockTableRecord
  2
*PAPER_SPACE
  0
ENDTAB
  0
ENDSEC
  0
SECTION
  2
BLOCKS
  0
BLOCK
  5
20
330
1F
100
AcDbEntity
  8
0
100
AcDbBlockBegin
  2
*MODEL_SPACE
 70
     0
 10
0.0
 20
0.0
 30
0.0
  3
*MODEL_SPACE
  1

  0
ENDBLK
  5
21
330
1F
100
AcDbEntity
  8
0
100
AcDbBlockEnd
  0
BLOCK
  5
1C
330
1B
100
AcDbEntity
 67
     1
  8
0
100
AcDbBlockBegin
  2
*PAPER_SPACE
 70
     0
 10
0.0
 20
0.0
 30
0.0
  3
*PAPER_SPACE
  1

  0
ENDBLK
  5
1D
330
1B
100
AcDbEntity
 67
     1
  8
0
100
AcDbBlockEnd
  0
ENDSEC
  0
SECTION
  2
ENTITIES
  0
MTEXT
  5
6F
330
1F
100
AcDbEntity
  8
0
 62
     7
100
AcDbMText
 10
793.0415693718282
 20
-21.8655190722354
 30
0.0
 40
3.0
 41
0.0
 71
     1
 72
     1
  1
{\fＭＳ ゴシック;PV4B-1710U}
  0
LINE
  5
70
330
1F
100
AcDbEntity
  8
0
  6
CONTINUOUS
 62
     7
100
AcDbLine
 10
952.99400351692
 20
265.1196972588887
 30
0.0
 11
952.2868967357334
 21
265.1196972588887
 31
0.0
  0
LINE
  5
71
330
1F
100
AcDbEntity
  8
0
  6
CONTINUOUS
 62
     7
100
AcDbLine
 10
991.5797899545469
 20
146.6196972588887
 30
0.0
 11
1013.579789954547
 21
146.6196972588887
 31
0.0
  0
LINE
  5
72
330
1F
100
AcDbEntity
  8
0
  6
CONTINUOUS
 62
     7
100
AcDbLine
 10
700.2900293941046
 20
41.73704091020169
 30
0.0
 11
700.2880487549887
 21
41.71597426983465
 31
0.0
  0
LINE
  5
73
330
1F
100
AcDbEntity
  8
0
  6
CONTINUOUS
 62
     7
100
AcDbLine
 10
952.99400351692
 20
290.1196972588887
 30
0.0
 11
952.2868967357334
 21
290.1196972588887
 31
0.0
  0
LINE
  5
74
330
1F
100
AcDbEntity
  8
0
  6
CONTINUOUS
 62
     7
100
AcDbLine
 10
650.5797899545468
 20
75.61969725888878
 30
0.0
 11
638.7082170792929
 21
75.61969725888878
 31
0.0
  0
LINE
  5
75
330
1F
100
AcDbEntity
  8
0
  6
CONTINUOUS
 62
     7
100
AcDbLine
 10
952.99400351692
 20
290.1196972588887
 30
0.0
 11
956.1797899545469
 21
290.1196972588887
 31
0.0
  0
LINE
  5
76
330
1F
100
AcDbEntity
  8
0
  6
CONTINUOUS
 62
     7
100
AcDbLine
 10
637.2940035169199
 20
75.61969725888878
 30
0.0
 11
634.4655763921736
 21
75.61969725888878
 31
0.0
  0
LINE
  5
77
330
1F
100
AcDbEntity
  8
0
  6
CONTINUOUS
 62
     7
100
AcDbLine
 10
952.2868967357334
 20
174.1196972588887
 30
0.0
 11
952.99400351692
 21
174.1196972588887
 31
0.0
  0
LINE
  5
78
330
1F
100
AcDbEntity
  8
0
  6
CONTINUOUS
 62
     7
100
AcDbLine
 10
832.0686057847059
 20
76.99802719649536
 30
0.0
 11
821.5797899545468
 21
68.1196972588888
 31
0.0
  0
LINE
  5
79
330
1F
100
AcDbEntity
  8
0
  6
CONTINUOUS
 62
     7
100
AcDbLine
 10
952.99400351692
 20
283.1196972588887
 30
0.0
 11
962.5797899545469
 21
283.1196972588887
 31
0.0
  0
LINE
  5
7A
330
1F
100
AcDbEntity
  8
0
  6
CONTINUOUS
 62
     7
100
AcDbLine
 10
636.8297899545468
 20
99.75689385368067
 30
0.0
 11
636.8297899545468
 21
97.6196972588888
 31
0.0
  0
LINE
  5
7B
330
1F
100
AcDbEntity
  8
0
  6
CONTINUOUS
 62
     7
100
AcDbLine
 10
952.99400351692
 20
196.1196972588887
 30
0.0
 11
962.5797899545469
 21
196.1196972588887
 31
0.0
  0
LINE
  5
7C
330
1F
100
AcDbEntity
  8
0
  6
CONTINUOUS
 62
     7
100
AcDbLine
 10
652.43334334514
 20
-8.880302741111207
 30
0.0
 11
651.7262365639534
 21
-8.880302741111207
 31
0.0
  0
LINE
  5
7D
330
1F
100
AcDbEntity
  8
0
  6
CONTINUOUS
 62
     7
100
AcDbLine
 10
700.2794630289918
 20
41.88199738905329
 30
0.0
 11
700.2835127959189
 21
41.86182602584023
 31
0.0
  0
LINE
  5
7E
330
1F
100
AcDbEntity
  8
0
  6
CONTINUOUS
 62
     7
100
AcDbLine
 10
956.1797899545469
 20
290.1196972588887
 30
0.0
 11
956.1797899545469
 21
286.1196972588887
 31
0.0
  0
LINE
  5
7F
330
1F
100
AcDbEntity
  8
0
  6
CONTINUOUS
 62
     7
100
AcDbLine
 10
626.5797899545468
 20
-8.880302741111207
 30
0.0
 11
626.5797899545468
 21
-4.680302741111197
 31
0.0
  0
LINE
  5
80
330
1F
100
AcDbEntity
  8
0
  6
CONTINUOUS
 62
     7
100
AcDbLine
 10
626.8141045295976
 20
-8.880302741111207
 30
0.0
 11
626.5797899545468
 21
-8.880302741111207
 31
0.0
  0
LINE
  5
81
330
1F
100
AcDbEntity
  8
0
  6
CONTINUOUS
 62
     7
100
AcDbLine
 10
821.5797899545468
 20
-8.880302741111207
 30
0.0
 11
821.43334334514
 21
-8.880302741111207
 31
0.0
  0
LINE
  5
82
330
1F
100
AcDbEntity
  8
0
  6
CONTINUOUS
 62
     7
100
AcDbLine
 10
1036.855812069512
 20
319.4318798674287
 30
0.0
 11
1036.905789954547
 21
319.1196972588888
 31
0.0
  0
LINE
  5
83
330
1F
100
AcDbEntity
  8
0
  6
CONTINUOUS
 62
     7
100
AcDbLine
 10
956.1797899545469
 20
199.1196972588887
 30
0.0
 11
956.1797899545469
 21
203.1196972588887
 31
0.0
  0
LINE
  5
84
330
1F
100
AcDbEntity
  8
0
  6
CONTINUOUS
 62
     7
100
AcDbLine
 10
700.2835127959189
 20
41.86182602584023
 30
0.0
 11
700.2867288807628
 21
41.84148729818666
 31
0.0
  0
LINE
  5
85
330
1F
100
AcDbEntity
  8
0
  6
CONTINUOUS
 62
     7
100
AcDbLine
 10
646.3297899545468
 20
97.61969725888879
 30
0.0
 11
646.3297899545468
 21
99.75689385368065
 31
0.0
  0
LINE
  5
86
330
1F
100
AcDbEntity
  8
0
  6
CONTINUOUS
 62
     7
100
AcDbLine
 10
952.99400351692
 20
261.1196972588888
 30
0.0
 11
956.1797899545469
 21
261.1196972588888
 31
0.0
  0
LINE
  5
87
330
1F
100
AcDbEntity
  8
0
  6
CONTINUOUS
 62
     7
100
AcDbLine
 10
952.99400351692
 20
286.1196972588887
 30
0.0
 11
956.1797899545469
 21
286.1196972588887
 31
0.0
  0
LINE
  5
88
330
1F
100
AcDbEntity
  8
0
  6
CONTINUOUS
 62
     7
100
AcDbLine
 10
952.99400351692
 20
293.1196972588888
 30
0.0
 11
962.5797899545469
 21
293.1196972588888
 31
0.0
  0
LINE
  5
89
330
1F
100
AcDbEntity
  8
0
  6
CONTINUOUS
 62
     7
100
AcDbLine
 10
952.99400351692
 20
258.1196972588888
 30
0.0
 11
952.2868967357334
 21
258.1196972588888
 31
0.0
  0
LINE
  5
8A
330
1F
100
AcDbEntity
  8
0
  6
CONTINUOUS
 62
     7
100
AcDbLine
 10
651.7262365639534
 20
-8.880302741111207
 30
0.0
 11
651.5797899545468
 21
-8.880302741111207
 31
0.0
  0
LINE
  5
8B
330
1F
100
AcDbEntity
  8
0
  6
CONTINUOUS
 62
     7
100
AcDbLine
 10
632.7547142565261
 20
-3.788237319016799
 30
0.0
 11
651.1523871008129
 21
5.894748388502541
 31
0.0
  0
LINE
  5
8C
330
1F
100
AcDbEntity
  8
0
  6
CONTINUOUS
 62
     7
100
AcDbLine
 10
952.99400351692
 20
199.1196972588887
 30
0.0
 11
956.1797899545469
 21
199.1196972588887
 31
0.0
  0
LINE
  5
8D
330
1F
100
AcDbEntity
  8
0
  6
CONTINUOUS
 62
     7
100
AcDbLine
 10
700.2273999471764
 20
42.01781778077666
 30
0.0
 11
700.2371070755459
 21
41.99973642233683
 31
0.0
  0
LINE
  5
8E
330
1F
100
AcDbEntity
  8
0
  6
CONTINUOUS
 62
     7
100
AcDbLine
 10
822.0071928082806
 20
5.894748388502527
 30
0.0
 11
840.4048656525673
 21
-3.788237319016813
 31
0.0
  0
LINE
  5
8F
330
1F
100
AcDbEntity
  8
0
  6
CONTINUOUS
 62
     7
100
AcDbLine
 10
937.5797899545468
 20
195.6196972588887
 30
0.0
 11
944.5797899545469
 21
195.6196972588887
 31
0.0
  0
LINE
  5
90
330
1F
100
AcDbEntity
  8
0
  6
CONTINUOUS
 62
     7
100
AcDbLine
 10
700.1799943851465
 20
42.0872856478077
 30
0.0
 11
700.1930580677048
 21
42.07054142767389
 31
0.0
  0
LINE
  5
91
330
1F
100
AcDbEntity
  8
0
  6
CONTINUOUS
 62
     7
100
AcDbLine
 10
821.4333433451401
 20
-8.880302741111207
 30
0.0
 11
820.7262365639534
 21
-8.880302741111207
 31
0.0
  0
LINE
  5
92
330
1F
100
AcDbEntity
  8
0
  6
CONTINUOUS
 62
     7
100
AcDbLine
 10
1004.924669973987
 20
320.0571917922061
 30
0.0
 11
1004.924862700995
 21
320.0571194999663
 31
0.0
  0
LINE
  5
93
330
1F
100
AcDbEntity
  8
0
  6
CONTINUOUS
 62
     7
100
AcDbLine
 10
651.5797899545468
 20
30.11969725888878
 30
0.0
 11
649.5797899545468
 21
30.11969725888878
 31
0.0
  0
LINE
  5
94
330
1F
100
AcDbEntity
  8
0
  6
CONTINUOUS
 62
     7
100
AcDbLine
 10
821.5797899545468
 20
-8.880302741111207
 30
0.0
 11
822.3797899545467
 21
-8.880302741111207
 31
0.0
  0
LINE
  5
95
330
1F
100
AcDbEntity
  8
0
  6
CONTINUOUS
 62
     7
100
AcDbLine
 10
700.0895432097734
 20
42.17323796289565
 30
0.0
 11
700.1065155612016
 21
42.16020654440015
 31
0.0
  0
LINE
  5
96
330
1F
100
AcDbEntity
  8
0
  6
CONTINUOUS
 62
     7
100
AcDbLine
 10
840.7774627988334
 20
-3.880302741111202
 30
0.0
 11
841.2484191046483
 21
-3.880302741111202
 31
0.0
  0
LINE
  5
97
330
1F
100
AcDbEntity
  8
0
  6
CONTINUOUS
 62
     7
100
AcDbLine
 10
952.2868967357334
 20
293.1196972588888
 30
0.0
 11
952.99400351692
 21
293.1196972588888
 31
0.0
  0
LINE
  5
98
330
1F
100
AcDbEntity
  8
0
  6
CONTINUOUS
 62
     7
100
AcDbLine
 10
942.4249172340063
 20
276.2196972588887
 30
0.0
 11
942.7641809834927
 21
276.2196972588887
 31
0.0
  0
LINE
  5
99
330
1F
100
AcDbEntity
  8
0
  6
CONTINUOUS
 62
     7
100
AcDbLine
 10
700.2053915527752
 20
42.05325228730903
 30
0.0
 11
700.2169597763204
 21
42.03546547239194
 31
0.0
  0
LINE
  5
9A
330
1F
100
AcDbEntity
  8
0
  6
CONTINUOUS
 62
     7
100
AcDbLine
 10
700.291326450978
 20
41.77936827739583
 30
0.0
 11
700.2911230313772
 21
41.75819101188463
 31
0.0
  0
LINE
  5
9B
330
1F
100
AcDbEntity
  8
0
  6
CONTINUOUS
 62
     7
100
AcDbLine
 10
942.7641809834927
 20
276.2196972588887
 30
0.0
 11
942.7641809834927
 21
275.0196972588888
 31
0.0
  0
LINE
  5
9C
330
1F
100
AcDbEntity
  8
0
  6
CONTINUOUS
 62
     7
100
AcDbLine
 10
700.2371070755459
 20
41.99973642233683
 30
0.0
 11
700.2460576309647
 21
41.98126879455024
 31
0.0
  0
LINE
  5
9D
330
1F
100
AcDbEntity
  8
0
  6
CONTINUOUS
 62
     7
100
AcDbLine
 10
952.99400351692
 20
171.1196972588887
 30
0.0
 11
952.2868967357334
 21
171.1196972588887
 31
0.0
  0
LINE
  5
9E
330
1F
100
AcDbEntity
  8
0
  6
CONTINUOUS
 62
     7
100
AcDbLine
 10
942.7641809834927
 20
278.0696972588888
 30
0.0
 11
942.7641809834927
 21
277.9950919629327
 31
0.0
  0
LINE
  5
9F
330
1F
100
AcDbEntity
  8
0
  6
CONTINUOUS
 62
     7
100
AcDbLine
 10
700.1223142409618
 20
42.14696724117007
 30
0.0
 11
700.1375599981709
 21
42.13306807509186
 31
0.0
  0
LINE
  5
A0
330
1F
100
AcDbEntity
  8
0
  6
CONTINUOUS
 62
     7
100
AcDbLine
 10
952.2868967357334
 20
181.1196972588888
 30
0.0
 11
952.99400351692
 21
181.1196972588888
 31
0.0
  0
LINE
  5
A1
330
1F
100
AcDbEntity
  8
0
  6
CONTINUOUS
 62
     7
100
AcDbLine
 10
700.289105391743
 20
41.82103337101501
 30
0.0
 11
700.2906364370792
 21
41.80051640924768
 31
0.0
  0
LINE
  5
A2
330
1F
100
AcDbEntity
  8
0
  6
CONTINUOUS
 62
     7
100
AcDbLine
 10
946.0797899545469
 20
280.3696972588888
 30
0.0
 11
946.0797899545469
 21
270.8696972588888
 31
0.0
  0
LINE
  5
A3
330
1F
100
AcDbEntity
  8
0
  6
CONTINUOUS
 62
     7
100
AcDbLine
 10
952.99400351692
 20
203.1196972588887
 30
0.0
 11
956.1797899545469
 21
203.1196972588887
 31
0.0
  0
LINE
  5
A4
330
1F
100
AcDbEntity
  8
0
  6
CONTINUOUS
 62
     7
100
AcDbLine
 10
1045.734909935106
 20
144.1822027255714
 30
0.0
 11
1045.734717208099
 21
144.1822750178112
 31
0.0
  0
LINE
  5
A5
330
1F
100
AcDbEntity
  8
0
  6
CONTINUOUS
 62
     7
100
AcDbLine
 10
699.7939835185293
 20
42.2696972588888
 30
0.0
 11
698.2655963905642
 21
42.2696972588888
 31
0.0
  0
LINE
  5
A6
330
1F
100
AcDbEntity
  8
0
  6
CONTINUOUS
 62
     7
100
AcDbLine
 10
700.2618108183159
 20
41.9427756776178
 30
0.0
 11
700.2685549569926
 21
41.92276606087139
 31
0.0
  0
LINE
  5
A7
330
1F
100
AcDbEntity
  8
0
  6
CONTINUOUS
 62
     7
100
AcDbLine
 10
700.2906364370792
 20
41.80051640924768
 30
0.0
 11
700.291326450978
 21
41.77936827739583
 31
0.0
  0
LINE
  5
A8
330
1F
100
AcDbEntity
  8
0
  6
CONTINUOUS
 62
     7
100
AcDbLine
 10
841.8141045295974
 20
-8.880302741111207
 30
0.0
 11
841.2484191046483
 21
-8.880302741111207
 31
0.0
  0
LINE
  5
A9
330
1F
100
AcDbEntity
  8
0
  6
CONTINUOUS
 62
     7
100
AcDbLine
 10
627.3797899545468
 20
-3.880302741111202
 30
0.0
 11
631.9111608044453
 21
-3.880302741111202
 31
0.0
  0
LINE
  5
AA
330
1F
100
AcDbEntity
  8
0
  6
CONTINUOUS
 62
     7
100
AcDbLine
 10
700.1065155612016
 20
42.16020654440015
 30
0.0
 11
700.1223142409618
 21
42.14696724117007
 31
0.0
  0
LINE
  5
AB
330
1F
100
AcDbEntity
  8
0
  6
CONTINUOUS
 62
     7
100
AcDbLine
 10
651.5797899545468
 20
-8.880302741111207
 30
0.0
 11
651.5797899545468
 21
87.5196972588888
 31
0.0
  0
LINE
  5
AC
330
1F
100
AcDbEntity
  8
0
  6
CONTINUOUS
 62
     7
100
AcDbLine
 10
631.9111608044453
 20
-3.880302741111202
 30
0.0
 11
632.3821171102601
 21
-3.880302741111202
 31
0.0
  0
LINE
  5
AD
330
1F
100
AcDbEntity
  8
0
  6
CONTINUOUS
 62
     7
100
AcDbLine
 10
1046.405789954546
 20
145.1196972588887
 30
0.0
 11
1046.355812069505
 21
144.8075146503241
 31
0.0
  0
LINE
  5
AE
330
1F
100
AcDbEntity
  8
0
  6
CONTINUOUS
 62
     7
100
AcDbLine
 10
1004.253789954547
 20
319.1196972588888
 30
0.0
 11
1004.303767839589
 21
319.4318798674534
 31
0.0
  0
LINE
  5
AF
330
1F
100
AcDbEntity
  8
0
  6
CONTINUOUS
 62
     7
100
AcDbLine
 10
944.5797899545469
 20
195.6196972588887
 30
0.0
 11
947.5797899545469
 21
195.6196972588887
 31
0.0
  0
LINE
  5
B0
330
1F
100
AcDbEntity
  8
0
  6
CONTINUOUS
 62
     7
100
AcDbLine
 10
632.0797899545468
 20
97.6196972588888
 30
0.0
 11
632.0797899545468
 21
96.1196972588888
 31
0.0
  0
LINE
  5
B1
330
1F
100
AcDbEntity
  8
0
  6
CONTINUOUS
 62
     7
100
AcDbLine
 10
962.5797899545469
 20
181.1196972588888
 30
0.0
 11
967.7373087378379
 21
181.1196972588888
 31
0.0
  0
LINE
  5
B2
330
1F
100
AcDbEntity
  8
0
  6
CONTINUOUS
 62
     7
100
AcDbLine
 10
952.99400351692
 20
265.1196972588887
 30
0.0
 11
956.1797899545469
 21
265.1196972588887
 31
0.0
  0
LINE
  5
B3
330
1F
100
AcDbEntity
  8
0
  6
CONTINUOUS
 62
     7
100
AcDbLine
 10
943.9425933597549
 20
280.3696972588888
 30
0.0
 11
943.9425933597549
 21
270.8696972588888
 31
0.0
  0
LINE
  5
B4
330
1F
100
AcDbEntity
  8
0
  6
CONTINUOUS
 62
     7
100
AcDbLine
 10
967.7373087378379
 20
283.1196972588887
 30
0.0
 11
967.7373087378379
 21
286.5196972588887
 31
0.0
  0
LINE
  5
B5
330
1F
100
AcDbEntity
  8
0
  6
CONTINUOUS
 62
     7
100
AcDbLine
 10
967.9797899545468
 20
199.5196972588888
 30
0.0
 11
967.7373087378379
 21
199.5196972588888
 31
0.0
  0
LINE
  5
B6
330
1F
100
AcDbEntity
  8
0
  6
CONTINUOUS
 62
     7
100
AcDbLine
 10
710.7439835185294
 20
42.2696972588888
 30
0.0
 11
706.6655963905641
 21
42.2696972588888
 31
0.0
  0
LINE
  5
B7
330
1F
100
AcDbEntity
  8
0
  6
CONTINUOUS
 62
     7
100
AcDbLine
 10
967.7373087378379
 20
196.1196972588888
 30
0.0
 11
967.7373087378379
 21
199.5196972588888
 31
0.0
  0
LINE
  5
B8
330
1F
100
AcDbEntity
  8
0
  6
CONTINUOUS
 62
     7
100
AcDbLine
 10
952.99400351692
 20
181.1196972588888
 30
0.0
 11
962.5797899545469
 21
181.1196972588888
 31
0.0
  0
LINE
  5
B9
330
1F
100
AcDbEntity
  8
0
  6
CONTINUOUS
 62
     7
100
AcDbLine
 10
967.7373087378379
 20
293.1196972588887
 30
0.0
 11
967.7373087378379
 21
289.7196972588887
 31
0.0
  0
LINE
  5
BA
330
1F
100
AcDbEntity
  8
0
  6
CONTINUOUS
 62
     7
100
AcDbLine
 10
946.0797899545468
 20
180.6196972588887
 30
0.0
 11
946.0797899545468
 21
181.6196972588887
 31
0.0
  0
LINE
  5
BB
330
1F
100
AcDbEntity
  8
0
  6
CONTINUOUS
 62
     7
100
AcDbLine
 10
962.5797899545469
 20
206.1196972588887
 30
0.0
 11
967.7373087378379
 21
206.1196972588887
 31
0.0
  0
LINE
  5
BC
330
1F
100
AcDbEntity
  8
0
  6
CONTINUOUS
 62
     7
100
AcDbLine
 10
1035.905789954546
 20
320.1196972588888
 30
0.0
 11
1005.253789954548
 21
320.1196972588887
 31
0.0
  0
LINE
  5
BD
330
1F
100
AcDbEntity
  8
0
  6
CONTINUOUS
 62
     7
100
AcDbLine
 10
967.9797899545468
 20
286.5196972588887
 30
0.0
 11
967.7373087378379
 21
286.5196972588887
 31
0.0
  0
LINE
  5
BE
330
1F
100
AcDbEntity
  8
0
  6
CONTINUOUS
 62
     7
100
AcDbLine
 10
962.5797899545469
 20
258.1196972588888
 30
0.0
 11
967.7814723746875
 21
258.1196972588888
 31
0.0
  0
LINE
  5
BF
330
1F
100
AcDbEntity
  8
0
  6
CONTINUOUS
 62
     7
100
AcDbLine
 10
962.5797899545469
 20
293.1196972588888
 30
0.0
 11
967.7373087378379
 21
293.1196972588888
 31
0.0
  0
LINE
  5
C0
330
1F
100
AcDbEntity
  8
0
  6
CONTINUOUS
 62
     7
100
AcDbLine
 10
952.99400351692
 20
206.1196972588887
 30
0.0
 11
962.5797899545469
 21
206.1196972588887
 31
0.0
  0
LINE
  5
C1
330
1F
100
AcDbEntity
  8
0
  6
CONTINUOUS
 62
     7
100
AcDbLine
 10
967.9797899545468
 20
289.7196972588887
 30
0.0
 11
967.7373087378379
 21
289.7196972588887
 31
0.0
  0
LINE
  5
C2
330
1F
100
AcDbEntity
  8
0
  6
CONTINUOUS
 62
     7
100
AcDbLine
 10
952.2868967357334
 20
258.1196972588888
 30
0.0
 11
947.8726831733602
 21
258.1196972588888
 31
0.0
  0
LINE
  5
C3
330
1F
100
AcDbEntity
  8
0
  6
CONTINUOUS
 62
     7
100
AcDbLine
 10
952.99400351692
 20
268.1196972588887
 30
0.0
 11
962.5797899545469
 21
268.1196972588887
 31
0.0
  0
LINE
  5
C4
330
1F
100
AcDbEntity
  8
0
  6
CONTINUOUS
 62
     7
100
AcDbLine
 10
967.9797899545468
 20
202.7196972588888
 30
0.0
 11
967.7373087378379
 21
202.7196972588888
 31
0.0
  0
LINE
  5
C5
330
1F
100
AcDbEntity
  8
0
  6
CONTINUOUS
 62
     7
100
AcDbLine
 10
962.5797899545469
 20
283.1196972588887
 30
0.0
 11
966.7014600169402
 21
283.1196972588887
 31
0.0
  0
LINE
  5
C6
330
1F
100
AcDbEntity
  8
0
  6
CONTINUOUS
 62
     7
100
AcDbLine
 10
946.0797899545469
 20
195.6196972588887
 30
0.0
 11
946.0797899545469
 21
196.6196972588887
 31
0.0
  0
LINE
  5
C7
330
1F
100
AcDbEntity
  8
0
  6
CONTINUOUS
 62
     7
100
AcDbLine
 10
967.9797899545468
 20
261.5196972588888
 30
0.0
 11
967.7814723746875
 21
261.5196972588888
 31
0.0
  0
LINE
  5
C8
330
1F
100
AcDbEntity
  8
0
  6
CONTINUOUS
 62
     7
100
AcDbLine
 10
967.7373087378379
 20
268.1196972588887
 30
0.0
 11
967.7373087378379
 21
264.7196972588887
 31
0.0
  0
LINE
  5
C9
330
1F
100
AcDbEntity
  8
0
  6
CONTINUOUS
 62
     7
100
AcDbLine
 10
711.2356087854945
 20
41.69774968141931
 30
0.0
 11
711.2325065055157
 21
41.67962606781694
 31
0.0
  0
LINE
  5
CA
330
1F
100
AcDbEntity
  8
0
  6
CONTINUOUS
 62
     7
100
AcDbLine
 10
952.99400351692
 20
283.1196972588887
 30
0.0
 11
952.2868967357334
 21
283.1196972588887
 31
0.0
  0
LINE
  5
CB
330
1F
100
AcDbEntity
  8
0
  6
CONTINUOUS
 62
     7
100
AcDbLine
 10
952.2868967357334
 20
206.1196972588887
 30
0.0
 11
952.99400351692
 21
206.1196972588887
 31
0.0
  0
LINE
  5
CC
330
1F
100
AcDbEntity
  8
0
  6
CONTINUOUS
 62
     7
100
AcDbLine
 10
942.7641809834927
 20
273.2443025548448
 30
0.0
 11
942.7641809834927
 21
273.1696972588887
 31
0.0
  0
LINE
  5
CD
330
1F
100
AcDbEntity
  8
0
  6
CONTINUOUS
 62
     7
100
AcDbLine
 10
967.7373087378379
 20
206.1196972588888
 30
0.0
 11
967.7373087378379
 21
202.7196972588888
 31
0.0
  0
LINE
  5
CE
330
1F
100
AcDbEntity
  8
0
  6
CONTINUOUS
 62
     7
100
AcDbLine
 10
962.5797899545469
 20
268.1196972588887
 30
0.0
 11
967.7373087378379
 21
268.1196972588887
 31
0.0
  0
LINE
  5
CF
330
1F
100
AcDbEntity
  8
0
  6
CONTINUOUS
 62
     7
100
AcDbLine
 10
967.7373087378379
 20
181.1196972588888
 30
0.0
 11
967.7373087378379
 21
177.7196972588887
 31
0.0
  0
LINE
  5
D0
330
1F
100
AcDbEntity
  8
0
  6
CONTINUOUS
 62
     7
100
AcDbLine
 10
1030.079789954547
 20
145.1196972588887
 30
0.0
 11
1013.579789954547
 21
145.1196972588887
 31
0.0
  0
LINE
  5
D1
330
1F
100
AcDbEntity
  8
0
  6
CONTINUOUS
 62
     7
100
AcDbLine
 10
1013.803767839582
 20
144.8075146503471
 30
0.0
 11
1013.753789954547
 21
145.1196972588887
 31
0.0
  0
LINE
  5
D2
330
1F
100
AcDbEntity
  8
0
  6
CONTINUOUS
 62
     7
100
AcDbLine
 10
952.99400351692
 20
203.1196972588887
 30
0.0
 11
952.2868967357334
 21
203.1196972588887
 31
0.0
  0
LINE
  5
D3
330
1F
100
AcDbEntity
  8
0
  6
CONTINUOUS
 62
     7
100
AcDbLine
 10
947.5797899545469
 20
181.6196972588887
 30
0.0
 11
944.5797899545469
 21
181.6196972588887
 31
0.0
  0
LINE
  5
D4
330
1F
100
AcDbEntity
  8
0
  6
CONTINUOUS
 62
     7
100
AcDbLine
 10
952.2868967357334
 20
286.1196972588887
 30
0.0
 11
952.99400351692
 21
286.1196972588887
 31
0.0
  0
LINE
  5
D5
330
1F
100
AcDbEntity
  8
0
  6
CONTINUOUS
 62
     7
100
AcDbLine
 10
952.99400351692
 20
174.1196972588887
 30
0.0
 11
956.1797899545469
 21
174.1196972588887
 31
0.0
  0
LINE
  5
D6
330
1F
100
AcDbEntity
  8
0
  6
CONTINUOUS
 62
     7
100
AcDbLine
 10
952.2868967357334
 20
268.1196972588887
 30
0.0
 11
952.99400351692
 21
268.1196972588887
 31
0.0
  0
LINE
  5
D7
330
1F
100
AcDbEntity
  8
0
  6
CONTINUOUS
 62
     7
100
AcDbLine
 10
967.7814723746875
 20
258.1196972588887
 30
0.0
 11
967.7814723746875
 21
261.5196972588888
 31
0.0
  0
LINE
  5
D8
330
1F
100
AcDbEntity
  8
0
  6
CONTINUOUS
 62
     7
100
AcDbLine
 10
1014.753789954547
 20
144.1196972588888
 30
0.0
 11
1045.405789954546
 21
144.1196972588887
 31
0.0
  0
LINE
  5
D9
330
1F
100
AcDbEntity
  8
0
  6
CONTINUOUS
 62
     7
100
AcDbLine
 10
952.99400351692
 20
178.1196972588887
 30
0.0
 11
952.2868967357334
 21
178.1196972588887
 31
0.0
  0
LINE
  5
DA
330
1F
100
AcDbEntity
  8
0
  6
CONTINUOUS
 62
     7
100
AcDbLine
 10
1037.079789954547
 20
319.1196972588888
 30
0.0
 11
1020.579789954547
 21
319.1196972588888
 31
0.0
  0
LINE
  5
DB
330
1F
100
AcDbEntity
  8
0
  6
CONTINUOUS
 62
     7
100
AcDbLine
 10
942.7641809834927
 20
275.0196972588888
 30
0.0
 11
942.4249172340063
 21
275.0196972588888
 31
0.0
  0
LINE
  5
DC
330
1F
100
AcDbEntity
  8
0
  6
CONTINUOUS
 62
     7
100
AcDbLine
 10
962.5797899545469
 20
171.1196972588887
 30
0.0
 11
967.7814723746875
 21
171.1196972588887
 31
0.0
  0
LINE
  5
DD
330
1F
100
AcDbEntity
  8
0
  6
CONTINUOUS
 62
     7
100
AcDbLine
 10
967.9797899545468
 20
177.7196972588887
 30
0.0
 11
967.7373087378379
 21
177.7196972588887
 31
0.0
  0
LINE
  5
DE
330
1F
100
AcDbEntity
  8
0
  6
CONTINUOUS
 62
     7
100
AcDbLine
 10
952.2868967357334
 20
199.1196972588887
 30
0.0
 11
952.99400351692
 21
199.1196972588887
 31
0.0
  0
LINE
  5
DF
330
1F
100
AcDbEntity
  8
0
  6
CONTINUOUS
 62
     7
100
AcDbLine
 10
967.9797899545468
 20
264.7196972588887
 30
0.0
 11
967.7373087378379
 21
264.7196972588887
 31
0.0
  0
LINE
  5
E0
330
1F
100
AcDbEntity
  8
0
  6
CONTINUOUS
 62
     7
100
AcDbLine
 10
967.7814723746875
 20
171.1196972588888
 30
0.0
 11
967.7814723746875
 21
174.5196972588888
 31
0.0
  0
LINE
  5
E1
330
1F
100
AcDbEntity
  8
0
  6
CONTINUOUS
 62
     7
100
AcDbLine
 10
952.99400351692
 20
178.1196972588887
 30
0.0
 11
956.1797899545469
 21
178.1196972588887
 31
0.0
  0
LINE
  5
E2
330
1F
100
AcDbEntity
  8
0
  6
CONTINUOUS
 62
     7
100
AcDbLine
 10
952.99400351692
 20
258.1196972588888
 30
0.0
 11
962.5797899545469
 21
258.1196972588888
 31
0.0
  0
LINE
  5
E3
330
1F
100
AcDbEntity
  8
0
  6
CONTINUOUS
 62
     7
100
AcDbLine
 10
952.2868967357334
 20
261.1196972588888
 30
0.0
 11
952.99400351692
 21
261.1196972588888
 31
0.0
  0
LINE
  5
E4
330
1F
100
AcDbEntity
  8
0
  6
CONTINUOUS
 62
     7
100
AcDbLine
 10
1020.579789954547
 20
319.1196972588888
 30
0.0
 11
1004.079789954547
 21
319.1196972588888
 31
0.0
  0
LINE
  5
E5
330
1F
100
AcDbEntity
  8
0
  6
CONTINUOUS
 62
     7
100
AcDbLine
 10
710.9854417362477
 20
42.20779209893445
 30
0.0
 11
711.0039559816119
 21
42.19706338422357
 31
0.0
  0
LINE
  5
E6
330
1F
100
AcDbEntity
  8
0
  6
CONTINUOUS
 62
     7
100
AcDbLine
 10
711.1960576309648
 20
41.98126879455023
 30
0.0
 11
711.2042280829692
 21
41.96246229489467
 31
0.0
  0
LINE
  5
E7
330
1F
100
AcDbEntity
  8
0
  6
CONTINUOUS
 62
     7
100
AcDbLine
 10
937.5797899545468
 20
181.6196972588887
 30
0.0
 11
944.5797899545469
 21
181.6196972588887
 31
0.0
  0
LINE
  5
E8
330
1F
100
AcDbEntity
  8
0
  6
CONTINUOUS
 62
     7
100
AcDbLine
 10
711.233512795919
 20
41.86182602584022
 30
0.0
 11
711.2367288807627
 21
41.84148729818666
 31
0.0
  0
LINE
  5
E9
330
1F
100
AcDbEntity
  8
0
  6
CONTINUOUS
 62
     7
100
AcDbLine
 10
952.99400351692
 20
171.1196972588887
 30
0.0
 11
962.5797899545469
 21
171.1196972588887
 31
0.0
  0
LINE
  5
EA
330
1F
100
AcDbEntity
  8
0
  6
CONTINUOUS
 62
     7
100
AcDbLine
 10
1046.579789954547
 20
145.1196972588887
 30
0.0
 11
1030.079789954547
 21
145.1196972588887
 31
0.0
  0
LINE
  5
EB
330
1F
100
AcDbEntity
  8
0
  6
CONTINUOUS
 62
     7
100
AcDbLine
 10
952.99400351692
 20
196.1196972588887
 30
0.0
 11
952.2868967357334
 21
196.1196972588887
 31
0.0
  0
LINE
  5
EC
330
1F
100
AcDbEntity
  8
0
  6
CONTINUOUS
 62
     7
100
AcDbLine
 10
956.1797899545469
 20
174.1196972588887
 30
0.0
 11
956.1797899545469
 21
178.1196972588887
 31
0.0
  0
LINE
  5
ED
330
1F
100
AcDbEntity
  8
0
  6
CONTINUOUS
 62
     7
100
AcDbLine
 10
956.1797899545469
 20
265.1196972588887
 30
0.0
 11
956.1797899545469
 21
261.1196972588888
 31
0.0
  0
LINE
  5
EE
330
1F
100
AcDbEntity
  8
0
  6
CONTINUOUS
 62
     7
100
AcDbLine
 10
962.5797899545469
 20
196.1196972588887
 30
0.0
 11
966.7014600169402
 21
196.1196972588887
 31
0.0
  0
LINE
  5
EF
330
1F
100
AcDbEntity
  8
0
  6
CONTINUOUS
 62
     7
100
AcDbLine
 10
967.9797899545468
 20
174.5196972588888
 30
0.0
 11
967.7814723746875
 21
174.5196972588888
 31
0.0
  0
LINE
  5
F0
330
1F
100
AcDbEntity
  8
0
  6
CONTINUOUS
 62
     7
100
AcDbLine
 10
711.2367288807627
 20
41.84148729818666
 30
0.0
 11
711.2391053917429
 21
41.821033371015
 31
0.0
  0
LINE
  5
F1
330
1F
100
AcDbEntity
  8
0
  6
CONTINUOUS
 62
     7
100
AcDbLine
 10
711.2118108183159
 20
41.94277567761779
 30
0.0
 11
711.2185549569925
 21
41.92276606087138
 31
0.0
  0
LINE
  5
F2
330
1F
100
AcDbEntity
  8
0
  6
CONTINUOUS
 62
     7
100
AcDbLine
 10
710.9095720206644
 20
42.24165607369903
 30
0.0
 11
710.9290448967762
 21
42.23438906846925
 31
0.0
  0
LINE
  5
F3
330
1F
100
AcDbEntity
  8
0
  6
CONTINUOUS
 62
     7
100
AcDbLine
 10
775.8495536654871
 20
15.26993942317381
 30
0.0
 11
775.8794341020083
 21
15.30054681000657
 31
0.0
  0
LINE
  5
F4
330
1F
100
AcDbEntity
  8
0
  6
CONTINUOUS
 62
     7
100
AcDbLine
 10
775.9430360705549
 20
15.35784843520341
 30
0.0
 11
775.9765835221509
 21
15.38438558353487
 31
0.0
  0
LINE
  5
F5
330
1F
100
AcDbEntity
  8
0
  6
CONTINUOUS
 62
     7
100
AcDbLine
 10
776.0102466269528
 20
15.40877165708282
 30
0.0
 11
776.0449237223874
 21
15.43175807808223
 31
0.0
  0
LINE
  5
F6
330
1F
100
AcDbEntity
  8
0
  6
CONTINUOUS
 62
     7
100
AcDbLine
 10
775.9765835221509
 20
15.38438558353487
 30
0.0
 11
776.0102466269528
 21
15.40877165708282
 31
0.0
  0
LINE
  5
F7
330
1F
100
AcDbEntity
  8
0
  6
CONTINUOUS
 62
     7
100
AcDbLine
 10
711.1871070755459
 20
41.99973642233682
 30
0.0
 11
711.1960576309648
 21
41.98126879455023
 31
0.0
  0
LINE
  5
F8
330
1F
100
AcDbEntity
  8
0
  6
CONTINUOUS
 62
     7
100
AcDbLine
 10
711.2391053917429
 20
41.821033371015
 30
0.0
 11
711.2406364370793
 21
41.80051640924766
 31
0.0
  0
LINE
  5
F9
330
1F
100
AcDbEntity
  8
0
  6
CONTINUOUS
 62
     7
100
AcDbLine
 10
710.8062117293913
 20
42.26584199731583
 30
0.0
 11
710.8267777695969
 21
42.26285137254571
 31
0.0
  0
LINE
  5
FA
330
1F
100
AcDbEntity
  8
0
  6
CONTINUOUS
 62
     7
100
AcDbLine
 10
711.2244443951631
 20
41.90248833467626
 30
0.0
 11
711.2294630289917
 21
41.88199738905328
 31
0.0
  0
LINE
  5
FB
330
1F
100
AcDbEntity
  8
0
  6
CONTINUOUS
 62
     7
100
AcDbLine
 10
710.8686277267454
 20
42.2540219174254
 30
0.0
 11
710.8892416400258
 21
42.24827449639653
 31
0.0
  0
LINE
  5
FC
330
1F
100
AcDbEntity
  8
0
  6
CONTINUOUS
 62
     7
100
AcDbLine
 10
776.194427337828
 20
15.50964173244004
 30
0.0
 11
776.2342738203752
 21
15.52530601829279
 31
0.0
  0
LINE
  5
FD
330
1F
100
AcDbEntity
  8
0
  6
CONTINUOUS
 62
     7
100
AcDbLine
 10
776.3955703086905
 20
15.56982785505893
 30
0.0
 11
776.4365617760317
 21
15.5766469151588
 31
0.0
  0
LINE
  5
FE
330
1F
100
AcDbEntity
  8
0
  6
CONTINUOUS
 62
     7
100
AcDbLine
 10
776.5216695690074
 20
15.58528123785127
 30
0.0
 11
776.5644419134628
 21
15.58686652303196
 31
0.0
  0
LINE
  5
FF
330
1F
100
AcDbEntity
  8
0
  6
CONTINUOUS
 62
     7
100
AcDbLine
 10
711.0039559816119
 20
42.19706338422357
 30
0.0
 11
711.0220065780153
 21
42.18553445752371
 31
0.0
  0
LINE
  5
100
330
1F
100
AcDbEntity
  8
0
  6
CONTINUOUS
 62
     7
100
AcDbLine
 10
711.2400293941047
 20
41.73704091020166
 30
0.0
 11
711.2380487549888
 21
41.71597426983462
 31
0.0
  0
LINE
  5
101
330
1F
100
AcDbEntity
  8
0
  6
CONTINUOUS
 62
     7
100
AcDbLine
 10
711.1669597763205
 20
42.03546547239193
 30
0.0
 11
711.1773999471765
 21
42.01781778077665
 31
0.0
  0
LINE
  5
102
330
1F
100
AcDbEntity
  8
0
  6
CONTINUOUS
 62
     7
100
AcDbLine
 10
711.1299943851466
 20
42.08728564780769
 30
0.0
 11
711.1430580677048
 21
42.07054142767389
 31
0.0
  0
LINE
  5
103
330
1F
100
AcDbEntity
  8
0
  6
CONTINUOUS
 62
     7
100
AcDbLine
 10
710.9670299524765
 20
42.21743593098556
 30
0.0
 11
710.9854417362477
 21
42.20779209893445
 31
0.0
  0
LINE
  5
104
330
1F
100
AcDbEntity
  8
0
  6
CONTINUOUS
 62
     7
100
AcDbLine
 10
710.8477873976575
 20
42.25888524130276
 30
0.0
 11
710.8686277267454
 21
42.2540219174254
 31
0.0
  0
LINE
  5
105
330
1F
100
AcDbEntity
  8
0
  6
CONTINUOUS
 62
     7
100
AcDbLine
 10
710.9482142733499
 20
42.22630863753096
 30
0.0
 11
710.9670299524765
 21
42.21743593098556
 31
0.0
  0
LINE
  5
106
330
1F
100
AcDbEntity
  8
0
  6
CONTINUOUS
 62
     7
100
AcDbLine
 10
711.1773999471765
 20
42.01781778077665
 30
0.0
 11
711.1871070755459
 21
41.99973642233682
 31
0.0
  0
LINE
  5
107
330
1F
100
AcDbEntity
  8
0
  6
CONTINUOUS
 62
     7
100
AcDbLine
 10
776.1552854344498
 20
15.49229168557874
 30
0.0
 11
776.194427337828
 21
15.50964173244004
 31
0.0
  0
LINE
  5
108
330
1F
100
AcDbEntity
  8
0
  6
CONTINUOUS
 62
     7
100
AcDbLine
 10
711.0395432097735
 20
42.17323796289565
 30
0.0
 11
711.0565155612016
 21
42.16020654440014
 31
0.0
  0
LINE
  5
109
330
1F
100
AcDbEntity
  8
0
  6
CONTINUOUS
 62
     7
100
AcDbLine
 10
711.087559998171
 20
42.13306807509185
 30
0.0
 11
711.1022135388795
 21
42.11854593307566
 31
0.0
  0
LINE
  5
10A
330
1F
100
AcDbEntity
  8
0
  6
CONTINUOUS
 62
     7
100
AcDbLine
 10
775.7465249746559
 20
15.13957278142422
 30
0.0
 11
775.7702194751945
 21
15.17372603226447
 31
0.0
  0
LINE
  5
10B
330
1F
100
AcDbEntity
  8
0
  6
CONTINUOUS
 62
     7
100
AcDbLine
 10
775.8218004582685
 20
15.2389937803461
 30
0.0
 11
775.8495536654871
 21
15.26993942317381
 31
0.0
  0
LINE
  5
10C
330
1F
100
AcDbEntity
  8
0
  6
CONTINUOUS
 62
     7
100
AcDbLine
 10
777.3953171406442
 20
15.16571829748271
 30
0.0
 11
777.4193183534289
 21
15.13031166338116
 31
0.0
  0
LINE
  5
10D
330
1F
100
AcDbEntity
  8
0
  6
CONTINUOUS
 62
     7
100
AcDbLine
 10
757.2850640735472
 20
-2.660974569877961
 30
0.0
 11
757.2531583738563
 21
-2.634333691152374
 31
0.0
  0
LINE
  5
10E
330
1F
100
AcDbEntity
  8
0
  6
CONTINUOUS
 62
     7
100
AcDbLine
 10
710.7855219873746
 20
42.2679818312986
 30
0.0
 11
710.8062117293913
 21
42.26584199731583
 31
0.0
  0
LINE
  5
10F
330
1F
100
AcDbEntity
  8
0
  6
CONTINUOUS
 62
     7
100
AcDbLine
 10
711.1162355691378
 20
42.10343770203163
 30
0.0
 11
711.1299943851466
 21
42.08728564780769
 31
0.0
  0
LINE
  5
110
330
1F
100
AcDbEntity
  8
0
  6
CONTINUOUS
 62
     7
100
AcDbLine
 10
776.4790038117328
 20
15.58187239664341
 30
0.0
 11
776.5216695690074
 21
15.58528123785127
 31
0.0
  0
LINE
  5
111
330
1F
100
AcDbEntity
  8
0
  6
CONTINUOUS
 62
     7
100
AcDbLine
 10
711.2413264509779
 20
41.77936827739581
 30
0.0
 11
711.2411230313771
 21
41.7581910118846
 31
0.0
  0
LINE
  5
112
330
1F
100
AcDbEntity
  8
0
  6
CONTINUOUS
 62
     7
100
AcDbLine
 10
757.1927493322106
 20
-2.577144702107709
 30
0.0
 11
757.1644026282174
 21
-2.546744484682936
 31
0.0
  0
LINE
  5
113
330
1F
100
AcDbEntity
  8
0
  6
CONTINUOUS
 62
     7
100
AcDbLine
 10
777.3154293005917
 20
15.26439964862072
 30
0.0
 11
777.3429200570135
 21
15.23327024556294
 31
0.0
  0
LINE
  5
114
330
1F
100
AcDbEntity
  8
0
  6
CONTINUOUS
 62
     7
100
AcDbLine
 10
775.8794341020083
 20
15.30054681000657
 30
0.0
 11
775.9106239171025
 21
15.32987599568854
 31
0.0
  0
LINE
  5
115
330
1F
100
AcDbEntity
  8
0
  6
CONTINUOUS
 62
     7
100
AcDbLine
 10
777.157919740881
 20
15.40298559632447
 30
0.0
 11
777.192283908999
 21
15.37751744956309
 31
0.0
  0
LINE
  5
116
330
1F
100
AcDbEntity
  8
0
  6
CONTINUOUS
 62
     7
100
AcDbLine
 10
776.2342738203752
 20
15.52530601829279
 30
0.0
 11
776.274716644506
 21
15.53923919044049
 31
0.0
  0
LINE
  5
117
330
1F
100
AcDbEntity
  8
0
  6
CONTINUOUS
 62
     7
100
AcDbLine
 10
710.8892416400258
 20
42.24827449639653
 30
0.0
 11
710.9095720206644
 21
42.24165607369903
 31
0.0
  0
LINE
  5
118
330
1F
100
AcDbEntity
  8
0
  6
CONTINUOUS
 62
     7
100
AcDbLine
 10
711.2185549569925
 20
41.92276606087138
 30
0.0
 11
711.2244443951631
 21
41.90248833467626
 31
0.0
  0
LINE
  5
119
330
1F
100
AcDbEntity
  8
0
  6
CONTINUOUS
 62
     7
100
AcDbLine
 10
775.9106239171025
 20
15.32987599568854
 30
0.0
 11
775.9430360705549
 21
15.35784843520341
 31
0.0
  0
LINE
  5
11A
330
1F
100
AcDbEntity
  8
0
  6
CONTINUOUS
 62
     7
100
AcDbLine
 10
776.4365617760317
 20
15.5766469151588
 30
0.0
 11
776.4790038117328
 21
15.58187239664341
 31
0.0
  0
LINE
  5
11B
330
1F
100
AcDbEntity
  8
0
  6
CONTINUOUS
 62
     7
100
AcDbLine
 10
710.9290448967762
 20
42.23438906846925
 30
0.0
 11
710.9482142733499
 21
42.22630863753096
 31
0.0
  0
LINE
  5
11C
330
1F
100
AcDbEntity
  8
0
  6
CONTINUOUS
 62
     7
100
AcDbLine
 10
711.0565155612016
 20
42.16020654440014
 30
0.0
 11
711.0723142409619
 21
42.14696724117006
 31
0.0
  0
LINE
  5
11D
330
1F
100
AcDbEntity
  8
0
  6
CONTINUOUS
 62
     7
100
AcDbLine
 10
711.2411230313771
 20
41.7581910118846
 30
0.0
 11
711.2400293941047
 21
41.73704091020166
 31
0.0
  0
LINE
  5
11E
330
1F
100
AcDbEntity
  8
0
  6
CONTINUOUS
 62
     7
100
AcDbLine
 10
776.3548623947001
 20
15.56130399966044
 30
0.0
 11
776.3955703086905
 21
15.56982785505893
 31
0.0
  0
LINE
  5
11F
330
1F
100
AcDbEntity
  8
0
  6
CONTINUOUS
 62
     7
100
AcDbLine
 10
776.0805239241226
 20
15.45328716352559
 30
0.0
 11
776.1169563478263
 21
15.47330123040537
 31
0.0
  0
LINE
  5
120
330
1F
100
AcDbEntity
  8
0
  6
CONTINUOUS
 62
     7
100
AcDbLine
 10
711.2406364370793
 20
41.80051640924766
 30
0.0
 11
711.2413264509779
 21
41.77936827739581
 31
0.0
  0
LINE
  5
121
330
1F
100
AcDbEntity
  8
0
  6
CONTINUOUS
 62
     7
100
AcDbLine
 10
711.2042280829692
 20
41.96246229489467
 30
0.0
 11
711.2118108183159
 21
41.94277567761779
 31
0.0
  0
LINE
  5
122
330
1F
100
AcDbEntity
  8
0
  6
CONTINUOUS
 62
     7
100
AcDbLine
 10
711.0220065780153
 20
42.18553445752371
 30
0.0
 11
711.0395432097735
 21
42.17323796289565
 31
0.0
  0
LINE
  5
123
330
1F
100
AcDbEntity
  8
0
  6
CONTINUOUS
 62
     7
100
AcDbLine
 10
776.1169563478263
 20
15.47330123040537
 30
0.0
 11
776.1552854344498
 21
15.49229168557874
 31
0.0
  0
LINE
  5
124
330
1F
100
AcDbEntity
  8
0
  6
CONTINUOUS
 62
     7
100
AcDbLine
 10
775.7953335156182
 20
15.2068945076407
 30
0.0
 11
775.8218004582685
 21
15.2389937803461
 31
0.0
  0
LINE
  5
125
330
1F
100
AcDbEntity
  8
0
  6
CONTINUOUS
 62
     7
100
AcDbLine
 10
776.274716644506
 20
15.53923919044049
 30
0.0
 11
776.3145428884941
 21
15.55109967083153
 31
0.0
  0
LINE
  5
126
330
1F
100
AcDbEntity
  8
0
  6
CONTINUOUS
 62
     7
100
AcDbLine
 10
711.2380487549888
 20
41.71597426983462
 30
0.0
 11
711.2356087854945
 21
41.69774968141931
 31
0.0
  0
LINE
  5
127
330
1F
100
AcDbEntity
  8
0
  6
CONTINUOUS
 62
     7
100
AcDbLine
 10
775.7702194751945
 20
15.17372603226447
 30
0.0
 11
775.7953335156182
 21
15.2068945076407
 31
0.0
  0
LINE
  5
128
330
1F
100
AcDbEntity
  8
0
  6
CONTINUOUS
 62
     7
100
AcDbLine
 10
711.2294630289917
 20
41.88199738905328
 30
0.0
 11
711.233512795919
 21
41.86182602584022
 31
0.0
  0
LINE
  5
129
330
1F
100
AcDbEntity
  8
0
  6
CONTINUOUS
 62
     7
100
AcDbLine
 10
710.8267777695969
 20
42.26285137254571
 30
0.0
 11
710.8477873976575
 21
42.25888524130276
 31
0.0
  0
LINE
  5
12A
330
1F
100
AcDbEntity
  8
0
  6
CONTINUOUS
 62
     7
100
AcDbLine
 10
711.1022135388795
 20
42.11854593307566
 30
0.0
 11
711.1162355691378
 21
42.10343770203163
 31
0.0
  0
LINE
  5
12B
330
1F
100
AcDbEntity
  8
0
  6
CONTINUOUS
 62
     7
100
AcDbLine
 10
776.3145428884941
 20
15.55109967083153
 30
0.0
 11
776.3548623947001
 21
15.56130399966044
 31
0.0
  0
LINE
  5
12C
330
1F
100
AcDbEntity
  8
0
  6
CONTINUOUS
 62
     7
100
AcDbLine
 10
711.0723142409619
 20
42.14696724117006
 30
0.0
 11
711.087559998171
 21
42.13306807509185
 31
0.0
  0
LINE
  5
12D
330
1F
100
AcDbEntity
  8
0
  6
CONTINUOUS
 62
     7
100
AcDbLine
 10
711.1430580677048
 20
42.07054142767389
 30
0.0
 11
711.1553915527752
 21
42.05325228730901
 31
0.0
  0
LINE
  5
12E
330
1F
100
AcDbEntity
  8
0
  6
CONTINUOUS
 62
     7
100
AcDbLine
 10
776.0449237223874
 20
15.43175807808223
 30
0.0
 11
776.0805239241226
 21
15.45328716352559
 31
0.0
  0
LINE
  5
12F
330
1F
100
AcDbEntity
  8
0
  6
CONTINUOUS
 62
     7
100
AcDbLine
 10
711.1553915527752
 20
42.05325228730901
 30
0.0
 11
711.1669597763205
 21
42.03546547239193
 31
0.0
  0
ARC
  5
130
330
1F
100
AcDbEntity
  8
0
  6
CONTINUOUS
 62
     7
100
AcDbCircle
 10
832.9797899545467
 20
90.70548369651571
 30
0.0
 40
1.000000000000001
100
AcDbArc
 50
0.0
 51
44.99999999999832
  0
ARC
  5
131
330
1F
100
AcDbEntity
  8
0
  6
CONTINUOUS
 62
     7
100
AcDbCircle
 10
950.3797899545468
 20
275.6196972588887
 30
0.0
 40
7.977468270071633
100
AcDbArc
 50
184.3133937379166
 51
197.3232917916808
  0
ARC
  5
132
330
1F
100
AcDbEntity
  8
0
  6
CONTINUOUS
 62
     7
100
AcDbCircle
 10
736.5797899545468
 20
63.51969725888878
 30
0.0
 40
2.999999999999989
100
AcDbArc
 50
90.0
 51
100.7569342571479
  0
ARC
  5
133
330
1F
100
AcDbEntity
  8
0
  6
CONTINUOUS
 62
     7
100
AcDbCircle
 10
703.2297899545467
 20
41.11969725888879
 30
0.0
 40
3.000000000000018
100
AcDbArc
 50
169.2430657428507
 51
180.0000000000002
  0
ARC
  5
134
330
1F
100
AcDbEntity
  8
0
  6
CONTINUOUS
 62
     7
100
AcDbCircle
 10
649.5797899545468
 20
28.94569725888831
 30
0.0
 40
0.9999999999999852
100
AcDbArc
 50
157.5000000000001
 51
179.9999999999949
  0
ARC
  5
135
330
1F
100
AcDbEntity
  8
0
  6
CONTINUOUS
 62
     7
100
AcDbCircle
 10
1048.379789954547
 20
292.9196972588887
 30
0.0
 40
0.7999999999999119
100
AcDbArc
 50
180.0
 51
270.0
  0
ARC
  5
136
330
1F
100
AcDbEntity
  8
0
  6
CONTINUOUS
 62
     7
100
AcDbCircle
 10
1005.253789954547
 20
319.1196972588888
 30
0.0
 40
0.9999999999999579
100
AcDbArc
 50
109.4942971454808
 51
112.043004108059
  0
ARC
  5
137
330
1F
100
AcDbEntity
  8
0
  6
CONTINUOUS
 62
     7
100
AcDbCircle
 10
950.3797899545468
 20
275.6196972588887
 30
0.0
 40
7.977468270071714
100
AcDbArc
 50
162.6767082083191
 51
175.6866062620835
  0
ARC
  5
138
330
1F
100
AcDbEntity
  8
0
  6
CONTINUOUS
 62
     7
100
AcDbCircle
 10
1048.379789954547
 20
152.9196972588887
 30
0.0
 40
0.7999999999999119
100
AcDbArc
 50
180.0
 51
270.0
  0
ARC
  5
139
330
1F
100
AcDbEntity
  8
0
  6
CONTINUOUS
 62
     7
100
AcDbCircle
 10
627.3797899545468
 20
-4.680302741111197
 30
0.0
 40
0.8000000000000229
100
AcDbArc
 50
90.0
 51
180.0
  0
ARC
  5
13A
330
1F
100
AcDbEntity
  8
0
  6
CONTINUOUS
 62
     7
100
AcDbCircle
 10
950.3797899545468
 20
275.6196972588887
 30
0.0
 40
8.000000000000057
100
AcDbArc
 50
197.833382709813
 51
216.4235736423311
  0
ARC
  5
13B
330
1F
100
AcDbEntity
  8
0
  6
CONTINUOUS
 62
     7
100
AcDbCircle
 10
641.5797899545468
 20
93.3196972588888
 30
0.0
 40
8.000000000000027
100
AcDbArc
 50
53.57642635766871
 51
72.16661729018742
  0
ARC
  5
13C
330
1F
100
AcDbEntity
  8
0
  6
CONTINUOUS
 62
     7
100
AcDbCircle
 10
1046.779789954547
 20
154.9196972588887
 30
0.0
 40
0.7999999999999674
100
AcDbArc
 50
270.0
 51
0.0
  0
ARC
  5
13D
330
1F
100
AcDbEntity
  8
0
  6
CONTINUOUS
 62
     7
100
AcDbCircle
 10
1048.379789954547
 20
311.3196972588888
 30
0.0
 40
0.8000000000000229
100
AcDbArc
 50
90.0
 51
180.0
  0
ARC
  5
13E
330
1F
100
AcDbEntity
  8
0
  6
CONTINUOUS
 62
     7
100
AcDbCircle
 10
1020.579789954547
 20
236.5080353928574
 30
0.0
 40
84.9999999999982
100
AcDbArc
 50
79.63024019452111
 51
100.3697598054791
  0
ARC
  5
13F
330
1F
100
AcDbEntity
  8
0
  6
CONTINUOUS
 62
     7
100
AcDbCircle
 10
1005.253789954547
 20
319.1196972588888
 30
0.0
 40
0.9999999999999716
100
AcDbArc
 50
112.043004108059
 51
161.8091860462639
  0
ARC
  5
140
330
1F
100
AcDbEntity
  8
0
  6
CONTINUOUS
 62
     7
100
AcDbCircle
 10
1046.779789954547
 20
303.9196972588887
 30
0.0
 40
0.7999999999999674
100
AcDbArc
 50
270.0
 51
0.0
  0
ARC
  5
141
330
1F
100
AcDbEntity
  8
0
  6
CONTINUOUS
 62
     7
100
AcDbCircle
 10
828.5797899545468
 20
81.11969725888879
 30
0.0
 40
5.400000000000064
100
AcDbArc
 50
285.5761290765723
 51
0.0
  0
ARC
  5
142
330
1F
100
AcDbEntity
  8
0
  6
CONTINUOUS
 62
     7
100
AcDbCircle
 10
828.5797899545469
 20
81.11969725888879
 30
0.0
 40
5.400000000000023
100
AcDbArc
 50
254.4238709234274
 51
285.5761290765726
  0
ARC
  5
143
330
1F
100
AcDbEntity
  8
0
  6
CONTINUOUS
 62
     7
100
AcDbCircle
 10
823.5797899545468
 20
28.9456972588883
 30
0.0
 40
1.000000000000022
100
AcDbArc
 50
19.49429714545288
 51
22.04300410805777
  0
ARC
  5
144
330
1F
100
AcDbEntity
  8
0
  6
CONTINUOUS
 62
     7
100
AcDbCircle
 10
962.5797899545469
 20
292.5696972588887
 30
0.0
 40
3.050000000000002
100
AcDbArc
 50
10.38885781546948
 51
169.6111421845305
  0
ARC
  5
145
330
1F
100
AcDbEntity
  8
0
  6
CONTINUOUS
 62
     7
100
AcDbCircle
 10
736.5797899545468
 20
-7.893021853204993
 30
0.0
 40
0.9999999999999972
100
AcDbArc
 50
80.90972307917882
 51
99.09027692082121
  0
ARC
  5
146
330
1F
100
AcDbEntity
  8
0
  6
CONTINUOUS
 62
     7
100
AcDbCircle
 10
937.5797899545468
 20
188.6196972588887
 30
0.0
 40
7.000000000000006
100
AcDbArc
 50
180.0
 51
270.0
  0
ARC
  5
147
330
1F
100
AcDbEntity
  8
0
  6
CONTINUOUS
 62
     7
100
AcDbCircle
 10
736.5797899545468
 20
41.11969725888879
 30
0.0
 40
46.99999999999997
100
AcDbArc
 50
213.5571590176083
 51
243.615864151975
  0
ARC
  5
148
330
1F
100
AcDbEntity
  8
0
  6
CONTINUOUS
 62
     7
100
AcDbCircle
 10
736.5797899545468
 20
63.51969725888878
 30
0.0
 40
1.149999999999984
100
AcDbArc
 50
90.0
 51
270.0
  0
ARC
  5
149
330
1F
100
AcDbEntity
  8
0
  6
CONTINUOUS
 62
     7
100
AcDbCircle
 10
822.3797899545467
 20
6.602682966408119
 30
0.0
 40
0.8000000000000229
100
AcDbArc
 50
180.0
 51
242.2414593989375
  0
ARC
  5
14A
330
1F
100
AcDbEntity
  8
0
  6
CONTINUOUS
 62
     7
100
AcDbCircle
 10
703.2297899545467
 20
41.11969725888879
 30
0.0
 40
3.000000000000003
100
AcDbArc
 50
359.9999999999998
 51
10.75693425714871
  0
ARC
  5
14B
330
1F
100
AcDbEntity
  8
0
  6
CONTINUOUS
 62
     7
100
AcDbCircle
 10
714.1797899545468
 20
41.11969725888879
 30
0.0
 40
1.149999999999984
100
AcDbArc
 50
359.9999999999997
 51
180.0000000000003
  0
ARC
  5
14C
330
1F
100
AcDbEntity
  8
0
  6
CONTINUOUS
 62
     7
100
AcDbCircle
 10
736.5797899545468
 20
74.4696972588888
 30
0.0
 40
2.999999999999989
100
AcDbArc
 50
90.0
 51
100.7569342571479
  0
ARC
  5
14D
330
1F
100
AcDbEntity
  8
0
  6
CONTINUOUS
 62
     7
100
AcDbCircle
 10
840.7774627988334
 20
-3.080302741111207
 30
0.0
 40
0.8000000000000127
100
AcDbArc
 50
242.241459398937
 51
270.0
  0
ARC
  5
14E
330
1F
100
AcDbEntity
  8
0
  6
CONTINUOUS
 62
     7
100
AcDbCircle
 10
1045.405789954546
 20
145.1196972588887
 30
0.0
 40
1.000000000000045
100
AcDbArc
 50
289.494297145452
 51
292.2323049876027
  0
ARC
  5
14F
330
1F
100
AcDbEntity
  8
0
  6
CONTINUOUS
 62
     7
100
AcDbCircle
 10
1046.779789954547
 20
169.3196972588887
 30
0.0
 40
0.7999999999999119
100
AcDbArc
 50
0.0
 51
90.0
  0
ARC
  5
150
330
1F
100
AcDbEntity
  8
0
  6
CONTINUOUS
 62
     7
100
AcDbCircle
 10
1035.905789954546
 20
319.1196972588888
 30
0.0
 40
0.9999999999999113
100
AcDbArc
 50
18.19081395224553
 51
67.50000000000182
  0
ARC
  5
151
330
1F
100
AcDbEntity
  8
0
  6
CONTINUOUS
 62
     7
100
AcDbCircle
 10
1014.753789954547
 20
145.1196972588887
 30
0.0
 40
1.000000000000052
100
AcDbArc
 50
198.1908139523516
 51
246.8142534880611
  0
ARC
  5
152
330
1F
100
AcDbEntity
  8
0
  6
CONTINUOUS
 62
     7
100
AcDbCircle
 10
1030.079789954547
 20
227.7313591249201
 30
0.0
 40
84.99999999999812
100
AcDbArc
 50
259.6302401945209
 51
280.369759805479
  0
ARC
  5
153
330
1F
100
AcDbEntity
  8
0
  6
CONTINUOUS
 62
     7
100
AcDbCircle
 10
1045.405789954546
 20
145.1196972588887
 30
0.0
 40
1.000000000000001
100
AcDbArc
 50
270.0
 51
289.4942971454531
  0
ARC
  5
154
330
1F
100
AcDbEntity
  8
0
  6
CONTINUOUS
 62
     7
100
AcDbCircle
 10
1045.405789954546
 20
145.1196972588887
 30
0.0
 40
0.9999999999999781
100
AcDbArc
 50
292.2323049876044
 51
341.8091860462669
  0
ARC
  5
155
330
1F
100
AcDbEntity
  8
0
  6
CONTINUOUS
 62
     7
100
AcDbCircle
 10
1048.379789954547
 20
171.3196972588887
 30
0.0
 40
0.8000000000000229
100
AcDbArc
 50
90.0
 51
179.999999999998
  0
ARC
  5
156
330
1F
100
AcDbEntity
  8
0
  6
CONTINUOUS
 62
     7
100
AcDbCircle
 10
1046.779789954547
 20
309.3196972588888
 30
0.0
 40
0.8000000000001339
100
AcDbArc
 50
0.0
 51
90.0
  0
ARC
  5
157
330
1F
100
AcDbEntity
  8
0
  6
CONTINUOUS
 62
     7
100
AcDbCircle
 10
828.5797899545469
 20
81.11969725888879
 30
0.0
 40
1.499999999999946
100
AcDbArc
 50
270.0
 51
345.1648884180252
  0
ARC
  5
158
330
1F
100
AcDbEntity
  8
0
  6
CONTINUOUS
 62
     7
100
AcDbCircle
 10
703.2297899545467
 20
41.11969725888879
 30
0.0
 40
1.149999999999984
100
AcDbArc
 50
359.9999999999997
 51
180.0000000000003
  0
ARC
  5
159
330
1F
100
AcDbEntity
  8
0
  6
CONTINUOUS
 62
     7
100
AcDbCircle
 10
1046.779789954547
 20
294.9196972588887
 30
0.0
 40
0.7999999999999674
100
AcDbArc
 50
270.0
 51
0.0
  0
ARC
  5
15A
330
1F
100
AcDbEntity
  8
0
  6
CONTINUOUS
 62
     7
100
AcDbCircle
 10
845.7797899545467
 20
-4.680302741111197
 30
0.0
 40
0.8000000000000229
100
AcDbArc
 50
0.0
 51
90.0
  0
ARC
  5
15B
330
1F
100
AcDbEntity
  8
0
  6
CONTINUOUS
 62
     7
100
AcDbCircle
 10
937.5797899545468
 20
188.6196972588887
 30
0.0
 40
7.000000000000006
100
AcDbArc
 50
90.0
 51
180.0
  0
ARC
  5
15C
330
1F
100
AcDbEntity
  8
0
  6
CONTINUOUS
 62
     7
100
AcDbCircle
 10
647.6461522281422
 20
95.1196972588888
 30
0.0
 40
1.000000000000001
100
AcDbArc
 50
90.0
 51
179.5000000000004
  0
ARC
  5
15D
330
1F
100
AcDbEntity
  8
0
  6
CONTINUOUS
 62
     7
100
AcDbCircle
 10
1035.905789954546
 20
319.1196972588888
 30
0.0
 40
0.999999999999964
100
AcDbArc
 50
67.50000000000301
 51
90.0
  0
ARC
  5
15E
330
1F
100
AcDbEntity
  8
0
  6
CONTINUOUS
 62
     7
100
AcDbCircle
 10
948.5797899545469
 20
143.1860595324843
 30
0.0
 40
1.000000000000001
100
AcDbArc
 50
180.0
 51
269.5000000000027
  0
ARC
  5
15F
330
1F
100
AcDbEntity
  8
0
  6
CONTINUOUS
 62
     7
100
AcDbCircle
 10
1005.253789954547
 20
319.1196972588888
 30
0.0
 40
0.9999999999999454
100
AcDbArc
 50
90.0
 51
109.4942971454807
  0
ARC
  5
160
330
1F
100
AcDbEntity
  8
0
  6
CONTINUOUS
 62
     7
100
AcDbCircle
 10
736.5797899545468
 20
74.4696972588888
 30
0.0
 40
1.149999999999984
100
AcDbArc
 50
90.0
 51
270.0
  0
ARC
  5
161
330
1F
100
AcDbEntity
  8
0
  6
CONTINUOUS
 62
     7
100
AcDbCircle
 10
1046.779789954547
 20
163.9196972588887
 30
0.0
 40
0.7999999999999674
100
AcDbArc
 50
270.0
 51
0.0
  0
ARC
  5
162
330
1F
100
AcDbEntity
  8
0
  6
CONTINUOUS
 62
     7
100
AcDbCircle
 10
948.5797899545469
 20
321.0533349852932
 30
0.0
 40
1.000000000000003
100
AcDbArc
 50
90.4999999999973
 51
180.0
  0
ARC
  5
163
330
1F
100
AcDbEntity
  8
0
  6
CONTINUOUS
 62
     7
100
AcDbCircle
 10
950.3797899545468
 20
275.6196972588887
 30
0.0
 40
8.000000000000059
100
AcDbArc
 50
143.5764263576689
 51
162.166617290187
  0
ARC
  5
164
330
1F
100
AcDbEntity
  8
0
  6
CONTINUOUS
 62
     7
100
AcDbCircle
 10
1014.753789954547
 20
145.1196972588887
 30
0.0
 40
0.9999999999999454
100
AcDbArc
 50
246.8142534880587
 51
270.0
  0
ARC
  5
165
330
1F
100
AcDbEntity
  8
0
  6
CONTINUOUS
 62
     7
100
AcDbCircle
 10
991.5797899545469
 20
152.8696972588887
 30
0.0
 40
6.250000000000059
100
AcDbArc
 50
246.9260819343686
 51
270.0
  0
ARC
  5
166
330
1F
100
AcDbEntity
  8
0
  6
CONTINUOUS
 62
     7
100
AcDbCircle
 10
828.5797899545469
 20
81.11969725888879
 30
0.0
 40
1.449999999999951
100
AcDbArc
 50
0.0
 51
180.0
  0
ARC
  5
167
330
1F
100
AcDbEntity
  8
0
  6
CONTINUOUS
 62
     7
100
AcDbCircle
 10
736.5797899545468
 20
41.11969725888879
 30
0.0
 40
46.99999999999999
100
AcDbArc
 50
296.3841358480249
 51
326.4428409823918
  0
ARC
  5
168
330
1F
100
AcDbEntity
  8
0
  6
CONTINUOUS
 62
     7
100
AcDbCircle
 10
828.5797899545469
 20
81.11969725888879
 30
0.0
 40
1.500000000000054
100
AcDbArc
 50
194.8351115819744
 51
270.0
  0
ARC
  5
169
330
1F
100
AcDbEntity
  8
0
  6
CONTINUOUS
 62
     7
100
AcDbCircle
 10
1046.779789954547
 20
300.3196972588887
 30
0.0
 40
0.8000000000001339
100
AcDbArc
 50
0.0
 51
90.0
  0
ARC
  5
16A
330
1F
100
AcDbEntity
  8
0
  6
CONTINUOUS
 62
     7
100
AcDbCircle
 10
828.5655763921736
 20
95.1196972588888
 30
0.0
 40
1.000000000000026
100
AcDbArc
 50
44.99999999999944
 51
89.99999999999999
  0
ARC
  5
16B
330
1F
100
AcDbEntity
  8
0
  6
CONTINUOUS
 62
     7
100
AcDbCircle
 10
1046.779789954547
 20
160.3196972588887
 30
0.0
 40
0.8000000000001339
100
AcDbArc
 50
0.0
 51
90.0
  0
ARC
  5
16C
330
1F
100
AcDbEntity
  8
0
  6
CONTINUOUS
 62
     7
100
AcDbCircle
 10
825.5134276809513
 20
95.1196972588888
 30
0.0
 40
1.000000000000003
100
AcDbArc
 50
0.4999999999996835
 51
90.00000000000001
  0
ARC
  5
16D
330
1F
100
AcDbEntity
  8
0
  6
CONTINUOUS
 62
     7
100
AcDbCircle
 10
962.5797899545469
 20
205.5696972588887
 30
0.0
 40
3.050000000000002
100
AcDbArc
 50
10.38885781546948
 51
169.6111421845305
  0
ARC
  5
16E
330
1F
100
AcDbEntity
  8
0
  6
CONTINUOUS
 62
     7
100
AcDbCircle
 10
828.5797899545468
 20
81.11969725888879
 30
0.0
 40
5.39999999999996
100
AcDbArc
 50
180.0
 51
254.4238709234285
  0
ARC
  5
16F
330
1F
100
AcDbEntity
  8
0
  6
CONTINUOUS
 62
     7
100
AcDbCircle
 10
634.2476688426174
 20
184.3196972588887
 30
0.0
 40
0.9999999999999764
100
AcDbArc
 50
210.3899424493293
 51
270.0
  0
ARC
  5
170
330
1F
100
AcDbEntity
  8
0
  6
CONTINUOUS
 62
     7
100
AcDbCircle
 10
828.5797899545468
 20
205.5696972588887
 30
0.0
 40
3.050000000000002
100
AcDbArc
 50
10.38885781546948
 51
130.9756103425954
  0
ARC
  5
171
330
1F
100
AcDbEntity
  8
0
  6
CONTINUOUS
 62
     7
100
AcDbCircle
 10
841.2484191046483
 20
152.9196972588887
 30
0.0
 40
0.7999999999999674
100
AcDbArc
 50
270.0
 51
314.9999999999957
  0
ARC
  5
172
330
1F
100
AcDbEntity
  8
0
  6
CONTINUOUS
 62
     7
100
AcDbCircle
 10
650.7797899545468
 20
6.602682966408133
 30
0.0
 40
0.8000000000000373
100
AcDbArc
 50
297.7585406010621
 51
0.0
  0
ARC
  5
173
330
1F
100
AcDbEntity
  8
0
  6
CONTINUOUS
 62
     7
100
AcDbCircle
 10
736.5797899545468
 20
41.11969725888878
 30
0.0
 40
11.00000000000001
100
AcDbArc
 50
180.0
 51
270.0
  0
ARC
  5
174
330
1F
100
AcDbEntity
  8
0
  6
CONTINUOUS
 62
     7
100
AcDbCircle
 10
631.9111608044452
 20
311.3196972588888
 30
0.0
 40
0.8000000000000229
100
AcDbArc
 50
90.0
 51
135.0
  0
ARC
  5
175
330
1F
100
AcDbEntity
  8
0
  6
CONTINUOUS
 62
     7
100
AcDbCircle
 10
732.1914518205781
 20
13.61969725888874
 30
0.0
 40
84.9999999999982
100
AcDbArc
 50
169.6302401945209
 51
186.4358555275751
  0
ARC
  5
176
330
1F
100
AcDbEntity
  8
0
  6
CONTINUOUS
 62
     7
100
AcDbCircle
 10
634.5797899545468
 20
162.1196972588887
 30
0.0
 40
2.69999999999998
100
AcDbArc
 50
90.0
 51
270.0
  0
ARC
  5
177
330
1F
100
AcDbEntity
  8
0
  6
CONTINUOUS
 62
     7
100
AcDbCircle
 10
838.5797899545468
 20
162.1196972588887
 30
0.0
 40
2.69999999999998
100
AcDbArc
 50
270.0
 51
90.0
  0
ARC
  5
178
330
1F
100
AcDbEntity
  8
0
  6
CONTINUOUS
 62
     7
100
AcDbCircle
 10
845.7797899545467
 20
157.4510681087872
 30
0.0
 40
0.80000000000006
100
AcDbArc
 50
315.0
 51
0.0
  0
ARC
  5
179
330
1F
100
AcDbEntity
  8
0
  6
CONTINUOUS
 62
     7
100
AcDbCircle
 10
740.9681280885154
 20
13.61969725888874
 30
0.0
 40
84.99999999999821
100
AcDbArc
 50
353.564144472425
 51
10.36975980547908
  0
ARC
  5
17A
330
1F
100
AcDbEntity
  8
0
  6
CONTINUOUS
 62
     7
100
AcDbCircle
 10
627.3797899545468
 20
166.7883264089903
 30
0.0
 40
0.8000000000000403
100
AcDbArc
 50
135.0000000000014
 51
180.0
  0
ARC
  5
17B
330
1F
100
AcDbEntity
  8
0
  6
CONTINUOUS
 62
     7
100
AcDbCircle
 10
631.9111608044452
 20
171.3196972588887
 30
0.0
 40
0.8000000000000229
100
AcDbArc
 50
90.0
 51
135.0000000000014
  0
ARC
  5
17C
330
1F
100
AcDbEntity
  8
0
  6
CONTINUOUS
 62
     7
100
AcDbCircle
 10
641.5797899545468
 20
188.6196972588887
 30
0.0
 40
8.000000000000007
100
AcDbArc
 50
221.4096221092709
 51
298.95502437186
  0
ARC
  5
17D
330
1F
100
AcDbEntity
  8
0
  6
CONTINUOUS
 62
     7
100
AcDbCircle
 10
641.5797899545468
 20
188.6196972588887
 30
0.0
 40
7.000000000000001
100
AcDbArc
 50
152.3395501006988
 51
207.6604498993008
  0
ARC
  5
17E
330
1F
100
AcDbEntity
  8
0
  6
CONTINUOUS
 62
     7
100
AcDbCircle
 10
823.5797899545468
 20
28.9456972588883
 30
0.0
 40
1.000000000000001
100
AcDbArc
 50
0.0000000000051684
 51
19.49429714545159
  0
ARC
  5
17F
330
1F
100
AcDbEntity
  8
0
  6
CONTINUOUS
 62
     7
100
AcDbCircle
 10
828.5797899545468
 20
292.5696972588887
 30
0.0
 40
3.050000000000002
100
AcDbArc
 50
10.38885781546948
 51
130.9756103425954
  0
ARC
  5
180
330
1F
100
AcDbEntity
  8
0
  6
CONTINUOUS
 62
     7
100
AcDbCircle
 10
845.7797899545467
 20
306.7883264089903
 30
0.0
 40
0.8000000000000229
100
AcDbArc
 50
0.0
 51
45.0
  0
ARC
  5
181
330
1F
100
AcDbEntity
  8
0
  6
CONTINUOUS
 62
     7
100
AcDbCircle
 10
736.5797899545468
 20
82.86969725888879
 30
0.0
 40
2.99999999999999
100
AcDbArc
 50
259.2430657428521
 51
270.0
  0
ARC
  5
182
330
1F
100
AcDbEntity
  8
0
  6
CONTINUOUS
 62
     7
100
AcDbCircle
 10
845.7797899545467
 20
166.7883264089903
 30
0.0
 40
0.8000000000000229
100
AcDbArc
 50
0.0
 51
44.99999999999859
  0
ARC
  5
183
330
1F
100
AcDbEntity
  8
0
  6
CONTINUOUS
 62
     7
100
AcDbCircle
 10
634.5797899545468
 20
302.1196972588888
 30
0.0
 40
2.69999999999998
100
AcDbArc
 50
90.0
 51
270.0
  0
ARC
  5
184
330
1F
100
AcDbEntity
  8
0
  6
CONTINUOUS
 62
     7
100
AcDbCircle
 10
845.7797899545467
 20
297.4510681087872
 30
0.0
 40
0.80000000000006
100
AcDbArc
 50
315.0
 51
0.0
  0
ARC
  5
185
330
1F
100
AcDbEntity
  8
0
  6
CONTINUOUS
 62
     7
100
AcDbCircle
 10
649.5797899545468
 20
28.94569725888831
 30
0.0
 40
0.9999999999999902
100
AcDbArc
 50
108.1908139523478
 51
157.4999999999999
  0
ARC
  5
186
330
1F
100
AcDbEntity
  8
0
  6
CONTINUOUS
 62
     7
100
AcDbCircle
 10
634.2476688426174
 20
271.3196972588888
 30
0.0
 40
0.9999999999999482
100
AcDbArc
 50
210.3899424493265
 51
270.0
  0
ARC
  5
187
330
1F
100
AcDbEntity
  8
0
  6
CONTINUOUS
 62
     7
100
AcDbCircle
 10
831.5797899545468
 20
302.1196972588888
 30
0.0
 40
2.69999999999998
100
AcDbArc
 50
90.0
 51
270.0
  0
ARC
  5
188
330
1F
100
AcDbEntity
  8
0
  6
CONTINUOUS
 62
     7
100
AcDbCircle
 10
641.5797899545468
 20
93.3196972588888
 30
0.0
 40
7.977468270071631
100
AcDbArc
 50
72.67670820831935
 51
85.68660626208302
  0
ARC
  5
189
330
1F
100
AcDbEntity
  8
0
  6
CONTINUOUS
 62
     7
100
AcDbCircle
 10
631.9111608044452
 20
152.9196972588888
 30
0.0
 40
0.7999999999999421
100
AcDbArc
 50
225.0000000000028
 51
269.9999999999999
  0
ARC
  5
18A
330
1F
100
AcDbEntity
  8
0
  6
CONTINUOUS
 62
     7
100
AcDbCircle
 10
641.5797899545468
 20
188.6196972588887
 30
0.0
 40
2.449999999999981
100
AcDbArc
 50
255.8241964841318
 51
284.1758035158682
  0
ARC
  5
18B
330
1F
100
AcDbEntity
  8
0
  6
CONTINUOUS
 62
     7
100
AcDbCircle
 10
736.5797899545468
 20
41.11969725888878
 30
0.0
 40
11.00000000000001
100
AcDbArc
 50
270.0
 51
180.0
  0
ARC
  5
18C
330
1F
100
AcDbEntity
  8
0
  6
CONTINUOUS
 62
     7
100
AcDbCircle
 10
841.2484191046483
 20
292.9196972588887
 30
0.0
 40
0.7999999999999674
100
AcDbArc
 50
270.0
 51
314.9999999999972
  0
ARC
  5
18D
330
1F
100
AcDbEntity
  8
0
  6
CONTINUOUS
 62
     7
100
AcDbCircle
 10
641.5797899545468
 20
188.6196972588887
 30
0.0
 40
9.50000000000002
100
AcDbArc
 50
149.6100575506722
 51
210.3899424493275
  0
ARC
  5
18E
330
1F
100
AcDbEntity
  8
0
  6
CONTINUOUS
 62
     7
100
AcDbCircle
 10
641.5797899545468
 20
275.6196972588887
 30
0.0
 40
2.450000000000034
100
AcDbArc
 50
75.82419648413212
 51
104.1758035158679
  0
ARC
  5
18F
330
1F
100
AcDbEntity
  8
0
  6
CONTINUOUS
 62
     7
100
AcDbCircle
 10
641.5797899545468
 20
188.6196972588887
 30
0.0
 40
1.223055524728322
100
AcDbArc
 50
240.6216432830859
 51
299.378356716914
  0
ARC
  5
190
330
1F
100
AcDbEntity
  8
0
  6
CONTINUOUS
 62
     7
100
AcDbCircle
 10
823.5797899545468
 20
28.9456972588883
 30
0.0
 40
1.000000000000023
100
AcDbArc
 50
22.04300410805776
 51
71.80918604626007
  0
ARC
  5
191
330
1F
100
AcDbEntity
  8
0
  6
CONTINUOUS
 62
     7
100
AcDbCircle
 10
641.5797899545468
 20
93.3196972588888
 30
0.0
 40
8.0
100
AcDbArc
 50
107.8333827098127
 51
126.4235736423314
  0
ARC
  5
192
330
1F
100
AcDbEntity
  8
0
  6
CONTINUOUS
 62
     7
100
AcDbCircle
 10
641.5797899545468
 20
188.6196972588887
 30
0.0
 40
2.449999999999967
100
AcDbArc
 50
345.824196484133
 51
14.1758035158669
  0
ARC
  5
193
330
1F
100
AcDbEntity
  8
0
  6
CONTINUOUS
 62
     7
100
AcDbCircle
 10
648.2797899545467
 20
99.11969725888879
 30
0.0
 40
3.000000000000003
100
AcDbArc
 50
270.0
 51
0.0
  0
ARC
  5
194
330
1F
100
AcDbEntity
  8
0
  6
CONTINUOUS
 62
     7
100
AcDbCircle
 10
641.5797899545468
 20
275.6196972588887
 30
0.0
 40
6.999999999999976
100
AcDbArc
 50
152.3395501006992
 51
207.6604498993008
  0
ARC
  5
195
330
1F
100
AcDbEntity
  8
0
  6
CONTINUOUS
 62
     7
100
AcDbCircle
 10
641.5797899545468
 20
188.6196972588887
 30
0.0
 40
1.223055524728246
100
AcDbArc
 50
330.6216432830869
 51
29.37835671691306
  0
ARC
  5
196
330
1F
100
AcDbEntity
  8
0
  6
CONTINUOUS
 62
     7
100
AcDbCircle
 10
641.5797899545468
 20
188.6196972588887
 30
0.0
 40
6.700000000000007
100
AcDbArc
 50
153.5756079211809
 51
206.424392078819
  0
ARC
  5
197
330
1F
100
AcDbEntity
  8
0
  6
CONTINUOUS
 62
     7
100
AcDbCircle
 10
641.5797899545468
 20
188.6196972588887
 30
0.0
 40
1.223055524728246
100
AcDbArc
 50
150.621643283087
 51
209.3783567169131
  0
ARC
  5
198
330
1F
100
AcDbEntity
  8
0
  6
CONTINUOUS
 62
     7
100
AcDbCircle
 10
634.2476688426174
 20
279.9196972588888
 30
0.0
 40
1.000000000000001
100
AcDbArc
 50
90.0
 51
149.6100575506707
  0
ARC
  5
199
330
1F
100
AcDbEntity
  8
0
  6
CONTINUOUS
 62
     7
100
AcDbCircle
 10
634.2476688426174
 20
192.9196972588887
 30
0.0
 40
1.000000000000001
100
AcDbArc
 50
90.0
 51
149.6100575506735
  0
ARC
  5
19A
330
1F
100
AcDbEntity
  8
0
  6
CONTINUOUS
 62
     7
100
AcDbCircle
 10
641.5797899545468
 20
188.6196972588887
 30
0.0
 40
8.000000000000021
100
AcDbArc
 50
61.04497562813998
 51
138.5903778907291
  0
ARC
  5
19B
330
1F
100
AcDbEntity
  8
0
  6
CONTINUOUS
 62
     7
100
AcDbCircle
 10
694.8297899545468
 20
41.11969725888879
 30
0.0
 40
3.000000000000003
100
AcDbArc
 50
359.9999999999998
 51
10.75693425714871
  0
ARC
  5
19C
330
1F
100
AcDbEntity
  8
0
  6
CONTINUOUS
 62
     7
100
AcDbCircle
 10
736.5797899545468
 20
74.4696972588888
 30
0.0
 40
2.99999999999999
100
AcDbArc
 50
259.2430657428521
 51
270.0
  0
ARC
  5
19D
330
1F
100
AcDbEntity
  8
0
  6
CONTINUOUS
 62
     7
100
AcDbCircle
 10
627.3797899545468
 20
157.4510681087872
 30
0.0
 40
0.8000000000000229
100
AcDbArc
 50
180.0
 51
224.9999999999986
  0
ARC
  5
19E
330
1F
100
AcDbEntity
  8
0
  6
CONTINUOUS
 62
     7
100
AcDbCircle
 10
627.3797899545468
 20
306.7883264089903
 30
0.0
 40
0.80000000000006
100
AcDbArc
 50
135.0
 51
180.0
  0
ARC
  5
19F
330
1F
100
AcDbEntity
  8
0
  6
CONTINUOUS
 62
     7
100
AcDbCircle
 10
641.5797899545468
 20
275.6196972588887
 30
0.0
 40
1.223055524728246
100
AcDbArc
 50
330.6216432830869
 51
29.37835671691306
  0
ARC
  5
1A0
330
1F
100
AcDbEntity
  8
0
  6
CONTINUOUS
 62
     7
100
AcDbCircle
 10
630.1461522281423
 20
95.1196972588888
 30
0.0
 40
1.000000000000001
100
AcDbArc
 50
90.0
 51
179.5000000000004
  0
ARC
  5
1A1
330
1F
100
AcDbEntity
  8
0
  6
CONTINUOUS
 62
     7
100
AcDbCircle
 10
841.2484191046483
 20
171.3196972588887
 30
0.0
 40
0.7999999999999421
100
AcDbArc
 50
45.00000000000281
 51
89.99999999999999
  0
ARC
  5
1A2
330
1F
100
AcDbEntity
  8
0
  6
CONTINUOUS
 62
     7
100
AcDbCircle
 10
632.3821171102601
 20
-3.080302741111207
 30
0.0
 40
0.7999999999999743
100
AcDbArc
 50
270.0
 51
297.7585406010554
  0
ARC
  5
1A3
330
1F
100
AcDbEntity
  8
0
  6
CONTINUOUS
 62
     7
100
AcDbCircle
 10
641.5797899545468
 20
93.3196972588888
 30
0.0
 40
7.97746827007165
100
AcDbArc
 50
94.31339373791698
 51
107.3232917916806
  0
ARC
  5
1A4
330
1F
100
AcDbEntity
  8
0
  6
CONTINUOUS
 62
     7
100
AcDbCircle
 10
641.5797899545468
 20
302.1196972588888
 30
0.0
 40
2.69999999999998
100
AcDbArc
 50
270.0
 51
90.0
  0
ARC
  5
1A5
330
1F
100
AcDbEntity
  8
0
  6
CONTINUOUS
 62
     7
100
AcDbCircle
 10
631.9111608044452
 20
292.9196972588888
 30
0.0
 40
0.8000000000000207
100
AcDbArc
 50
224.9999999999972
 51
270.0000000000001
  0
ARC
  5
1A6
330
1F
100
AcDbEntity
  8
0
  6
CONTINUOUS
 62
     7
100
AcDbCircle
 10
627.3797899545468
 20
297.4510681087872
 30
0.0
 40
0.8000000000000229
100
AcDbArc
 50
180.0
 51
225.0
  0
ARC
  5
1A7
330
1F
100
AcDbEntity
  8
0
  6
CONTINUOUS
 62
     7
100
AcDbCircle
 10
841.2484191046483
 20
311.3196972588888
 30
0.0
 40
0.8000000000000207
100
AcDbArc
 50
44.9999999999972
 51
90.00000000000001
  0
ARC
  5
1A8
330
1F
100
AcDbEntity
  8
0
  6
CONTINUOUS
 62
     7
100
AcDbCircle
 10
714.1797899545468
 20
41.11969725888879
 30
0.0
 40
3.000000000000016
100
AcDbArc
 50
169.2430657428508
 51
180.0000000000002
  0
ARC
  5
1A9
330
1F
100
AcDbEntity
  8
0
  6
CONTINUOUS
 62
     7
100
AcDbCircle
 10
831.5797899545468
 20
162.1196972588887
 30
0.0
 40
2.700000000000008
100
AcDbArc
 50
90.0
 51
270.0
  0
ARC
  5
1AA
330
1F
100
AcDbEntity
  8
0
  6
CONTINUOUS
 62
     7
100
AcDbCircle
 10
641.5797899545468
 20
275.6196972588887
 30
0.0
 40
9.499999999999991
100
AcDbArc
 50
149.6100575506725
 51
210.3899424493278
  0
ARC
  5
1AB
330
1F
100
AcDbEntity
  8
0
  6
CONTINUOUS
 62
     7
100
AcDbCircle
 10
648.2797899545467
 20
99.11969725888879
 30
0.0
 40
1.500000000000057
100
AcDbArc
 50
270.0
 51
0.0
  0
ARC
  5
1AC
330
1F
100
AcDbEntity
  8
0
  6
CONTINUOUS
 62
     7
100
AcDbCircle
 10
838.5797899545468
 20
302.1196972588888
 30
0.0
 40
2.700000000000036
100
AcDbArc
 50
270.0
 51
90.0
  0
ARC
  5
1AD
330
1F
100
AcDbEntity
  8
0
  6
CONTINUOUS
 62
     7
100
AcDbCircle
 10
641.5797899545468
 20
162.1196972588887
 30
0.0
 40
2.69999999999998
100
AcDbArc
 50
270.0
 51
90.0
  0
LINE
  5
1AE
330
1F
100
AcDbEntity
  8
0
  6
CONTINUOUS
 62
     7
100
AcDbLine
 10
735.510363123994
 20
66.68291304903595
 30
0.0
 11
735.4992392105521
 21
66.70083833157753
 31
0.0
  0
LINE
  5
1AF
330
1F
100
AcDbEntity
  8
0
  6
CONTINUOUS
 62
     7
100
AcDbLine
 10
735.6923851770196
 20
66.51621508605452
 30
0.0
 11
735.6743934394592
 21
66.52627291393772
 31
0.0
  0
LINE
  5
1B0
330
1F
100
AcDbEntity
  8
0
  6
CONTINUOUS
 62
     7
100
AcDbLine
 10
735.6743934394592
 20
66.52627291393772
 30
0.0
 11
735.6568217425881
 21
66.53708219018633
 31
0.0
  0
LINE
  5
1B1
330
1F
100
AcDbEntity
  8
0
  6
CONTINUOUS
 62
     7
100
AcDbLine
 10
699.9186277267454
 20
42.2540219174254
 30
0.0
 11
699.9392416400258
 21
42.24827449639653
 31
0.0
  0
LINE
  5
1B2
330
1F
100
AcDbEntity
  8
0
  6
CONTINUOUS
 62
     7
100
AcDbLine
 10
697.9595823145328
 20
42.16534691058992
 30
0.0
 11
697.9760547746038
 21
42.17758706438018
 31
0.0
  0
LINE
  5
1B3
330
1F
100
AcDbEntity
  8
0
  6
CONTINUOUS
 62
     7
100
AcDbLine
 10
735.560602153003
 20
66.61814891713495
 30
0.0
 11
735.5470516244623
 21
66.63353784090911
 31
0.0
  0
LINE
  5
1B4
330
1F
100
AcDbEntity
  8
0
  6
CONTINUOUS
 62
     7
100
AcDbLine
 10
735.5341403028457
 20
66.64948961887481
 30
0.0
 11
735.5219001490553
 21
66.66596207894581
 31
0.0
  0
LINE
  5
1B5
330
1F
100
AcDbEntity
  8
0
  6
CONTINUOUS
 62
     7
100
AcDbLine
 10
735.7509002829917
 20
66.48981561571708
 30
0.0
 11
735.731015057886
 21
66.49777297395535
 31
0.0
  0
ARC
  5
1B6
330
1F
100
AcDbEntity
  8
0
  6
CONTINUOUS
 62
     7
100
AcDbCircle
 10
641.5797899545468
 20
188.6196972588887
 30
0.0
 40
1.223055524728274
100
AcDbArc
 50
60.62164328308466
 51
119.3783567169154
  0
LINE
  5
1B7
330
1F
100
AcDbEntity
  8
0
  6
CONTINUOUS
 62
     7
100
AcDbLine
 10
735.731015057886
 20
66.49777297395535
 30
0.0
 11
735.7114915138408
 21
66.50658035785281
 31
0.0
  0
LINE
  5
1B8
330
1F
100
AcDbEntity
  8
0
  6
CONTINUOUS
 62
     7
100
AcDbLine
 10
735.4793081037261
 20
66.73805947916689
 30
0.0
 11
735.4705530407733
 21
66.757253510462
 31
0.0
  0
LINE
  5
1B9
330
1F
100
AcDbEntity
  8
0
  6
CONTINUOUS
 62
     7
100
AcDbLine
 10
697.9760547746038
 20
42.17758706438018
 30
0.0
 11
697.9930057446938
 21
42.18912408944156
 31
0.0
  0
LINE
  5
1BA
330
1F
100
AcDbEntity
  8
0
  6
CENTER
 62
     1
100
AcDbLine
 10
629.0797899545469
 20
232.1196972588887
 30
0.0
 11
846.5797899545468
 21
232.1196972588887
 31
0.0
  0
LINE
  5
1BC
330
1F
100
AcDbEntity
  8
0
  6
CONTINUOUS
 62
     7
100
AcDbLine
 10
735.4331155295191
 20
66.89769281026021
 30
0.0
 11
735.4311293070069
 21
66.91875930578955
 31
0.0
  0
LINE
  5
1BD
330
1F
100
AcDbEntity
  8
0
  6
CONTINUOUS
 62
     7
100
AcDbLine
 10
735.7710916629944
 20
66.48273096449296
 30
0.0
 11
735.7509002829917
 21
66.48981561571708
 31
0.0
  0
LINE
  5
1BE
330
1F
100
AcDbEntity
  8
0
  6
CONTINUOUS
 62
     7
100
AcDbLine
 10
735.4888788487242
 20
66.71923744724661
 30
0.0
 11
735.4793081037261
 21
66.73805947916689
 31
0.0
  0
LINE
  5
1BF
330
1F
100
AcDbEntity
  8
0
  6
CONTINUOUS
 62
     7
100
AcDbLine
 10
697.8263077817124
 20
42.007102036416
 30
0.0
 11
697.8363656095958
 21
42.02509377397642
 31
0.0
  0
LINE
  5
1C0
330
1F
100
AcDbEntity
  8
0
  6
CONTINUOUS
 62
     7
100
AcDbLine
 10
698.0293301429045
 20
42.21060836471131
 30
0.0
 11
698.0481521748248
 21
42.22017910970951
 31
0.0
  0
LINE
  5
1C1
330
1F
100
AcDbEntity
  8
0
  6
CONTINUOUS
 62
     7
100
AcDbLine
 10
697.7710079023032
 20
41.82633007219744
 30
0.0
 11
697.7737154303427
 21
41.84753848347722
 31
0.0
  0
LINE
  5
1C2
330
1F
100
AcDbEntity
  8
0
  6
CONTINUOUS
 62
     7
100
AcDbLine
 10
698.1057888556584
 20
42.24363386151978
 30
0.0
 11
698.1254400883787
 21
42.24978646514875
 31
0.0
  0
LINE
  5
1C3
330
1F
100
AcDbEntity
  8
0
  6
CONTINUOUS
 62
     7
100
AcDbLine
 10
697.9436305365671
 20
42.15243558897322
 30
0.0
 11
697.9595823145328
 21
42.16534691058992
 31
0.0
  0
LINE
  5
1C4
330
1F
100
AcDbEntity
  8
0
  6
CONTINUOUS
 62
     7
100
AcDbLine
 10
735.4497007482869
 20
66.81534739272071
 30
0.0
 11
735.4443670095543
 21
66.83521836532623
 31
0.0
  0
LINE
  5
1C5
330
1F
100
AcDbEntity
  8
0
  6
CONTINUOUS
 62
     7
100
AcDbLine
 10
735.7114915138408
 20
66.50658035785281
 30
0.0
 11
735.6923851770196
 21
66.51621508605452
 31
0.0
  0
LINE
  5
1C6
330
1F
100
AcDbEntity
  8
0
  6
CONTINUOUS
 62
     7
100
AcDbLine
 10
735.5906300107772
 20
66.58815098274862
 30
0.0
 11
735.5752866334977
 21
66.6028340835041
 31
0.0
  0
LINE
  5
1C7
330
1F
100
AcDbEntity
  8
0
  6
CONTINUOUS
 62
     7
100
AcDbLine
 10
697.7737154303427
 20
41.84753848347722
 30
0.0
 11
697.777220207632
 21
41.86802553496289
 31
0.0
  0
LINE
  5
1C8
330
1F
100
AcDbEntity
  8
0
  6
CONTINUOUS
 62
     7
100
AcDbLine
 10
697.7692089964751
 20
41.80500567926271
 30
0.0
 11
697.7710079023032
 21
41.82633007219744
 31
0.0
  0
ARC
  5
1C9
330
1F
100
AcDbEntity
  8
0
  6
CONTINUOUS
 62
     7
100
AcDbCircle
 10
641.5797899545468
 20
275.6196972588887
 30
0.0
 40
1.223055524728274
100
AcDbArc
 50
60.62164328308466
 51
119.3783567169154
  0
LINE
  5
1CA
330
1F
100
AcDbEntity
  8
0
  6
CONTINUOUS
 62
     7
100
AcDbLine
 10
698.0481521748248
 20
42.22017910970951
 30
0.0
 11
698.06734620612
 21
42.22893417266221
 31
0.0
  0
LINE
  5
1CB
330
1F
100
AcDbEntity
  8
0
  6
CONTINUOUS
 62
     7
100
AcDbLine
 10
698.1868025762582
 20
42.26349842290968
 30
0.0
 11
698.2077855059182
 21
42.26637168391634
 31
0.0
  0
ARC
  5
1CC
330
1F
100
AcDbEntity
  8
0
  6
CONTINUOUS
 62
     7
100
AcDbCircle
 10
641.5797899545468
 20
275.6196972588887
 30
0.0
 40
2.449999999999981
100
AcDbArc
 50
255.8241964841318
 51
284.1758035158682
  0
LINE
  5
1CD
330
1F
100
AcDbEntity
  8
0
  6
CENTER
 62
     1
100
AcDbLine
 10
736.5797899545468
 20
138.1196972588887
 30
0.0
 11
736.5797899545468
 21
326.1196972588888
 31
0.0
  0
LINE
  5
1CE
330
1F
100
AcDbEntity
  8
0
  6
CONTINUOUS
 62
     7
100
AcDbLine
 10
735.5752866334977
 20
66.6028340835041
 30
0.0
 11
735.560602153003
 21
66.61814891713495
 31
0.0
  0
LINE
  5
1CF
330
1F
100
AcDbEntity
  8
0
  6
CONTINUOUS
 62
     7
100
AcDbLine
 10
735.8731571412382
 20
66.46091520664523
 30
0.0
 11
735.8519487299583
 21
66.46362273468472
 31
0.0
  0
LINE
  5
1D0
330
1F
100
AcDbEntity
  8
0
  6
CONTINUOUS
 62
     7
100
AcDbLine
 10
735.8314616784727
 20
66.46712751197401
 30
0.0
 11
735.8111209730813
 21
66.47148808143014
 31
0.0
  0
LINE
  5
1D1
330
1F
100
AcDbEntity
  8
0
  6
CONTINUOUS
 62
     7
100
AcDbLine
 10
697.8842321813685
 20
42.09289818966801
 30
0.0
 11
697.8982436784065
 21
42.10885720265837
 31
0.0
  0
LINE
  5
1D2
330
1F
100
AcDbEntity
  8
0
  6
CONTINUOUS
 62
     7
100
AcDbLine
 10
735.4705530407733
 20
66.757253510462
 30
0.0
 11
735.4628092921688
 21
66.77631481622703
 31
0.0
  0
LINE
  5
1D3
330
1F
100
AcDbEntity
  8
0
  6
CONTINUOUS
 62
     7
100
AcDbLine
 10
698.165959124077
 20
42.25974547802564
 30
0.0
 11
698.1868025762582
 21
42.26349842290968
 31
0.0
  0
LINE
  5
1D4
330
1F
100
AcDbEntity
  8
0
  6
CONTINUOUS
 62
     7
100
AcDbLine
 10
697.799908311375
 20
41.94858693044383
 30
0.0
 11
697.8078656696134
 21
41.96847215554961
 31
0.0
  0
LINE
  5
1D5
330
1F
100
AcDbEntity
  8
0
  6
CONTINUOUS
 62
     7
100
AcDbLine
 10
699.8355219873746
 20
42.2679818312986
 30
0.0
 11
699.8562117293912
 21
42.26584199731583
 31
0.0
  0
LINE
  5
1D6
330
1F
100
AcDbEntity
  8
0
  6
CONTINUOUS
 62
     7
100
AcDbLine
 10
699.8977873976576
 20
42.25888524130276
 30
0.0
 11
699.9186277267454
 21
42.2540219174254
 31
0.0
  0
LINE
  5
1D7
330
1F
100
AcDbEntity
  8
0
  6
CONTINUOUS
 62
     7
100
AcDbLine
 10
735.4443670095543
 20
66.83521836532623
 30
0.0
 11
735.4397417354099
 21
66.85586642841902
 31
0.0
  0
LINE
  5
1D8
330
1F
100
AcDbEntity
  8
0
  6
CONTINUOUS
 62
     7
100
AcDbLine
 10
735.8519487299583
 20
66.46362273468472
 30
0.0
 11
735.8314616784727
 21
66.46712751197401
 31
0.0
  0
LINE
  5
1D9
330
1F
100
AcDbEntity
  8
0
  6
CONTINUOUS
 62
     7
100
AcDbLine
 10
697.8078656696134
 20
41.96847215554961
 30
0.0
 11
697.8166730535108
 21
41.98799569959488
 31
0.0
  0
LINE
  5
1DA
330
1F
100
AcDbEntity
  8
0
  6
CONTINUOUS
 62
     7
100
AcDbLine
 10
735.5470516244623
 20
66.63353784090911
 30
0.0
 11
735.5341403028457
 21
66.64948961887481
 31
0.0
  0
LINE
  5
1DB
330
1F
100
AcDbEntity
  8
0
  6
CONTINUOUS
 62
     7
100
AcDbLine
 10
698.1254400883787
 20
42.24978646514875
 30
0.0
 11
698.1453110609842
 21
42.25512020388126
 31
0.0
  0
LINE
  5
1DC
330
1F
100
AcDbEntity
  8
0
  6
CONTINUOUS
 62
     7
100
AcDbLine
 10
697.9930057446938
 20
42.18912408944156
 30
0.0
 11
698.0109310272355
 21
42.2002480028834
 31
0.0
  0
LINE
  5
1DD
330
1F
100
AcDbEntity
  8
0
  6
CONTINUOUS
 62
     7
100
AcDbLine
 10
735.4311293070069
 20
66.91875930578955
 30
0.0
 11
735.4301248529302
 21
66.93711929159613
 31
0.0
  0
LINE
  5
1DE
330
1F
100
AcDbEntity
  8
0
  6
CONTINUOUS
 62
     7
100
AcDbLine
 10
697.9282416127929
 20
42.13888506043259
 30
0.0
 11
697.9436305365671
 21
42.15243558897322
 31
0.0
  0
LINE
  5
1DF
330
1F
100
AcDbEntity
  8
0
  6
CONTINUOUS
 62
     7
100
AcDbLine
 10
735.4992392105521
 20
66.70083833157753
 30
0.0
 11
735.4888788487242
 21
66.71923744724661
 31
0.0
  0
ARC
  5
1E0
330
1F
100
AcDbEntity
  8
0
  6
CONTINUOUS
 62
     7
100
AcDbCircle
 10
641.5797899545468
 20
275.6196972588887
 30
0.0
 40
2.449999999999967
100
AcDbArc
 50
165.8241964841331
 51
194.175803515867
  0
ARC
  5
1E1
330
1F
100
AcDbEntity
  8
0
  6
CONTINUOUS
 62
     7
100
AcDbCircle
 10
641.5797899545468
 20
275.6196972588887
 30
0.0
 40
1.223055524728274
100
AcDbArc
 50
240.6216432830846
 51
299.3783567169153
  0
LINE
  5
1E2
330
1F
100
AcDbEntity
  8
0
  6
CONTINUOUS
 62
     7
100
AcDbLine
 10
735.6065890237675
 20
66.57413948571057
 30
0.0
 11
735.5906300107772
 21
66.58815098274862
 31
0.0
  0
LINE
  5
1E3
330
1F
100
AcDbEntity
  8
0
  6
CONTINUOUS
 62
     7
100
AcDbLine
 10
735.7909798793876
 20
66.47669303496559
 30
0.0
 11
735.7710916629944
 21
66.48273096449296
 31
0.0
  0
LINE
  5
1E4
330
1F
100
AcDbEntity
  8
0
  6
CONTINUOUS
 62
     7
100
AcDbLine
 10
735.4628092921688
 20
66.77631481622703
 30
0.0
 11
735.4558533519157
 21
66.79569616000046
 31
0.0
  0
LINE
  5
1E5
330
1F
100
AcDbEntity
  8
0
  6
CONTINUOUS
 62
     7
100
AcDbLine
 10
735.6568217425881
 20
66.53708219018633
 30
0.0
 11
735.6397155715268
 21
66.5486140086634
 31
0.0
  0
ARC
  5
1E6
330
1F
100
AcDbEntity
  8
0
  6
CONTINUOUS
 62
     7
100
AcDbCircle
 10
641.5797899545468
 20
275.6196972588887
 30
0.0
 40
2.449999999999967
100
AcDbArc
 50
345.824196484133
 51
14.1758035158669
  0
LINE
  5
1E7
330
1F
100
AcDbEntity
  8
0
  6
CONTINUOUS
 62
     7
100
AcDbLine
 10
735.4558533519157
 20
66.79569616000046
 30
0.0
 11
735.4497007482869
 21
66.81534739272071
 31
0.0
  0
LINE
  5
1E8
330
1F
100
AcDbEntity
  8
0
  6
CONTINUOUS
 62
     7
100
AcDbLine
 10
735.8111209730813
 20
66.47148808143014
 30
0.0
 11
735.7909798793876
 21
66.47669303496559
 31
0.0
  0
LINE
  5
1E9
330
1F
100
AcDbEntity
  8
0
  6
CONTINUOUS
 62
     7
100
AcDbLine
 10
735.5219001490553
 20
66.66596207894581
 30
0.0
 11
735.510363123994
 21
66.68291304903595
 31
0.0
  0
LINE
  5
1EA
330
1F
100
AcDbEntity
  8
0
  6
CONTINUOUS
 62
     7
100
AcDbLine
 10
735.6397155715268
 20
66.5486140086634
 30
0.0
 11
735.6231204113952
 21
66.56083946323211
 31
0.0
  0
ARC
  5
1EB
330
1F
100
AcDbEntity
  8
0
  6
CONTINUOUS
 62
     7
100
AcDbCircle
 10
641.5797899545468
 20
188.6196972588887
 30
0.0
 40
2.450000000000034
100
AcDbArc
 50
75.82419648413212
 51
104.1758035158679
  0
ARC
  5
1EC
330
1F
100
AcDbEntity
  8
0
  6
CONTINUOUS
 62
     7
100
AcDbCircle
 10
641.5797899545468
 20
188.6196972588887
 30
0.0
 40
2.449999999999967
100
AcDbArc
 50
165.8241964841331
 51
194.175803515867
  0
ARC
  5
1ED
330
1F
100
AcDbEntity
  8
0
  6
CONTINUOUS
 62
     7
100
AcDbCircle
 10
641.5797899545468
 20
275.6196972588887
 30
0.0
 40
1.223055524728246
100
AcDbArc
 50
150.621643283087
 51
209.3783567169131
  0
LINE
  5
1EE
330
1F
100
AcDbEntity
  8
0
  6
CONTINUOUS
 62
     7
100
AcDbLine
 10
735.6231204113952
 20
66.56083946323211
 30
0.0
 11
735.6065890237675
 21
66.57413948571057
 31
0.0
  0
LINE
  5
1EF
330
1F
100
AcDbEntity
  8
0
  6
CONTINUOUS
 62
     7
100
AcDbLine
 10
699.8147615737023
 20
42.2692679074907
 30
0.0
 11
699.8355219873746
 21
42.2679818312986
 31
0.0
  0
LINE
  5
1F0
330
1F
100
AcDbEntity
  8
0
  6
CONTINUOUS
 62
     7
100
AcDbLine
 10
698.1453110609842
 20
42.25512020388126
 30
0.0
 11
698.165959124077
 21
42.25974547802564
 31
0.0
  0
LINE
  5
1F1
330
1F
100
AcDbEntity
  8
0
  6
CONTINUOUS
 62
     7
100
AcDbLine
 10
700.0539559816118
 20
42.19706338422357
 30
0.0
 11
700.0720065780152
 21
42.18553445752371
 31
0.0
  0
LINE
  5
1F2
330
1F
100
AcDbEntity
  8
0
  6
CONTINUOUS
 62
     7
100
AcDbLine
 10
697.8982436784065
 20
42.10885720265837
 30
0.0
 11
697.912926779162
 21
42.12420057993779
 31
0.0
  0
LINE
  5
1F3
330
1F
100
AcDbEntity
  8
0
  6
CONTINUOUS
 62
     7
100
AcDbLine
 10
700.1930580677048
 20
42.07054142767389
 30
0.0
 11
700.2053915527752
 21
42.05325228730903
 31
0.0
  0
LINE
  5
1F4
330
1F
100
AcDbEntity
  8
0
  6
CONTINUOUS
 62
     7
100
AcDbLine
 10
846.345475379496
 20
-8.880302741111207
 30
0.0
 11
841.8141045295974
 21
-8.880302741111207
 31
0.0
  0
LINE
  5
1F5
330
1F
100
AcDbEntity
  8
0
  6
CONTINUOUS
 62
     7
100
AcDbLine
 10
699.8562117293912
 20
42.26584199731583
 30
0.0
 11
699.8767777695969
 21
42.26285137254571
 31
0.0
  0
LINE
  5
1F6
330
1F
100
AcDbEntity
  8
0
  6
CONTINUOUS
 62
     7
100
AcDbLine
 10
634.4655763921736
 20
75.61969725888878
 30
0.0
 11
633.8797899545467
 21
75.61969725888878
 31
0.0
  0
LINE
  5
1F7
330
1F
100
AcDbEntity
  8
0
  6
CONTINUOUS
 62
     7
100
AcDbLine
 10
700.1662355691377
 20
42.10343770203164
 30
0.0
 11
700.1799943851465
 21
42.0872856478077
 31
0.0
  0
LINE
  5
1F8
330
1F
100
AcDbEntity
  8
0
  6
CONTINUOUS
 62
     7
100
AcDbLine
 10
821.5797899545468
 20
86.51969725888878
 30
0.0
 11
823.1797899545468
 21
86.51969725888878
 31
0.0
  0
LINE
  5
1F9
330
1F
100
AcDbEntity
  8
0
  6
CONTINUOUS
 62
     7
100
AcDbLine
 10
697.7736171184113
 20
41.7001191447455
 30
0.0
 11
697.7710057723932
 21
41.720754788546
 31
0.0
  0
LINE
  5
1FA
330
1F
100
AcDbEntity
  8
0
  6
CONTINUOUS
 62
     7
100
AcDbLine
 10
822.3797899545467
 20
-8.880302741111207
 30
0.0
 11
841.2484191046483
 21
-8.880302741111207
 31
0.0
  0
LINE
  5
1FB
330
1F
100
AcDbEntity
  8
0
  6
CONTINUOUS
 62
     7
100
AcDbLine
 10
735.4301248529302
 20
66.93711929159613
 30
0.0
 11
735.4297899545468
 21
66.95550369490616
 31
0.0
  0
LINE
  5
1FC
330
1F
100
AcDbEntity
  8
0
  6
CONTINUOUS
 62
     7
100
AcDbLine
 10
700.2685549569926
 20
41.92276606087139
 30
0.0
 11
700.2744443951631
 21
41.90248833467627
 31
0.0
  0
LINE
  5
1FD
330
1F
100
AcDbEntity
  8
0
  6
CONTINUOUS
 62
     7
100
AcDbLine
 10
699.9982142733498
 20
42.22630863753096
 30
0.0
 11
700.0170299524765
 21
42.21743593098556
 31
0.0
  0
LINE
  5
1FE
330
1F
100
AcDbEntity
  8
0
  6
CONTINUOUS
 62
     7
100
AcDbLine
 10
700.0720065780152
 20
42.18553445752371
 30
0.0
 11
700.0895432097734
 21
42.17323796289565
 31
0.0
  0
LINE
  5
1FF
330
1F
100
AcDbEntity
  8
0
  6
CONTINUOUS
 62
     7
100
AcDbLine
 10
697.8166730535108
 20
41.98799569959488
 30
0.0
 11
697.8263077817124
 21
42.007102036416
 31
0.0
  0
LINE
  5
200
330
1F
100
AcDbEntity
  8
0
  6
CONTINUOUS
 62
     7
100
AcDbLine
 10
699.9790448967763
 20
42.23438906846925
 30
0.0
 11
699.9982142733498
 21
42.22630863753096
 31
0.0
  0
LINE
  5
201
330
1F
100
AcDbEntity
  8
0
  6
CONTINUOUS
 62
     7
100
AcDbLine
 10
700.2856087854944
 20
41.69774968141932
 30
0.0
 11
700.2825065055157
 21
41.67962606781695
 31
0.0
  0
LINE
  5
202
330
1F
100
AcDbEntity
  8
0
  6
CONTINUOUS
 62
     7
100
AcDbLine
 10
841.2484191046483
 20
-3.880302741111202
 30
0.0
 11
845.7797899545467
 21
-3.880302741111202
 31
0.0
  0
LINE
  5
203
330
1F
100
AcDbEntity
  8
0
  6
CONTINUOUS
 62
     7
100
AcDbLine
 10
820.7262365639534
 20
-8.880302741111207
 30
0.0
 11
820.3726831733602
 21
-8.880302741111207
 31
0.0
  0
LINE
  5
204
330
1F
100
AcDbEntity
  8
0
  6
CONTINUOUS
 62
     7
100
AcDbLine
 10
631.3454753794961
 20
-8.880302741111207
 30
0.0
 11
626.8141045295976
 21
-8.880302741111207
 31
0.0
  0
LINE
  5
205
330
1F
100
AcDbEntity
  8
0
  6
CONTINUOUS
 62
     7
100
AcDbLine
 10
700.0170299524765
 20
42.21743593098556
 30
0.0
 11
700.0354417362477
 21
42.20779209893445
 31
0.0
  0
LINE
  5
206
330
1F
100
AcDbEntity
  8
0
  6
CONTINUOUS
 62
     7
100
AcDbLine
 10
700.2880487549887
 20
41.71597426983465
 30
0.0
 11
700.2856087854944
 21
41.69774968141932
 31
0.0
  0
LINE
  5
207
330
1F
100
AcDbEntity
  8
0
  6
CONTINUOUS
 62
     7
100
AcDbLine
 10
631.9111608044452
 20
-8.880302741111207
 30
0.0
 11
631.3454753794961
 21
-8.880302741111207
 31
0.0
  0
LINE
  5
208
330
1F
100
AcDbEntity
  8
0
  6
CONTINUOUS
 62
     7
100
AcDbLine
 10
650.7797899545468
 20
-8.880302741111207
 30
0.0
 11
631.9111608044452
 21
-8.880302741111207
 31
0.0
  0
LINE
  5
209
330
1F
100
AcDbEntity
  8
0
  6
CONTINUOUS
 62
     7
100
AcDbLine
 10
700.2744443951631
 20
41.90248833467627
 30
0.0
 11
700.2794630289918
 21
41.88199738905329
 31
0.0
  0
LINE
  5
20A
330
1F
100
AcDbEntity
  8
0
  6
CONTINUOUS
 62
     7
100
AcDbLine
 10
650.5797899545468
 20
75.61969725888878
 30
0.0
 11
651.5797899545468
 21
75.61969725888878
 31
0.0
  0
LINE
  5
20B
330
1F
100
AcDbEntity
  8
0
  6
CONTINUOUS
 62
     7
100
AcDbLine
 10
638.7082170792929
 20
75.61969725888878
 30
0.0
 11
637.2940035169199
 21
75.61969725888878
 31
0.0
  0
LINE
  5
20C
330
1F
100
AcDbEntity
  8
0
  6
CONTINUOUS
 62
     7
100
AcDbLine
 10
697.7683458520046
 20
41.76224317995148
 30
0.0
 11
697.7683209129963
 21
41.7836238625538
 31
0.0
  0
LINE
  5
20D
330
1F
100
AcDbEntity
  8
0
  6
CONTINUOUS
 62
     7
100
AcDbLine
 10
633.8797899545467
 20
75.61969725888878
 30
0.0
 11
633.8797899545467
 21
87.5196972588888
 31
0.0
  0
LINE
  5
20E
330
1F
100
AcDbEntity
  8
0
  6
CONTINUOUS
 62
     7
100
AcDbLine
 10
700.2169597763204
 20
42.03546547239194
 30
0.0
 11
700.2273999471764
 21
42.01781778077666
 31
0.0
  0
LINE
  5
20F
330
1F
100
AcDbEntity
  8
0
  6
CONTINUOUS
 62
     7
100
AcDbLine
 10
699.7939835185293
 20
42.2696972588888
 30
0.0
 11
699.8147615737023
 21
42.2692679074907
 31
0.0
  0
LINE
  5
210
330
1F
100
AcDbEntity
  8
0
  6
CONTINUOUS
 62
     7
100
AcDbLine
 10
700.2867288807628
 20
41.84148729818666
 30
0.0
 11
700.289105391743
 21
41.82103337101501
 31
0.0
  0
LINE
  5
211
330
1F
100
AcDbEntity
  8
0
  6
CONTINUOUS
 62
     7
100
AcDbLine
 10
652.7868967357333
 20
-8.880302741111207
 30
0.0
 11
652.43334334514
 21
-8.880302741111207
 31
0.0
  0
LINE
  5
212
330
1F
100
AcDbEntity
  8
0
  6
CONTINUOUS
 62
     7
100
AcDbLine
 10
697.777220207632
 20
41.86802553496289
 30
0.0
 11
697.781580777088
 21
41.88836624035424
 31
0.0
  0
LINE
  5
213
330
1F
100
AcDbEntity
  8
0
  6
CONTINUOUS
 62
     7
100
AcDbLine
 10
697.87093215889
 20
42.07636680204037
 30
0.0
 11
697.8842321813685
 21
42.09289818966801
 31
0.0
  0
LINE
  5
214
330
1F
100
AcDbEntity
  8
0
  6
CONTINUOUS
 62
     7
100
AcDbLine
 10
700.2542280829691
 20
41.96246229489468
 30
0.0
 11
700.2618108183159
 21
41.9427756776178
 31
0.0
  0
LINE
  5
215
330
1F
100
AcDbEntity
  8
0
  6
CONTINUOUS
 62
     7
100
AcDbLine
 10
698.2077855059182
 20
42.26637168391634
 30
0.0
 11
698.2288520014475
 21
42.26835790642859
 31
0.0
  0
LINE
  5
216
330
1F
100
AcDbEntity
  8
0
  6
CONTINUOUS
 62
     7
100
AcDbLine
 10
821.5797899545468
 20
87.5196972588888
 30
0.0
 11
821.5797899545468
 21
-8.880302741111207
 31
0.0
  0
LINE
  5
217
330
1F
100
AcDbEntity
  8
0
  6
CONTINUOUS
 62
     7
100
AcDbLine
 10
697.7683209129963
 20
41.7836238625538
 30
0.0
 11
697.7692089964751
 21
41.80500567926271
 31
0.0
  0
LINE
  5
218
330
1F
100
AcDbEntity
  8
0
  6
CONTINUOUS
 62
     7
100
AcDbLine
 10
699.9392416400258
 20
42.24827449639653
 30
0.0
 11
699.9595720206644
 21
42.24165607369903
 31
0.0
  0
LINE
  5
219
330
1F
100
AcDbEntity
  8
0
  6
CONTINUOUS
 62
     7
100
AcDbLine
 10
697.7692463540743
 20
41.74148035001559
 30
0.0
 11
697.7683458520046
 21
41.76224317995148
 31
0.0
  0
LINE
  5
21A
330
1F
100
AcDbEntity
  8
0
  6
CONTINUOUS
 62
     7
100
AcDbLine
 10
697.7710057723932
 20
41.720754788546
 30
0.0
 11
697.7692463540743
 21
41.74148035001559
 31
0.0
  0
LINE
  5
21B
330
1F
100
AcDbEntity
  8
0
  6
CONTINUOUS
 62
     7
100
AcDbLine
 10
698.2472119872541
 20
42.26936236050532
 30
0.0
 11
698.2655963905642
 21
42.2696972588888
 31
0.0
  0
LINE
  5
21C
330
1F
100
AcDbEntity
  8
0
  6
CONTINUOUS
 62
     7
100
AcDbLine
 10
735.4397417354099
 20
66.85586642841902
 30
0.0
 11
735.4359887905258
 21
66.87670988060017
 31
0.0
  0
LINE
  5
21D
330
1F
100
AcDbEntity
  8
0
  6
CONTINUOUS
 62
     7
100
AcDbLine
 10
697.781580777088
 20
41.88836624035424
 30
0.0
 11
697.7867857306236
 21
41.90850733404805
 31
0.0
  0
LINE
  5
21E
330
1F
100
AcDbEntity
  8
0
  6
CONTINUOUS
 62
     7
100
AcDbLine
 10
697.7928236601509
 20
41.92839555044107
 30
0.0
 11
697.799908311375
 21
41.94858693044383
 31
0.0
  0
LINE
  5
21F
330
1F
100
AcDbEntity
  8
0
  6
CONTINUOUS
 62
     7
100
AcDbLine
 10
698.2288520014475
 20
42.26835790642859
 30
0.0
 11
698.2472119872541
 21
42.26936236050532
 31
0.0
  0
LINE
  5
220
330
1F
100
AcDbEntity
  8
0
  6
CONTINUOUS
 62
     7
100
AcDbLine
 10
699.8767777695969
 20
42.26285137254571
 30
0.0
 11
699.8977873976576
 21
42.25888524130276
 31
0.0
  0
LINE
  5
221
330
1F
100
AcDbEntity
  8
0
  6
CONTINUOUS
 62
     7
100
AcDbLine
 10
697.8587067043213
 20
42.05977164190868
 30
0.0
 11
697.87093215889
 21
42.07636680204037
 31
0.0
  0
LINE
  5
222
330
1F
100
AcDbEntity
  8
0
  6
CONTINUOUS
 62
     7
100
AcDbLine
 10
700.0354417362477
 20
42.20779209893445
 30
0.0
 11
700.0539559816118
 21
42.19706338422357
 31
0.0
  0
LINE
  5
223
330
1F
100
AcDbEntity
  8
0
  6
CONTINUOUS
 62
     7
100
AcDbLine
 10
698.0109310272355
 20
42.2002480028834
 30
0.0
 11
698.0293301429045
 21
42.21060836471131
 31
0.0
  0
LINE
  5
224
330
1F
100
AcDbEntity
  8
0
  6
CONTINUOUS
 62
     7
100
AcDbLine
 10
697.912926779162
 20
42.12420057993779
 30
0.0
 11
697.9282416127929
 21
42.13888506043259
 31
0.0
  0
LINE
  5
225
330
1F
100
AcDbEntity
  8
0
  6
CONTINUOUS
 62
     7
100
AcDbLine
 10
735.4359887905258
 20
66.87670988060017
 30
0.0
 11
735.4331155295191
 21
66.89769281026021
 31
0.0
  0
LINE
  5
226
330
1F
100
AcDbEntity
  8
0
  6
CONTINUOUS
 62
     7
100
AcDbLine
 10
697.7867857306236
 20
41.90850733404805
 30
0.0
 11
697.7928236601509
 21
41.92839555044107
 31
0.0
  0
LINE
  5
227
330
1F
100
AcDbEntity
  8
0
  6
CONTINUOUS
 62
     7
100
AcDbLine
 10
698.086407511885
 20
42.23667792126679
 30
0.0
 11
698.1057888556584
 21
42.24363386151978
 31
0.0
  0
LINE
  5
228
330
1F
100
AcDbEntity
  8
0
  6
CONTINUOUS
 62
     7
100
AcDbLine
 10
699.9595720206644
 20
42.24165607369903
 30
0.0
 11
699.9790448967763
 21
42.23438906846925
 31
0.0
  0
LINE
  5
229
330
1F
100
AcDbEntity
  8
0
  6
CONTINUOUS
 62
     7
100
AcDbLine
 10
697.8471748858442
 20
42.04266547084734
 30
0.0
 11
697.8587067043213
 21
42.05977164190868
 31
0.0
  0
LINE
  5
22A
330
1F
100
AcDbEntity
  8
0
  6
CONTINUOUS
 62
     7
100
AcDbLine
 10
698.06734620612
 20
42.22893417266221
 30
0.0
 11
698.086407511885
 21
42.23667792126679
 31
0.0
  0
LINE
  5
22B
330
1F
100
AcDbEntity
  8
0
  6
CONTINUOUS
 62
     7
100
AcDbLine
 10
650.7797899545468
 20
-8.880302741111207
 30
0.0
 11
651.5797899545468
 21
-8.880302741111207
 31
0.0
  0
LINE
  5
22C
330
1F
100
AcDbEntity
  8
0
  6
CONTINUOUS
 62
     7
100
AcDbLine
 10
697.7770734035779
 20
41.67962606781691
 30
0.0
 11
697.7736171184113
 21
41.7001191447455
 31
0.0
  0
LINE
  5
22D
330
1F
100
AcDbEntity
  8
0
  6
CONTINUOUS
 62
     7
100
AcDbLine
 10
700.1375599981709
 20
42.13306807509186
 30
0.0
 11
700.1522135388794
 21
42.11854593307567
 31
0.0
  0
LINE
  5
22E
330
1F
100
AcDbEntity
  8
0
  6
CONTINUOUS
 62
     7
100
AcDbLine
 10
697.8363656095958
 20
42.02509377397642
 30
0.0
 11
697.8471748858442
 21
42.04266547084734
 31
0.0
  0
LINE
  5
22F
330
1F
100
AcDbEntity
  8
0
  6
CONTINUOUS
 62
     7
100
AcDbLine
 10
846.5797899545468
 20
-8.880302741111207
 30
0.0
 11
846.345475379496
 21
-8.880302741111207
 31
0.0
  0
LINE
  5
230
330
1F
100
AcDbEntity
  8
0
  6
CONTINUOUS
 62
     7
100
AcDbLine
 10
823.5797899545468
 20
30.11969725888877
 30
0.0
 11
821.5797899545468
 21
30.11969725888877
 31
0.0
  0
LINE
  5
231
330
1F
100
AcDbEntity
  8
0
  6
CONTINUOUS
 62
     7
100
AcDbLine
 10
700.1522135388794
 20
42.11854593307567
 30
0.0
 11
700.1662355691377
 21
42.10343770203164
 31
0.0
  0
LINE
  5
232
330
1F
100
AcDbEntity
  8
0
  6
CONTINUOUS
 62
     7
100
AcDbLine
 10
700.2460576309647
 20
41.98126879455024
 30
0.0
 11
700.2542280829691
 21
41.96246229489468
 31
0.0
  0
LINE
  5
233
330
1F
100
AcDbEntity
  8
0
  6
CONTINUOUS
 62
     7
100
AcDbLine
 10
846.5797899545468
 20
-4.680302741111197
 30
0.0
 11
846.5797899545468
 21
-8.880302741111207
 31
0.0
  0
LINE
  5
234
330
1F
100
AcDbEntity
  8
0
  6
CONTINUOUS
 62
     7
100
AcDbLine
 10
700.2911230313772
 20
41.75819101188463
 30
0.0
 11
700.2900293941046
 21
41.73704091020169
 31
0.0
  0
CIRCLE
  5
235
330
1F
100
AcDbEntity
  8
0
  6
CONTINUOUS
 62
     7
100
AcDbCircle
 10
711.3797899545467
 20
69.1196972588888
 30
0.0
 40
1.149999999999984
  0
CIRCLE
  5
236
330
1F
100
AcDbEntity
  8
0
  6
CONTINUOUS
 62
     7
100
AcDbCircle
 10
722.5797899545468
 20
71.9196972588888
 30
0.0
 40
1.149999999999984
  0
CIRCLE
  5
237
330
1F
100
AcDbEntity
  8
0
  6
CONTINUOUS
 62
     7
100
AcDbCircle
 10
705.7797899545467
 20
60.71969725888879
 30
0.0
 40
1.150000000000095
  0
CIRCLE
  5
238
330
1F
100
AcDbEntity
  8
0
  6
CONTINUOUS
 62
     7
100
AcDbCircle
 10
728.1797899545468
 20
69.1196972588888
 30
0.0
 40
1.149999999999984
  0
CIRCLE
  5
239
330
1F
100
AcDbEntity
  8
0
  6
CONTINUOUS
 62
     7
100
AcDbCircle
 10
716.9797899545467
 20
71.9196972588888
 30
0.0
 40
1.150000000000095
  0
CIRCLE
  5
23A
330
1F
100
AcDbEntity
  8
0
  6
CONTINUOUS
 62
     7
100
AcDbCircle
 10
697.3797899545467
 20
46.71969725888879
 30
0.0
 40
1.149999999999984
  0
CIRCLE
  5
23B
330
1F
100
AcDbEntity
  8
0
  6
CONTINUOUS
 62
     7
100
AcDbCircle
 10
722.5797899545468
 20
77.5196972588888
 30
0.0
 40
1.149999999999984
  0
CIRCLE
  5
23C
330
1F
100
AcDbEntity
  8
0
  6
CONTINUOUS
 62
     7
100
AcDbCircle
 10
767.3797899545468
 20
13.11969725888878
 30
0.0
 40
1.149999999999984
  0
CIRCLE
  5
23D
330
1F
100
AcDbEntity
  8
0
  6
CONTINUOUS
 62
     7
100
AcDbCircle
 10
758.9797899545467
 20
4.719697258888794
 30
0.0
 40
1.149999999999984
  0
CIRCLE
  5
23E
330
1F
100
AcDbEntity
  8
0
  6
CONTINUOUS
 62
     7
100
AcDbCircle
 10
764.5797899545468
 20
10.31969725888879
 30
0.0
 40
1.149999999999984
  0
CIRCLE
  5
23F
330
1F
100
AcDbEntity
  8
0
  6
CONTINUOUS
 62
     7
100
AcDbCircle
 10
722.5797899545468
 20
66.31969725888878
 30
0.0
 40
1.149999999999984
  0
CIRCLE
  5
240
330
1F
100
AcDbEntity
  8
0
  6
CONTINUOUS
 62
     7
100
AcDbCircle
 10
700.1797899545468
 20
63.51969725888878
 30
0.0
 40
1.149999999999984
  0
CIRCLE
  5
241
330
1F
100
AcDbEntity
  8
0
  6
CONTINUOUS
 62
     7
100
AcDbCircle
 10
733.7797899545467
 20
80.3196972588888
 30
0.0
 40
1.149999999999984
  0
CIRCLE
  5
242
330
1F
100
AcDbEntity
  8
0
  6
CONTINUOUS
 62
     7
100
AcDbCircle
 10
708.5797899545468
 20
69.1196972588888
 30
0.0
 40
1.149999999999984
  0
CIRCLE
  5
243
330
1F
100
AcDbEntity
  8
0
  6
CONTINUOUS
 62
     7
100
AcDbCircle
 10
697.3797899545467
 20
43.9196972588888
 30
0.0
 40
1.149999999999984
  0
CIRCLE
  5
244
330
1F
100
AcDbEntity
  8
0
  6
CONTINUOUS
 62
     7
100
AcDbCircle
 10
719.7797899545467
 20
77.5196972588888
 30
0.0
 40
1.149999999999984
  0
CIRCLE
  5
245
330
1F
100
AcDbEntity
  8
0
  6
CONTINUOUS
 62
     7
100
AcDbCircle
 10
733.7797899545467
 20
83.11969725888879
 30
0.0
 40
1.149999999999984
  0
CIRCLE
  5
246
330
1F
100
AcDbEntity
  8
0
  6
CONTINUOUS
 62
     7
100
AcDbCircle
 10
730.9797899545467
 20
80.3196972588888
 30
0.0
 40
1.150000000000095
  0
CIRCLE
  5
247
330
1F
100
AcDbEntity
  8
0
  6
CONTINUOUS
 62
     7
100
AcDbCircle
 10
714.1797899545468
 20
60.71969725888879
 30
0.0
 40
1.149999999999984
  0
CIRCLE
  5
248
330
1F
100
AcDbEntity
  8
0
  6
CONTINUOUS
 62
     7
100
AcDbCircle
 10
725.3797899545467
 20
71.9196972588888
 30
0.0
 40
1.149999999999984
  0
CIRCLE
  5
249
330
1F
100
AcDbEntity
  8
0
  6
CONTINUOUS
 62
     7
100
AcDbCircle
 10
714.1797899545468
 20
69.1196972588888
 30
0.0
 40
1.149999999999984
  0
CIRCLE
  5
24A
330
1F
100
AcDbEntity
  8
0
  6
CONTINUOUS
 62
     7
100
AcDbCircle
 10
716.9797899545467
 20
63.51969725888878
 30
0.0
 40
1.150000000000095
  0
CIRCLE
  5
24B
330
1F
100
AcDbEntity
  8
0
  6
CONTINUOUS
 62
     7
100
AcDbCircle
 10
750.5797899545468
 20
1.919697258888797
 30
0.0
 40
1.149999999999984
  0
CIRCLE
  5
24C
330
1F
100
AcDbEntity
  8
0
  6
CONTINUOUS
 62
     7
100
AcDbCircle
 10
700.1797899545468
 20
46.71969725888879
 30
0.0
 40
1.149999999999984
  0
CIRCLE
  5
24D
330
1F
100
AcDbEntity
  8
0
  6
CONTINUOUS
 62
     7
100
AcDbCircle
 10
716.9797899545468
 20
60.71969725888879
 30
0.0
 40
1.149999999999984
  0
CIRCLE
  5
24E
330
1F
100
AcDbEntity
  8
0
  6
CONTINUOUS
 62
     7
100
AcDbCircle
 10
725.3797899545467
 20
77.5196972588888
 30
0.0
 40
1.149999999999984
  0
CIRCLE
  5
24F
330
1F
100
AcDbEntity
  8
0
  6
CONTINUOUS
 62
     7
100
AcDbCircle
 10
728.1797899545468
 20
77.5196972588888
 30
0.0
 40
1.149999999999984
  0
CIRCLE
  5
250
330
1F
100
AcDbEntity
  8
0
  6
CONTINUOUS
 62
     7
100
AcDbCircle
 10
728.1797899545468
 20
71.9196972588888
 30
0.0
 40
1.149999999999984
  0
CIRCLE
  5
251
330
1F
100
AcDbEntity
  8
0
  6
CONTINUOUS
 62
     7
100
AcDbCircle
 10
714.1797899545468
 20
57.91969725888878
 30
0.0
 40
1.149999999999984
  0
CIRCLE
  5
252
330
1F
100
AcDbEntity
  8
0
  6
CONTINUOUS
 62
     7
100
AcDbCircle
 10
716.9797899545467
 20
69.1196972588888
 30
0.0
 40
1.150000000000095
  0
CIRCLE
  5
253
330
1F
100
AcDbEntity
  8
0
  6
CONTINUOUS
 62
     7
100
AcDbCircle
 10
711.3797899545467
 20
57.91969725888878
 30
0.0
 40
1.149999999999984
  0
CIRCLE
  5
254
330
1F
100
AcDbEntity
  8
0
  6
CONTINUOUS
 62
     7
100
AcDbCircle
 10
730.9797899545467
 20
71.9196972588888
 30
0.0
 40
1.150000000000095
  0
CIRCLE
  5
255
330
1F
100
AcDbEntity
  8
0
  6
CONTINUOUS
 62
     7
100
AcDbCircle
 10
702.9797899545467
 20
43.9196972588888
 30
0.0
 40
1.149999999999984
  0
CIRCLE
  5
256
330
1F
100
AcDbEntity
  8
0
  6
CONTINUOUS
 62
     7
100
AcDbCircle
 10
697.3797899545467
 20
49.51969725888879
 30
0.0
 40
1.149999999999984
  0
CIRCLE
  5
257
330
1F
100
AcDbEntity
  8
0
  6
CONTINUOUS
 62
     7
100
AcDbCircle
 10
719.7797899545467
 20
69.1196972588888
 30
0.0
 40
1.149999999999984
  0
CIRCLE
  5
258
330
1F
100
AcDbEntity
  8
0
  6
CONTINUOUS
 62
     7
100
AcDbCircle
 10
722.5797899545468
 20
69.1196972588888
 30
0.0
 40
1.149999999999984
  0
CIRCLE
  5
259
330
1F
100
AcDbEntity
  8
0
  6
CONTINUOUS
 62
     7
100
AcDbCircle
 10
725.3797899545467
 20
69.1196972588888
 30
0.0
 40
1.149999999999984
  0
CIRCLE
  5
25A
330
1F
100
AcDbEntity
  8
0
  6
CONTINUOUS
 62
     7
100
AcDbCircle
 10
775.7797899545468
 20
27.1196972588888
 30
0.0
 40
1.149999999999984
  0
CIRCLE
  5
25B
330
1F
100
AcDbEntity
  8
0
  6
CONTINUOUS
 62
     7
100
AcDbCircle
 10
705.7797899545467
 20
69.1196972588888
 30
0.0
 40
1.149999999999984
  0
CIRCLE
  5
25C
330
1F
100
AcDbEntity
  8
0
  6
CONTINUOUS
 62
     7
100
AcDbCircle
 10
714.1797899545468
 20
71.9196972588888
 30
0.0
 40
1.149999999999984
  0
CIRCLE
  5
25D
330
1F
100
AcDbEntity
  8
0
  6
CONTINUOUS
 62
     7
100
AcDbCircle
 10
702.9797899545467
 20
55.11969725888878
 30
0.0
 40
1.149999999999984
  0
CIRCLE
  5
25E
330
1F
100
AcDbEntity
  8
0
  6
CONTINUOUS
 62
     7
100
AcDbCircle
 10
733.7797899545467
 20
77.5196972588888
 30
0.0
 40
1.149999999999984
  0
CIRCLE
  5
25F
330
1F
100
AcDbEntity
  8
0
  6
CONTINUOUS
 62
     7
100
AcDbCircle
 10
796.5797899545466
 20
66.11969725888879
 30
0.0
 40
2.850000000000019
  0
CIRCLE
  5
260
330
1F
100
AcDbEntity
  8
0
  6
CONTINUOUS
 62
     7
100
AcDbCircle
 10
702.9797899545467
 20
46.71969725888879
 30
0.0
 40
1.149999999999984
  0
CIRCLE
  5
261
330
1F
100
AcDbEntity
  8
0
  6
CONTINUOUS
 62
     7
100
AcDbCircle
 10
711.3797899545467
 20
60.71969725888879
 30
0.0
 40
1.149999999999984
  0
CIRCLE
  5
262
330
1F
100
AcDbEntity
  8
0
  6
CONTINUOUS
 62
     7
100
AcDbCircle
 10
716.9797899545468
 20
57.91969725888878
 30
0.0
 40
1.149999999999984
  0
CIRCLE
  5
263
330
1F
100
AcDbEntity
  8
0
  6
CONTINUOUS
 62
     7
100
AcDbCircle
 10
730.9797899545467
 20
83.11969725888879
 30
0.0
 40
1.150000000000095
  0
CIRCLE
  5
264
330
1F
100
AcDbEntity
  8
0
  6
CONTINUOUS
 62
     7
100
AcDbCircle
 10
697.3797899545467
 20
57.91969725888878
 30
0.0
 40
1.149999999999984
  0
CIRCLE
  5
265
330
1F
100
AcDbEntity
  8
0
  6
CONTINUOUS
 62
     7
100
AcDbCircle
 10
719.7797899545467
 20
80.3196972588888
 30
0.0
 40
1.149999999999984
  0
CIRCLE
  5
266
330
1F
100
AcDbEntity
  8
0
  6
CONTINUOUS
 62
     7
100
AcDbCircle
 10
733.7797899545467
 20
71.9196972588888
 30
0.0
 40
1.149999999999984
  0
CIRCLE
  5
267
330
1F
100
AcDbEntity
  8
0
  6
CONTINUOUS
 62
     7
100
AcDbCircle
 10
708.5797899545468
 20
60.71969725888879
 30
0.0
 40
1.149999999999984
  0
CIRCLE
  5
268
330
1F
100
AcDbEntity
  8
0
  6
CONTINUOUS
 62
     7
100
AcDbCircle
 10
733.7797899545467
 20
63.51969725888878
 30
0.0
 40
1.149999999999984
  0
CIRCLE
  5
269
330
1F
100
AcDbEntity
  8
0
  6
CONTINUOUS
 62
     7
100
AcDbCircle
 10
728.1797899545468
 20
80.3196972588888
 30
0.0
 40
1.149999999999984
  0
CIRCLE
  5
26A
330
1F
100
AcDbEntity
  8
0
  6
CONTINUOUS
 62
     7
100
AcDbCircle
 10
716.9797899545467
 20
77.5196972588888
 30
0.0
 40
1.150000000000095
  0
CIRCLE
  5
26B
330
1F
100
AcDbEntity
  8
0
  6
CONTINUOUS
 62
     7
100
AcDbCircle
 10
722.5797899545468
 20
57.91969725888878
 30
0.0
 40
1.149999999999984
  0
CIRCLE
  5
26C
330
1F
100
AcDbEntity
  8
0
  6
CONTINUOUS
 62
     7
100
AcDbCircle
 10
714.1797899545468
 20
77.5196972588888
 30
0.0
 40
1.149999999999984
  0
CIRCLE
  5
26D
330
1F
100
AcDbEntity
  8
0
  6
CONTINUOUS
 62
     7
100
AcDbCircle
 10
700.1797899545468
 20
60.71969725888879
 30
0.0
 40
1.149999999999984
  0
CIRCLE
  5
26E
330
1F
100
AcDbEntity
  8
0
  6
CONTINUOUS
 62
     7
100
AcDbCircle
 10
719.7797899545467
 20
57.91969725888878
 30
0.0
 40
1.149999999999984
  0
CIRCLE
  5
26F
330
1F
100
AcDbEntity
  8
0
  6
CONTINUOUS
 62
     7
100
AcDbCircle
 10
725.3797899545467
 20
80.3196972588888
 30
0.0
 40
1.149999999999984
  0
CIRCLE
  5
270
330
1F
100
AcDbEntity
  8
0
  6
CONTINUOUS
 62
     7
100
AcDbCircle
 10
744.9797899545467
 20
-0.8803027411112135
 30
0.0
 40
1.149999999999984
  0
CIRCLE
  5
271
330
1F
100
AcDbEntity
  8
0
  6
CONTINUOUS
 62
     7
100
AcDbCircle
 10
728.1797899545468
 20
83.11969725888879
 30
0.0
 40
1.149999999999984
  0
CIRCLE
  5
272
330
1F
100
AcDbEntity
  8
0
  6
CONTINUOUS
 62
     7
100
AcDbCircle
 10
702.9797899545467
 20
60.71969725888879
 30
0.0
 40
1.149999999999984
  0
CIRCLE
  5
273
330
1F
100
AcDbEntity
  8
0
  6
CONTINUOUS
 62
     7
100
AcDbCircle
 10
772.9797899545467
 20
21.51969725888879
 30
0.0
 40
1.149999999999984
  0
CIRCLE
  5
274
330
1F
100
AcDbEntity
  8
0
  6
CONTINUOUS
 62
     7
100
AcDbCircle
 10
722.5797899545468
 20
80.3196972588888
 30
0.0
 40
1.149999999999984
  0
CIRCLE
  5
275
330
1F
100
AcDbEntity
  8
0
  6
CONTINUOUS
 62
     7
100
AcDbCircle
 10
733.7797899545467
 20
74.7196972588888
 30
0.0
 40
1.149999999999984
  0
CIRCLE
  5
276
330
1F
100
AcDbEntity
  8
0
  6
CONTINUOUS
 62
     7
100
AcDbCircle
 10
708.5797899545468
 20
71.9196972588888
 30
0.0
 40
1.149999999999984
  0
CIRCLE
  5
277
330
1F
100
AcDbEntity
  8
0
  6
CONTINUOUS
 62
     7
100
AcDbCircle
 10
716.9797899545467
 20
4.719697258888794
 30
0.0
 40
1.150000000000095
  0
CIRCLE
  5
278
330
1F
100
AcDbEntity
  8
0
  6
CONTINUOUS
 62
     7
100
AcDbCircle
 10
775.7797899545468
 20
52.31969725888879
 30
0.0
 40
1.149999999999984
  0
CIRCLE
  5
279
330
1F
100
AcDbEntity
  8
0
  6
CONTINUOUS
 62
     7
100
AcDbCircle
 10
796.5797899545466
 20
66.11969725888879
 30
0.0
 40
1.637564434701866
  0
CIRCLE
  5
27A
330
1F
100
AcDbEntity
  8
0
  6
CONTINUOUS
 62
     7
100
AcDbCircle
 10
711.3797899545467
 20
74.7196972588888
 30
0.0
 40
1.149999999999984
  0
CIRCLE
  5
27B
330
1F
100
AcDbEntity
  8
0
  6
CONTINUOUS
 62
     7
100
AcDbCircle
 10
728.1797899545468
 20
-0.8803027411112135
 30
0.0
 40
1.149999999999984
  0
CIRCLE
  5
27C
330
1F
100
AcDbEntity
  8
0
  6
CONTINUOUS
 62
     7
100
AcDbCircle
 10
796.5797899545466
 20
66.11969725888879
 30
0.0
 40
0.7500000000000284
  0
CIRCLE
  5
27D
330
1F
100
AcDbEntity
  8
0
  6
CONTINUOUS
 62
     7
100
AcDbCircle
 10
730.9797899545467
 20
69.1196972588888
 30
0.0
 40
1.150000000000095
  0
CIRCLE
  5
27E
330
1F
100
AcDbEntity
  8
0
  6
CONTINUOUS
 62
     7
100
AcDbCircle
 10
775.7797899545468
 20
32.71969725888878
 30
0.0
 40
1.149999999999984
  0
CIRCLE
  5
27F
330
1F
100
AcDbEntity
  8
0
  6
CONTINUOUS
 62
     7
100
AcDbCircle
 10
736.5797899545468
 20
41.11969725888879
 30
0.0
 40
18.64999999999995
  0
CIRCLE
  5
280
330
1F
100
AcDbEntity
  8
0
  6
CONTINUOUS
 62
     7
100
AcDbCircle
 10
778.5797899545468
 20
38.31969725888877
 30
0.0
 40
1.149999999999984
  0
CIRCLE
  5
281
330
1F
100
AcDbEntity
  8
0
  6
CONTINUOUS
 62
     7
100
AcDbCircle
 10
828.5797899545469
 20
81.11969725888879
 30
0.0
 40
0.9999999999998899
  0
CIRCLE
  5
282
330
1F
100
AcDbEntity
  8
0
  6
CONTINUOUS
 62
     7
100
AcDbCircle
 10
725.3797899545467
 20
1.919697258888797
 30
0.0
 40
1.149999999999984
  0
CIRCLE
  5
283
330
1F
100
AcDbEntity
  8
0
  6
CONTINUOUS
 62
     7
100
AcDbCircle
 10
798.5797899545466
 20
13.6196972588888
 30
0.0
 40
16.50000000000007
  0
CIRCLE
  5
284
330
1F
100
AcDbEntity
  8
0
  6
CONTINUOUS
 62
     7
100
AcDbCircle
 10
778.5797899545468
 20
43.9196972588888
 30
0.0
 40
1.149999999999984
  0
CIRCLE
  5
285
330
1F
100
AcDbEntity
  8
0
  6
CONTINUOUS
 62
     7
100
AcDbCircle
 10
711.3797899545467
 20
71.9196972588888
 30
0.0
 40
1.149999999999984
  0
CIRCLE
  5
286
330
1F
100
AcDbEntity
  8
0
  6
CONTINUOUS
 62
     7
100
AcDbCircle
 10
697.3797899545467
 20
29.91969725888879
 30
0.0
 40
1.149999999999984
  0
CIRCLE
  5
287
330
1F
100
AcDbEntity
  8
0
  6
CONTINUOUS
 62
     7
100
AcDbCircle
 10
770.1797899545467
 20
66.31969725888878
 30
0.0
 40
1.150000000000095
  0
CIRCLE
  5
288
330
1F
100
AcDbEntity
  8
0
  6
CONTINUOUS
 62
     7
100
AcDbCircle
 10
676.5797899545466
 20
66.11969725888879
 30
0.0
 40
1.637564434701866
  0
CIRCLE
  5
289
330
1F
100
AcDbEntity
  8
0
  6
CONTINUOUS
 62
     7
100
AcDbCircle
 10
1030.079789954547
 20
232.1196972588887
 30
0.0
 40
16.49999999999999
  0
CIRCLE
  5
28A
330
1F
100
AcDbEntity
  8
0
  6
CONTINUOUS
 62
     7
100
AcDbCircle
 10
674.5797899545466
 20
13.6196972588888
 30
0.0
 40
16.50000000000007
  0
CIRCLE
  5
28B
330
1F
100
AcDbEntity
  8
0
  6
CONTINUOUS
 62
     7
100
AcDbCircle
 10
722.5797899545468
 20
74.7196972588888
 30
0.0
 40
1.149999999999984
  0
CIRCLE
  5
28C
330
1F
100
AcDbEntity
  8
0
  6
CONTINUOUS
 62
     7
100
AcDbCircle
 10
1030.079789954547
 20
232.1196972588887
 30
0.0
 40
15.29999999999937
  0
CIRCLE
  5
28D
330
1F
100
AcDbEntity
  8
0
  6
CONTINUOUS
 62
     7
100
AcDbCircle
 10
700.1797899545468
 20
21.51969725888879
 30
0.0
 40
1.149999999999984
  0
CIRCLE
  5
28E
330
1F
100
AcDbEntity
  8
0
  6
CONTINUOUS
 62
     7
100
AcDbCircle
 10
641.5797899545468
 20
275.6196972588887
 30
0.0
 40
4.750000000000032
  0
CIRCLE
  5
28F
330
1F
100
AcDbEntity
  8
0
  6
CONTINUOUS
 62
     7
100
AcDbCircle
 10
702.9797899545467
 20
15.9196972588888
 30
0.0
 40
1.149999999999984
  0
CIRCLE
  5
290
330
1F
100
AcDbEntity
  8
0
  6
CONTINUOUS
 62
     7
100
AcDbCircle
 10
744.9797899545467
 20
83.11969725888879
 30
0.0
 40
1.149999999999984
  0
CIRCLE
  5
291
330
1F
100
AcDbEntity
  8
0
  6
CONTINUOUS
 62
     7
100
AcDbCircle
 10
676.5797899545466
 20
66.11969725888879
 30
0.0
 40
2.850000000000019
  0
CIRCLE
  5
292
330
1F
100
AcDbEntity
  8
0
  6
CONTINUOUS
 62
     7
100
AcDbCircle
 10
767.3797899545468
 20
69.11969725888879
 30
0.0
 40
1.149999999999984
  0
CIRCLE
  5
293
330
1F
100
AcDbEntity
  8
0
  6
CONTINUOUS
 62
     7
100
AcDbCircle
 10
676.5797899545466
 20
66.11969725888879
 30
0.0
 40
3.250000000000086
  0
CIRCLE
  5
294
330
1F
100
AcDbEntity
  8
0
  6
CONTINUOUS
 62
     7
100
AcDbCircle
 10
708.5797899545468
 20
10.31969725888879
 30
0.0
 40
1.149999999999984
  0
CIRCLE
  5
295
330
1F
100
AcDbEntity
  8
0
  6
CONTINUOUS
 62
     7
100
AcDbCircle
 10
714.1797899545468
 20
74.7196972588888
 30
0.0
 40
1.149999999999984
  0
CIRCLE
  5
296
330
1F
100
AcDbEntity
  8
0
  6
CONTINUOUS
 62
     7
100
AcDbCircle
 10
772.9797899545467
 20
60.71969725888879
 30
0.0
 40
1.149999999999984
  0
CIRCLE
  5
297
330
1F
100
AcDbEntity
  8
0
  6
CONTINUOUS
 62
     7
100
AcDbCircle
 10
733.7797899545467
 20
69.1196972588888
 30
0.0
 40
1.149999999999984
  0
CIRCLE
  5
298
330
1F
100
AcDbEntity
  8
0
  6
CONTINUOUS
 62
     7
100
AcDbCircle
 10
719.7797899545467
 20
74.7196972588888
 30
0.0
 40
1.149999999999984
  0
CIRCLE
  5
299
330
1F
100
AcDbEntity
  8
0
  6
CONTINUOUS
 62
     7
100
AcDbCircle
 10
676.5797899545466
 20
66.11969725888879
 30
0.0
 40
0.7500000000000284
  0
CIRCLE
  5
29A
330
1F
100
AcDbEntity
  8
0
  6
CONTINUOUS
 62
     7
100
AcDbCircle
 10
694.5797899545468
 20
35.51969725888878
 30
0.0
 40
1.150000000000095
  0
CIRCLE
  5
29B
330
1F
100
AcDbEntity
  8
0
  6
CONTINUOUS
 62
     7
100
AcDbCircle
 10
716.9797899545467
 20
74.7196972588888
 30
0.0
 40
1.150000000000095
  0
CIRCLE
  5
29C
330
1F
100
AcDbEntity
  8
0
  6
CONTINUOUS
 62
     7
100
AcDbCircle
 10
937.5797899545468
 20
188.6196972588887
 30
0.0
 40
3.500000000000003
  0
CIRCLE
  5
29D
330
1F
100
AcDbEntity
  8
0
  6
CONTINUOUS
 62
     7
100
AcDbCircle
 10
697.3797899545467
 20
27.1196972588888
 30
0.0
 40
1.149999999999984
  0
CIRCLE
  5
29E
330
1F
100
AcDbEntity
  8
0
  6
CONTINUOUS
 62
     7
100
AcDbCircle
 10
728.1797899545468
 20
74.7196972588888
 30
0.0
 40
1.149999999999984
  0
CIRCLE
  5
29F
330
1F
100
AcDbEntity
  8
0
  6
CONTINUOUS
 62
     7
100
AcDbCircle
 10
775.7797899545468
 20
29.91969725888878
 30
0.0
 40
1.149999999999984
  0
CIRCLE
  5
2A0
330
1F
100
AcDbEntity
  8
0
  6
CONTINUOUS
 62
     7
100
AcDbCircle
 10
758.9797899545467
 20
77.5196972588888
 30
0.0
 40
1.149999999999984
  0
CIRCLE
  5
2A1
330
1F
100
AcDbEntity
  8
0
  6
CONTINUOUS
 62
     7
100
AcDbCircle
 10
700.1797899545468
 20
18.71969725888879
 30
0.0
 40
1.149999999999984
  0
CIRCLE
  5
2A2
330
1F
100
AcDbEntity
  8
0
  6
CONTINUOUS
 62
     7
100
AcDbCircle
 10
756.1797899545467
 20
77.5196972588888
 30
0.0
 40
1.150000000000095
  0
CIRCLE
  5
2A3
330
1F
100
AcDbEntity
  8
0
  6
CONTINUOUS
 62
     7
100
AcDbCircle
 10
725.3797899545467
 20
74.7196972588888
 30
0.0
 40
1.149999999999984
  0
CIRCLE
  5
2A4
330
1F
100
AcDbEntity
  8
0
  6
CONTINUOUS
 62
     7
100
AcDbCircle
 10
719.7797899545467
 20
71.9196972588888
 30
0.0
 40
1.149999999999984
  0
CIRCLE
  5
2A5
330
1F
100
AcDbEntity
  8
0
  6
CONTINUOUS
 62
     7
100
AcDbCircle
 10
796.5797899545466
 20
66.11969725888879
 30
0.0
 40
3.250000000000086
  0
CIRCLE
  5
2A6
330
1F
100
AcDbEntity
  8
0
  6
CONTINUOUS
 62
     7
100
AcDbCircle
 10
708.5797899545468
 20
49.5196972588888
 30
0.0
 40
1.149999999999984
  0
CIRCLE
  5
2A7
330
1F
100
AcDbEntity
  8
0
  6
CONTINUOUS
 62
     7
100
AcDbCircle
 10
775.7797899545468
 20
24.3196972588888
 30
0.0
 40
1.149999999999984
  0
CIRCLE
  5
2A8
330
1F
100
AcDbEntity
  8
0
  6
CONTINUOUS
 62
     7
100
AcDbCircle
 10
730.9797899545467
 20
74.7196972588888
 30
0.0
 40
1.150000000000095
  0
CIRCLE
  5
2A9
330
1F
100
AcDbEntity
  8
0
  6
CONTINUOUS
 62
     7
100
AcDbCircle
 10
778.5797899545468
 20
35.51969725888878
 30
0.0
 40
1.149999999999984
  0
CIRCLE
  5
2AA
330
1F
100
AcDbEntity
  8
0
  6
CONTINUOUS
 62
     7
100
AcDbCircle
 10
778.5797899545468
 20
49.5196972588888
 30
0.0
 40
1.149999999999984
  0
CIRCLE
  5
2AB
330
1F
100
AcDbEntity
  8
0
  6
CONTINUOUS
 62
     7
100
AcDbCircle
 10
730.9797899545467
 20
77.5196972588888
 30
0.0
 40
1.150000000000095
  0
CIRCLE
  5
2AC
330
1F
100
AcDbEntity
  8
0
  6
CONTINUOUS
 62
     7
100
AcDbCircle
 10
714.1797899545468
 20
49.5196972588888
 30
0.0
 40
1.149999999999984
  0
CIRCLE
  5
2AD
330
1F
100
AcDbEntity
  8
0
  6
CONTINUOUS
 62
     7
100
AcDbCircle
 10
772.9797899545467
 20
63.51969725888878
 30
0.0
 40
1.149999999999984
  0
CIRCLE
  5
2AE
330
1F
100
AcDbEntity
  8
0
  6
CONTINUOUS
 62
     7
100
AcDbCircle
 10
733.7797899545467
 20
-0.8803027411112135
 30
0.0
 40
1.149999999999984
  0
CIRCLE
  5
2AF
330
1F
100
AcDbEntity
  8
0
  6
CONTINUOUS
 62
     7
100
AcDbCircle
 10
697.3797899545467
 20
24.3196972588888
 30
0.0
 40
1.149999999999984
  0
CIRCLE
  5
2B0
330
1F
100
AcDbEntity
  8
0
  6
CONTINUOUS
 62
     7
100
AcDbCircle
 10
778.5797899545468
 20
32.71969725888878
 30
0.0
 40
1.149999999999984
  0
CIRCLE
  5
2B1
330
1F
100
AcDbEntity
  8
0
  6
CONTINUOUS
 62
     7
100
AcDbCircle
 10
736.5797899545468
 20
41.11969725888878
 30
0.0
 40
17.00000000000001
  0
CIRCLE
  5
2B2
330
1F
100
AcDbEntity
  8
0
  6
CONTINUOUS
 62
     7
100
AcDbCircle
 10
711.3797899545467
 20
7.519697258888791
 30
0.0
 40
1.149999999999984
  0
CIRCLE
  5
2B3
330
1F
100
AcDbEntity
  8
0
  6
CONTINUOUS
 62
     7
100
AcDbCircle
 10
736.5797899545468
 20
82.86969725888879
 30
0.0
 40
1.149999999999984
  0
CIRCLE
  5
2B4
330
1F
100
AcDbEntity
  8
0
  6
CONTINUOUS
 62
     7
100
AcDbCircle
 10
705.7797899545467
 20
52.31969725888879
 30
0.0
 40
1.150000000000095
  0
CIRCLE
  5
2B5
330
1F
100
AcDbEntity
  8
0
  6
CONTINUOUS
 62
     7
100
AcDbCircle
 10
730.9797899545467
 20
-0.8803027411112135
 30
0.0
 40
1.150000000000095
  0
CIRCLE
  5
2B6
330
1F
100
AcDbEntity
  8
0
  6
CONTINUOUS
 62
     7
100
AcDbCircle
 10
694.5797899545468
 20
38.31969725888878
 30
0.0
 40
1.150000000000095
  0
CIRCLE
  5
2B7
330
1F
100
AcDbEntity
  8
0
  6
CONTINUOUS
 62
     7
100
AcDbCircle
 10
750.5797899545468
 20
80.3196972588888
 30
0.0
 40
1.149999999999984
  0
CIRCLE
  5
2B8
330
1F
100
AcDbEntity
  8
0
  6
CONTINUOUS
 62
     7
100
AcDbCircle
 10
711.3797899545467
 20
46.7196972588888
 30
0.0
 40
1.149999999999984
  0
CIRCLE
  5
2B9
330
1F
100
AcDbEntity
  8
0
  6
CONTINUOUS
 62
     7
100
AcDbCircle
 10
714.1797899545468
 20
46.7196972588888
 30
0.0
 40
1.149999999999984
  0
CIRCLE
  5
2BA
330
1F
100
AcDbEntity
  8
0
  6
CONTINUOUS
 62
     7
100
AcDbCircle
 10
714.1797899545468
 20
55.11969725888878
 30
0.0
 40
1.149999999999984
  0
LINE
  5
2BB
330
1F
100
AcDbEntity
  8
0
  6
CONTINUOUS
 62
     7
100
AcDbLine
 10
695.8256598964402
 20
15.24374736362978
 30
0.0
 11
695.8536189110141
 21
15.27453834327216
 31
0.0
  0
CIRCLE
  5
2BC
330
1F
100
AcDbEntity
  8
0
  6
CONTINUOUS
 62
     7
100
AcDbCircle
 10
719.7797899545467
 20
55.11969725888878
 30
0.0
 40
1.149999999999984
  0
CIRCLE
  5
2BD
330
1F
100
AcDbEntity
  8
0
  6
CONTINUOUS
 62
     7
100
AcDbCircle
 10
674.5797899545466
 20
13.6196972588888
 30
0.0
 40
15.29999999999943
  0
CIRCLE
  5
2BE
330
1F
100
AcDbEntity
  8
0
  6
CONTINUOUS
 62
     7
100
AcDbCircle
 10
778.5797899545468
 20
46.7196972588888
 30
0.0
 40
1.149999999999984
  0
CIRCLE
  5
2BF
330
1F
100
AcDbEntity
  8
0
  6
CONTINUOUS
 62
     7
100
AcDbCircle
 10
700.1797899545468
 20
52.31969725888879
 30
0.0
 40
1.149999999999984
  0
CIRCLE
  5
2C0
330
1F
100
AcDbEntity
  8
0
  6
CONTINUOUS
 62
     7
100
AcDbCircle
 10
705.7797899545467
 20
55.11969725888878
 30
0.0
 40
1.150000000000095
  0
CIRCLE
  5
2C1
330
1F
100
AcDbEntity
  8
0
  6
CONTINUOUS
 62
     7
100
AcDbCircle
 10
714.1797899545468
 20
43.9196972588888
 30
0.0
 40
1.149999999999984
  0
LINE
  5
2C2
330
1F
100
AcDbEntity
  8
0
  6
CONTINUOUS
 62
     7
100
AcDbLine
 10
695.9457007084485
 20
15.36030018268501
 30
0.0
 11
695.9793712678755
 21
15.38672518004529
 31
0.0
  0
LINE
  5
2C3
330
1F
100
AcDbEntity
  8
0
  6
CONTINUOUS
 62
     7
100
AcDbLine
 10
695.9793712678755
 20
15.38672518004529
 30
0.0
 11
696.0141386546353
 21
15.41168946278398
 31
0.0
  0
CIRCLE
  5
2C4
330
1F
100
AcDbEntity
  8
0
  6
CONTINUOUS
 62
     7
100
AcDbCircle
 10
764.5797899545468
 20
71.9196972588888
 30
0.0
 40
1.149999999999984
  0
LINE
  5
2C5
330
1F
100
AcDbEntity
  8
0
  6
CONTINUOUS
 62
     7
100
AcDbLine
 10
695.7254523283018
 20
15.10670810317159
 30
0.0
 11
695.7484800766741
 21
15.14280291596244
 31
0.0
  0
LINE
  5
2C6
330
1F
100
AcDbEntity
  8
0
  6
CONTINUOUS
 62
     7
100
AcDbLine
 10
695.7484800766741
 20
15.14280291596244
 30
0.0
 11
695.773026811114
 21
15.17788239472664
 31
0.0
  0
LINE
  5
2C7
330
1F
100
AcDbEntity
  8
0
  6
CONTINUOUS
 62
     7
100
AcDbLine
 10
695.773026811114
 20
15.17788239472664
 30
0.0
 11
695.7990274030236
 21
15.21184891514951
 31
0.0
  0
LINE
  5
2C8
330
1F
100
AcDbEntity
  8
0
  6
CONTINUOUS
 62
     7
100
AcDbLine
 10
696.197545271731
 20
15.51110757066282
 30
0.0
 11
696.2373860993316
 21
15.52659231851278
 31
0.0
  0
LINE
  5
2C9
330
1F
100
AcDbEntity
  8
0
  6
CONTINUOUS
 62
     7
100
AcDbLine
 10
695.8536189110141
 20
15.27453834327216
 30
0.0
 11
695.8828305122635
 21
15.30414362557936
 31
0.0
  0
LINE
  5
2CA
330
1F
100
AcDbEntity
  8
0
  6
CONTINUOUS
 62
     7
100
AcDbLine
 10
696.0855870119693
 20
15.45639327423447
 30
0.0
 11
696.1221494390483
 21
15.47618053825589
 31
0.0
  0
LINE
  5
2CB
330
1F
100
AcDbEntity
  8
0
  6
CONTINUOUS
 62
     7
100
AcDbLine
 10
695.8828305122635
 20
15.30414362557936
 30
0.0
 11
695.9132207657067
 21
15.33248498205403
 31
0.0
  0
LINE
  5
2CC
330
1F
100
AcDbEntity
  8
0
  6
CONTINUOUS
 62
     7
100
AcDbLine
 10
696.0141386546353
 20
15.41168946278398
 30
0.0
 11
696.0499090793751
 21
15.43512251955026
 31
0.0
  0
CIRCLE
  5
2CD
330
1F
100
AcDbEntity
  8
0
  6
CONTINUOUS
 62
     7
100
AcDbCircle
 10
775.7797899545468
 20
55.11969725888879
 30
0.0
 40
1.149999999999984
  0
LINE
  5
2CE
330
1F
100
AcDbEntity
  8
0
  6
CONTINUOUS
 62
     7
100
AcDbLine
 10
695.6847114364572
 20
15.03287846262801
 30
0.0
 11
695.7040086945951
 21
15.06969558066888
 31
0.0
  0
CIRCLE
  5
2CF
330
1F
100
AcDbEntity
  8
0
  6
CONTINUOUS
 62
     7
100
AcDbCircle
 10
736.5797899545468
 20
-0.6303027411111994
 30
0.0
 40
1.149999999999984
  0
CIRCLE
  5
2D0
330
1F
100
AcDbEntity
  8
0
  6
CONTINUOUS
 62
     7
100
AcDbCircle
 10
708.5797899545468
 20
57.91969725888878
 30
0.0
 40
1.149999999999984
  0
CIRCLE
  5
2D1
330
1F
100
AcDbEntity
  8
0
  6
CONTINUOUS
 62
     7
100
AcDbCircle
 10
719.7797899545467
 20
1.919697258888797
 30
0.0
 40
1.149999999999984
  0
CIRCLE
  5
2D2
330
1F
100
AcDbEntity
  8
0
  6
CONTINUOUS
 62
     7
100
AcDbCircle
 10
708.5797899545468
 20
46.7196972588888
 30
0.0
 40
1.149999999999984
  0
CIRCLE
  5
2D3
330
1F
100
AcDbEntity
  8
0
  6
CONTINUOUS
 62
     7
100
AcDbCircle
 10
798.5797899545466
 20
13.6196972588888
 30
0.0
 40
15.29999999999943
  0
CIRCLE
  5
2D4
330
1F
100
AcDbEntity
  8
0
  6
CONTINUOUS
 62
     7
100
AcDbCircle
 10
705.7797899545467
 20
57.91969725888878
 30
0.0
 40
1.150000000000095
  0
CIRCLE
  5
2D5
330
1F
100
AcDbEntity
  8
0
  6
CONTINUOUS
 62
     7
100
AcDbCircle
 10
700.1797899545468
 20
57.91969725888878
 30
0.0
 40
1.149999999999984
  0
CIRCLE
  5
2D6
330
1F
100
AcDbEntity
  8
0
  6
CONTINUOUS
 62
     7
100
AcDbCircle
 10
702.9797899545467
 20
57.91969725888878
 30
0.0
 40
1.149999999999984
  0
CIRCLE
  5
2D7
330
1F
100
AcDbEntity
  8
0
  6
CONTINUOUS
 62
     7
100
AcDbCircle
 10
711.3797899545467
 20
55.11969725888878
 30
0.0
 40
1.149999999999984
  0
CIRCLE
  5
2D8
330
1F
100
AcDbEntity
  8
0
  6
CONTINUOUS
 62
     7
100
AcDbCircle
 10
641.5797899545468
 20
188.6196972588887
 30
0.0
 40
4.750000000000032
  0
CIRCLE
  5
2D9
330
1F
100
AcDbEntity
  8
0
  6
CONTINUOUS
 62
     7
100
AcDbCircle
 10
775.7797899545468
 20
57.91969725888879
 30
0.0
 40
1.149999999999984
  0
LINE
  5
2DA
330
1F
100
AcDbEntity
  8
0
  6
CONTINUOUS
 62
     7
100
AcDbLine
 10
696.1221494390483
 20
15.47618053825589
 30
0.0
 11
696.1595007343795
 21
15.49443505570262
 31
0.0
  0
CIRCLE
  5
2DB
330
1F
100
AcDbEntity
  8
0
  6
CONTINUOUS
 62
     7
100
AcDbCircle
 10
722.5797899545468
 20
1.919697258888797
 30
0.0
 40
1.149999999999984
  0
CIRCLE
  5
2DC
330
1F
100
AcDbEntity
  8
0
  6
CONTINUOUS
 62
     7
100
AcDbCircle
 10
700.1797899545468
 20
49.51969725888879
 30
0.0
 40
1.149999999999984
  0
CIRCLE
  5
2DD
330
1F
100
AcDbEntity
  8
0
  6
CONTINUOUS
 62
     7
100
AcDbCircle
 10
694.5797899545468
 20
32.71969725888879
 30
0.0
 40
1.150000000000095
  0
CIRCLE
  5
2DE
330
1F
100
AcDbEntity
  8
0
  6
CONTINUOUS
 62
     7
100
AcDbCircle
 10
702.9797899545467
 20
52.31969725888879
 30
0.0
 40
1.149999999999984
  0
CIRCLE
  5
2DF
330
1F
100
AcDbEntity
  8
0
  6
CONTINUOUS
 62
     7
100
AcDbCircle
 10
753.3797899545468
 20
80.3196972588888
 30
0.0
 40
1.149999999999984
  0
CIRCLE
  5
2E0
330
1F
100
AcDbEntity
  8
0
  6
CONTINUOUS
 62
     7
100
AcDbCircle
 10
716.9797899545468
 20
55.11969725888878
 30
0.0
 40
1.149999999999984
  0
CIRCLE
  5
2E1
330
1F
100
AcDbEntity
  8
0
  6
CONTINUOUS
 62
     7
100
AcDbCircle
 10
708.5797899545468
 20
55.11969725888878
 30
0.0
 40
1.149999999999984
  0
LINE
  5
2E2
330
1F
100
AcDbEntity
  8
0
  6
CONTINUOUS
 62
     7
100
AcDbLine
 10
695.6669451525147
 20
14.9952588531018
 30
0.0
 11
695.6847114364572
 21
15.03287846262801
 31
0.0
  0
LINE
  5
2E3
330
1F
100
AcDbEntity
  8
0
  6
CONTINUOUS
 62
     7
100
AcDbLine
 10
695.9132207657067
 20
15.33248498205403
 30
0.0
 11
695.9457007084485
 21
15.36030018268501
 31
0.0
  0
CIRCLE
  5
2E4
330
1F
100
AcDbEntity
  8
0
  6
CONTINUOUS
 62
     7
100
AcDbCircle
 10
711.3797899545467
 20
49.5196972588888
 30
0.0
 40
1.149999999999984
  0
CIRCLE
  5
2E5
330
1F
100
AcDbEntity
  8
0
  6
CONTINUOUS
 62
     7
100
AcDbCircle
 10
705.7797899545467
 20
49.51969725888879
 30
0.0
 40
1.150000000000095
  0
CIRCLE
  5
2E6
330
1F
100
AcDbEntity
  8
0
  6
CONTINUOUS
 62
     7
100
AcDbCircle
 10
702.9797899545467
 20
49.51969725888879
 30
0.0
 40
1.149999999999984
  0
CIRCLE
  5
2E7
330
1F
100
AcDbEntity
  8
0
  6
CONTINUOUS
 62
     7
100
AcDbCircle
 10
716.9797899545468
 20
49.5196972588888
 30
0.0
 40
1.149999999999984
  0
LINE
  5
2E8
330
1F
100
AcDbEntity
  8
0
  6
CONTINUOUS
 62
     7
100
AcDbLine
 10
695.6113456695246
 20
14.83612025430527
 30
0.0
 11
695.6228935581478
 21
14.87734708191828
 31
0.0
  0
LINE
  5
2E9
330
1F
100
AcDbEntity
  8
0
  6
CONTINUOUS
 62
     7
100
AcDbLine
 10
695.6228935581478
 20
14.87734708191828
 30
0.0
 11
695.636180914104
 21
14.91800538863076
 31
0.0
  0
CIRCLE
  5
2EA
330
1F
100
AcDbEntity
  8
0
  6
CONTINUOUS
 62
     7
100
AcDbCircle
 10
742.1797899545468
 20
83.11969725888879
 30
0.0
 40
1.149999999999984
  0
LINE
  5
2EB
330
1F
100
AcDbEntity
  8
0
  6
CONTINUOUS
 62
     7
100
AcDbLine
 10
695.6507536944897
 20
14.9569350593496
 30
0.0
 11
695.6669451525147
 21
14.9952588531018
 31
0.0
  0
CIRCLE
  5
2EC
330
1F
100
AcDbEntity
  8
0
  6
CONTINUOUS
 62
     7
100
AcDbCircle
 10
761.7797899545468
 20
74.7196972588888
 30
0.0
 40
1.149999999999984
  0
CIRCLE
  5
2ED
330
1F
100
AcDbEntity
  8
0
  6
CONTINUOUS
 62
     7
100
AcDbCircle
 10
708.5797899545468
 20
43.9196972588888
 30
0.0
 40
1.149999999999984
  0
LINE
  5
2EE
330
1F
100
AcDbEntity
  8
0
  6
CONTINUOUS
 62
     7
100
AcDbLine
 10
695.7990274030236
 20
15.21184891514951
 30
0.0
 11
695.8256598964402
 21
15.24374736362978
 31
0.0
  0
CIRCLE
  5
2EF
330
1F
100
AcDbEntity
  8
0
  6
CONTINUOUS
 62
     7
100
AcDbCircle
 10
705.7797899545467
 20
13.11969725888878
 30
0.0
 40
1.149999999999984
  0
CIRCLE
  5
2F0
330
1F
100
AcDbEntity
  8
0
  6
CONTINUOUS
 62
     7
100
AcDbCircle
 10
711.3797899545467
 20
43.9196972588888
 30
0.0
 40
1.149999999999984
  0
CIRCLE
  5
2F1
330
1F
100
AcDbEntity
  8
0
  6
CONTINUOUS
 62
     7
100
AcDbCircle
 10
714.1797899545468
 20
4.719697258888794
 30
0.0
 40
1.149999999999984
  0
CIRCLE
  5
2F2
330
1F
100
AcDbEntity
  8
0
  6
CONTINUOUS
 62
     7
100
AcDbCircle
 10
747.7797899545467
 20
80.3196972588888
 30
0.0
 40
1.149999999999984
  0
CIRCLE
  5
2F3
330
1F
100
AcDbEntity
  8
0
  6
CONTINUOUS
 62
     7
100
AcDbCircle
 10
778.3297899545466
 20
41.11969725888879
 30
0.0
 40
1.149999999999984
  0
CIRCLE
  5
2F4
330
1F
100
AcDbEntity
  8
0
  6
CONTINUOUS
 62
     7
100
AcDbCircle
 10
739.3797899545468
 20
83.11969725888879
 30
0.0
 40
1.149999999999984
  0
LINE
  5
2F5
330
1F
100
AcDbEntity
  8
0
  6
CONTINUOUS
 62
     7
100
AcDbLine
 10
820.3726831733602
 20
-8.880302741111207
 30
0.0
 11
749.0797899545468
 21
-8.880302741111207
 31
0.0
  0
LINE
  5
2F6
330
1F
100
AcDbEntity
  8
0
  6
CONTINUOUS
 62
     7
100
AcDbLine
 10
777.3429200570135
 20
15.23327024556294
 30
0.0
 11
777.369828496591
 21
15.20006966261306
 31
0.0
  0
LINE
  5
2F7
330
1F
100
AcDbEntity
  8
0
  6
CONTINUOUS
 62
     7
100
AcDbLine
 10
776.5644419134628
 20
15.58686652303196
 30
0.0
 11
776.6072037107073
 21
15.58662133643503
 31
0.0
  0
LINE
  5
2F8
330
1F
100
AcDbEntity
  8
0
  6
CONTINUOUS
 62
     7
100
AcDbLine
 10
757.9103565198698
 20
-2.880302741111201
 30
0.0
 11
757.8687800557083
 21
-2.879435866524643
 31
0.0
  0
LINE
  5
2F9
330
1F
100
AcDbEntity
  8
0
  6
CONTINUOUS
 62
     7
100
AcDbLine
 10
777.4981156748411
 20
14.98278022513004
 30
0.0
 11
777.5137627852926
 21
14.94429563780926
 31
0.0
  0
LINE
  5
2FA
330
1F
100
AcDbEntity
  8
0
  6
CONTINUOUS
 62
     7
100
AcDbLine
 10
777.5408658964996
 20
14.86318610486495
 30
0.0
 11
777.5518038729635
 21
14.82181941280822
 31
0.0
  0
LINE
  5
2FB
330
1F
100
AcDbEntity
  8
0
  6
CONTINUOUS
 62
     7
100
AcDbLine
 10
757.7858422777971
 20
-2.872527387120738
 30
0.0
 11
757.7446954023674
 21
-2.866503460495717
 31
0.0
  0
LINE
  5
2FC
330
1F
100
AcDbEntity
  8
0
  6
CONTINUOUS
 62
     7
100
AcDbLine
 10
757.8272395686307
 20
-2.876841135495772
 30
0.0
 11
757.7858422777971
 21
-2.872527387120738
 31
0.0
  0
LINE
  5
2FD
330
1F
100
AcDbEntity
  8
0
  6
CONTINUOUS
 62
     7
100
AcDbLine
 10
777.5609564882028
 20
14.78006145822024
 30
0.0
 11
777.5691713115449
 21
14.73218041278465
 31
0.0
  0
LINE
  5
2FE
330
1F
100
AcDbEntity
  8
0
  6
CONTINUOUS
 62
     7
100
AcDbLine
 10
777.5691713115449
 20
14.73218041278465
 30
0.0
 11
777.5750595273532
 21
14.68390009849838
 31
0.0
  0
LINE
  5
2FF
330
1F
100
AcDbEntity
  8
0
  6
CONTINUOUS
 62
     7
100
AcDbLine
 10
757.3541389759989
 20
-2.711545940407956
 30
0.0
 11
757.3190446215997
 21
-2.686987689217435
 31
0.0
  0
LINE
  5
300
330
1F
100
AcDbEntity
  8
0
  6
CONTINUOUS
 62
     7
100
AcDbLine
 10
757.4272781025189
 20
-2.756037293553157
 30
0.0
 11
757.3902493864151
 21
-2.734584187252267
 31
0.0
  0
LINE
  5
301
330
1F
100
AcDbEntity
  8
0
  6
CONTINUOUS
 62
     7
100
AcDbLine
 10
777.2566422529545
 20
15.32315484576274
 30
0.0
 11
777.2866447171259
 21
15.29438652203117
 31
0.0
  0
LINE
  5
302
330
1F
100
AcDbEntity
  8
0
  6
CONTINUOUS
 62
     7
100
AcDbLine
 10
757.5400876240751
 20
-2.80931399607802
 30
0.0
 11
757.5017471121711
 21
-2.79311615353825
 31
0.0
  0
LINE
  5
303
330
1F
100
AcDbEntity
  8
0
  6
CONTINUOUS
 62
     7
100
AcDbLine
 10
757.2223606870838
 20
-2.606365753079903
 30
0.0
 11
757.1927493322106
 21
-2.577144702107709
 31
0.0
  0
LINE
  5
304
330
1F
100
AcDbEntity
  8
0
  6
CONTINUOUS
 62
     7
100
AcDbLine
 10
777.4417644992012
 20
15.09394527351761
 30
0.0
 11
777.4620700278316
 21
15.05770192664312
 31
0.0
  0
LINE
  5
305
330
1F
100
AcDbEntity
  8
0
  6
CONTINUOUS
 62
     7
100
AcDbLine
 10
757.7026542736477
 20
-2.85851918422364
 30
0.0
 11
757.6609546290374
 21
-2.848736518119607
 31
0.0
  0
LINE
  5
306
330
1F
100
AcDbEntity
  8
0
  6
CONTINUOUS
 62
     7
100
AcDbLine
 10
777.4808692543661
 20
15.02061461596096
 30
0.0
 11
777.4981156748411
 21
14.98278022513004
 31
0.0
  0
LINE
  5
307
330
1F
100
AcDbEntity
  8
0
  6
CONTINUOUS
 62
     7
100
AcDbLine
 10
776.8962337264331
 20
15.53564843253383
 30
0.0
 11
776.9364853773436
 21
15.52126533501731
 31
0.0
  0
LINE
  5
308
330
1F
100
AcDbEntity
  8
0
  6
CONTINUOUS
 62
     7
100
AcDbLine
 10
777.192283908999
 20
15.37751744956309
 30
0.0
 11
777.2254978544157
 21
15.35062859978388
 31
0.0
  0
LINE
  5
309
330
1F
100
AcDbEntity
  8
0
  6
CONTINUOUS
 62
     7
100
AcDbLine
 10
776.8553665252016
 20
15.54830904781888
 30
0.0
 11
776.8962337264331
 21
15.53564843253383
 31
0.0
  0
LINE
  5
30A
330
1F
100
AcDbEntity
  8
0
  6
CONTINUOUS
 62
     7
100
AcDbLine
 10
776.9749653699872
 20
15.50564925435163
 30
0.0
 11
777.0127961925829
 21
15.4884334156703
 31
0.0
  0
LINE
  5
30B
330
1F
100
AcDbEntity
  8
0
  6
CONTINUOUS
 62
     7
100
AcDbLine
 10
757.0617507717707
 20
-2.410007462117905
 30
0.0
 11
757.0404852753053
 21
-2.37432702646527
 31
0.0
  0
LINE
  5
30C
330
1F
100
AcDbEntity
  8
0
  6
CONTINUOUS
 62
     7
100
AcDbLine
 10
777.0861227921725
 20
15.44938874456574
 30
0.0
 11
777.1225008639695
 21
15.42696528101101
 31
0.0
  0
LINE
  5
30D
330
1F
100
AcDbEntity
  8
0
  6
CONTINUOUS
 62
     7
100
AcDbLine
 10
757.295763058536
 20
-1.091515049978162
 30
0.0
 11
757.3273517313226
 21
-1.067897654783045
 31
0.0
  0
LINE
  5
30E
330
1F
100
AcDbEntity
  8
0
  6
CONTINUOUS
 62
     7
100
AcDbLine
 10
756.9703109699653
 20
-2.222518403141915
 30
0.0
 11
756.9565384795217
 21
-2.182012405610736
 31
0.0
  0
LINE
  5
30F
330
1F
100
AcDbEntity
  8
0
  6
CONTINUOUS
 62
     7
100
AcDbLine
 10
757.1771266684714
 20
-1.200304189919316
 30
0.0
 11
757.2068641108468
 21
-1.16960251427739
 31
0.0
  0
LINE
  5
310
330
1F
100
AcDbEntity
  8
0
  6
CONTINUOUS
 62
     7
100
AcDbLine
 10
695.5797899545468
 20
14.58682522325545
 30
0.0
 11
695.5806565612717
 21
14.62838389111629
 31
0.0
  0
LINE
  5
311
330
1F
100
AcDbEntity
  8
0
  6
CONTINUOUS
 62
     7
100
AcDbLine
 10
776.6486931780797
 20
15.58462535506763
 30
0.0
 11
776.6900996984045
 21
15.58090420856296
 31
0.0
  0
LINE
  5
312
330
1F
100
AcDbEntity
  8
0
  6
CONTINUOUS
 62
     7
100
AcDbLine
 10
776.6072037107073
 20
15.58662133643503
 30
0.0
 11
776.6486931780797
 21
15.58462535506763
 31
0.0
  0
LINE
  5
313
330
1F
100
AcDbEntity
  8
0
  6
CONTINUOUS
 62
     7
100
AcDbLine
 10
757.0404852753053
 20
-2.37432702646527
 30
0.0
 11
757.0207036005473
 21
-2.337762178409489
 31
0.0
  0
LINE
  5
314
330
1F
100
AcDbEntity
  8
0
  6
CONTINUOUS
 62
     7
100
AcDbLine
 10
777.2866447171259
 20
15.29438652203117
 30
0.0
 11
777.3154293005917
 21
15.26439964862072
 31
0.0
  0
LINE
  5
315
330
1F
100
AcDbEntity
  8
0
  6
CONTINUOUS
 62
     7
100
AcDbLine
 10
757.2531583738563
 20
-2.634333691152374
 30
0.0
 11
757.2223606870838
 21
-2.606365753079903
 31
0.0
  0
LINE
  5
316
330
1F
100
AcDbEntity
  8
0
  6
CONTINUOUS
 62
     7
100
AcDbLine
 10
757.3902493864151
 20
-2.734584187252267
 30
0.0
 11
757.3541389759989
 21
-2.711545940407956
 31
0.0
  0
LINE
  5
317
330
1F
100
AcDbEntity
  8
0
  6
CONTINUOUS
 62
     7
100
AcDbLine
 10
776.7722362347686
 20
15.56833367020784
 30
0.0
 11
776.8139964643973
 21
15.55921489050078
 31
0.0
  0
LINE
  5
318
330
1F
100
AcDbEntity
  8
0
  6
CONTINUOUS
 62
     7
100
AcDbLine
 10
757.4641111410276
 20
-2.775342643096729
 30
0.0
 11
757.4272781025189
 21
-2.756037293553157
 31
0.0
  0
LINE
  5
319
330
1F
100
AcDbEntity
  8
0
  6
CONTINUOUS
 62
     7
100
AcDbLine
 10
777.369828496591
 20
15.20006966261306
 30
0.0
 11
777.3953171406442
 21
15.16571829748271
 31
0.0
  0
LINE
  5
31A
330
1F
100
AcDbEntity
  8
0
  6
CONTINUOUS
 62
     7
100
AcDbLine
 10
777.5518038729635
 20
14.82181941280822
 30
0.0
 11
777.5609564882028
 21
14.78006145822024
 31
0.0
  0
LINE
  5
31B
330
1F
100
AcDbEntity
  8
0
  6
CONTINUOUS
 62
     7
100
AcDbLine
 10
777.5750595273532
 20
14.68390009849838
 30
0.0
 11
777.5786045901724
 21
14.63539140533185
 31
0.0
  0
LINE
  5
31C
330
1F
100
AcDbEntity
  8
0
  6
CONTINUOUS
 62
     7
100
AcDbLine
 10
777.1225008639695
 20
15.42696528101101
 30
0.0
 11
777.157919740881
 21
15.40298559632447
 31
0.0
  0
LINE
  5
31D
330
1F
100
AcDbEntity
  8
0
  6
CONTINUOUS
 62
     7
100
AcDbLine
 10
757.6609546290374
 20
-2.848736518119607
 30
0.0
 11
757.6197100917163
 21
-2.837184543558788
 31
0.0
  0
LINE
  5
31E
330
1F
100
AcDbEntity
  8
0
  6
CONTINUOUS
 62
     7
100
AcDbLine
 10
757.8687800557083
 20
-2.879435866524643
 30
0.0
 11
757.8272395686307
 21
-2.876841135495772
 31
0.0
  0
LINE
  5
31F
330
1F
100
AcDbEntity
  8
0
  6
CONTINUOUS
 62
     7
100
AcDbLine
 10
777.2254978544157
 20
15.35062859978388
 30
0.0
 11
777.2566422529545
 21
15.32315484576274
 31
0.0
  0
LINE
  5
320
330
1F
100
AcDbEntity
  8
0
  6
CONTINUOUS
 62
     7
100
AcDbLine
 10
757.7446954023674
 20
-2.866503460495717
 30
0.0
 11
757.7026542736477
 21
-2.85851918422364
 31
0.0
  0
LINE
  5
321
330
1F
100
AcDbEntity
  8
0
  6
CONTINUOUS
 62
     7
100
AcDbLine
 10
777.5137627852926
 20
14.94429563780926
 30
0.0
 11
777.5281747901598
 21
14.90404901849658
 31
0.0
  0
LINE
  5
322
330
1F
100
AcDbEntity
  8
0
  6
CONTINUOUS
 62
     7
100
AcDbLine
 10
776.731316355896
 20
15.57546970943752
 30
0.0
 11
776.7722362347686
 21
15.56833367020784
 31
0.0
  0
LINE
  5
323
330
1F
100
AcDbEntity
  8
0
  6
CONTINUOUS
 62
     7
100
AcDbLine
 10
777.0498809612661
 20
15.46966438904962
 30
0.0
 11
777.0861227921725
 21
15.44938874456574
 31
0.0
  0
LINE
  5
324
330
1F
100
AcDbEntity
  8
0
  6
CONTINUOUS
 62
     7
100
AcDbLine
 10
757.5017471121711
 20
-2.79311615353825
 30
0.0
 11
757.4641111410276
 21
-2.775342643096729
 31
0.0
  0
LINE
  5
325
330
1F
100
AcDbEntity
  8
0
  6
CONTINUOUS
 62
     7
100
AcDbLine
 10
776.8139964643973
 20
15.55921489050078
 30
0.0
 11
776.8553665252016
 21
15.54830904781888
 31
0.0
  0
LINE
  5
326
330
1F
100
AcDbEntity
  8
0
  6
CONTINUOUS
 62
     7
100
AcDbLine
 10
777.4193183534289
 20
15.13031166338116
 30
0.0
 11
777.4417644992012
 21
15.09394527351761
 31
0.0
  0
LINE
  5
327
330
1F
100
AcDbEntity
  8
0
  6
CONTINUOUS
 62
     7
100
AcDbLine
 10
757.6197100917163
 20
-2.837184543558788
 30
0.0
 11
757.5790342848647
 21
-2.823892341916309
 31
0.0
  0
LINE
  5
328
330
1F
100
AcDbEntity
  8
0
  6
CONTINUOUS
 62
     7
100
AcDbLine
 10
757.3190446215997
 20
-2.686987689217435
 30
0.0
 11
757.2850640735472
 21
-2.660974569877961
 31
0.0
  0
LINE
  5
329
330
1F
100
AcDbEntity
  8
0
  6
CONTINUOUS
 62
     7
100
AcDbLine
 10
777.5786045901724
 20
14.63539140533185
 30
0.0
 11
777.5797899545468
 21
14.58682522325544
 31
0.0
  0
LINE
  5
32A
330
1F
100
AcDbEntity
  8
0
  6
CONTINUOUS
 62
     7
100
AcDbLine
 10
757.5790342848647
 20
-2.823892341916309
 30
0.0
 11
757.5400876240751
 21
-2.80931399607802
 31
0.0
  0
LINE
  5
32B
330
1F
100
AcDbEntity
  8
0
  6
CONTINUOUS
 62
     7
100
AcDbLine
 10
777.0127961925829
 20
15.4884334156703
 30
0.0
 11
777.0498809612661
 21
15.46966438904962
 31
0.0
  0
LINE
  5
32C
330
1F
100
AcDbEntity
  8
0
  6
CONTINUOUS
 62
     7
100
AcDbLine
 10
777.4620700278316
 20
15.05770192664312
 30
0.0
 11
777.4808692543661
 21
15.02061461596096
 31
0.0
  0
LINE
  5
32D
330
1F
100
AcDbEntity
  8
0
  6
CONTINUOUS
 62
     7
100
AcDbLine
 10
776.6900996984045
 20
15.58090420856296
 30
0.0
 11
776.731316355896
 21
15.57546970943752
 31
0.0
  0
LINE
  5
32E
330
1F
100
AcDbEntity
  8
0
  6
CONTINUOUS
 62
     7
100
AcDbLine
 10
776.9364853773436
 20
15.52126533501731
 30
0.0
 11
776.9749653699872
 21
15.50564925435163
 31
0.0
  0
LINE
  5
32F
330
1F
100
AcDbEntity
  8
0
  6
CONTINUOUS
 62
     7
100
AcDbLine
 10
777.5281747901598
 20
14.90404901849658
 30
0.0
 11
777.5408658964996
 21
14.86318610486495
 31
0.0
  0
LINE
  5
330
330
1F
100
AcDbEntity
  8
0
  6
CONTINUOUS
 62
     7
100
AcDbLine
 10
757.1365823300121
 20
-2.514253214693368
 30
0.0
 11
757.110153176345
 21
-2.480570716757169
 31
0.0
  0
LINE
  5
331
330
1F
100
AcDbEntity
  8
0
  6
CONTINUOUS
 62
     7
100
AcDbLine
 10
749.0797899545468
 20
-8.880302741111207
 30
0.0
 11
736.7377804556534
 21
-6.905581221288287
 31
0.0
  0
LINE
  5
332
330
1F
100
AcDbEntity
  8
0
  6
CONTINUOUS
 62
     7
100
AcDbLine
 10
756.9342513865269
 20
-2.099459985342791
 30
0.0
 11
756.9260047285295
 21
-2.05876853803838
 31
0.0
  0
LINE
  5
333
330
1F
100
AcDbEntity
  8
0
  6
CONTINUOUS
 62
     7
100
AcDbLine
 10
757.110153176345
 20
-2.480570716757169
 30
0.0
 11
757.0851857845024
 21
-2.445790847142582
 31
0.0
  0
LINE
  5
334
330
1F
100
AcDbEntity
  8
0
  6
CONTINUOUS
 62
     7
100
AcDbLine
 10
724.0797899545468
 20
-8.88030274111122
 30
0.0
 11
652.7868967357333
 21
-8.880302741111207
 31
0.0
  0
LINE
  5
335
330
1F
100
AcDbEntity
  8
0
  6
CONTINUOUS
 62
     7
100
AcDbLine
 10
649.7797899545468
 20
195.6196972588887
 30
0.0
 11
648.2797899545467
 21
195.6196972588887
 31
0.0
  0
LINE
  5
336
330
1F
100
AcDbEntity
  8
0
  6
CONTINUOUS
 62
     7
100
AcDbLine
 10
756.9194498445701
 20
-2.017734183926964
 30
0.0
 11
756.9146014571843
 21
-1.976463394704836
 31
0.0
  0
LINE
  5
337
330
1F
100
AcDbEntity
  8
0
  6
CONTINUOUS
 62
     7
100
AcDbLine
 10
756.9496883328943
 20
-1.601691974726566
 30
0.0
 11
756.9624864283402
 21
-1.560930230623647
 31
0.0
  0
LINE
  5
338
330
1F
100
AcDbEntity
  8
0
  6
CONTINUOUS
 62
     7
100
AcDbLine
 10
757.0506694440109
 20
-1.369259842210077
 30
0.0
 11
757.072667501719
 21
-1.333983001109776
 31
0.0
  0
LINE
  5
339
330
1F
100
AcDbEntity
  8
0
  6
CONTINUOUS
 62
     7
100
AcDbLine
 10
757.011169215949
 20
-1.442364308239838
 30
0.0
 11
757.0301516592822
 21
-1.405417684814045
 31
0.0
  0
LINE
  5
33A
330
1F
100
AcDbEntity
  8
0
  6
CONTINUOUS
 62
     7
100
AcDbLine
 10
756.9445068175818
 20
-2.140955661143196
 30
0.0
 11
756.9342513865269
 21
-2.099459985342791
 31
0.0
  0
LINE
  5
33B
330
1F
100
AcDbEntity
  8
0
  6
CONTINUOUS
 62
     7
100
AcDbLine
 10
757.1487013337021
 20
-1.232276845104546
 30
0.0
 11
757.1771266684714
 21
-1.200304189919316
 31
0.0
  0
LINE
  5
33C
330
1F
100
AcDbEntity
  8
0
  6
CONTINUOUS
 62
     7
100
AcDbLine
 10
757.002455040091
 20
-2.300408566211776
 30
0.0
 11
756.9857888865308
 21
-2.262361838133303
 31
0.0
  0
LINE
  5
33D
330
1F
100
AcDbEntity
  8
0
  6
CONTINUOUS
 62
     7
100
AcDbLine
 10
757.2651054018811
 20
-1.116377759542625
 30
0.0
 11
757.295763058536
 21
-1.091515049978162
 31
0.0
  0
LINE
  5
33E
330
1F
100
AcDbEntity
  8
0
  6
CONTINUOUS
 62
     7
100
AcDbLine
 10
757.0851857845024
 20
-2.445790847142582
 30
0.0
 11
757.0617507717707
 21
-2.410007462117905
 31
0.0
  0
LINE
  5
33F
330
1F
100
AcDbEntity
  8
0
  6
CONTINUOUS
 62
     7
100
AcDbLine
 10
695.5806565612717
 20
14.62838389111629
 30
0.0
 11
695.5832504729316
 21
14.66990658840769
 31
0.0
  0
LINE
  5
340
330
1F
100
AcDbEntity
  8
0
  6
CONTINUOUS
 62
     7
100
AcDbLine
 10
695.6015663646571
 20
14.7944384731831
 30
0.0
 11
695.6113456695246
 21
14.83612025430527
 31
0.0
  0
LINE
  5
341
330
1F
100
AcDbEntity
  8
0
  6
CONTINUOUS
 62
     7
100
AcDbLine
 10
756.910475841606
 20
-1.849600130858581
 30
0.0
 11
756.9127130711739
 21
-1.806895183017507
 31
0.0
  0
LINE
  5
342
330
1F
100
AcDbEntity
  8
0
  6
CONTINUOUS
 62
     7
100
AcDbLine
 10
756.9857888865308
 20
-2.262361838133303
 30
0.0
 11
756.9703109699653
 21
-2.222518403141915
 31
0.0
  0
LINE
  5
343
330
1F
100
AcDbEntity
  8
0
  6
CONTINUOUS
 62
     7
100
AcDbLine
 10
757.2068641108468
 20
-1.16960251427739
 30
0.0
 11
757.235449004828
 21
-1.142426631600871
 31
0.0
  0
LINE
  5
344
330
1F
100
AcDbEntity
  8
0
  6
CONTINUOUS
 62
     7
100
AcDbLine
 10
757.9103565198698
 20
-2.880302741111201
 30
0.0
 11
776.5798280314826
 21
-2.880302741111201
 31
0.0
  0
LINE
  5
345
330
1F
100
AcDbEntity
  8
0
  6
CONTINUOUS
 62
     7
100
AcDbLine
 10
756.9389373813361
 20
-1.641794939288455
 30
0.0
 11
756.9496883328943
 21
-1.601691974726566
 31
0.0
  0
LINE
  5
346
330
1F
100
AcDbEntity
  8
0
  6
CONTINUOUS
 62
     7
100
AcDbLine
 10
757.3607052883305
 20
-1.044983939401042
 30
0.0
 11
757.3949855635099
 21
-1.023419101797887
 31
0.0
  0
LINE
  5
347
330
1F
100
AcDbEntity
  8
0
  6
CONTINUOUS
 62
     7
100
AcDbLine
 10
777.5797899545468
 20
-1.880340818047041
 30
0.0
 11
777.5797899545468
 21
14.58682522325544
 31
0.0
  0
LINE
  5
348
330
1F
100
AcDbEntity
  8
0
  6
CONTINUOUS
 62
     7
100
AcDbLine
 10
756.9167696489129
 20
-1.764363818036421
 30
0.0
 11
756.9224566194836
 21
-1.723236113628485
 31
0.0
  0
LINE
  5
349
330
1F
100
AcDbEntity
  8
0
  6
CONTINUOUS
 62
     7
100
AcDbLine
 10
757.0301516592822
 20
-1.405417684814045
 30
0.0
 11
757.0506694440109
 21
-1.369259842210077
 31
0.0
  0
LINE
  5
34A
330
1F
100
AcDbEntity
  8
0
  6
CONTINUOUS
 62
     7
100
AcDbLine
 10
757.1216640507913
 20
-1.2654315518556
 30
0.0
 11
757.1487013337021
 21
-1.232276845104546
 31
0.0
  0
LINE
  5
34B
330
1F
100
AcDbEntity
  8
0
  6
CONTINUOUS
 62
     7
100
AcDbLine
 10
828.5655763921736
 20
261.1196972588887
 30
0.0
 11
829.2726831733602
 21
261.1196972588887
 31
0.0
  0
LINE
  5
34C
330
1F
100
AcDbEntity
  8
0
  6
CONTINUOUS
 62
     7
100
AcDbLine
 10
757.3273517313226
 20
-1.067897654783045
 30
0.0
 11
757.3607052883305
 21
-1.044983939401042
 31
0.0
  0
LINE
  5
34D
330
1F
100
AcDbEntity
  8
0
  6
CONTINUOUS
 62
     7
100
AcDbLine
 10
756.9127130711739
 20
-1.806895183017507
 30
0.0
 11
756.9167696489129
 21
-1.764363818036421
 31
0.0
  0
LINE
  5
34E
330
1F
100
AcDbEntity
  8
0
  6
CONTINUOUS
 62
     7
100
AcDbLine
 10
756.9770274427497
 20
-1.520715665176114
 30
0.0
 11
756.993269122995
 21
-1.481157337882122
 31
0.0
  0
LINE
  5
34F
330
1F
100
AcDbEntity
  8
0
  6
CONTINUOUS
 62
     7
100
AcDbLine
 10
757.1644026282174
 20
-2.546744484682936
 30
0.0
 11
757.1365823300121
 21
-2.514253214693368
 31
0.0
  0
LINE
  5
350
330
1F
100
AcDbEntity
  8
0
  6
CONTINUOUS
 62
     7
100
AcDbLine
 10
756.9224566194836
 20
-1.723236113628485
 30
0.0
 11
756.9298530035786
 21
-1.682344736484126
 31
0.0
  0
LINE
  5
351
330
1F
100
AcDbEntity
  8
0
  6
CONTINUOUS
 62
     7
100
AcDbLine
 10
695.5935847599684
 20
14.75241530594311
 30
0.0
 11
695.6015663646571
 21
14.7944384731831
 31
0.0
  0
LINE
  5
352
330
1F
100
AcDbEntity
  8
0
  6
CONTINUOUS
 62
     7
100
AcDbLine
 10
828.5655763921736
 20
181.1196972588887
 30
0.0
 11
829.2726831733602
 21
181.1196972588887
 31
0.0
  0
LINE
  5
353
330
1F
100
AcDbEntity
  8
0
  6
CONTINUOUS
 62
     7
100
AcDbLine
 10
756.9298530035786
 20
-1.682344736484126
 30
0.0
 11
756.9389373813361
 21
-1.641794939288455
 31
0.0
  0
LINE
  5
354
330
1F
100
AcDbEntity
  8
0
  6
CONTINUOUS
 62
     7
100
AcDbLine
 10
736.4217994534401
 20
-6.905581221288287
 30
0.0
 11
724.0797899545468
 21
-8.88030274111122
 31
0.0
  0
LINE
  5
355
330
1F
100
AcDbEntity
  8
0
  6
CONTINUOUS
 62
     7
100
AcDbLine
 10
827.1297899545467
 20
262.9696972588887
 30
0.0
 11
826.9797899545467
 21
263.1196972588887
 31
0.0
  0
LINE
  5
356
330
1F
100
AcDbEntity
  8
0
  6
CONTINUOUS
 62
     7
100
AcDbLine
 10
649.7797899545468
 20
181.6196972588888
 30
0.0
 11
649.7797899545468
 21
188.6196972588887
 31
0.0
  0
LINE
  5
357
330
1F
100
AcDbEntity
  8
0
  6
CONTINUOUS
 62
     7
100
AcDbLine
 10
635.3797899545468
 20
185.3700818970343
 30
0.0
 11
635.3797899545468
 21
183.3196972588887
 31
0.0
  0
LINE
  5
358
330
1F
100
AcDbEntity
  8
0
  6
CONTINUOUS
 62
     7
100
AcDbLine
 10
756.9565384795217
 20
-2.182012405610736
 30
0.0
 11
756.9445068175818
 21
-2.140955661143196
 31
0.0
  0
LINE
  5
359
330
1F
100
AcDbEntity
  8
0
  6
CONTINUOUS
 62
     7
100
AcDbLine
 10
757.235449004828
 20
-1.142426631600871
 30
0.0
 11
757.2651054018811
 21
-1.116377759542625
 31
0.0
  0
LINE
  5
35A
330
1F
100
AcDbEntity
  8
0
  6
CONTINUOUS
 62
     7
100
AcDbLine
 10
827.1297899545467
 20
262.9696972588887
 30
0.0
 11
827.1297899545467
 21
261.1196972588888
 31
0.0
  0
LINE
  5
35B
330
1F
100
AcDbEntity
  8
0
  6
CONTINUOUS
 62
     7
100
AcDbLine
 10
757.4301075609671
 20
-1.003254149854416
 30
0.0
 11
757.4659862848081
 21
-0.9845400914513525
 31
0.0
  0
LINE
  5
35C
330
1F
100
AcDbEntity
  8
0
  6
CONTINUOUS
 62
     7
100
AcDbLine
 10
826.9797899545467
 20
203.1196972588887
 30
0.0
 11
828.5655763921736
 21
203.1196972588887
 31
0.0
  0
LINE
  5
35D
330
1F
100
AcDbEntity
  8
0
  6
CONTINUOUS
 62
     7
100
AcDbLine
 10
756.9624864283402
 20
-1.560930230623647
 30
0.0
 11
756.9770274427497
 21
-1.520715665176114
 31
0.0
  0
LINE
  5
35E
330
1F
100
AcDbEntity
  8
0
  6
CONTINUOUS
 62
     7
100
AcDbLine
 10
695.5832504729316
 20
14.66990658840769
 30
0.0
 11
695.5875628267546
 21
14.71128612379491
 31
0.0
  0
LINE
  5
35F
330
1F
100
AcDbEntity
  8
0
  6
CONTINUOUS
 62
     7
100
AcDbLine
 10
635.3797899545468
 20
193.9196972588887
 30
0.0
 11
635.3797899545468
 21
191.8693126207431
 31
0.0
  0
LINE
  5
360
330
1F
100
AcDbEntity
  8
0
  6
CONTINUOUS
 62
     7
100
AcDbLine
 10
635.3797899545468
 20
270.3196972588888
 30
0.0
 11
635.3797899545468
 21
272.3700818970344
 31
0.0
  0
LINE
  5
361
330
1F
100
AcDbEntity
  8
0
  6
CONTINUOUS
 62
     7
100
AcDbLine
 10
828.5655763921736
 20
286.1196972588887
 30
0.0
 11
829.2726831733602
 21
286.1196972588887
 31
0.0
  0
LINE
  5
362
330
1F
100
AcDbEntity
  8
0
  6
CONTINUOUS
 62
     7
100
AcDbLine
 10
695.5875628267546
 20
14.71128612379491
 30
0.0
 11
695.5935847599684
 21
14.75241530594311
 31
0.0
  0
LINE
  5
363
330
1F
100
AcDbEntity
  8
0
  6
CONTINUOUS
 62
     7
100
AcDbLine
 10
651.2797899545467
 20
188.6196972588887
 30
0.0
 11
651.2797899545467
 21
181.6196972588888
 31
0.0
  0
LINE
  5
364
330
1F
100
AcDbEntity
  8
0
  6
CONTINUOUS
 62
     7
100
AcDbLine
 10
757.096090763991
 20
-1.299679382194968
 30
0.0
 11
757.1216640507913
 21
-1.2654315518556
 31
0.0
  0
LINE
  5
365
330
1F
100
AcDbEntity
  8
0
  6
CONTINUOUS
 62
     7
100
AcDbLine
 10
649.7797899545468
 20
188.6196972588887
 30
0.0
 11
649.7797899545468
 21
195.6196972588887
 31
0.0
  0
LINE
  5
366
330
1F
100
AcDbEntity
  8
0
  6
CONTINUOUS
 62
     7
100
AcDbLine
 10
756.9146014571843
 20
-1.976463394704836
 30
0.0
 11
756.9114742889082
 21
-1.935062642068247
 31
0.0
  0
LINE
  5
367
330
1F
100
AcDbEntity
  8
0
  6
CONTINUOUS
 62
     7
100
AcDbLine
 10
757.3949855635099
 20
-1.023419101797887
 30
0.0
 11
757.4301075609671
 21
-1.003254149854416
 31
0.0
  0
LINE
  5
368
330
1F
100
AcDbEntity
  8
0
  6
CONTINUOUS
 62
     7
100
AcDbLine
 10
639.2043952505029
 20
189.2196972588888
 30
0.0
 11
640.9797899545467
 21
189.2196972588888
 31
0.0
  0
LINE
  5
369
330
1F
100
AcDbEntity
  8
0
  6
CONTINUOUS
 62
     7
100
AcDbLine
 10
757.0207036005473
 20
-2.337762178409489
 30
0.0
 11
757.002455040091
 21
-2.300408566211776
 31
0.0
  0
LINE
  5
36A
330
1F
100
AcDbEntity
  8
0
  6
CONTINUOUS
 62
     7
100
AcDbLine
 10
640.9797899545467
 20
276.2196972588887
 30
0.0
 11
640.9797899545467
 21
277.9950919629327
 31
0.0
  0
LINE
  5
36B
330
1F
100
AcDbEntity
  8
0
  6
CONTINUOUS
 62
     7
100
AcDbLine
 10
756.9260047285295
 20
-2.05876853803838
 30
0.0
 11
756.9194498445701
 21
-2.017734183926964
 31
0.0
  0
LINE
  5
36C
330
1F
100
AcDbEntity
  8
0
  6
CONTINUOUS
 62
     7
100
AcDbLine
 10
756.9114742889082
 20
-1.935062642068247
 30
0.0
 11
756.9100616756904
 21
-1.892361628296535
 31
0.0
  0
LINE
  5
36D
330
1F
100
AcDbEntity
  8
0
  6
CONTINUOUS
 62
     7
100
AcDbLine
 10
757.072667501719
 20
-1.333983001109776
 30
0.0
 11
757.096090763991
 21
-1.299679382194968
 31
0.0
  0
LINE
  5
36E
330
1F
100
AcDbEntity
  8
0
  6
CONTINUOUS
 62
     7
100
AcDbLine
 10
756.993269122995
 20
-1.481157337882122
 30
0.0
 11
757.011169215949
 21
-1.442364308239838
 31
0.0
  0
LINE
  5
36F
330
1F
100
AcDbEntity
  8
0
  6
CONTINUOUS
 62
     7
100
AcDbLine
 10
756.9100616756904
 20
-1.892361628296535
 30
0.0
 11
756.910475841606
 21
-1.849600130858581
 31
0.0
  0
LINE
  5
370
330
1F
100
AcDbEntity
  8
0
  6
CONTINUOUS
 62
     7
100
AcDbLine
 10
642.1797899545467
 20
276.2196972588887
 30
0.0
 11
643.9551846585907
 21
276.2196972588887
 31
0.0
  0
LINE
  5
371
330
1F
100
AcDbEntity
  8
0
  6
CONTINUOUS
 62
     7
100
AcDbLine
 10
645.4527733007541
 20
181.6196972588887
 30
0.0
 11
648.2797899545467
 21
181.6196972588887
 31
0.0
  0
LINE
  5
372
330
1F
100
AcDbEntity
  8
0
  6
CONTINUOUS
 62
     7
100
AcDbLine
 10
643.9551846585907
 20
188.0196972588887
 30
0.0
 11
642.1797899545467
 21
188.0196972588887
 31
0.0
  0
LINE
  5
373
330
1F
100
AcDbEntity
  8
0
  6
CONTINUOUS
 62
     7
100
AcDbLine
 10
829.2726831733602
 20
290.1196972588887
 30
0.0
 11
828.5655763921736
 21
290.1196972588887
 31
0.0
  0
LINE
  5
374
330
1F
100
AcDbEntity
  8
0
  6
CONTINUOUS
 62
     7
100
AcDbLine
 10
649.787045771493
 20
142.4125747061436
 30
0.0
 11
646.8726674018016
 21
145.326953075835
 31
0.0
  0
LINE
  5
375
330
1F
100
AcDbEntity
  8
0
  6
CONTINUOUS
 62
     7
100
AcDbLine
 10
826.9797899545467
 20
265.1196972588887
 30
0.0
 11
826.9797899545467
 21
263.1196972588887
 31
0.0
  0
LINE
  5
376
330
1F
100
AcDbEntity
  8
0
  6
CONTINUOUS
 62
     7
100
AcDbLine
 10
651.2797899545467
 20
181.6196972588887
 30
0.0
 11
649.7797899545468
 21
181.6196972588887
 31
0.0
  0
LINE
  5
377
330
1F
100
AcDbEntity
  8
0
  6
CONTINUOUS
 62
     7
100
AcDbLine
 10
828.5655763921736
 20
199.1196972588887
 30
0.0
 11
829.2726831733602
 21
199.1196972588887
 31
0.0
  0
LINE
  5
378
330
1F
100
AcDbEntity
  8
0
  6
CONTINUOUS
 62
     7
100
AcDbLine
 10
827.1297899545467
 20
261.1196972588888
 30
0.0
 11
828.5655763921736
 21
261.1196972588888
 31
0.0
  0
LINE
  5
379
330
1F
100
AcDbEntity
  8
0
  6
CONTINUOUS
 62
     7
100
AcDbLine
 10
634.2476688426174
 20
193.9196972588887
 30
0.0
 11
635.3797899545468
 21
193.9196972588887
 31
0.0
  0
LINE
  5
37A
330
1F
100
AcDbEntity
  8
0
  6
CONTINUOUS
 62
     7
100
AcDbLine
 10
833.6868967357334
 20
265.1196972588887
 30
0.0
 11
829.2726831733602
 21
265.1196972588887
 31
0.0
  0
LINE
  5
37B
330
1F
100
AcDbEntity
  8
0
  6
CONTINUOUS
 62
     7
100
AcDbLine
 10
640.9797899545467
 20
189.2196972588888
 30
0.0
 11
640.9797899545467
 21
190.9950919629327
 31
0.0
  0
LINE
  5
37C
330
1F
100
AcDbEntity
  8
0
  6
CONTINUOUS
 62
     7
100
AcDbLine
 10
829.2726831733602
 20
203.1196972588887
 30
0.0
 11
828.5655763921736
 21
203.1196972588887
 31
0.0
  0
LINE
  5
37D
330
1F
100
AcDbEntity
  8
0
  6
CONTINUOUS
 62
     7
100
AcDbLine
 10
642.1797899545467
 20
189.2196972588888
 30
0.0
 11
643.9551846585907
 21
189.2196972588888
 31
0.0
  0
LINE
  5
37E
330
1F
100
AcDbEntity
  8
0
  6
CONTINUOUS
 62
     7
100
AcDbLine
 10
645.5798280314826
 20
176.6196972588887
 30
0.0
 11
635.4942254360174
 21
176.6196972588887
 31
0.0
  0
LINE
  5
37F
330
1F
100
AcDbEntity
  8
0
  6
CONTINUOUS
 62
     7
100
AcDbLine
 10
827.1297899545467
 20
175.9696972588887
 30
0.0
 11
826.9797899545467
 21
176.1196972588887
 31
0.0
  0
LINE
  5
380
330
1F
100
AcDbEntity
  8
0
  6
CONTINUOUS
 62
     7
100
AcDbLine
 10
640.9797899545467
 20
186.2443025548448
 30
0.0
 11
640.9797899545467
 21
188.0196972588887
 31
0.0
  0
LINE
  5
381
330
1F
100
AcDbEntity
  8
0
  6
CONTINUOUS
 62
     7
100
AcDbLine
 10
829.2726831733602
 20
178.1196972588887
 30
0.0
 11
828.5655763921736
 21
178.1196972588887
 31
0.0
  0
LINE
  5
382
330
1F
100
AcDbEntity
  8
0
  6
CONTINUOUS
 62
     7
100
AcDbLine
 10
642.1797899545467
 20
190.9950919629327
 30
0.0
 11
642.1797899545467
 21
189.2196972588888
 31
0.0
  0
LINE
  5
383
330
1F
100
AcDbEntity
  8
0
  6
CONTINUOUS
 62
     7
100
AcDbLine
 10
635.5797899545468
 20
185.6380869557136
 30
0.0
 11
635.5797899545468
 21
183.3281946367595
 31
0.0
  0
LINE
  5
384
330
1F
100
AcDbEntity
  8
0
  6
CONTINUOUS
 62
     7
100
AcDbLine
 10
642.1797899545467
 20
275.0196972588888
 30
0.0
 11
642.1797899545467
 21
273.2443025548448
 31
0.0
  0
LINE
  5
385
330
1F
100
AcDbEntity
  8
0
  6
CONTINUOUS
 62
     7
100
AcDbLine
 10
635.3797899545468
 20
183.3196972588887
 30
0.0
 11
634.2476688426174
 21
183.3196972588887
 31
0.0
  0
LINE
  5
386
330
1F
100
AcDbEntity
  8
0
  6
CONTINUOUS
 62
     7
100
AcDbLine
 10
833.6868967357334
 20
283.1196972588887
 30
0.0
 11
829.2726831733602
 21
283.1196972588887
 31
0.0
  0
LINE
  5
387
330
1F
100
AcDbEntity
  8
0
  6
CONTINUOUS
 62
     7
100
AcDbLine
 10
829.2726831733602
 20
261.1196972588888
 30
0.0
 11
833.6868967357334
 21
261.1196972588888
 31
0.0
  0
LINE
  5
388
330
1F
100
AcDbEntity
  8
0
  6
CONTINUOUS
 62
     7
100
AcDbLine
 10
825.5134276809513
 20
181.1196972588888
 30
0.0
 11
828.5655763921736
 21
181.1196972588888
 31
0.0
  0
LINE
  5
389
330
1F
100
AcDbEntity
  8
0
  6
CONTINUOUS
 62
     7
100
AcDbLine
 10
825.5134276809513
 20
258.1196972588888
 30
0.0
 11
828.5655763921736
 21
258.1196972588888
 31
0.0
  0
LINE
  5
38A
330
1F
100
AcDbEntity
  8
0
  6
CONTINUOUS
 62
     7
100
AcDbLine
 10
828.5655763921736
 20
206.1196972588887
 30
0.0
 11
829.2726831733602
 21
206.1196972588887
 31
0.0
  0
LINE
  5
38B
330
1F
100
AcDbEntity
  8
0
  6
CONTINUOUS
 62
     7
100
AcDbLine
 10
825.5134276809513
 20
196.1196972588887
 30
0.0
 11
828.5655763921736
 21
196.1196972588887
 31
0.0
  0
LINE
  5
38C
330
1F
100
AcDbEntity
  8
0
  6
CONTINUOUS
 62
     7
100
AcDbLine
 10
826.2869125072918
 20
145.326953075835
 30
0.0
 11
823.3725341376005
 21
142.4125747061436
 31
0.0
  0
LINE
  5
38D
330
1F
100
AcDbEntity
  8
0
  6
CONTINUOUS
 62
     7
100
AcDbLine
 10
826.9797899545467
 20
178.1196972588887
 30
0.0
 11
828.5655763921736
 21
178.1196972588887
 31
0.0
  0
LINE
  5
38E
330
1F
100
AcDbEntity
  8
0
  6
CONTINUOUS
 62
     7
100
AcDbLine
 10
829.2726831733602
 20
196.1196972588887
 30
0.0
 11
828.5655763921736
 21
196.1196972588887
 31
0.0
  0
LINE
  5
38F
330
1F
100
AcDbEntity
  8
0
  6
CONTINUOUS
 62
     7
100
AcDbLine
 10
828.5655763921736
 20
174.1196972588887
 30
0.0
 11
829.2726831733602
 21
174.1196972588887
 31
0.0
  0
LINE
  5
390
330
1F
100
AcDbEntity
  8
0
  6
CONTINUOUS
 62
     7
100
AcDbLine
 10
649.7797899545468
 20
195.6196972588887
 30
0.0
 11
651.2797899545467
 21
195.6196972588887
 31
0.0
  0
LINE
  5
391
330
1F
100
AcDbEntity
  8
0
  6
CONTINUOUS
 62
     7
100
AcDbLine
 10
640.9797899545467
 20
273.2443025548448
 30
0.0
 11
640.9797899545467
 21
275.0196972588888
 31
0.0
  0
LINE
  5
392
330
1F
100
AcDbEntity
  8
0
  6
CONTINUOUS
 62
     7
100
AcDbLine
 10
635.3797899545468
 20
278.8693126207431
 30
0.0
 11
635.3797899545468
 21
280.9196972588888
 31
0.0
  0
LINE
  5
393
330
1F
100
AcDbEntity
  8
0
  6
CONTINUOUS
 62
     7
100
AcDbLine
 10
651.2797899545467
 20
195.6196972588887
 30
0.0
 11
651.2797899545467
 21
188.6196972588887
 31
0.0
  0
LINE
  5
394
330
1F
100
AcDbEntity
  8
0
  6
CONTINUOUS
 62
     7
100
AcDbLine
 10
642.1797899545467
 20
277.9950919629327
 30
0.0
 11
642.1797899545467
 21
276.2196972588888
 31
0.0
  0
LINE
  5
395
330
1F
100
AcDbEntity
  8
0
  6
CONTINUOUS
 62
     7
100
AcDbLine
 10
648.2797899545467
 20
188.9594131555863
 30
0.0
 11
647.8380144800975
 21
188.6196972588887
 31
0.0
  0
LINE
  5
396
330
1F
100
AcDbEntity
  8
0
  6
CONTINUOUS
 62
     7
100
AcDbLine
 10
829.2726831733602
 20
171.1196972588887
 30
0.0
 11
828.5655763921736
 21
171.1196972588887
 31
0.0
  0
LINE
  5
397
330
1F
100
AcDbEntity
  8
0
  6
CONTINUOUS
 62
     7
100
AcDbLine
 10
643.9551846585907
 20
275.0196972588888
 30
0.0
 11
642.1797899545467
 21
275.0196972588888
 31
0.0
  0
LINE
  5
398
330
1F
100
AcDbEntity
  8
0
  6
CONTINUOUS
 62
     7
100
AcDbLine
 10
639.2043952505029
 20
276.2196972588887
 30
0.0
 11
640.9797899545467
 21
276.2196972588887
 31
0.0
  0
LINE
  5
399
330
1F
100
AcDbEntity
  8
0
  6
CONTINUOUS
 62
     7
100
AcDbLine
 10
640.9797899545467
 20
275.0196972588888
 30
0.0
 11
639.2043952505029
 21
275.0196972588888
 31
0.0
  0
LINE
  5
39A
330
1F
100
AcDbEntity
  8
0
  6
CONTINUOUS
 62
     7
100
AcDbLine
 10
829.2726831733602
 20
258.1196972588888
 30
0.0
 11
828.5655763921736
 21
258.1196972588887
 31
0.0
  0
LINE
  5
39B
330
1F
100
AcDbEntity
  8
0
  6
CONTINUOUS
 62
     7
100
AcDbLine
 10
648.2797899545467
 20
188.2799813621911
 30
0.0
 11
647.8380144800975
 21
188.6196972588887
 31
0.0
  0
LINE
  5
39C
330
1F
100
AcDbEntity
  8
0
  6
CONTINUOUS
 62
     7
100
AcDbLine
 10
648.2797899545467
 20
195.6196972588887
 30
0.0
 11
645.4527733007542
 21
195.6196972588887
 31
0.0
  0
LINE
  5
39D
330
1F
100
AcDbEntity
  8
0
  6
CONTINUOUS
 62
     7
100
AcDbLine
 10
825.5134276809513
 20
206.1196972588887
 30
0.0
 11
828.5655763921736
 21
206.1196972588887
 31
0.0
  0
LINE
  5
39E
330
1F
100
AcDbEntity
  8
0
  6
CONTINUOUS
 62
     7
100
AcDbLine
 10
833.6868967357334
 20
258.1196972588888
 30
0.0
 11
829.2726831733602
 21
258.1196972588888
 31
0.0
  0
LINE
  5
39F
330
1F
100
AcDbEntity
  8
0
  6
CONTINUOUS
 62
     7
100
AcDbLine
 10
634.7871409602081
 20
263.9125747061436
 30
0.0
 11
629.3726674018017
 21
269.3270482645501
 31
0.0
  0
LINE
  5
3A0
330
1F
100
AcDbEntity
  8
0
  6
CONTINUOUS
 62
     7
100
AcDbLine
 10
826.5797899545468
 20
283.1196972588887
 30
0.0
 11
826.5797899545468
 21
268.1196972588887
 31
0.0
  0
LINE
  5
3A1
330
1F
100
AcDbEntity
  8
0
  6
CONTINUOUS
 62
     7
100
AcDbLine
 10
647.8380144800975
 20
188.6196972588887
 30
0.0
 11
649.7797899545468
 21
188.6196972588887
 31
0.0
  0
LINE
  5
3A2
330
1F
100
AcDbEntity
  8
0
  6
CONTINUOUS
 62
     7
100
AcDbLine
 10
640.9797899545467
 20
188.0196972588887
 30
0.0
 11
639.2043952505029
 21
188.0196972588887
 31
0.0
  0
LINE
  5
3A3
330
1F
100
AcDbEntity
  8
0
  6
CONTINUOUS
 62
     7
100
AcDbLine
 10
635.5797899545468
 20
193.9111998810179
 30
0.0
 11
635.5797899545468
 21
191.6013075620638
 31
0.0
  0
LINE
  5
3A4
330
1F
100
AcDbEntity
  8
0
  6
CONTINUOUS
 62
     7
100
AcDbLine
 10
826.9797899545467
 20
176.1196972588887
 30
0.0
 11
826.9797899545467
 21
178.1196972588887
 31
0.0
  0
LINE
  5
3A5
330
1F
100
AcDbEntity
  8
0
  6
CONTINUOUS
 62
     7
100
AcDbLine
 10
826.9797899545467
 20
199.1196972588887
 30
0.0
 11
826.9797899545467
 21
203.1196972588887
 31
0.0
  0
LINE
  5
3A6
330
1F
100
AcDbEntity
  8
0
  6
CONTINUOUS
 62
     7
100
AcDbLine
 10
634.2476688426174
 20
270.3196972588888
 30
0.0
 11
635.3797899545468
 21
270.3196972588888
 31
0.0
  0
LINE
  5
3A7
330
1F
100
AcDbEntity
  8
0
  6
CONTINUOUS
 62
     7
100
AcDbLine
 10
642.1797899545467
 20
188.0196972588887
 30
0.0
 11
642.1797899545467
 21
186.2443025548448
 31
0.0
  0
LINE
  5
3A8
330
1F
100
AcDbEntity
  8
0
  6
CONTINUOUS
 62
     7
100
AcDbLine
 10
826.9797899545467
 20
199.1196972588887
 30
0.0
 11
828.5655763921736
 21
199.1196972588887
 31
0.0
  0
LINE
  5
3A9
330
1F
100
AcDbEntity
  8
0
  6
CONTINUOUS
 62
     7
100
AcDbLine
 10
829.2726831733602
 20
283.1196972588887
 30
0.0
 11
828.5655763921736
 21
283.1196972588887
 31
0.0
  0
LINE
  5
3AA
330
1F
100
AcDbEntity
  8
0
  6
CONTINUOUS
 62
     7
100
AcDbLine
 10
648.2797899545467
 20
181.6196972588887
 30
0.0
 11
649.7797899545468
 21
181.6196972588887
 31
0.0
  0
LINE
  5
3AB
330
1F
100
AcDbEntity
  8
0
  6
CONTINUOUS
 62
     7
100
AcDbLine
 10
833.6868967357334
 20
203.1196972588887
 30
0.0
 11
829.2726831733602
 21
203.1196972588887
 31
0.0
  0
LINE
  5
3AC
330
1F
100
AcDbEntity
  8
0
  6
CONTINUOUS
 62
     7
100
AcDbLine
 10
635.3797899545468
 20
280.9196972588888
 30
0.0
 11
634.2476688426174
 21
280.9196972588888
 31
0.0
  0
LINE
  5
3AD
330
1F
100
AcDbEntity
  8
0
  6
CONTINUOUS
 62
     7
100
AcDbLine
 10
646.5797899545468
 20
146.0340375516443
 30
0.0
 11
646.5797899545468
 21
175.6197353358246
 31
0.0
  0
LINE
  5
3AE
330
1F
100
AcDbEntity
  8
0
  6
CONTINUOUS
 62
     7
100
AcDbLine
 10
646.5797899545468
 20
201.6196591819529
 30
0.0
 11
646.5797899545468
 21
262.6197353358246
 31
0.0
  0
LINE
  5
3AF
330
1F
100
AcDbEntity
  8
0
  6
CONTINUOUS
 62
     7
100
AcDbLine
 10
828.5655763921736
 20
293.1196972588888
 30
0.0
 11
829.2726831733602
 21
293.1196972588888
 31
0.0
  0
LINE
  5
3B0
330
1F
100
AcDbEntity
  8
0
  6
CONTINUOUS
 62
     7
100
AcDbLine
 10
826.9797899545467
 20
286.1196972588887
 30
0.0
 11
828.5655763921736
 21
286.1196972588887
 31
0.0
  0
LINE
  5
3B1
330
1F
100
AcDbEntity
  8
0
  6
CONTINUOUS
 62
     7
100
AcDbLine
 10
829.2726831733602
 20
286.1196972588887
 30
0.0
 11
833.6868967357334
 21
286.1196972588887
 31
0.0
  0
LINE
  5
3B2
330
1F
100
AcDbEntity
  8
0
  6
CONTINUOUS
 62
     7
100
AcDbLine
 10
826.9797899545467
 20
290.1196972588887
 30
0.0
 11
826.9797899545467
 21
286.1196972588887
 31
0.0
  0
LINE
  5
3B3
330
1F
100
AcDbEntity
  8
0
  6
CONTINUOUS
 62
     7
100
AcDbLine
 10
833.6868967357334
 20
171.1196972588887
 30
0.0
 11
829.2726831733602
 21
171.1196972588887
 31
0.0
  0
LINE
  5
3B4
330
1F
100
AcDbEntity
  8
0
  6
CONTINUOUS
 62
     7
100
AcDbLine
 10
828.5655763921736
 20
268.1196972588887
 30
0.0
 11
829.2726831733602
 21
268.1196972588887
 31
0.0
  0
LINE
  5
3B5
330
1F
100
AcDbEntity
  8
0
  6
CONTINUOUS
 62
     7
100
AcDbLine
 10
829.2726831733602
 20
206.1196972588887
 30
0.0
 11
833.6868967357334
 21
206.1196972588887
 31
0.0
  0
LINE
  5
3B6
330
1F
100
AcDbEntity
  8
0
  6
CONTINUOUS
 62
     7
100
AcDbLine
 10
826.5797899545468
 20
318.2053569661331
 30
0.0
 11
826.5797899545468
 21
293.1196972588888
 31
0.0
  0
LINE
  5
3B7
330
1F
100
AcDbEntity
  8
0
  6
CONTINUOUS
 62
     7
100
AcDbLine
 10
646.8726674018016
 20
318.9124414419425
 30
0.0
 11
649.787045771493
 21
321.8268198116339
 31
0.0
  0
LINE
  5
3B8
330
1F
100
AcDbEntity
  8
0
  6
CONTINUOUS
 62
     7
100
AcDbLine
 10
829.2726831733602
 20
199.1196972588887
 30
0.0
 11
833.6868967357334
 21
199.1196972588887
 31
0.0
  0
LINE
  5
3B9
330
1F
100
AcDbEntity
  8
0
  6
CONTINUOUS
 62
     7
100
AcDbLine
 10
826.5797899545468
 20
258.1196972588887
 30
0.0
 11
826.5797899545468
 21
206.1196972588887
 31
0.0
  0
LINE
  5
3BA
330
1F
100
AcDbEntity
  8
0
  6
CONTINUOUS
 62
     7
100
AcDbLine
 10
823.3725341376006
 20
321.8268198116339
 30
0.0
 11
826.2869125072918
 21
318.9124414419425
 31
0.0
  0
LINE
  5
3BB
330
1F
100
AcDbEntity
  8
0
  6
CONTINUOUS
 62
     7
100
AcDbLine
 10
833.6868967357334
 20
261.1196972588888
 30
0.0
 11
833.9797899545467
 21
261.1196972588888
 31
0.0
  0
LINE
  5
3BC
330
1F
100
AcDbEntity
  8
0
  6
CONTINUOUS
 62
     7
100
AcDbLine
 10
825.5134276809513
 20
171.1196972588887
 30
0.0
 11
828.5655763921736
 21
171.1196972588887
 31
0.0
  0
LINE
  5
3BD
330
1F
100
AcDbEntity
  8
0
  6
CONTINUOUS
 62
     7
100
AcDbLine
 10
829.2726831733602
 20
265.1196972588887
 30
0.0
 11
828.5655763921736
 21
265.1196972588887
 31
0.0
  0
LINE
  5
3BE
330
1F
100
AcDbEntity
  8
0
  6
CONTINUOUS
 62
     7
100
AcDbLine
 10
825.5134276809513
 20
293.1196972588888
 30
0.0
 11
828.5655763921736
 21
293.1196972588888
 31
0.0
  0
LINE
  5
3BF
330
1F
100
AcDbEntity
  8
0
  6
CONTINUOUS
 62
     7
100
AcDbLine
 10
634.787140960208
 20
176.9125747061436
 30
0.0
 11
629.3726674018017
 21
182.3270482645501
 31
0.0
  0
LINE
  5
3C0
330
1F
100
AcDbEntity
  8
0
  6
CONTINUOUS
 62
     7
100
AcDbLine
 10
833.9797899545467
 20
268.1196972588887
 30
0.0
 11
833.9797899545467
 21
265.1196972588887
 31
0.0
  0
LINE
  5
3C1
330
1F
100
AcDbEntity
  8
0
  6
CONTINUOUS
 62
     7
100
AcDbLine
 10
645.5798280314826
 20
263.6196972588888
 30
0.0
 11
635.4942254360174
 21
263.6196972588888
 31
0.0
  0
LINE
  5
3C2
330
1F
100
AcDbEntity
  8
0
  6
CONTINUOUS
 62
     7
100
AcDbLine
 10
830.0797899545468
 20
177.7196972588887
 30
0.0
 11
830.1797899545468
 21
177.7196972588887
 31
0.0
  0
LINE
  5
3C3
330
1F
100
AcDbEntity
  8
0
  6
CONTINUOUS
 62
     7
100
AcDbLine
 10
833.6868967357334
 20
290.1196972588887
 30
0.0
 11
829.2726831733602
 21
290.1196972588887
 31
0.0
  0
LINE
  5
3C4
330
1F
100
AcDbEntity
  8
0
  6
CONTINUOUS
 62
     7
100
AcDbLine
 10
826.5797899545468
 20
269.1196972588888
 30
0.0
 11
826.9797899545468
 21
269.1196972588888
 31
0.0
  0
LINE
  5
3C5
330
1F
100
AcDbEntity
  8
0
  6
CONTINUOUS
 62
     7
100
AcDbLine
 10
826.5797899545468
 20
196.1196972588887
 30
0.0
 11
826.5797899545468
 21
181.1196972588887
 31
0.0
  0
LINE
  5
3C6
330
1F
100
AcDbEntity
  8
0
  6
CONTINUOUS
 62
     7
100
AcDbLine
 10
826.9797899545468
 20
283.1196972588888
 30
0.0
 11
826.9797899545468
 21
278.1196972588888
 31
0.0
  0
LINE
  5
3C7
330
1F
100
AcDbEntity
  8
0
  6
CONTINUOUS
 62
     7
100
AcDbLine
 10
833.9797899545467
 20
286.1196972588887
 30
0.0
 11
833.9797899545467
 21
283.1196972588887
 31
0.0
  0
LINE
  5
3C8
330
1F
100
AcDbEntity
  8
0
  6
CONTINUOUS
 62
     7
100
AcDbLine
 10
830.1797899545469
 20
269.1196972588888
 30
0.0
 11
830.1797899545469
 21
274.1196972588888
 31
0.0
  0
LINE
  5
3C9
330
1F
100
AcDbEntity
  8
0
  6
CONTINUOUS
 62
     7
100
AcDbLine
 10
830.1797899545469
 20
269.1196972588887
 30
0.0
 11
833.9797899545467
 21
269.1196972588888
 31
0.0
  0
LINE
  5
3CA
330
1F
100
AcDbEntity
  8
0
  6
CONTINUOUS
 62
     7
100
AcDbLine
 10
829.2726831733602
 20
293.1196972588888
 30
0.0
 11
833.6868967357334
 21
293.1196972588888
 31
0.0
  0
LINE
  5
3CB
330
1F
100
AcDbEntity
  8
0
  6
CONTINUOUS
 62
     7
100
AcDbLine
 10
828.5797899545469
 20
278.1196972588888
 30
0.0
 11
830.1797899545469
 21
278.1196972588888
 31
0.0
  0
LINE
  5
3CC
330
1F
100
AcDbEntity
  8
0
  6
CONTINUOUS
 62
     7
100
AcDbLine
 10
833.9797899545467
 20
261.1196972588888
 30
0.0
 11
833.9797899545467
 21
258.1196972588888
 31
0.0
  0
LINE
  5
3CD
330
1F
100
AcDbEntity
  8
0
  6
CONTINUOUS
 62
     7
100
AcDbLine
 10
822.6654496617911
 20
142.1196972588887
 30
0.0
 11
650.4941302473023
 21
142.1196972588887
 31
0.0
  0
LINE
  5
3CE
330
1F
100
AcDbEntity
  8
0
  6
CONTINUOUS
 62
     7
100
AcDbLine
 10
635.4942254360174
 20
200.6196972588887
 30
0.0
 11
645.5798280314826
 21
200.6196972588887
 31
0.0
  0
LINE
  5
3CF
330
1F
100
AcDbEntity
  8
0
  6
CONTINUOUS
 62
     7
100
AcDbLine
 10
830.1797899545468
 20
263.1196972588887
 30
0.0
 11
830.0297899545468
 21
262.9696972588887
 31
0.0
  0
LINE
  5
3D0
330
1F
100
AcDbEntity
  8
0
  6
CONTINUOUS
 62
     7
100
AcDbLine
 10
833.6868967357334
 20
286.1196972588887
 30
0.0
 11
833.9797899545467
 21
286.1196972588887
 31
0.0
  0
LINE
  5
3D1
330
1F
100
AcDbEntity
  8
0
  6
CONTINUOUS
 62
     7
100
AcDbLine
 10
650.4941302473023
 20
322.1196972588888
 30
0.0
 11
822.6654496617912
 21
322.1196972588888
 31
0.0
  0
LINE
  5
3D2
330
1F
100
AcDbEntity
  8
0
  6
CONTINUOUS
 62
     7
100
AcDbLine
 10
828.5797899545469
 20
274.1196972588888
 30
0.0
 11
830.1797899545469
 21
274.1196972588888
 31
0.0
  0
LINE
  5
3D3
330
1F
100
AcDbEntity
  8
0
  6
CONTINUOUS
 62
     7
100
AcDbLine
 10
829.2726831733602
 20
268.1196972588887
 30
0.0
 11
833.6868967357334
 21
268.1196972588887
 31
0.0
  0
LINE
  5
3D4
330
1F
100
AcDbEntity
  8
0
  6
CONTINUOUS
 62
     7
100
AcDbLine
 10
833.9797899545466
 20
186.1196972588888
 30
0.0
 11
833.7373087378378
 21
186.1196972588888
 31
0.0
  0
LINE
  5
3D5
330
1F
100
AcDbEntity
  8
0
  6
CONTINUOUS
 62
     7
100
AcDbLine
 10
833.6868967357334
 20
196.1196972588887
 30
0.0
 11
829.2726831733602
 21
196.1196972588887
 31
0.0
  0
LINE
  5
3D6
330
1F
100
AcDbEntity
  8
0
  6
CONTINUOUS
 62
     7
100
AcDbLine
 10
825.5134276809513
 20
283.1196972588887
 30
0.0
 11
828.5655763921736
 21
283.1196972588887
 31
0.0
  0
LINE
  5
3D7
330
1F
100
AcDbEntity
  8
0
  6
CONTINUOUS
 62
     7
100
AcDbLine
 10
833.9797899545467
 20
203.1196972588887
 30
0.0
 11
833.6868967357334
 21
203.1196972588887
 31
0.0
  0
LINE
  5
3D8
330
1F
100
AcDbEntity
  8
0
  6
CONTINUOUS
 62
     7
100
AcDbLine
 10
827.1297899545467
 20
174.1196972588887
 30
0.0
 11
828.5655763921736
 21
174.1196972588887
 31
0.0
  0
LINE
  5
3D9
330
1F
100
AcDbEntity
  8
0
  6
CONTINUOUS
 62
     7
100
AcDbLine
 10
826.9797899545467
 20
290.1196972588887
 30
0.0
 11
828.5655763921736
 21
290.1196972588887
 31
0.0
  0
LINE
  5
3DA
330
1F
100
AcDbEntity
  8
0
  6
CONTINUOUS
 62
     7
100
AcDbLine
 10
829.2726831733602
 20
174.1196972588887
 30
0.0
 11
833.6868967357334
 21
174.1196972588887
 31
0.0
  0
LINE
  5
3DB
330
1F
100
AcDbEntity
  8
0
  6
CONTINUOUS
 62
     7
100
AcDbLine
 10
629.3726674018017
 20
194.9123462532274
 30
0.0
 11
634.7871409602081
 21
200.3268198116339
 31
0.0
  0
LINE
  5
3DC
330
1F
100
AcDbEntity
  8
0
  6
CONTINUOUS
 62
     7
100
AcDbLine
 10
629.0797899545469
 20
270.0341327403594
 30
0.0
 11
629.0797899545469
 21
281.2052617774181
 31
0.0
  0
LINE
  5
3DD
330
1F
100
AcDbEntity
  8
0
  6
CONTINUOUS
 62
     7
100
AcDbLine
 10
826.5797899545468
 20
171.1196972588887
 30
0.0
 11
826.5797899545468
 21
146.0340375516443
 31
0.0
  0
LINE
  5
3DE
330
1F
100
AcDbEntity
  8
0
  6
CONTINUOUS
 62
     7
100
AcDbLine
 10
829.2726831733602
 20
181.1196972588888
 30
0.0
 11
833.6868967357334
 21
181.1196972588888
 31
0.0
  0
LINE
  5
3DF
330
1F
100
AcDbEntity
  8
0
  6
CONTINUOUS
 62
     7
100
AcDbLine
 10
646.5797899545468
 20
288.6196591819529
 30
0.0
 11
646.5797899545468
 21
318.2053569661331
 31
0.0
  0
LINE
  5
3E0
330
1F
100
AcDbEntity
  8
0
  6
CONTINUOUS
 62
     7
100
AcDbLine
 10
833.6868967357334
 20
178.1196972588887
 30
0.0
 11
829.2726831733602
 21
178.1196972588887
 31
0.0
  0
LINE
  5
3E1
330
1F
100
AcDbEntity
  8
0
  6
CONTINUOUS
 62
     7
100
AcDbLine
 10
833.9797899545467
 20
283.1196972588887
 30
0.0
 11
833.6868967357334
 21
283.1196972588887
 31
0.0
  0
LINE
  5
3E2
330
1F
100
AcDbEntity
  8
0
  6
CONTINUOUS
 62
     7
100
AcDbLine
 10
833.9797899545467
 20
258.1196972588888
 30
0.0
 11
833.6868967357334
 21
258.1196972588888
 31
0.0
  0
LINE
  5
3E3
330
1F
100
AcDbEntity
  8
0
  6
CONTINUOUS
 62
     7
100
AcDbLine
 10
827.1297899545467
 20
174.1196972588887
 30
0.0
 11
827.1297899545467
 21
175.9696972588887
 31
0.0
  0
LINE
  5
3E4
330
1F
100
AcDbEntity
  8
0
  6
CONTINUOUS
 62
     7
100
AcDbLine
 10
833.9797899545466
 20
192.1196972588887
 30
0.0
 11
833.7373087378378
 21
192.1196972588887
 31
0.0
  0
LINE
  5
3E5
330
1F
100
AcDbEntity
  8
0
  6
CONTINUOUS
 62
     7
100
AcDbLine
 10
827.0797899545468
 20
286.5196972588887
 30
0.0
 11
826.9797899545467
 21
286.5196972588887
 31
0.0
  0
LINE
  5
3E6
330
1F
100
AcDbEntity
  8
0
  6
CONTINUOUS
 62
     7
100
AcDbLine
 10
826.9797899545467
 20
199.5196972588888
 30
0.0
 11
827.0797899545468
 21
199.5196972588888
 31
0.0
  0
LINE
  5
3E7
330
1F
100
AcDbEntity
  8
0
  6
CONTINUOUS
 62
     7
100
AcDbLine
 10
826.9797899545467
 20
265.1196972588887
 30
0.0
 11
828.5655763921736
 21
265.1196972588887
 31
0.0
  0
LINE
  5
3E8
330
1F
100
AcDbEntity
  8
0
  6
CONTINUOUS
 62
     7
100
AcDbLine
 10
830.0797899545468
 20
199.5196972588888
 30
0.0
 11
830.1797899545468
 21
199.5196972588888
 31
0.0
  0
LINE
  5
3E9
330
1F
100
AcDbEntity
  8
0
  6
CONTINUOUS
 62
     7
100
AcDbLine
 10
833.9797899545467
 20
174.1196972588887
 30
0.0
 11
833.9797899545467
 21
171.1196972588887
 31
0.0
  0
LINE
  5
3EA
330
1F
100
AcDbEntity
  8
0
  6
CONTINUOUS
 62
     7
100
AcDbLine
 10
830.0797899545468
 20
202.7196972588888
 30
0.0
 11
830.1797899545468
 21
202.7196972588888
 31
0.0
  0
LINE
  5
3EB
330
1F
100
AcDbEntity
  8
0
  6
CONTINUOUS
 62
     7
100
AcDbLine
 10
629.3726674018017
 20
281.9123462532274
 30
0.0
 11
634.7871409602081
 21
287.3268198116339
 31
0.0
  0
LINE
  5
3EC
330
1F
100
AcDbEntity
  8
0
  6
CONTINUOUS
 62
     7
100
AcDbLine
 10
825.5134276809513
 20
268.1196972588887
 30
0.0
 11
828.5655763921736
 21
268.1196972588887
 31
0.0
  0
LINE
  5
3ED
330
1F
100
AcDbEntity
  8
0
  6
CONTINUOUS
 62
     7
100
AcDbLine
 10
629.0797899545469
 20
183.0341327403594
 30
0.0
 11
629.0797899545469
 21
194.205261777418
 31
0.0
  0
LINE
  5
3EE
330
1F
100
AcDbEntity
  8
0
  6
CONTINUOUS
 62
     7
100
AcDbLine
 10
635.4942254360174
 20
287.6196972588887
 30
0.0
 11
645.5798280314826
 21
287.6196972588887
 31
0.0
  0
LINE
  5
3EF
330
1F
100
AcDbEntity
  8
0
  6
CONTINUOUS
 62
     7
100
AcDbLine
 10
833.9797899545467
 20
265.1196972588887
 30
0.0
 11
833.6868967357334
 21
265.1196972588887
 31
0.0
  0
LINE
  5
3F0
330
1F
100
AcDbEntity
  8
0
  6
CONTINUOUS
 62
     7
100
AcDbLine
 10
826.5797899545468
 20
154.1196972588887
 30
0.0
 11
837.3421171102599
 21
154.1196972588887
 31
0.0
  0
LINE
  5
3F1
330
1F
100
AcDbEntity
  8
0
  6
CONTINUOUS
 62
     7
100
AcDbLine
 10
833.9797899545467
 20
206.1196972588887
 30
0.0
 11
833.9797899545467
 21
203.1196972588887
 31
0.0
  0
LINE
  5
3F2
330
1F
100
AcDbEntity
  8
0
  6
CONTINUOUS
 62
     7
100
AcDbLine
 10
826.9797899545468
 20
274.1196972588888
 30
0.0
 11
828.5797899545469
 21
274.1196972588888
 31
0.0
  0
LINE
  5
3F3
330
1F
100
AcDbEntity
  8
0
  6
CONTINUOUS
 62
     7
100
AcDbLine
 10
826.9797899545468
 20
269.1196972588888
 30
0.0
 11
826.9797899545468
 21
274.1196972588888
 31
0.0
  0
LINE
  5
3F4
330
1F
100
AcDbEntity
  8
0
  6
CONTINUOUS
 62
     7
100
AcDbLine
 10
634.5797899545468
 20
304.8196972588888
 30
0.0
 11
641.5797899545468
 21
304.8196972588888
 31
0.0
  0
LINE
  5
3F5
330
1F
100
AcDbEntity
  8
0
  6
CONTINUOUS
 62
     7
100
AcDbLine
 10
841.2484191046483
 20
152.1196972588887
 30
0.0
 11
840.7774627988334
 21
152.1196972588887
 31
0.0
  0
LINE
  5
3F6
330
1F
100
AcDbEntity
  8
0
  6
CONTINUOUS
 62
     7
100
AcDbLine
 10
833.6868967357334
 20
174.1196972588887
 30
0.0
 11
833.9797899545467
 21
174.1196972588887
 31
0.0
  0
LINE
  5
3F7
330
1F
100
AcDbEntity
  8
0
  6
CONTINUOUS
 62
     7
100
AcDbLine
 10
830.0297899545468
 20
174.1196972588887
 30
0.0
 11
830.0297899545468
 21
175.9696972588887
 31
0.0
  0
LINE
  5
3F8
330
1F
100
AcDbEntity
  8
0
  6
CONTINUOUS
 62
     7
100
AcDbLine
 10
830.1797899545468
 20
290.1196972588887
 30
0.0
 11
830.1797899545468
 21
286.1196972588887
 31
0.0
  0
LINE
  5
3F9
330
1F
100
AcDbEntity
  8
0
  6
CONTINUOUS
 62
     7
100
AcDbLine
 10
631.9111608044452
 20
172.1196972588887
 30
0.0
 11
632.3821171102601
 21
172.1196972588887
 31
0.0
  0
LINE
  5
3FA
330
1F
100
AcDbEntity
  8
0
  6
CONTINUOUS
 62
     7
100
AcDbLine
 10
830.1797899545468
 20
265.1196972588887
 30
0.0
 11
830.1797899545468
 21
263.1196972588887
 31
0.0
  0
LINE
  5
3FB
330
1F
100
AcDbEntity
  8
0
  6
CONTINUOUS
 62
     7
100
AcDbLine
 10
833.9797899545467
 20
181.1196972588888
 30
0.0
 11
833.9797899545467
 21
178.1196972588887
 31
0.0
  0
LINE
  5
3FC
330
1F
100
AcDbEntity
  8
0
  6
CONTINUOUS
 62
     7
100
AcDbLine
 10
833.9797899545467
 20
172.1196972588887
 30
0.0
 11
840.38211711026
 21
172.1196972588887
 31
0.0
  0
LINE
  5
3FD
330
1F
100
AcDbEntity
  8
0
  6
CONTINUOUS
 62
     7
100
AcDbLine
 10
826.9797899545467
 20
202.7196972588888
 30
0.0
 11
827.0797899545468
 21
202.7196972588888
 31
0.0
  0
LINE
  5
3FE
330
1F
100
AcDbEntity
  8
0
  6
CONTINUOUS
 62
     7
100
AcDbLine
 10
833.9797899545467
 20
199.1196972588887
 30
0.0
 11
833.9797899545467
 21
203.1196972588887
 31
0.0
  0
LINE
  5
3FF
330
1F
100
AcDbEntity
  8
0
  6
CONTINUOUS
 62
     7
100
AcDbLine
 10
833.9797899545467
 20
293.1196972588888
 30
0.0
 11
833.9797899545467
 21
290.1196972588887
 31
0.0
  0
LINE
  5
400
330
1F
100
AcDbEntity
  8
0
  6
CONTINUOUS
 62
     7
100
AcDbLine
 10
833.6868967357334
 20
206.1196972588887
 30
0.0
 11
833.9797899545467
 21
206.1196972588887
 31
0.0
  0
LINE
  5
401
330
1F
100
AcDbEntity
  8
0
  6
CONTINUOUS
 62
     7
100
AcDbLine
 10
833.9797899545467
 20
196.1196972588887
 30
0.0
 11
833.6868967357334
 21
196.1196972588887
 31
0.0
  0
LINE
  5
402
330
1F
100
AcDbEntity
  8
0
  6
CONTINUOUS
 62
     7
100
AcDbLine
 10
826.9797899545467
 20
176.1196972588887
 30
0.0
 11
827.0797899545468
 21
176.1196972588887
 31
0.0
  0
LINE
  5
403
330
1F
100
AcDbEntity
  8
0
  6
CONTINUOUS
 62
     7
100
AcDbLine
 10
830.0797899545468
 20
263.1196972588887
 30
0.0
 11
830.1797899545468
 21
263.1196972588887
 31
0.0
  0
LINE
  5
404
330
1F
100
AcDbEntity
  8
0
  6
CONTINUOUS
 62
     7
100
AcDbLine
 10
833.9797899545467
 20
290.1196972588887
 30
0.0
 11
833.6868967357334
 21
290.1196972588887
 31
0.0
  0
LINE
  5
405
330
1F
100
AcDbEntity
  8
0
  6
CONTINUOUS
 62
     7
100
AcDbLine
 10
833.6868967357334
 20
293.1196972588888
 30
0.0
 11
833.9797899545467
 21
293.1196972588888
 31
0.0
  0
LINE
  5
406
330
1F
100
AcDbEntity
  8
0
  6
CONTINUOUS
 62
     7
100
AcDbLine
 10
830.1797899545468
 20
176.1196972588887
 30
0.0
 11
830.1797899545468
 21
178.1196972588887
 31
0.0
  0
LINE
  5
407
330
1F
100
AcDbEntity
  8
0
  6
CONTINUOUS
 62
     7
100
AcDbLine
 10
833.9797899545466
 20
279.1196972588887
 30
0.0
 11
833.7373087378378
 21
279.1196972588887
 31
0.0
  0
LINE
  5
408
330
1F
100
AcDbEntity
  8
0
  6
CONTINUOUS
 62
     7
100
AcDbLine
 10
830.1797899545468
 20
199.1196972588887
 30
0.0
 11
830.1797899545468
 21
203.1196972588887
 31
0.0
  0
LINE
  5
409
330
1F
100
AcDbEntity
  8
0
  6
CONTINUOUS
 62
     7
100
AcDbLine
 10
633.1273114027922
 20
152.1196972588887
 30
0.0
 11
632.3821171102601
 21
152.1196972588887
 31
0.0
  0
LINE
  5
40A
330
1F
100
AcDbEntity
  8
0
  6
CONTINUOUS
 62
     7
100
AcDbLine
 10
830.1797899545468
 20
264.7196972588887
 30
0.0
 11
830.0797899545468
 21
264.7196972588887
 31
0.0
  0
LINE
  5
40B
330
1F
100
AcDbEntity
  8
0
  6
CONTINUOUS
 62
     7
100
AcDbLine
 10
833.6868967357334
 20
181.1196972588888
 30
0.0
 11
833.9797899545467
 21
181.1196972588888
 31
0.0
  0
LINE
  5
40C
330
1F
100
AcDbEntity
  8
0
  6
CONTINUOUS
 62
     7
100
AcDbLine
 10
833.9797899545467
 20
171.1196972588887
 30
0.0
 11
833.6868967357334
 21
171.1196972588887
 31
0.0
  0
LINE
  5
40D
330
1F
100
AcDbEntity
  8
0
  6
CONTINUOUS
 62
     7
100
AcDbLine
 10
830.1797899545469
 20
283.1196972588888
 30
0.0
 11
830.1797899545469
 21
278.1196972588888
 31
0.0
  0
LINE
  5
40E
330
1F
100
AcDbEntity
  8
0
  6
CONTINUOUS
 62
     7
100
AcDbLine
 10
833.7373087378378
 20
279.1196972588887
 30
0.0
 11
833.7373087378378
 21
273.1196972588887
 31
0.0
  0
LINE
  5
40F
330
1F
100
AcDbEntity
  8
0
  6
CONTINUOUS
 62
     7
100
AcDbLine
 10
833.9797899545467
 20
290.1196972588887
 30
0.0
 11
833.9797899545467
 21
286.1196972588887
 31
0.0
  0
LINE
  5
410
330
1F
100
AcDbEntity
  8
0
  6
CONTINUOUS
 62
     7
100
AcDbLine
 10
830.1797899545468
 20
289.7196972588887
 30
0.0
 11
830.0797899545468
 21
289.7196972588887
 31
0.0
  0
LINE
  5
411
330
1F
100
AcDbEntity
  8
0
  6
CONTINUOUS
 62
     7
100
AcDbLine
 10
840.0322685063013
 20
152.1196972588887
 30
0.0
 11
826.5797899545468
 21
152.1196972588887
 31
0.0
  0
LINE
  5
412
330
1F
100
AcDbEntity
  8
0
  6
CONTINUOUS
 62
     7
100
AcDbLine
 10
632.3821171102601
 20
312.1196972588888
 30
0.0
 11
633.1273114027922
 21
312.1196972588888
 31
0.0
  0
LINE
  5
413
330
1F
100
AcDbEntity
  8
0
  6
CONTINUOUS
 62
     7
100
AcDbLine
 10
830.1797899545468
 20
286.5196972588887
 30
0.0
 11
830.0797899545468
 21
286.5196972588887
 31
0.0
  0
LINE
  5
414
330
1F
100
AcDbEntity
  8
0
  6
CONTINUOUS
 62
     7
100
AcDbLine
 10
833.6868967357334
 20
268.1196972588887
 30
0.0
 11
833.9797899545467
 21
268.1196972588887
 31
0.0
  0
LINE
  5
415
330
1F
100
AcDbEntity
  8
0
  6
CONTINUOUS
 62
     7
100
AcDbLine
 10
833.9797899545467
 20
199.1196972588887
 30
0.0
 11
833.9797899545467
 21
196.1196972588887
 31
0.0
  0
LINE
  5
416
330
1F
100
AcDbEntity
  8
0
  6
CONTINUOUS
 62
     7
100
AcDbLine
 10
833.9797899545467
 20
178.1196972588887
 30
0.0
 11
833.6868967357334
 21
178.1196972588887
 31
0.0
  0
LINE
  5
417
330
1F
100
AcDbEntity
  8
0
  6
CONTINUOUS
 62
     7
100
AcDbLine
 10
833.9797899545466
 20
273.1196972588887
 30
0.0
 11
833.7373087378378
 21
273.1196972588887
 31
0.0
  0
LINE
  5
418
330
1F
100
AcDbEntity
  8
0
  6
CONTINUOUS
 62
     7
100
AcDbLine
 10
826.9797899545467
 20
263.1196972588887
 30
0.0
 11
827.0797899545468
 21
263.1196972588887
 31
0.0
  0
LINE
  5
419
330
1F
100
AcDbEntity
  8
0
  6
CONTINUOUS
 62
     7
100
AcDbLine
 10
831.2065750618594
 20
294.1196972588888
 30
0.0
 11
837.34211711026
 21
294.1196972588888
 31
0.0
  0
LINE
  5
41A
330
1F
100
AcDbEntity
  8
0
  6
CONTINUOUS
 62
     7
100
AcDbLine
 10
633.1273114027922
 20
292.1196972588888
 30
0.0
 11
632.3821171102601
 21
292.1196972588888
 31
0.0
  0
LINE
  5
41B
330
1F
100
AcDbEntity
  8
0
  6
CONTINUOUS
 62
     7
100
AcDbLine
 10
833.6868967357334
 20
199.1196972588887
 30
0.0
 11
833.9797899545467
 21
199.1196972588887
 31
0.0
  0
LINE
  5
41C
330
1F
100
AcDbEntity
  8
0
  6
CONTINUOUS
 62
     7
100
AcDbLine
 10
635.8174627988334
 20
294.1196972588888
 30
0.0
 11
646.5797899545468
 21
294.1196972588888
 31
0.0
  0
LINE
  5
41D
330
1F
100
AcDbEntity
  8
0
  6
CONTINUOUS
 62
     7
100
AcDbLine
 10
826.9797899545468
 20
278.1196972588888
 30
0.0
 11
828.5797899545469
 21
278.1196972588888
 31
0.0
  0
LINE
  5
41E
330
1F
100
AcDbEntity
  8
0
  6
CONTINUOUS
 62
     7
100
AcDbLine
 10
830.0297899545468
 20
262.9696972588887
 30
0.0
 11
830.0297899545468
 21
261.1196972588888
 31
0.0
  0
LINE
  5
41F
330
1F
100
AcDbEntity
  8
0
  6
CONTINUOUS
 62
     7
100
AcDbLine
 10
833.9797899545467
 20
174.1196972588887
 30
0.0
 11
833.9797899545467
 21
178.1196972588887
 31
0.0
  0
LINE
  5
420
330
1F
100
AcDbEntity
  8
0
  6
CONTINUOUS
 62
     7
100
AcDbLine
 10
830.1797899545468
 20
176.1196972588887
 30
0.0
 11
830.0297899545468
 21
175.9696972588887
 31
0.0
  0
LINE
  5
421
330
1F
100
AcDbEntity
  8
0
  6
CONTINUOUS
 62
     7
100
AcDbLine
 10
646.5797899545468
 20
170.1196972588887
 30
0.0
 11
635.8174627988334
 21
170.1196972588887
 31
0.0
  0
LINE
  5
422
330
1F
100
AcDbEntity
  8
0
  6
CONTINUOUS
 62
     7
100
AcDbLine
 10
833.7373087378378
 20
186.1196972588888
 30
0.0
 11
833.7373087378378
 21
192.1196972588887
 31
0.0
  0
LINE
  5
423
330
1F
100
AcDbEntity
  8
0
  6
CONTINUOUS
 62
     7
100
AcDbLine
 10
646.5797899545468
 20
310.1196972588888
 30
0.0
 11
635.8174627988334
 21
310.1196972588888
 31
0.0
  0
LINE
  5
424
330
1F
100
AcDbEntity
  8
0
  6
CONTINUOUS
 62
     7
100
AcDbLine
 10
827.0797899545468
 20
289.7196972588887
 30
0.0
 11
826.9797899545467
 21
289.7196972588887
 31
0.0
  0
LINE
  5
425
330
1F
100
AcDbEntity
  8
0
  6
CONTINUOUS
 62
     7
100
AcDbLine
 10
827.0797899545468
 20
264.7196972588887
 30
0.0
 11
826.9797899545467
 21
264.7196972588887
 31
0.0
  0
LINE
  5
426
330
1F
100
AcDbEntity
  8
0
  6
CONTINUOUS
 62
     7
100
AcDbLine
 10
830.0797899545468
 20
176.1196972588887
 30
0.0
 11
830.1797899545468
 21
176.1196972588887
 31
0.0
  0
LINE
  5
427
330
1F
100
AcDbEntity
  8
0
  6
CONTINUOUS
 62
     7
100
AcDbLine
 10
826.5797899545468
 20
312.1196972588888
 30
0.0
 11
840.0322685063013
 21
312.1196972588888
 31
0.0
  0
LINE
  5
428
330
1F
100
AcDbEntity
  8
0
  6
CONTINUOUS
 62
     7
100
AcDbLine
 10
833.9797899545467
 20
265.1196972588887
 30
0.0
 11
833.9797899545467
 21
261.1196972588888
 31
0.0
  0
LINE
  5
429
330
1F
100
AcDbEntity
  8
0
  6
CONTINUOUS
 62
     7
100
AcDbLine
 10
830.1797899545469
 20
182.1196972588887
 30
0.0
 11
830.1797899545469
 21
187.1196972588887
 31
0.0
  0
LINE
  5
42A
330
1F
100
AcDbEntity
  8
0
  6
CONTINUOUS
 62
     7
100
AcDbLine
 10
830.1797899545469
 20
182.1196972588888
 30
0.0
 11
833.9797899545467
 21
182.1196972588887
 31
0.0
  0
LINE
  5
42B
330
1F
100
AcDbEntity
  8
0
  6
CONTINUOUS
 62
     7
100
AcDbLine
 10
826.9797899545467
 20
177.7196972588887
 30
0.0
 11
827.0797899545468
 21
177.7196972588887
 31
0.0
  0
LINE
  5
42C
330
1F
100
AcDbEntity
  8
0
  6
CONTINUOUS
 62
     7
100
AcDbLine
 10
646.5797899545468
 20
152.1196972588887
 30
0.0
 11
633.1273114027922
 21
152.1196972588887
 31
0.0
  0
LINE
  5
42D
330
1F
100
AcDbEntity
  8
0
  6
CONTINUOUS
 62
     7
100
AcDbLine
 10
626.5797899545468
 20
297.4510681087872
 30
0.0
 11
626.5797899545468
 21
306.7883264089903
 31
0.0
  0
LINE
  5
42E
330
1F
100
AcDbEntity
  8
0
  6
CONTINUOUS
 62
     7
100
AcDbLine
 10
830.0797899545468
 20
182.1196972588887
 30
0.0
 11
830.1797899545469
 21
182.1196972588887
 31
0.0
  0
LINE
  5
42F
330
1F
100
AcDbEntity
  8
0
  6
CONTINUOUS
 62
     7
100
AcDbLine
 10
828.5797899545469
 20
187.1196972588887
 30
0.0
 11
830.1797899545469
 21
187.1196972588887
 31
0.0
  0
LINE
  5
430
330
1F
100
AcDbEntity
  8
0
  6
CONTINUOUS
 62
     7
100
AcDbLine
 10
626.8141045295976
 20
307.3540118339395
 30
0.0
 11
631.3454753794961
 21
311.885382683838
 31
0.0
  0
LINE
  5
431
330
1F
100
AcDbEntity
  8
0
  6
CONTINUOUS
 62
     7
100
AcDbLine
 10
626.8141045295976
 20
167.3540118339395
 30
0.0
 11
631.3454753794961
 21
171.8853826838379
 31
0.0
  0
LINE
  5
432
330
1F
100
AcDbEntity
  8
0
  6
CONTINUOUS
 62
     7
100
AcDbLine
 10
635.8174627988334
 20
154.1196972588887
 30
0.0
 11
646.5797899545468
 21
154.1196972588887
 31
0.0
  0
LINE
  5
433
330
1F
100
AcDbEntity
  8
0
  6
CONTINUOUS
 62
     7
100
AcDbLine
 10
833.9797899545467
 20
269.1196972588888
 30
0.0
 11
833.9797899545467
 21
273.1196972588887
 31
0.0
  0
LINE
  5
434
330
1F
100
AcDbEntity
  8
0
  6
CONTINUOUS
 62
     7
100
AcDbLine
 10
650.4941302473023
 20
87.5196972588888
 30
0.0
 11
649.787045771493
 21
87.5196972588888
 31
0.0
  0
LINE
  5
435
330
1F
100
AcDbEntity
  8
0
  6
CONTINUOUS
 62
     7
100
AcDbLine
 10
632.3821171102601
 20
292.1196972588888
 30
0.0
 11
631.9111608044452
 21
292.1196972588888
 31
0.0
  0
LINE
  5
436
330
1F
100
AcDbEntity
  8
0
  6
CONTINUOUS
 62
     7
100
AcDbLine
 10
641.5797899545468
 20
299.4196972588888
 30
0.0
 11
634.5797899545468
 21
299.4196972588888
 31
0.0
  0
LINE
  5
437
330
1F
100
AcDbEntity
  8
0
  6
CONTINUOUS
 62
     7
100
AcDbLine
 10
828.5797899545469
 20
191.1196972588887
 30
0.0
 11
830.1797899545469
 21
191.1196972588887
 31
0.0
  0
LINE
  5
438
330
1F
100
AcDbEntity
  8
0
  6
CONTINUOUS
 62
     7
100
AcDbLine
 10
826.9797899545468
 20
269.1196972588888
 30
0.0
 11
827.0797899545468
 21
269.1196972588888
 31
0.0
  0
LINE
  5
439
330
1F
100
AcDbEntity
  8
0
  6
CONTINUOUS
 62
     7
100
AcDbLine
 10
841.8141045295974
 20
311.885382683838
 30
0.0
 11
846.345475379496
 21
307.3540118339395
 31
0.0
  0
LINE
  5
43A
330
1F
100
AcDbEntity
  8
0
  6
CONTINUOUS
 62
     7
100
AcDbLine
 10
830.1797899545469
 20
196.1196972588887
 30
0.0
 11
830.1797899545469
 21
191.1196972588887
 31
0.0
  0
LINE
  5
43B
330
1F
100
AcDbEntity
  8
0
  6
CONTINUOUS
 62
     7
100
AcDbLine
 10
840.7774627988334
 20
292.1196972588888
 30
0.0
 11
840.0322685063013
 21
292.1196972588888
 31
0.0
  0
LINE
  5
43C
330
1F
100
AcDbEntity
  8
0
  6
CONTINUOUS
 62
     7
100
AcDbLine
 10
631.3454753794961
 20
152.3540118339395
 30
0.0
 11
626.8141045295976
 21
156.885382683838
 31
0.0
  0
LINE
  5
43D
330
1F
100
AcDbEntity
  8
0
  6
CONTINUOUS
 62
     7
100
AcDbLine
 10
826.9797899545468
 20
182.1196972588887
 30
0.0
 11
827.0797899545468
 21
182.1196972588887
 31
0.0
  0
LINE
  5
43E
330
1F
100
AcDbEntity
  8
0
  6
CONTINUOUS
 62
     7
100
AcDbLine
 10
846.5797899545468
 20
306.7883264089903
 30
0.0
 11
846.5797899545468
 21
297.4510681087872
 31
0.0
  0
LINE
  5
43F
330
1F
100
AcDbEntity
  8
0
  6
CONTINUOUS
 62
     7
100
AcDbLine
 10
631.3454753794961
 20
292.3540118339395
 30
0.0
 11
626.8141045295976
 21
296.885382683838
 31
0.0
  0
LINE
  5
440
330
1F
100
AcDbEntity
  8
0
  6
CONTINUOUS
 62
     7
100
AcDbLine
 10
837.34211711026
 20
310.1196972588888
 30
0.0
 11
826.5797899545468
 21
310.1196972588888
 31
0.0
  0
LINE
  5
441
330
1F
100
AcDbEntity
  8
0
  6
CONTINUOUS
 62
     7
100
AcDbLine
 10
837.3421171102599
 20
170.1196972588887
 30
0.0
 11
826.5797899545468
 21
170.1196972588887
 31
0.0
  0
LINE
  5
442
330
1F
100
AcDbEntity
  8
0
  6
CONTINUOUS
 62
     7
100
AcDbLine
 10
840.7774627988334
 20
312.1196972588888
 30
0.0
 11
841.2484191046483
 21
312.1196972588888
 31
0.0
  0
LINE
  5
443
330
1F
100
AcDbEntity
  8
0
  6
CONTINUOUS
 62
     7
100
AcDbLine
 10
830.0797899545468
 20
186.1196972588888
 30
0.0
 11
830.1797899545469
 21
186.1196972588888
 31
0.0
  0
LINE
  5
444
330
1F
100
AcDbEntity
  8
0
  6
CONTINUOUS
 62
     7
100
AcDbLine
 10
826.2869125072918
 20
87.5196972588888
 30
0.0
 11
823.3725341376005
 21
87.5196972588888
 31
0.0
  0
LINE
  5
445
330
1F
100
AcDbEntity
  8
0
  6
CONTINUOUS
 62
     7
100
AcDbLine
 10
635.5797899545468
 20
97.61969725888879
 30
0.0
 11
645.4527733007541
 21
97.61969725888879
 31
0.0
  0
LINE
  5
446
330
1F
100
AcDbEntity
  8
0
  6
CONTINUOUS
 62
     7
100
AcDbLine
 10
647.6461522281422
 20
96.11969725888879
 30
0.0
 11
650.5605305978337
 21
96.11969725888879
 31
0.0
  0
LINE
  5
447
330
1F
100
AcDbEntity
  8
0
  6
CONTINUOUS
 62
     7
100
AcDbLine
 10
826.5797899545468
 20
182.1196972588887
 30
0.0
 11
826.9797899545468
 21
182.1196972588887
 31
0.0
  0
LINE
  5
448
330
1F
100
AcDbEntity
  8
0
  6
CONTINUOUS
 62
     7
100
AcDbLine
 10
830.0797899545468
 20
263.0196972588888
 30
0.0
 11
830.0797899545468
 21
265.1196972588887
 31
0.0
  0
LINE
  5
449
330
1F
100
AcDbEntity
  8
0
  6
CONTINUOUS
 62
     7
100
AcDbLine
 10
826.5133896040154
 20
95.12842379438717
 30
0.0
 11
826.5797899545468
 21
87.5196972588888
 31
0.0
  0
LINE
  5
44A
330
1F
100
AcDbEntity
  8
0
  6
CONTINUOUS
 62
     7
100
AcDbLine
 10
831.5797899545468
 20
164.8196972588887
 30
0.0
 11
838.5797899545468
 21
164.8196972588887
 31
0.0
  0
LINE
  5
44B
330
1F
100
AcDbEntity
  8
0
  6
CONTINUOUS
 62
     7
100
AcDbLine
 10
642.1797899545467
 20
101.2745699794293
 30
0.0
 11
642.1797899545467
 21
100.9353062299429
 31
0.0
  0
LINE
  5
44C
330
1F
100
AcDbEntity
  8
0
  6
CONTINUOUS
 62
     7
100
AcDbLine
 10
632.3821171102601
 20
172.1196972588887
 30
0.0
 11
633.1273114027922
 21
172.1196972588887
 31
0.0
  0
LINE
  5
44D
330
1F
100
AcDbEntity
  8
0
  6
CONTINUOUS
 62
     7
100
AcDbLine
 10
826.9797899545468
 20
187.1196972588887
 30
0.0
 11
828.5797899545469
 21
187.1196972588887
 31
0.0
  0
LINE
  5
44E
330
1F
100
AcDbEntity
  8
0
  6
CONTINUOUS
 62
     7
100
AcDbLine
 10
633.1273114027922
 20
312.1196972588888
 30
0.0
 11
646.5797899545468
 21
312.1196972588888
 31
0.0
  0
LINE
  5
44F
330
1F
100
AcDbEntity
  8
0
  6
CONTINUOUS
 62
     7
100
AcDbLine
 10
826.5797899545468
 20
87.5196972588888
 30
0.0
 11
826.2869125072918
 21
87.5196972588888
 31
0.0
  0
LINE
  5
450
330
1F
100
AcDbEntity
  8
0
  6
CONTINUOUS
 62
     7
100
AcDbLine
 10
831.5797899545468
 20
299.4196972588887
 30
0.0
 11
838.5797899545468
 21
299.4196972588887
 31
0.0
  0
LINE
  5
451
330
1F
100
AcDbEntity
  8
0
  6
CONTINUOUS
 62
     7
100
AcDbLine
 10
846.5797899545468
 20
166.7883264089903
 30
0.0
 11
846.5797899545468
 21
157.4510681087872
 31
0.0
  0
LINE
  5
452
330
1F
100
AcDbEntity
  8
0
  6
CONTINUOUS
 62
     7
100
AcDbLine
 10
833.9797899545467
 20
192.1196972588887
 30
0.0
 11
833.9797899545467
 21
196.1196972588887
 31
0.0
  0
LINE
  5
453
330
1F
100
AcDbEntity
  8
0
  6
CONTINUOUS
 62
     7
100
AcDbLine
 10
827.0797899545468
 20
203.1196972588887
 30
0.0
 11
827.0797899545468
 21
199.1196972588887
 31
0.0
  0
LINE
  5
454
330
1F
100
AcDbEntity
  8
0
  6
CONTINUOUS
 62
     7
100
AcDbLine
 10
827.0797899545468
 20
290.1196972588887
 30
0.0
 11
827.0797899545468
 21
286.1196972588887
 31
0.0
  0
LINE
  5
455
330
1F
100
AcDbEntity
  8
0
  6
CONTINUOUS
 62
     7
100
AcDbLine
 10
833.9797899545467
 20
182.1196972588887
 30
0.0
 11
833.9797899545467
 21
186.1196972588888
 31
0.0
  0
LINE
  5
456
330
1F
100
AcDbEntity
  8
0
  6
CONTINUOUS
 62
     7
100
AcDbLine
 10
838.5797899545468
 20
304.8196972588888
 30
0.0
 11
831.5797899545468
 21
304.8196972588888
 31
0.0
  0
LINE
  5
457
330
1F
100
AcDbEntity
  8
0
  6
CONTINUOUS
 62
     7
100
AcDbLine
 10
841.2484191046483
 20
292.1196972588888
 30
0.0
 11
840.7774627988334
 21
292.1196972588888
 31
0.0
  0
LINE
  5
458
330
1F
100
AcDbEntity
  8
0
  6
CONTINUOUS
 62
     7
100
AcDbLine
 10
826.9797899545468
 20
191.1196972588887
 30
0.0
 11
828.5797899545469
 21
191.1196972588887
 31
0.0
  0
LINE
  5
459
330
1F
100
AcDbEntity
  8
0
  6
CONTINUOUS
 62
     7
100
AcDbLine
 10
840.0322685063013
 20
292.1196972588888
 30
0.0
 11
833.9797899545467
 21
292.1196972588888
 31
0.0
  0
LINE
  5
45A
330
1F
100
AcDbEntity
  8
0
  6
CONTINUOUS
 62
     7
100
AcDbLine
 10
830.1797899545469
 20
279.1196972588887
 30
0.0
 11
830.0797899545468
 21
279.1196972588887
 31
0.0
  0
LINE
  5
45B
330
1F
100
AcDbEntity
  8
0
  6
CONTINUOUS
 62
     7
100
AcDbLine
 10
826.9797899545468
 20
196.1196972588887
 30
0.0
 11
826.9797899545468
 21
191.1196972588887
 31
0.0
  0
LINE
  5
45C
330
1F
100
AcDbEntity
  8
0
  6
CONTINUOUS
 62
     7
100
AcDbLine
 10
830.0797899545468
 20
269.1196972588888
 30
0.0
 11
830.1797899545469
 21
269.1196972588888
 31
0.0
  0
LINE
  5
45D
330
1F
100
AcDbEntity
  8
0
  6
CONTINUOUS
 62
     7
100
AcDbLine
 10
830.0797899545468
 20
273.1196972588887
 30
0.0
 11
830.1797899545469
 21
273.1196972588887
 31
0.0
  0
LINE
  5
45E
330
1F
100
AcDbEntity
  8
0
  6
CONTINUOUS
 62
     7
100
AcDbLine
 10
633.1273114027922
 20
172.1196972588887
 30
0.0
 11
646.5797899545468
 21
172.1196972588887
 31
0.0
  0
LINE
  5
45F
330
1F
100
AcDbEntity
  8
0
  6
CONTINUOUS
 62
     7
100
AcDbLine
 10
631.9111608044452
 20
312.1196972588888
 30
0.0
 11
632.3821171102601
 21
312.1196972588888
 31
0.0
  0
LINE
  5
460
330
1F
100
AcDbEntity
  8
0
  6
CONTINUOUS
 62
     7
100
AcDbLine
 10
830.1797899545469
 20
192.1196972588887
 30
0.0
 11
830.0797899545468
 21
192.1196972588887
 31
0.0
  0
LINE
  5
461
330
1F
100
AcDbEntity
  8
0
  6
CONTINUOUS
 62
     7
100
AcDbLine
 10
632.3821171102601
 20
152.1196972588887
 30
0.0
 11
631.9111608044452
 21
152.1196972588887
 31
0.0
  0
LINE
  5
462
330
1F
100
AcDbEntity
  8
0
  6
CONTINUOUS
 62
     7
100
AcDbLine
 10
826.9797899545468
 20
182.1196972588887
 30
0.0
 11
826.9797899545468
 21
187.1196972588887
 31
0.0
  0
LINE
  5
463
330
1F
100
AcDbEntity
  8
0
  6
CONTINUOUS
 62
     7
100
AcDbLine
 10
840.7774627988334
 20
152.1196972588887
 30
0.0
 11
840.0322685063013
 21
152.1196972588887
 31
0.0
  0
LINE
  5
464
330
1F
100
AcDbEntity
  8
0
  6
CONTINUOUS
 62
     7
100
AcDbLine
 10
846.345475379496
 20
156.885382683838
 30
0.0
 11
841.8141045295974
 21
152.3540118339395
 31
0.0
  0
LINE
  5
465
330
1F
100
AcDbEntity
  8
0
  6
CONTINUOUS
 62
     7
100
AcDbLine
 10
840.0322685063013
 20
312.1196972588888
 30
0.0
 11
840.7774627988334
 21
312.1196972588888
 31
0.0
  0
LINE
  5
466
330
1F
100
AcDbEntity
  8
0
  6
CONTINUOUS
 62
     7
100
AcDbLine
 10
840.38211711026
 20
172.1196972588887
 30
0.0
 11
841.2484191046483
 21
172.1196972588887
 31
0.0
  0
LINE
  5
467
330
1F
100
AcDbEntity
  8
0
  6
CONTINUOUS
 62
     7
100
AcDbLine
 10
646.5797899545468
 20
292.1196972588888
 30
0.0
 11
633.1273114027922
 21
292.1196972588888
 31
0.0
  0
LINE
  5
468
330
1F
100
AcDbEntity
  8
0
  6
CONTINUOUS
 62
     7
100
AcDbLine
 10
641.5797899545468
 20
164.8196972588887
 30
0.0
 11
634.5797899545468
 21
164.8196972588887
 31
0.0
  0
LINE
  5
469
330
1F
100
AcDbEntity
  8
0
  6
CONTINUOUS
 62
     7
100
AcDbLine
 10
838.5797899545468
 20
159.4196972588887
 30
0.0
 11
831.5797899545468
 21
159.4196972588887
 31
0.0
  0
LINE
  5
46A
330
1F
100
AcDbEntity
  8
0
  6
CONTINUOUS
 62
     7
100
AcDbLine
 10
649.787045771493
 20
87.5196972588888
 30
0.0
 11
646.8726674018016
 21
87.5196972588888
 31
0.0
  0
LINE
  5
46B
330
1F
100
AcDbEntity
  8
0
  6
CONTINUOUS
 62
     7
100
AcDbLine
 10
626.5797899545468
 20
157.4510681087872
 30
0.0
 11
626.5797899545468
 21
166.7883264089903
 31
0.0
  0
LINE
  5
46C
330
1F
100
AcDbEntity
  8
0
  6
CONTINUOUS
 62
     7
100
AcDbLine
 10
830.0797899545468
 20
176.0196972588888
 30
0.0
 11
830.0797899545468
 21
178.1196972588887
 31
0.0
  0
LINE
  5
46D
330
1F
100
AcDbEntity
  8
0
  6
CONTINUOUS
 62
     7
100
AcDbLine
 10
634.5797899545468
 20
159.4196972588888
 30
0.0
 11
641.5797899545468
 21
159.4196972588888
 31
0.0
  0
LINE
  5
46E
330
1F
100
AcDbEntity
  8
0
  6
CONTINUOUS
 62
     7
100
AcDbLine
 10
822.5990493112598
 20
96.11969725888879
 30
0.0
 11
825.5134276809513
 21
96.11969725888879
 31
0.0
  0
LINE
  5
46F
330
1F
100
AcDbEntity
  8
0
  6
CONTINUOUS
 62
     7
100
AcDbLine
 10
645.4527733007541
 20
97.6196972588888
 30
0.0
 11
648.2797899545467
 21
97.6196972588888
 31
0.0
  0
LINE
  5
470
330
1F
100
AcDbEntity
  8
0
  6
CONTINUOUS
 62
     7
100
AcDbLine
 10
827.0797899545468
 20
283.1196972588887
 30
0.0
 11
827.0797899545468
 21
278.1196972588888
 31
0.0
  0
LINE
  5
471
330
1F
100
AcDbEntity
  8
0
  6
CONTINUOUS
 62
     7
100
AcDbLine
 10
830.0797899545468
 20
181.1196972588887
 30
0.0
 11
830.0797899545468
 21
187.1196972588887
 31
0.0
  0
LINE
  5
472
330
1F
100
AcDbEntity
  8
0
  6
CONTINUOUS
 62
     7
100
AcDbLine
 10
771.5797899545468
 20
96.11969725888879
 30
0.0
 11
822.5990493112598
 21
96.11969725888879
 31
0.0
  0
LINE
  5
473
330
1F
100
AcDbEntity
  8
0
  6
CONTINUOUS
 62
     7
100
AcDbLine
 10
629.0797899545469
 20
87.5196972588888
 30
0.0
 11
629.1461903050781
 21
95.12842379438717
 31
0.0
  0
LINE
  5
474
330
1F
100
AcDbEntity
  8
0
  6
CONTINUOUS
 62
     7
100
AcDbLine
 10
706.1928236601509
 20
41.92839555044107
 30
0.0
 11
706.199908311375
 21
41.94858693044384
 31
0.0
  0
LINE
  5
475
330
1F
100
AcDbEntity
  8
0
  6
CONTINUOUS
 62
     7
100
AcDbLine
 10
830.0797899545468
 20
191.1196972588887
 30
0.0
 11
830.0797899545468
 21
196.1196972588887
 31
0.0
  0
LINE
  5
476
330
1F
100
AcDbEntity
  8
0
  6
CONTINUOUS
 62
     7
100
AcDbLine
 10
827.0797899545468
 20
178.1196972588887
 30
0.0
 11
827.0797899545468
 21
176.0196972588887
 31
0.0
  0
LINE
  5
477
330
1F
100
AcDbEntity
  8
0
  6
CONTINUOUS
 62
     7
100
AcDbLine
 10
640.9797899545467
 20
100.9353062299429
 30
0.0
 11
640.9797899545467
 21
101.2745699794293
 31
0.0
  0
LINE
  5
478
330
1F
100
AcDbEntity
  8
0
  6
CONTINUOUS
 62
     7
100
AcDbLine
 10
635.3797899545468
 20
97.61969725888879
 30
0.0
 11
635.5797899545468
 21
97.61969725888879
 31
0.0
  0
LINE
  5
479
330
1F
100
AcDbEntity
  8
0
  6
CONTINUOUS
 62
     7
100
AcDbLine
 10
824.5797899545468
 20
4.540749890467849
 30
0.0
 11
824.5797899545468
 21
28.94569725888802
 31
0.0
  0
LINE
  5
47A
330
1F
100
AcDbEntity
  8
0
  6
CONTINUOUS
 62
     7
100
AcDbLine
 10
841.8141045295974
 20
171.885382683838
 30
0.0
 11
846.345475379496
 21
167.3540118339395
 31
0.0
  0
LINE
  5
47B
330
1F
100
AcDbEntity
  8
0
  6
CONTINUOUS
 62
     7
100
AcDbLine
 10
827.0797899545468
 20
265.1196972588887
 30
0.0
 11
827.0797899545468
 21
263.0196972588888
 31
0.0
  0
LINE
  5
47C
330
1F
100
AcDbEntity
  8
0
  6
CONTINUOUS
 62
     7
100
AcDbLine
 10
823.5797899545468
 20
30.11969725888877
 30
0.0
 11
823.5797899545468
 21
5.067065679941404
 31
0.0
  0
LINE
  5
47D
330
1F
100
AcDbEntity
  8
0
  6
CONTINUOUS
 62
     7
100
AcDbLine
 10
651.2797899545467
 20
106.1196972588888
 30
0.0
 11
651.2797899545467
 21
99.11969725888879
 31
0.0
  0
LINE
  5
47E
330
1F
100
AcDbEntity
  8
0
  6
CONTINUOUS
 62
     7
100
AcDbLine
 10
830.0297899545468
 20
75.91801483874816
 30
0.0
 11
830.0297899545468
 21
81.11969725888879
 31
0.0
  0
LINE
  5
47F
330
1F
100
AcDbEntity
  8
0
  6
CONTINUOUS
 62
     7
100
AcDbLine
 10
635.3797899545468
 20
96.1196972588888
 30
0.0
 11
635.3797899545468
 21
97.6196972588888
 31
0.0
  0
LINE
  5
480
330
1F
100
AcDbEntity
  8
0
  6
CONTINUOUS
 62
     7
100
AcDbLine
 10
706.1815807770881
 20
41.88836624035424
 30
0.0
 11
706.1867857306236
 21
41.90850733404805
 31
0.0
  0
LINE
  5
481
330
1F
100
AcDbEntity
  8
0
  6
CONTINUOUS
 62
     7
100
AcDbLine
 10
649.7797899545468
 20
113.1196972588888
 30
0.0
 11
651.2797899545467
 21
113.1196972588888
 31
0.0
  0
LINE
  5
482
330
1F
100
AcDbEntity
  8
0
  6
CONTINUOUS
 62
     7
100
AcDbLine
 10
827.0797899545468
 20
187.1196972588887
 30
0.0
 11
827.0797899545468
 21
181.1196972588888
 31
0.0
  0
LINE
  5
483
330
1F
100
AcDbEntity
  8
0
  6
CONTINUOUS
 62
     7
100
AcDbLine
 10
706.3595823145328
 20
42.16534691058992
 30
0.0
 11
706.3760547746039
 21
42.17758706438018
 31
0.0
  0
LINE
  5
484
330
1F
100
AcDbEntity
  8
0
  6
CONTINUOUS
 62
     7
100
AcDbLine
 10
635.5606257865488
 20
96.1196972588888
 30
0.0
 11
645.6462283820139
 21
96.1196972588888
 31
0.0
  0
LINE
  5
485
330
1F
100
AcDbEntity
  8
0
  6
CONTINUOUS
 62
     7
100
AcDbLine
 10
706.486407511885
 20
42.23667792126679
 30
0.0
 11
706.5057888556584
 21
42.24363386151978
 31
0.0
  0
LINE
  5
486
330
1F
100
AcDbEntity
  8
0
  6
CONTINUOUS
 62
     7
100
AcDbLine
 10
823.3725341376005
 20
87.5196972588888
 30
0.0
 11
822.6654496617911
 21
87.5196972588888
 31
0.0
  0
LINE
  5
487
330
1F
100
AcDbEntity
  8
0
  6
CONTINUOUS
 62
     7
100
AcDbLine
 10
647.8380144800975
 20
97.61969725888879
 30
0.0
 11
649.7797899545468
 21
99.56147273333801
 31
0.0
  0
LINE
  5
488
330
1F
100
AcDbEntity
  8
0
  6
CONTINUOUS
 62
     7
100
AcDbLine
 10
706.5254400883787
 20
42.24978646514874
 30
0.0
 11
706.5453110609842
 21
42.25512020388125
 31
0.0
  0
LINE
  5
489
330
1F
100
AcDbEntity
  8
0
  6
CONTINUOUS
 62
     7
100
AcDbLine
 10
706.5453110609842
 20
42.25512020388125
 30
0.0
 11
706.5659591240769
 21
42.25974547802562
 31
0.0
  0
LINE
  5
48A
330
1F
100
AcDbEntity
  8
0
  6
CONTINUOUS
 62
     7
100
AcDbLine
 10
830.0797899545468
 20
286.1196972588887
 30
0.0
 11
830.0797899545468
 21
290.1196972588887
 31
0.0
  0
LINE
  5
48B
330
1F
100
AcDbEntity
  8
0
  6
CONTINUOUS
 62
     7
100
AcDbLine
 10
651.2797899545467
 20
113.1196972588888
 30
0.0
 11
651.2797899545467
 21
106.1196972588888
 31
0.0
  0
LINE
  5
48C
330
1F
100
AcDbEntity
  8
0
  6
CONTINUOUS
 62
     7
100
AcDbLine
 10
651.5797875998685
 20
13.49915202725115
 30
0.0
 11
651.5764314985468
 21
13.65151302523547
 31
0.0
  0
LINE
  5
48D
330
1F
100
AcDbEntity
  8
0
  6
CONTINUOUS
 62
     7
100
AcDbLine
 10
635.4942254360174
 20
87.5196972588888
 30
0.0
 11
634.787140960208
 21
87.5196972588888
 31
0.0
  0
LINE
  5
48E
330
1F
100
AcDbEntity
  8
0
  6
CONTINUOUS
 62
     7
100
AcDbLine
 10
846.345475379496
 20
296.885382683838
 30
0.0
 11
841.8141045295974
 21
292.3540118339395
 31
0.0
  0
LINE
  5
48F
330
1F
100
AcDbEntity
  8
0
  6
CONTINUOUS
 62
     7
100
AcDbLine
 10
646.3297899545468
 20
99.75689385368067
 30
0.0
 11
636.8297899545468
 21
99.75689385368067
 31
0.0
  0
LINE
  5
490
330
1F
100
AcDbEntity
  8
0
  6
CONTINUOUS
 62
     7
100
AcDbLine
 10
827.0797899545468
 20
196.1196972588888
 30
0.0
 11
827.0797899545468
 21
191.1196972588887
 31
0.0
  0
LINE
  5
491
330
1F
100
AcDbEntity
  8
0
  6
CONTINUOUS
 62
     7
100
AcDbLine
 10
830.0797899545468
 20
199.1196972588887
 30
0.0
 11
830.0797899545468
 21
203.1196972588887
 31
0.0
  0
LINE
  5
492
330
1F
100
AcDbEntity
  8
0
  6
CONTINUOUS
 62
     7
100
AcDbLine
 10
706.169208996475
 20
41.80500567926271
 30
0.0
 11
706.1710079023031
 21
41.82633007219744
 31
0.0
  0
LINE
  5
493
330
1F
100
AcDbEntity
  8
0
  6
CONTINUOUS
 62
     7
100
AcDbLine
 10
706.2587067043213
 20
42.05977164190868
 30
0.0
 11
706.27093215889
 21
42.07636680204036
 31
0.0
  0
LINE
  5
494
330
1F
100
AcDbEntity
  8
0
  6
CONTINUOUS
 62
     7
100
AcDbLine
 10
706.5057888556584
 20
42.24363386151978
 30
0.0
 11
706.5254400883787
 21
42.24978646514874
 31
0.0
  0
LINE
  5
495
330
1F
100
AcDbEntity
  8
0
  6
CONTINUOUS
 62
     7
100
AcDbLine
 10
629.3726674018017
 20
87.5196972588888
 30
0.0
 11
629.0797899545469
 21
87.5196972588888
 31
0.0
  0
LINE
  5
496
330
1F
100
AcDbEntity
  8
0
  6
CONTINUOUS
 62
     7
100
AcDbLine
 10
650.5605305978337
 20
96.11969725888879
 30
0.0
 11
771.5797899545468
 21
96.11969725888879
 31
0.0
  0
LINE
  5
497
330
1F
100
AcDbEntity
  8
0
  6
CONTINUOUS
 62
     7
100
AcDbLine
 10
648.5797899545468
 20
28.94569725888815
 30
0.0
 11
648.5797899545468
 21
4.54074989046788
 31
0.0
  0
LINE
  5
498
330
1F
100
AcDbEntity
  8
0
  6
CONTINUOUS
 62
     7
100
AcDbLine
 10
645.4527733007541
 20
96.1196972588888
 30
0.0
 11
645.4527733007541
 21
97.6196972588888
 31
0.0
  0
LINE
  5
499
330
1F
100
AcDbEntity
  8
0
  6
CONTINUOUS
 62
     7
100
AcDbLine
 10
645.5798280314826
 20
87.5196972588888
 30
0.0
 11
646.5797899545468
 21
87.5196972588888
 31
0.0
  0
LINE
  5
49A
330
1F
100
AcDbEntity
  8
0
  6
CONTINUOUS
 62
     7
100
AcDbLine
 10
833.9797899545467
 20
279.1196972588887
 30
0.0
 11
833.9797899545467
 21
283.1196972588888
 31
0.0
  0
LINE
  5
49B
330
1F
100
AcDbEntity
  8
0
  6
CONTINUOUS
 62
     7
100
AcDbLine
 10
706.5659591240769
 20
42.25974547802562
 30
0.0
 11
706.5868025762582
 21
42.26349842290967
 31
0.0
  0
LINE
  5
49C
330
1F
100
AcDbEntity
  8
0
  6
CONTINUOUS
 62
     7
100
AcDbLine
 10
633.3850663588611
 20
97.6196972588888
 30
0.0
 11
634.2476688426174
 21
97.6196972588888
 31
0.0
  0
LINE
  5
49D
330
1F
100
AcDbEntity
  8
0
  6
CONTINUOUS
 62
     7
100
AcDbLine
 10
649.7797899545468
 20
106.1196972588888
 30
0.0
 11
649.7797899545468
 21
99.11969725888879
 31
0.0
  0
LINE
  5
49E
330
1F
100
AcDbEntity
  8
0
  6
CONTINUOUS
 62
     7
100
AcDbLine
 10
649.7797899545468
 20
106.1196972588888
 30
0.0
 11
649.7797899545468
 21
113.1196972588888
 31
0.0
  0
LINE
  5
49F
330
1F
100
AcDbEntity
  8
0
  6
CONTINUOUS
 62
     7
100
AcDbLine
 10
706.5868025762582
 20
42.26349842290967
 30
0.0
 11
706.6077855059182
 21
42.26637168391634
 31
0.0
  0
LINE
  5
4A0
330
1F
100
AcDbEntity
  8
0
  6
CONTINUOUS
 62
     7
100
AcDbLine
 10
646.8726674018016
 20
87.5196972588888
 30
0.0
 11
646.5797899545468
 21
87.5196972588888
 31
0.0
  0
LINE
  5
4A1
330
1F
100
AcDbEntity
  8
0
  6
CONTINUOUS
 62
     7
100
AcDbLine
 10
822.6654496617911
 20
87.5196972588888
 30
0.0
 11
650.4941302473023
 21
87.5196972588888
 31
0.0
  0
LINE
  5
4A2
330
1F
100
AcDbEntity
  8
0
  6
CONTINUOUS
 62
     7
100
AcDbLine
 10
635.5797899545468
 20
96.1196972588888
 30
0.0
 11
635.5797899545468
 21
97.6196972588888
 31
0.0
  0
LINE
  5
4A3
330
1F
100
AcDbEntity
  8
0
  6
CONTINUOUS
 62
     7
100
AcDbLine
 10
642.1797899545467
 20
100.9353062299429
 30
0.0
 11
640.9797899545467
 21
100.9353062299429
 31
0.0
  0
LINE
  5
4A4
330
1F
100
AcDbEntity
  8
0
  6
CONTINUOUS
 62
     7
100
AcDbLine
 10
649.5797899545468
 20
13.61969725888878
 30
0.0
 11
649.5797899545468
 21
30.11969725888878
 31
0.0
  0
LINE
  5
4A5
330
1F
100
AcDbEntity
  8
0
  6
CONTINUOUS
 62
     7
100
AcDbLine
 10
823.5797899545468
 20
29.94569725888841
 30
0.0
 11
823.8919725631114
 21
29.89571937384656
 31
0.0
  0
LINE
  5
4A6
330
1F
100
AcDbEntity
  8
0
  6
CONTINUOUS
 62
     7
100
AcDbLine
 10
644.0297899545467
 20
100.9353062299429
 30
0.0
 11
643.9551846585907
 21
100.9353062299429
 31
0.0
  0
LINE
  5
4A7
330
1F
100
AcDbEntity
  8
0
  6
CONTINUOUS
 62
     7
100
AcDbLine
 10
830.0797899545468
 20
278.1196972588888
 30
0.0
 11
830.0797899545468
 21
283.1196972588888
 31
0.0
  0
LINE
  5
4A8
330
1F
100
AcDbEntity
  8
0
  6
CONTINUOUS
 62
     7
100
AcDbLine
 10
830.0797899545468
 20
268.1196972588887
 30
0.0
 11
830.0797899545468
 21
274.1196972588888
 31
0.0
  0
LINE
  5
4A9
330
1F
100
AcDbEntity
  8
0
  6
CONTINUOUS
 62
     7
100
AcDbLine
 10
649.2676073460052
 20
29.89571937385413
 30
0.0
 11
649.5797899545468
 21
29.94569725888842
 31
0.0
  0
LINE
  5
4AA
330
1F
100
AcDbEntity
  8
0
  6
CONTINUOUS
 62
     7
100
AcDbLine
 10
649.5797899545468
 20
5.067065679941418
 30
0.0
 11
649.5797899545468
 21
13.61969725888878
 31
0.0
  0
LINE
  5
4AB
330
1F
100
AcDbEntity
  8
0
  6
CONTINUOUS
 62
     7
100
AcDbLine
 10
827.0797899545468
 20
274.1196972588888
 30
0.0
 11
827.0797899545468
 21
268.1196972588887
 31
0.0
  0
LINE
  5
4AC
330
1F
100
AcDbEntity
  8
0
  6
CONTINUOUS
 62
     7
100
AcDbLine
 10
639.2043952505029
 20
100.9353062299429
 30
0.0
 11
639.1297899545467
 21
100.9353062299429
 31
0.0
  0
LINE
  5
4AD
330
1F
100
AcDbEntity
  8
0
  6
CONTINUOUS
 62
     7
100
AcDbLine
 10
648.6423211404029
 20
29.27465589947002
 30
0.0
 11
648.642295421228
 21
29.2748172394448
 31
0.0
  0
LINE
  5
4AE
330
1F
100
AcDbEntity
  8
0
  6
CONTINUOUS
 62
     7
100
AcDbLine
 10
646.5797899545468
 20
87.5196972588888
 30
0.0
 11
646.6461903050781
 21
95.12842379438717
 31
0.0
  0
LINE
  5
4AF
330
1F
100
AcDbEntity
  8
0
  6
CONTINUOUS
 62
     7
100
AcDbLine
 10
827.1297899545467
 20
81.11969725888879
 30
0.0
 11
827.1297899545467
 21
75.91801483874816
 31
0.0
  0
LINE
  5
4B0
330
1F
100
AcDbEntity
  8
0
  6
CONTINUOUS
 62
     7
100
AcDbLine
 10
1038.904880925224
 20
154.1196972588887
 30
0.0
 11
1046.779789954546
 21
154.1196972588887
 31
0.0
  0
LINE
  5
4B1
330
1F
100
AcDbEntity
  8
0
  6
CONTINUOUS
 62
     7
100
AcDbLine
 10
706.2078656696133
 20
41.96847215554962
 30
0.0
 11
706.2166730535107
 21
41.98799569959488
 31
0.0
  0
LINE
  5
4B2
330
1F
100
AcDbEntity
  8
0
  6
CONTINUOUS
 62
     7
100
AcDbLine
 10
706.6288520014475
 20
42.26835790642859
 30
0.0
 11
706.6472119872541
 21
42.26936236050532
 31
0.0
  0
LINE
  5
4B3
330
1F
100
AcDbEntity
  8
0
  6
CONTINUOUS
 62
     7
100
AcDbLine
 10
823.1797899545468
 20
81.11969725888879
 30
0.0
 11
823.1797899545468
 21
87.5196972588888
 31
0.0
  0
LINE
  5
4B4
330
1F
100
AcDbEntity
  8
0
  6
CONTINUOUS
 62
     7
100
AcDbLine
 10
706.1710079023031
 20
41.82633007219744
 30
0.0
 11
706.1737154303427
 21
41.84753848347722
 31
0.0
  0
LINE
  5
4B5
330
1F
100
AcDbEntity
  8
0
  6
CONTINUOUS
 62
     7
100
AcDbLine
 10
706.4481521748248
 20
42.22017910970951
 30
0.0
 11
706.4673462061199
 21
42.22893417266221
 31
0.0
  0
LINE
  5
4B6
330
1F
100
AcDbEntity
  8
0
  6
CONTINUOUS
 62
     7
100
AcDbLine
 10
825.5134276809513
 20
96.1196972588888
 30
0.0
 11
828.5655763921736
 21
96.1196972588888
 31
0.0
  0
LINE
  5
4B7
330
1F
100
AcDbEntity
  8
0
  6
CONTINUOUS
 62
     7
100
AcDbLine
 10
706.2982436784065
 20
42.10885720265837
 30
0.0
 11
706.312926779162
 21
42.12420057993779
 31
0.0
  0
LINE
  5
4B8
330
1F
100
AcDbEntity
  8
0
  6
CONTINUOUS
 62
     7
100
AcDbLine
 10
706.2166730535107
 20
41.98799569959488
 30
0.0
 11
706.2263077817124
 21
42.007102036416
 31
0.0
  0
LINE
  5
4B9
330
1F
100
AcDbEntity
  8
0
  6
CONTINUOUS
 62
     7
100
AcDbLine
 10
1047.579789954547
 20
297.4510681087872
 30
0.0
 11
1047.579789954547
 21
306.7883264089903
 31
0.0
  0
LINE
  5
4BA
330
1F
100
AcDbEntity
  8
0
  6
CONTINUOUS
 62
     7
100
AcDbLine
 10
957.4222711712557
 20
283.1196972588888
 30
0.0
 11
957.4222711712557
 21
278.1196972588888
 31
0.0
  0
LINE
  5
4BB
330
1F
100
AcDbEntity
  8
0
  6
CONTINUOUS
 62
     7
100
AcDbLine
 10
956.1797899545469
 20
142.1196972588887
 30
0.0
 11
948.5710634190485
 21
142.1860976094201
 31
0.0
  0
LINE
  5
4BC
330
1F
100
AcDbEntity
  8
0
  6
CONTINUOUS
 62
     7
100
AcDbLine
 10
957.4222711712558
 20
182.1196972588887
 30
0.0
 11
966.7014600169402
 21
182.1196972588888
 31
0.0
  0
LINE
  5
4BD
330
1F
100
AcDbEntity
  8
0
  6
CONTINUOUS
 62
     7
100
AcDbLine
 10
1052.579789954547
 20
167.3540118339395
 30
0.0
 11
1052.579789954547
 21
166.7883264089903
 31
0.0
  0
LINE
  5
4BE
330
1F
100
AcDbEntity
  8
0
  6
CONTINUOUS
 62
     7
100
AcDbLine
 10
957.4222711712557
 20
269.1196972588888
 30
0.0
 11
957.4222711712557
 21
274.1196972588888
 31
0.0
  0
LINE
  5
4BF
330
1F
100
AcDbEntity
  8
0
  6
CONTINUOUS
 62
     7
100
AcDbLine
 10
630.1461522281423
 20
96.1196972588888
 30
0.0
 11
635.5606257865488
 21
96.1196972588888
 31
0.0
  0
LINE
  5
4C0
330
1F
100
AcDbEntity
  8
0
  6
CONTINUOUS
 62
     7
100
AcDbLine
 10
706.199908311375
 20
41.94858693044384
 30
0.0
 11
706.2078656696133
 21
41.96847215554962
 31
0.0
  0
LINE
  5
4C1
330
1F
100
AcDbEntity
  8
0
  6
CONTINUOUS
 62
     7
100
AcDbLine
 10
706.4109310272355
 20
42.2002480028834
 30
0.0
 11
706.4293301429045
 21
42.21060836471131
 31
0.0
  0
LINE
  5
4C2
330
1F
100
AcDbEntity
  8
0
  6
CONTINUOUS
 62
     7
100
AcDbLine
 10
957.1797899545469
 20
278.1196972588888
 30
0.0
 11
957.4222711712557
 21
278.1196972588888
 31
0.0
  0
LINE
  5
4C3
330
1F
100
AcDbEntity
  8
0
  6
CONTINUOUS
 62
     7
100
AcDbLine
 10
706.2363656095956
 20
42.02509377397642
 30
0.0
 11
706.2471748858443
 21
42.04266547084734
 31
0.0
  0
LINE
  5
4C4
330
1F
100
AcDbEntity
  8
0
  6
CONTINUOUS
 62
     7
100
AcDbLine
 10
1052.579789954547
 20
312.1196972588888
 30
0.0
 11
1052.579789954547
 21
311.885382683838
 31
0.0
  0
LINE
  5
4C5
330
1F
100
AcDbEntity
  8
0
  6
CONTINUOUS
 62
     7
100
AcDbLine
 10
706.2263077817124
 20
42.007102036416
 30
0.0
 11
706.2363656095956
 21
42.02509377397642
 31
0.0
  0
LINE
  5
4C6
330
1F
100
AcDbEntity
  8
0
  6
CONTINUOUS
 62
     7
100
AcDbLine
 10
1052.579789954547
 20
292.3540118339395
 30
0.0
 11
1052.579789954547
 21
292.1196972588888
 31
0.0
  0
LINE
  5
4C7
330
1F
100
AcDbEntity
  8
0
  6
CONTINUOUS
 62
     7
100
AcDbLine
 10
706.4673462061199
 20
42.22893417266221
 30
0.0
 11
706.486407511885
 21
42.23667792126679
 31
0.0
  0
LINE
  5
4C8
330
1F
100
AcDbEntity
  8
0
  6
CONTINUOUS
 62
     7
100
AcDbLine
 10
956.1797899545469
 20
322.1196972588887
 30
0.0
 11
956.1797899545469
 21
321.8268198116339
 31
0.0
  0
LINE
  5
4C9
330
1F
100
AcDbEntity
  8
0
  6
CONTINUOUS
 62
     7
100
AcDbLine
 10
710.7647615737022
 20
42.2692679074907
 30
0.0
 11
710.7855219873746
 21
42.2679818312986
 31
0.0
  0
LINE
  5
4CA
330
1F
100
AcDbEntity
  8
0
  6
CONTINUOUS
 62
     7
100
AcDbLine
 10
1048.379789954547
 20
292.1196972588888
 30
0.0
 11
1048.195659110358
 21
292.1196972588888
 31
0.0
  0
LINE
  5
4CB
330
1F
100
AcDbEntity
  8
0
  6
CONTINUOUS
 62
     7
100
AcDbLine
 10
1052.579789954547
 20
306.7883264089903
 30
0.0
 11
1052.579789954547
 21
297.4510681087872
 31
0.0
  0
LINE
  5
4CC
330
1F
100
AcDbEntity
  8
0
  6
CONTINUOUS
 62
     7
100
AcDbLine
 10
1052.579789954547
 20
311.885382683838
 30
0.0
 11
1052.579789954547
 21
307.3540118339395
 31
0.0
  0
LINE
  5
4CD
330
1F
100
AcDbEntity
  8
0
  6
CONTINUOUS
 62
     7
100
AcDbLine
 10
1052.579789954547
 20
156.885382683838
 30
0.0
 11
1052.579789954547
 21
152.3540118339395
 31
0.0
  0
LINE
  5
4CE
330
1F
100
AcDbEntity
  8
0
  6
CONTINUOUS
 62
     7
100
AcDbLine
 10
706.3930057446938
 20
42.18912408944156
 30
0.0
 11
706.4109310272355
 21
42.2002480028834
 31
0.0
  0
LINE
  5
4CF
330
1F
100
AcDbEntity
  8
0
  6
CONTINUOUS
 62
     7
100
AcDbLine
 10
706.6077855059182
 20
42.26637168391634
 30
0.0
 11
706.6288520014475
 21
42.26835790642859
 31
0.0
  0
LINE
  5
4D0
330
1F
100
AcDbEntity
  8
0
  6
CONTINUOUS
 62
     7
100
AcDbLine
 10
706.312926779162
 20
42.12420057993779
 30
0.0
 11
706.3282416127929
 21
42.13888506043259
 31
0.0
  0
LINE
  5
4D1
330
1F
100
AcDbEntity
  8
0
  6
CONTINUOUS
 62
     7
100
AcDbLine
 10
706.2842321813685
 20
42.092898189668
 30
0.0
 11
706.2982436784065
 21
42.10885720265837
 31
0.0
  0
LINE
  5
4D2
330
1F
100
AcDbEntity
  8
0
  6
CONTINUOUS
 62
     7
100
AcDbLine
 10
706.3760547746039
 20
42.17758706438018
 30
0.0
 11
706.3930057446938
 21
42.18912408944156
 31
0.0
  0
LINE
  5
4D3
330
1F
100
AcDbEntity
  8
0
  6
CONTINUOUS
 62
     7
100
AcDbLine
 10
956.1797899545469
 20
321.8268198116339
 30
0.0
 11
956.1797899545469
 21
318.9124414419425
 31
0.0
  0
LINE
  5
4D4
330
1F
100
AcDbEntity
  8
0
  6
CONTINUOUS
 62
     7
100
AcDbLine
 10
634.787140960208
 20
87.5196972588888
 30
0.0
 11
629.3726674018017
 21
87.5196972588888
 31
0.0
  0
LINE
  5
4D5
330
1F
100
AcDbEntity
  8
0
  6
CONTINUOUS
 62
     7
100
AcDbLine
 10
706.1683209129961
 20
41.7836238625538
 30
0.0
 11
706.169208996475
 21
41.80500567926271
 31
0.0
  0
LINE
  5
4D6
330
1F
100
AcDbEntity
  8
0
  6
CONTINUOUS
 62
     7
100
AcDbLine
 10
706.1683458520046
 20
41.76224317995149
 30
0.0
 11
706.1683209129961
 21
41.7836238625538
 31
0.0
  0
LINE
  5
4D7
330
1F
100
AcDbEntity
  8
0
  6
CONTINUOUS
 62
     7
100
AcDbLine
 10
706.177220207632
 20
41.86802553496289
 30
0.0
 11
706.1815807770881
 21
41.88836624035424
 31
0.0
  0
LINE
  5
4D8
330
1F
100
AcDbEntity
  8
0
  6
CONTINUOUS
 62
     7
100
AcDbLine
 10
645.5798280314826
 20
87.5196972588888
 30
0.0
 11
635.4942254360174
 21
87.5196972588888
 31
0.0
  0
LINE
  5
4D9
330
1F
100
AcDbEntity
  8
0
  6
CONTINUOUS
 62
     7
100
AcDbLine
 10
833.9797899545467
 20
90.70548369651571
 30
0.0
 11
833.9797899545467
 21
81.1196972588888
 31
0.0
  0
LINE
  5
4DA
330
1F
100
AcDbEntity
  8
0
  6
CONTINUOUS
 62
     7
100
AcDbLine
 10
706.1736171184111
 20
41.70011914474551
 30
0.0
 11
706.1710057723932
 21
41.720754788546
 31
0.0
  0
LINE
  5
4DB
330
1F
100
AcDbEntity
  8
0
  6
CONTINUOUS
 62
     7
100
AcDbLine
 10
706.1867857306236
 20
41.90850733404805
 30
0.0
 11
706.1928236601509
 21
41.92839555044107
 31
0.0
  0
LINE
  5
4DC
330
1F
100
AcDbEntity
  8
0
  6
CONTINUOUS
 62
     7
100
AcDbLine
 10
706.1692463540743
 20
41.7414803500156
 30
0.0
 11
706.1683458520046
 21
41.76224317995149
 31
0.0
  0
LINE
  5
4DD
330
1F
100
AcDbEntity
  8
0
  6
CONTINUOUS
 62
     7
100
AcDbLine
 10
710.7439835185294
 20
42.2696972588888
 30
0.0
 11
710.7647615737022
 21
42.2692679074907
 31
0.0
  0
LINE
  5
4DE
330
1F
100
AcDbEntity
  8
0
  6
CONTINUOUS
 62
     7
100
AcDbLine
 10
833.6868967357334
 20
91.41259047770225
 30
0.0
 11
829.2726831733602
 21
95.82680404007534
 31
0.0
  0
LINE
  5
4DF
330
1F
100
AcDbEntity
  8
0
  6
CONTINUOUS
 62
     7
100
AcDbLine
 10
706.1737154303427
 20
41.84753848347722
 30
0.0
 11
706.177220207632
 21
41.86802553496289
 31
0.0
  0
LINE
  5
4E0
330
1F
100
AcDbEntity
  8
0
  6
CONTINUOUS
 62
     7
100
AcDbLine
 10
706.2471748858443
 20
42.04266547084734
 30
0.0
 11
706.2587067043213
 21
42.05977164190868
 31
0.0
  0
LINE
  5
4E1
330
1F
100
AcDbEntity
  8
0
  6
CONTINUOUS
 62
     7
100
AcDbLine
 10
706.1710057723932
 20
41.720754788546
 30
0.0
 11
706.1692463540743
 21
41.7414803500156
 31
0.0
  0
LINE
  5
4E2
330
1F
100
AcDbEntity
  8
0
  6
CONTINUOUS
 62
     7
100
AcDbLine
 10
647.6461522281422
 20
96.1196972588888
 30
0.0
 11
645.6462283820139
 21
96.1196972588888
 31
0.0
  0
LINE
  5
4E3
330
1F
100
AcDbEntity
  8
0
  6
CONTINUOUS
 62
     7
100
AcDbLine
 10
706.3282416127929
 20
42.13888506043259
 30
0.0
 11
706.3436305365672
 21
42.15243558897322
 31
0.0
  0
LINE
  5
4E4
330
1F
100
AcDbEntity
  8
0
  6
CONTINUOUS
 62
     7
100
AcDbLine
 10
706.6472119872541
 20
42.26936236050532
 30
0.0
 11
706.6655963905641
 21
42.2696972588888
 31
0.0
  0
LINE
  5
4E5
330
1F
100
AcDbEntity
  8
0
  6
CONTINUOUS
 62
     7
100
AcDbLine
 10
706.3436305365672
 20
42.15243558897322
 30
0.0
 11
706.3595823145328
 21
42.16534691058992
 31
0.0
  0
LINE
  5
4E6
330
1F
100
AcDbEntity
  8
0
  6
CONTINUOUS
 62
     7
100
AcDbLine
 10
706.4293301429045
 20
42.21060836471131
 30
0.0
 11
706.4481521748248
 21
42.22017910970951
 31
0.0
  0
LINE
  5
4E7
330
1F
100
AcDbEntity
  8
0
  6
CONTINUOUS
 62
     7
100
AcDbLine
 10
706.27093215889
 20
42.07636680204036
 30
0.0
 11
706.2842321813685
 21
42.092898189668
 31
0.0
  0
LINE
  5
4E8
330
1F
100
AcDbEntity
  8
0
  6
CONTINUOUS
 62
     7
100
AcDbLine
 10
947.5797899545469
 20
181.1196972588888
 30
0.0
 11
947.5797899545469
 21
196.1196972588887
 31
0.0
  0
LINE
  5
4E9
330
1F
100
AcDbEntity
  8
0
  6
CONTINUOUS
 62
     7
100
AcDbLine
 10
947.5797899545469
 20
146.1004379021757
 30
0.0
 11
947.5797899545469
 21
171.1196972588887
 31
0.0
  0
LINE
  5
4EA
330
1F
100
AcDbEntity
  8
0
  6
CONTINUOUS
 62
     7
100
AcDbLine
 10
1038.904880925224
 20
312.1196972588888
 30
0.0
 11
1048.195659110358
 21
312.1196972588888
 31
0.0
  0
LINE
  5
4EB
330
1F
100
AcDbEntity
  8
0
  6
CONTINUOUS
 62
     7
100
AcDbLine
 10
635.3797899545468
 20
97.6196972588888
 30
0.0
 11
634.2476688426174
 21
97.6196972588888
 31
0.0
  0
LINE
  5
4EC
330
1F
100
AcDbEntity
  8
0
  6
CONTINUOUS
 62
     7
100
AcDbLine
 10
706.1770734035778
 20
41.67962606781691
 30
0.0
 11
706.1736171184111
 21
41.70011914474551
 31
0.0
  0
LINE
  5
4ED
330
1F
100
AcDbEntity
  8
0
  6
CONTINUOUS
 62
     7
100
AcDbLine
 10
633.3850663588611
 20
97.6196972588888
 30
0.0
 11
632.0797899545468
 21
97.6196972588888
 31
0.0
  0
LINE
  5
4EE
330
1F
100
AcDbEntity
  8
0
  6
CONTINUOUS
 62
     7
100
AcDbLine
 10
948.5710634190485
 20
322.0532969083574
 30
0.0
 11
956.1797899545469
 21
322.1196972588888
 31
0.0
  0
LINE
  5
4EF
330
1F
100
AcDbEntity
  8
0
  6
CONTINUOUS
 62
     7
100
AcDbLine
 10
957.1797899545469
 20
187.1196972588887
 30
0.0
 11
957.4222711712557
 21
187.1196972588887
 31
0.0
  0
LINE
  5
4F0
330
1F
100
AcDbEntity
  8
0
  6
CONTINUOUS
 62
     7
100
AcDbLine
 10
1043.030538356923
 20
303.1196972588888
 30
0.0
 11
1046.779789954547
 21
303.1196972588888
 31
0.0
  0
LINE
  5
4F1
330
1F
100
AcDbEntity
  8
0
  6
CONTINUOUS
 62
     7
100
AcDbLine
 10
1048.195659110358
 20
152.1196972588887
 30
0.0
 11
1038.904880925224
 21
152.1196972588887
 31
0.0
  0
LINE
  5
4F2
330
1F
100
AcDbEntity
  8
0
  6
CONTINUOUS
 62
     7
100
AcDbLine
 10
947.5797899545469
 20
318.1389566156018
 30
0.0
 11
947.5797899545469
 21
321.0533349852932
 31
0.0
  0
LINE
  5
4F3
330
1F
100
AcDbEntity
  8
0
  6
CONTINUOUS
 62
     7
100
AcDbLine
 10
1047.579789954547
 20
306.7883264089903
 30
0.0
 11
1047.579789954547
 21
311.3196972588888
 31
0.0
  0
LINE
  5
4F4
330
1F
100
AcDbEntity
  8
0
  6
CONTINUOUS
 62
     7
100
AcDbLine
 10
1052.579789954547
 20
151.3196972588887
 30
0.0
 11
1052.579789954547
 21
148.3268040400753
 31
0.0
  0
LINE
  5
4F5
330
1F
100
AcDbEntity
  8
0
  6
CONTINUOUS
 62
     7
100
AcDbLine
 10
1052.579789954547
 20
147.973250649482
 30
0.0
 11
1052.579789954547
 21
147.2661438682954
 31
0.0
  0
LINE
  5
4F6
330
1F
100
AcDbEntity
  8
0
  6
CONTINUOUS
 62
     7
100
AcDbLine
 10
1047.579789954547
 20
157.4510681087872
 30
0.0
 11
1047.579789954547
 21
166.7883264089903
 31
0.0
  0
LINE
  5
4F7
330
1F
100
AcDbEntity
  8
0
  6
CONTINUOUS
 62
     7
100
AcDbLine
 10
947.5797899545469
 20
280.9196972588888
 30
0.0
 11
946.0797899545468
 21
280.9196972588888
 31
0.0
  0
LINE
  5
4F8
330
1F
100
AcDbEntity
  8
0
  6
CONTINUOUS
 62
     7
100
AcDbLine
 10
1052.579789954547
 20
312.1196972588888
 30
0.0
 11
1052.579789954547
 21
312.9196972588887
 31
0.0
  0
LINE
  5
4F9
330
1F
100
AcDbEntity
  8
0
  6
CONTINUOUS
 62
     7
100
AcDbLine
 10
1047.579789954547
 20
292.9196972588887
 30
0.0
 11
1047.579789954547
 21
297.4510681087872
 31
0.0
  0
LINE
  5
4FA
330
1F
100
AcDbEntity
  8
0
  6
CONTINUOUS
 62
     7
100
AcDbLine
 10
947.5797899545469
 20
278.8693126207431
 30
0.0
 11
946.0797899545468
 21
278.8693126207431
 31
0.0
  0
LINE
  5
4FB
330
1F
100
AcDbEntity
  8
0
  6
CONTINUOUS
 62
     7
100
AcDbLine
 10
961.0797899545469
 20
182.1196972588887
 30
0.0
 11
961.0797899545469
 21
181.1196972588888
 31
0.0
  0
LINE
  5
4FC
330
1F
100
AcDbEntity
  8
0
  6
CONTINUOUS
 62
     7
100
AcDbLine
 10
1046.579789954547
 20
145.1196972588887
 30
0.0
 11
1046.579789954547
 21
147.1196972588887
 31
0.0
  0
LINE
  5
4FD
330
1F
100
AcDbEntity
  8
0
  6
CONTINUOUS
 62
     7
100
AcDbLine
 10
946.0797899545469
 20
280.3696972588888
 30
0.0
 11
943.9425933597549
 21
280.3696972588888
 31
0.0
  0
LINE
  5
4FE
330
1F
100
AcDbEntity
  8
0
  6
CONTINUOUS
 62
     7
100
AcDbLine
 10
1052.579789954547
 20
172.1196972588887
 30
0.0
 11
1052.579789954547
 21
171.8853826838379
 31
0.0
  0
LINE
  5
4FF
330
1F
100
AcDbEntity
  8
0
  6
CONTINUOUS
 62
     7
100
AcDbLine
 10
956.1797899545469
 20
142.4125747061436
 30
0.0
 11
956.1797899545469
 21
142.1196972588888
 31
0.0
  0
LINE
  5
500
330
1F
100
AcDbEntity
  8
0
  6
CONTINUOUS
 62
     7
100
AcDbLine
 10
957.1797899545469
 20
274.1196972588888
 30
0.0
 11
957.4222711712557
 21
274.1196972588888
 31
0.0
  0
LINE
  5
501
330
1F
100
AcDbEntity
  8
0
  6
CONTINUOUS
 62
     7
100
AcDbLine
 10
1052.579789954547
 20
307.3540118339395
 30
0.0
 11
1052.579789954547
 21
306.7883264089903
 31
0.0
  0
LINE
  5
502
330
1F
100
AcDbEntity
  8
0
  6
CENTER
 62
     1
100
AcDbLine
 10
689.6797899545468
 20
41.11969725888879
 30
0.0
 11
783.4797899545467
 21
41.11969725888879
 31
0.0
  0
LINE
  5
503
330
1F
100
AcDbEntity
  8
0
  6
CONTINUOUS
 62
     7
100
AcDbLine
 10
962.5797899545469
 20
283.1196972588887
 30
0.0
 11
966.7014600169402
 21
283.1196972588887
 31
0.0
  0
LINE
  5
504
330
1F
100
AcDbEntity
  8
0
  6
CONTINUOUS
 62
     7
100
AcDbLine
 10
947.5797899545469
 20
272.3700818970344
 30
0.0
 11
946.0797899545468
 21
272.3700818970344
 31
0.0
  0
LINE
  5
505
330
1F
100
AcDbEntity
  8
0
  6
CONTINUOUS
 62
     7
100
AcDbLine
 10
966.7014600169402
 20
281.1196972588887
 30
0.0
 11
975.5797899545469
 21
281.1196972588887
 31
0.0
  0
LINE
  5
506
330
1F
100
AcDbEntity
  8
0
  6
CONTINUOUS
 62
     7
100
AcDbLine
 10
964.0797899545469
 20
268.1196972588887
 30
0.0
 11
964.0797899545469
 21
269.1196972588887
 31
0.0
  0
LINE
  5
507
330
1F
100
AcDbEntity
  8
0
  6
CONTINUOUS
 62
     7
100
AcDbLine
 10
1047.579789954547
 20
152.9196972588887
 30
0.0
 11
1047.579789954547
 21
157.4510681087872
 31
0.0
  0
LINE
  5
508
330
1F
100
AcDbEntity
  8
0
  6
CENTER
 62
     1
100
AcDbLine
 10
736.5797899545468
 20
-12.88030274111122
 30
0.0
 11
736.5797899545468
 21
100.1196972588888
 31
0.0
  0
LINE
  5
509
330
1F
100
AcDbEntity
  8
0
  6
CONTINUOUS
 62
     7
100
AcDbLine
 10
966.7014600169402
 20
184.1196972588887
 30
0.0
 11
975.5797899545469
 21
184.1196972588888
 31
0.0
  0
LINE
  5
50A
330
1F
100
AcDbEntity
  8
0
  6
CONTINUOUS
 62
     7
100
AcDbLine
 10
967.9797899545468
 20
174.5196972588888
 30
0.0
 11
967.9797899545468
 21
177.7196972588887
 31
0.0
  0
LINE
  5
50B
330
1F
100
AcDbEntity
  8
0
  6
CONTINUOUS
 62
     7
100
AcDbLine
 10
966.7014600169402
 20
269.1196972588887
 30
0.0
 11
975.5797899545469
 21
269.1196972588887
 31
0.0
  0
LINE
  5
50C
330
1F
100
AcDbEntity
  8
0
  6
CONTINUOUS
 62
     7
100
AcDbLine
 10
957.1797899545469
 20
182.1196972588887
 30
0.0
 11
957.1797899545469
 21
187.1196972588887
 31
0.0
  0
LINE
  5
50D
330
1F
100
AcDbEntity
  8
0
  6
CONTINUOUS
 62
     7
100
AcDbLine
 10
957.1797899545469
 20
269.1196972588888
 30
0.0
 11
957.1797899545469
 21
274.1196972588888
 31
0.0
  0
LINE
  5
50E
330
1F
100
AcDbEntity
  8
0
  6
CONTINUOUS
 62
     7
100
AcDbLine
 10
1048.379789954547
 20
172.1196972588887
 30
0.0
 11
1052.579789954547
 21
172.1196972588887
 31
0.0
  0
LINE
  5
50F
330
1F
100
AcDbEntity
  8
0
  6
CONTINUOUS
 62
     7
100
AcDbLine
 10
957.1797899545469
 20
187.1196972588887
 30
0.0
 11
957.1797899545469
 21
191.1196972588887
 31
0.0
  0
LINE
  5
510
330
1F
100
AcDbEntity
  8
0
  6
CENTER
 62
     1
100
AcDbLine
 10
1030.079789954547
 20
213.6196972588887
 30
0.0
 11
1030.079789954547
 21
250.6196972588887
 31
0.0
  0
LINE
  5
511
330
1F
100
AcDbEntity
  8
0
  6
CONTINUOUS
 62
     7
100
AcDbLine
 10
967.9797899545468
 20
281.1196972588887
 30
0.0
 11
967.9797899545468
 21
271.1196972588887
 31
0.0
  0
LINE
  5
512
330
1F
100
AcDbEntity
  8
0
  6
CONTINUOUS
 62
     7
100
AcDbLine
 10
975.5797899545469
 20
271.1196972588887
 30
0.0
 11
975.5797899545469
 21
269.1196972588887
 31
0.0
  0
LINE
  5
513
330
1F
100
AcDbEntity
  8
0
  6
CONTINUOUS
 62
     7
100
AcDbLine
 10
1052.579789954547
 20
152.3540118339395
 30
0.0
 11
1052.579789954547
 21
152.1196972588887
 31
0.0
  0
LINE
  5
514
330
1F
100
AcDbEntity
  8
0
  6
CONTINUOUS
 62
     7
100
AcDbLine
 10
1052.579789954547
 20
152.1196972588887
 30
0.0
 11
1048.379789954547
 21
152.1196972588887
 31
0.0
  0
LINE
  5
515
330
1F
100
AcDbEntity
  8
0
  6
CONTINUOUS
 62
     7
100
AcDbLine
 10
967.9797899545468
 20
184.1196972588887
 30
0.0
 11
967.9797899545468
 21
194.1196972588887
 31
0.0
  0
LINE
  5
516
330
1F
100
AcDbEntity
  8
0
  6
CONTINUOUS
 62
     7
100
AcDbLine
 10
1048.379789954547
 20
152.1196972588887
 30
0.0
 11
1048.195659110358
 21
152.1196972588887
 31
0.0
  0
LINE
  5
517
330
1F
100
AcDbEntity
  8
0
  6
CONTINUOUS
 62
     7
100
AcDbLine
 10
1052.579789954547
 20
157.4510681087872
 30
0.0
 11
1052.579789954547
 21
156.885382683838
 31
0.0
  0
LINE
  5
518
330
1F
100
AcDbEntity
  8
0
  6
CONTINUOUS
 62
     7
100
AcDbLine
 10
957.1797899545469
 20
191.1196972588887
 30
0.0
 11
957.4222711712557
 21
191.1196972588887
 31
0.0
  0
LINE
  5
519
330
1F
100
AcDbEntity
  8
0
  6
CONTINUOUS
 62
     7
100
AcDbLine
 10
1038.904880925224
 20
172.1196972588887
 30
0.0
 11
1048.379789954547
 21
172.1196972588887
 31
0.0
  0
LINE
  5
51A
330
1F
100
AcDbEntity
  8
0
  6
CONTINUOUS
 62
     7
100
AcDbLine
 10
947.5797899545469
 20
270.3196972588888
 30
0.0
 11
946.0797899545468
 21
270.3196972588888
 31
0.0
  0
LINE
  5
51B
330
1F
100
AcDbEntity
  8
0
  6
CONTINUOUS
 62
     7
100
AcDbLine
 10
1046.779789954547
 20
310.1196972588888
 30
0.0
 11
1038.904880925224
 21
310.1196972588888
 31
0.0
  0
LINE
  5
51C
330
1F
100
AcDbEntity
  8
0
  6
CONTINUOUS
 62
     7
100
AcDbLine
 10
1052.579789954547
 20
296.885382683838
 30
0.0
 11
1052.579789954547
 21
292.3540118339395
 31
0.0
  0
LINE
  5
51D
330
1F
100
AcDbEntity
  8
0
  6
CONTINUOUS
 62
     7
100
AcDbLine
 10
1048.379789954547
 20
312.1196972588888
 30
0.0
 11
1052.579789954547
 21
312.1196972588888
 31
0.0
  0
LINE
  5
51E
330
1F
100
AcDbEntity
  8
0
  6
CONTINUOUS
 62
     7
100
AcDbLine
 10
1046.779789954547
 20
170.1196972588887
 30
0.0
 11
1038.904880925224
 21
170.1196972588887
 31
0.0
  0
LINE
  5
51F
330
1F
100
AcDbEntity
  8
0
  6
CONTINUOUS
 62
     7
100
AcDbLine
 10
946.0797899545468
 20
270.3196972588888
 30
0.0
 11
946.0797899545468
 21
270.8696972588888
 31
0.0
  0
LINE
  5
520
330
1F
100
AcDbEntity
  8
0
  6
CONTINUOUS
 62
     7
100
AcDbLine
 10
1052.579789954547
 20
297.4510681087872
 30
0.0
 11
1052.579789954547
 21
296.885382683838
 31
0.0
  0
LINE
  5
521
330
1F
100
AcDbEntity
  8
0
  6
CONTINUOUS
 62
     7
100
AcDbLine
 10
1052.579789954547
 20
171.8853826838379
 30
0.0
 11
1052.579789954547
 21
167.3540118339395
 31
0.0
  0
LINE
  5
522
330
1F
100
AcDbEntity
  8
0
  6
CONTINUOUS
 62
     7
100
AcDbLine
 10
962.5797899545469
 20
196.1196972588887
 30
0.0
 11
966.7014600169402
 21
196.1196972588887
 31
0.0
  0
LINE
  5
523
330
1F
100
AcDbEntity
  8
0
  6
CONTINUOUS
 62
     7
100
AcDbLine
 10
947.5797899545469
 20
143.1860595324843
 30
0.0
 11
947.5797899545469
 21
146.1004379021757
 31
0.0
  0
LINE
  5
524
330
1F
100
AcDbEntity
  8
0
  6
CONTINUOUS
 62
     7
100
AcDbLine
 10
957.4222711712557
 20
182.1196972588887
 30
0.0
 11
957.4222711712557
 21
187.1196972588887
 31
0.0
  0
LINE
  5
525
330
1F
100
AcDbEntity
  8
0
  6
CONTINUOUS
 62
     7
100
AcDbLine
 10
1052.579789954547
 20
157.4510681087872
 30
0.0
 11
1052.579789954547
 21
166.7883264089903
 31
0.0
  0
LINE
  5
526
330
1F
100
AcDbEntity
  8
0
  6
CONTINUOUS
 62
     7
100
AcDbLine
 10
957.1797899545469
 20
278.1196972588888
 30
0.0
 11
957.1797899545469
 21
274.1196972588888
 31
0.0
  0
LINE
  5
527
330
1F
100
AcDbEntity
  8
0
  6
CONTINUOUS
 62
     7
100
AcDbLine
 10
1048.195659110358
 20
292.1196972588888
 30
0.0
 11
1038.904880925224
 21
292.1196972588888
 31
0.0
  0
LINE
  5
528
330
1F
100
AcDbEntity
  8
0
  6
CONTINUOUS
 62
     7
100
AcDbLine
 10
1048.195659110358
 20
312.1196972588888
 30
0.0
 11
1048.379789954547
 21
312.1196972588888
 31
0.0
  0
LINE
  5
529
330
1F
100
AcDbEntity
  8
0
  6
CONTINUOUS
 62
     7
100
AcDbLine
 10
1052.579789954547
 20
292.1196972588888
 30
0.0
 11
1048.379789954547
 21
292.1196972588888
 31
0.0
  0
LINE
  5
52A
330
1F
100
AcDbEntity
  8
0
  6
CONTINUOUS
 62
     7
100
AcDbLine
 10
956.1797899545469
 20
145.326953075835
 30
0.0
 11
956.1797899545469
 21
142.4125747061436
 31
0.0
  0
LINE
  5
52B
330
1F
100
AcDbEntity
  8
0
  6
CONTINUOUS
 62
     7
100
AcDbLine
 10
1038.904880925224
 20
294.1196972588888
 30
0.0
 11
1046.779789954546
 21
294.1196972588888
 31
0.0
  0
LINE
  5
52C
330
1F
100
AcDbEntity
  8
0
  6
CONTINUOUS
 62
     7
100
AcDbLine
 10
946.0797899545468
 20
280.3696972588888
 30
0.0
 11
946.0797899545468
 21
280.9196972588888
 31
0.0
  0
LINE
  5
52D
330
1F
100
AcDbEntity
  8
0
  6
CONTINUOUS
 62
     7
100
AcDbLine
 10
1047.579789954547
 20
166.7883264089903
 30
0.0
 11
1047.579789954547
 21
171.3196972588888
 31
0.0
  0
LINE
  5
52E
330
1F
100
AcDbEntity
  8
0
  6
CONTINUOUS
 62
     7
100
AcDbLine
 10
957.4222711712557
 20
196.1196972588887
 30
0.0
 11
957.4222711712557
 21
191.1196972588887
 31
0.0
  0
LINE
  5
52F
330
1F
100
AcDbEntity
  8
0
  6
CONTINUOUS
 62
     7
100
AcDbLine
 10
947.5547899545469
 20
155.4107536611623
 30
0.0
 11
947.5797899545469
 21
155.4107536611623
 31
0.0
  0
LINE
  5
530
330
1F
100
AcDbEntity
  8
0
  6
CONTINUOUS
 62
     7
100
AcDbLine
 10
946.0797899545469
 20
273.1196972588887
 30
0.0
 11
947.5797899545469
 21
273.1196972588887
 31
0.0
  0
LINE
  5
531
330
1F
100
AcDbEntity
  8
0
  6
CONTINUOUS
 62
     7
100
AcDbLine
 10
975.5797899545469
 20
196.1196972588887
 30
0.0
 11
975.5797899545469
 21
194.1196972588887
 31
0.0
  0
LINE
  5
532
330
1F
100
AcDbEntity
  8
0
  6
CONTINUOUS
 62
     7
100
AcDbLine
 10
957.1797899545469
 20
283.1196972588888
 30
0.0
 11
957.1797899545469
 21
278.1196972588888
 31
0.0
  0
LINE
  5
533
330
1F
100
AcDbEntity
  8
0
  6
CONTINUOUS
 62
     7
100
AcDbLine
 10
1037.079789954547
 20
317.1196972588888
 30
0.0
 11
1037.079789954547
 21
319.1196972588888
 31
0.0
  0
LINE
  5
534
330
1F
100
AcDbEntity
  8
0
  6
CONTINUOUS
 62
     7
100
AcDbLine
 10
966.7014600169402
 20
271.1196972588887
 30
0.0
 11
975.5797899545469
 21
271.1196972588887
 31
0.0
  0
LINE
  5
535
330
1F
100
AcDbEntity
  8
0
  6
CONTINUOUS
 62
     7
100
AcDbLine
 10
947.5797899545469
 20
171.1196972588887
 30
0.0
 11
947.5797899545469
 21
174.1196972588887
 31
0.0
  0
LINE
  5
536
330
1F
100
AcDbEntity
  8
0
  6
CONTINUOUS
 62
     7
100
AcDbLine
 10
956.1797899545469
 20
317.1196972588888
 30
0.0
 11
1052.579789954547
 21
317.1196972588888
 31
0.0
  0
LINE
  5
537
330
1F
100
AcDbEntity
  8
0
  6
CONTINUOUS
 62
     7
100
AcDbLine
 10
1052.579789954547
 20
317.1196972588888
 30
0.0
 11
1052.579789954547
 21
316.973250649482
 31
0.0
  0
LINE
  5
538
330
1F
100
AcDbEntity
  8
0
  6
CONTINUOUS
 62
     7
100
AcDbLine
 10
1046.779789954547
 20
301.1196972588888
 30
0.0
 11
1043.030538356923
 21
301.1196972588888
 31
0.0
  0
LINE
  5
539
330
1F
100
AcDbEntity
  8
0
  6
CONTINUOUS
 62
     7
100
AcDbLine
 10
967.9797899545468
 20
199.5196972588888
 30
0.0
 11
967.9797899545468
 21
202.7196972588888
 31
0.0
  0
LINE
  5
53A
330
1F
100
AcDbEntity
  8
0
  6
CONTINUOUS
 62
     7
100
AcDbLine
 10
947.5547899545469
 20
144.2509506059835
 30
0.0
 11
947.5797899545469
 21
144.2509506059835
 31
0.0
  0
LINE
  5
53B
330
1F
100
AcDbEntity
  8
0
  6
CONTINUOUS
 62
     7
100
AcDbLine
 10
1052.579789954547
 20
172.1196972588887
 30
0.0
 11
1052.579789954547
 21
172.9196972588887
 31
0.0
  0
LINE
  5
53C
330
1F
100
AcDbEntity
  8
0
  6
CONTINUOUS
 62
     7
100
AcDbLine
 10
966.7014600169402
 20
196.1196972588887
 30
0.0
 11
975.5797899545469
 21
196.1196972588887
 31
0.0
  0
LINE
  5
53D
330
1F
100
AcDbEntity
  8
0
  6
CONTINUOUS
 62
     7
100
AcDbLine
 10
1052.579789954547
 20
151.3196972588887
 30
0.0
 11
1052.579789954547
 21
152.1196972588887
 31
0.0
  0
LINE
  5
53E
330
1F
100
AcDbEntity
  8
0
  6
CONTINUOUS
 62
     7
100
AcDbLine
 10
947.5797899545469
 20
278.1196972588887
 30
0.0
 11
946.0797899545469
 21
278.1196972588887
 31
0.0
  0
LINE
  5
53F
330
1F
100
AcDbEntity
  8
0
  6
CONTINUOUS
 62
     7
100
AcDbLine
 10
1052.579789954547
 20
147.1196972588887
 30
0.0
 11
956.1797899545469
 21
147.1196972588887
 31
0.0
  0
LINE
  5
540
330
1F
100
AcDbEntity
  8
0
  6
CONTINUOUS
 62
     7
100
AcDbLine
 10
947.8726831733602
 20
268.1196972588887
 30
0.0
 11
952.2868967357334
 21
268.1196972588887
 31
0.0
  0
LINE
  5
541
330
1F
100
AcDbEntity
  8
0
  6
CONTINUOUS
 62
     7
100
AcDbLine
 10
952.2868967357334
 20
283.1196972588887
 30
0.0
 11
947.8726831733602
 21
283.1196972588887
 31
0.0
  0
LINE
  5
542
330
1F
100
AcDbEntity
  8
0
  6
CONTINUOUS
 62
     7
100
AcDbLine
 10
947.5797899545469
 20
196.6196972588887
 30
0.0
 11
946.0797899545469
 21
196.6196972588887
 31
0.0
  0
LINE
  5
543
330
1F
100
AcDbEntity
  8
0
  6
CONTINUOUS
 62
     7
100
AcDbLine
 10
1052.579789954547
 20
147.2661438682954
 30
0.0
 11
1052.579789954547
 21
147.1196972588887
 31
0.0
  0
LINE
  5
544
330
1F
100
AcDbEntity
  8
0
  6
CONTINUOUS
 62
     7
100
AcDbLine
 10
1052.579789954547
 20
315.9125904777022
 30
0.0
 11
1052.579789954547
 21
312.9196972588887
 31
0.0
  0
LINE
  5
545
330
1F
100
AcDbEntity
  8
0
  6
CONTINUOUS
 62
     7
100
AcDbLine
 10
946.0797899545468
 20
180.6196972588887
 30
0.0
 11
947.5797899545469
 21
180.6196972588887
 31
0.0
  0
LINE
  5
546
330
1F
100
AcDbEntity
  8
0
  6
CONTINUOUS
 62
     7
100
AcDbLine
 10
1043.030538356923
 20
163.1196972588887
 30
0.0
 11
1046.779789954547
 21
163.1196972588887
 31
0.0
  0
LINE
  5
547
330
1F
100
AcDbEntity
  8
0
  6
CONTINUOUS
 62
     7
100
AcDbLine
 10
957.4222711712557
 20
182.1196972588887
 30
0.0
 11
957.1797899545469
 21
182.1196972588887
 31
0.0
  0
LINE
  5
548
330
1F
100
AcDbEntity
  8
0
  6
CONTINUOUS
 62
     7
100
AcDbLine
 10
1004.079789954547
 20
319.1196972588888
 30
0.0
 11
1004.079789954547
 21
317.1196972588888
 31
0.0
  0
LINE
  5
549
330
1F
100
AcDbEntity
  8
0
  6
CONTINUOUS
 62
     7
100
AcDbLine
 10
947.5797899545469
 20
290.1196972588887
 30
0.0
 11
947.5797899545469
 21
293.1196972588888
 31
0.0
  0
LINE
  5
54A
330
1F
100
AcDbEntity
  8
0
  6
CONTINUOUS
 62
     7
100
AcDbLine
 10
1052.579789954547
 20
291.3196972588887
 30
0.0
 11
1052.579789954547
 21
292.1196972588888
 31
0.0
  0
LINE
  5
54B
330
1F
100
AcDbEntity
  8
0
  6
CONTINUOUS
 62
     7
100
AcDbLine
 10
975.5797899545469
 20
184.1196972588888
 30
0.0
 11
975.5797899545469
 21
182.1196972588888
 31
0.0
  0
LINE
  5
54C
330
1F
100
AcDbEntity
  8
0
  6
CONTINUOUS
 62
     7
100
AcDbLine
 10
947.5797899545469
 20
181.1196972588888
 30
0.0
 11
947.8726831733602
 21
181.1196972588887
 31
0.0
  0
LINE
  5
54D
330
1F
100
AcDbEntity
  8
0
  6
CONTINUOUS
 62
     7
100
AcDbLine
 10
947.5797899545469
 20
206.1196972588887
 30
0.0
 11
947.8726831733602
 21
206.1196972588887
 31
0.0
  0
LINE
  5
54E
330
1F
100
AcDbEntity
  8
0
  6
CONTINUOUS
 62
     7
100
AcDbLine
 10
947.5797899545469
 20
290.1196972588887
 30
0.0
 11
947.5797899545469
 21
286.1196972588887
 31
0.0
  0
LINE
  5
54F
330
1F
100
AcDbEntity
  8
0
  6
CONTINUOUS
 62
     7
100
AcDbLine
 10
947.8726831733602
 20
196.1196972588887
 30
0.0
 11
947.5797899545469
 21
196.1196972588887
 31
0.0
  0
LINE
  5
550
330
1F
100
AcDbEntity
  8
0
  6
CONTINUOUS
 62
     7
100
AcDbLine
 10
1052.579789954547
 20
316.973250649482
 30
0.0
 11
1052.579789954547
 21
316.2661438682954
 31
0.0
  0
LINE
  5
551
330
1F
100
AcDbEntity
  8
0
  6
CONTINUOUS
 62
     7
100
AcDbLine
 10
956.1797899545469
 20
196.1196972588887
 30
0.0
 11
956.1797899545469
 21
181.1196972588887
 31
0.0
  0
LINE
  5
552
330
1F
100
AcDbEntity
  8
0
  6
CONTINUOUS
 62
     7
100
AcDbLine
 10
952.2868967357334
 20
265.1196972588887
 30
0.0
 11
947.8726831733602
 21
265.1196972588887
 31
0.0
  0
LINE
  5
553
330
1F
100
AcDbEntity
  8
0
  6
CONTINUOUS
 62
     7
100
AcDbLine
 10
956.1797899545469
 20
175.9696972588887
 30
0.0
 11
947.5797899545469
 21
175.9696972588887
 31
0.0
  0
LINE
  5
554
330
1F
100
AcDbEntity
  8
0
  6
CONTINUOUS
 62
     7
100
AcDbLine
 10
947.5797899545469
 20
265.1196972588887
 30
0.0
 11
947.5797899545469
 21
268.1196972588887
 31
0.0
  0
LINE
  5
555
330
1F
100
AcDbEntity
  8
0
  6
CONTINUOUS
 62
     7
100
AcDbLine
 10
947.5797899545469
 20
262.9696972588887
 30
0.0
 11
947.5797899545469
 21
261.1196972588888
 31
0.0
  0
LINE
  5
556
330
1F
100
AcDbEntity
  8
0
  6
CONTINUOUS
 62
     7
100
AcDbLine
 10
943.9425933597549
 20
270.8696972588888
 30
0.0
 11
946.0797899545469
 21
270.8696972588888
 31
0.0
  0
LINE
  5
557
330
1F
100
AcDbEntity
  8
0
  6
CONTINUOUS
 62
     7
100
AcDbLine
 10
947.5797899545469
 20
178.1196972588887
 30
0.0
 11
947.5797899545469
 21
181.1196972588888
 31
0.0
  0
LINE
  5
558
330
1F
100
AcDbEntity
  8
0
  6
CONTINUOUS
 62
     7
100
AcDbLine
 10
947.8726831733602
 20
265.1196972588887
 30
0.0
 11
947.5797899545469
 21
265.1196972588887
 31
0.0
  0
LINE
  5
559
330
1F
100
AcDbEntity
  8
0
  6
CONTINUOUS
 62
     7
100
AcDbLine
 10
1052.579789954547
 20
148.3268040400753
 30
0.0
 11
1052.579789954547
 21
147.973250649482
 31
0.0
  0
LINE
  5
55A
330
1F
100
AcDbEntity
  8
0
  6
CONTINUOUS
 62
     7
100
AcDbLine
 10
956.1797899545469
 20
263.1196972588887
 30
0.0
 11
947.5797899545469
 21
263.1196972588887
 31
0.0
  0
LINE
  5
55B
330
1F
100
AcDbEntity
  8
0
  6
CONTINUOUS
 62
     7
100
AcDbLine
 10
961.0797899545469
 20
269.1196972588888
 30
0.0
 11
961.0797899545469
 21
268.1196972588887
 31
0.0
  0
LINE
  5
55C
330
1F
100
AcDbEntity
  8
0
  6
CENTER
 62
     1
100
AcDbLine
 10
943.5797899545469
 20
232.1196972588887
 30
0.0
 11
1056.579789954547
 21
232.1196972588887
 31
0.0
  0
LINE
  5
55D
330
1F
100
AcDbEntity
  8
0
  6
CONTINUOUS
 62
     7
100
AcDbLine
 10
1046.779789954547
 20
161.1196972588887
 30
0.0
 11
1043.030538356923
 21
161.1196972588887
 31
0.0
  0
LINE
  5
55E
330
1F
100
AcDbEntity
  8
0
  6
CONTINUOUS
 62
     7
100
AcDbLine
 10
957.4222711712558
 20
269.1196972588888
 30
0.0
 11
966.7014600169402
 21
269.1196972588887
 31
0.0
  0
LINE
  5
55F
330
1F
100
AcDbEntity
  8
0
  6
CONTINUOUS
 62
     7
100
AcDbLine
 10
966.7014600169402
 20
194.1196972588887
 30
0.0
 11
975.5797899545469
 21
194.1196972588887
 31
0.0
  0
LINE
  5
560
330
1F
100
AcDbEntity
  8
0
  6
CONTINUOUS
 62
     7
100
AcDbLine
 10
1013.579789954547
 20
147.1196972588887
 30
0.0
 11
1013.579789954547
 21
145.1196972588887
 31
0.0
  0
LINE
  5
561
330
1F
100
AcDbEntity
  8
0
  6
CONTINUOUS
 62
     7
100
AcDbLine
 10
975.5797899545469
 20
283.1196972588887
 30
0.0
 11
975.5797899545469
 21
281.1196972588887
 31
0.0
  0
LINE
  5
562
330
1F
100
AcDbEntity
  8
0
  6
CONTINUOUS
 62
     7
100
AcDbLine
 10
967.9797899545468
 20
261.5196972588888
 30
0.0
 11
967.9797899545468
 21
264.7196972588887
 31
0.0
  0
LINE
  5
563
330
1F
100
AcDbEntity
  8
0
  6
CONTINUOUS
 62
     7
100
AcDbLine
 10
1052.579789954547
 20
316.2661438682955
 30
0.0
 11
1052.579789954547
 21
315.9125904777022
 31
0.0
  0
LINE
  5
564
330
1F
100
AcDbEntity
  8
0
  6
CONTINUOUS
 62
     7
100
AcDbLine
 10
966.7014600169402
 20
182.1196972588888
 30
0.0
 11
975.5797899545469
 21
182.1196972588888
 31
0.0
  0
LINE
  5
565
330
1F
100
AcDbEntity
  8
0
  6
CONTINUOUS
 62
     7
100
AcDbLine
 10
1052.579789954547
 20
291.3196972588887
 30
0.0
 11
1052.579789954547
 21
172.9196972588887
 31
0.0
  0
LINE
  5
566
330
1F
100
AcDbEntity
  8
0
  6
CONTINUOUS
 62
     7
100
AcDbLine
 10
966.7014600169402
 20
283.1196972588887
 30
0.0
 11
975.5797899545469
 21
283.1196972588887
 31
0.0
  0
LINE
  5
567
330
1F
100
AcDbEntity
  8
0
  6
CONTINUOUS
 62
     7
100
AcDbLine
 10
964.0797899545469
 20
181.1196972588888
 30
0.0
 11
964.0797899545469
 21
182.1196972588888
 31
0.0
  0
LINE
  5
568
330
1F
100
AcDbEntity
  8
0
  6
CONTINUOUS
 62
     7
100
AcDbLine
 10
947.5797899545469
 20
148.9100415150744
 30
0.0
 11
947.5547899545469
 21
148.9100415150744
 31
0.0
  0
LINE
  5
569
330
1F
100
AcDbEntity
  8
0
  6
CONTINUOUS
 62
     7
100
AcDbLine
 10
947.5797899545469
 20
155.8198445702532
 30
0.0
 11
947.5547899545469
 21
155.8198445702532
 31
0.0
  0
LINE
  5
56A
330
1F
100
AcDbEntity
  8
0
  6
CONTINUOUS
 62
     7
100
AcDbLine
 10
957.1797899545469
 20
196.1196972588887
 30
0.0
 11
957.1797899545469
 21
191.1196972588887
 31
0.0
  0
LINE
  5
56B
330
1F
100
AcDbEntity
  8
0
  6
CONTINUOUS
 62
     7
100
AcDbLine
 10
967.9797899545468
 20
286.5196972588887
 30
0.0
 11
967.9797899545468
 21
289.7196972588887
 31
0.0
  0
LINE
  5
56C
330
1F
100
AcDbEntity
  8
0
  6
CONTINUOUS
 62
     7
100
AcDbLine
 10
957.4222711712557
 20
269.1196972588888
 30
0.0
 11
957.1797899545469
 21
269.1196972588888
 31
0.0
  0
LINE
  5
56D
330
1F
100
AcDbEntity
  8
0
  6
CONTINUOUS
 62
     7
100
AcDbLine
 10
956.1797899545469
 20
262.9696972588887
 30
0.0
 11
947.5797899545469
 21
262.9696972588887
 31
0.0
  0
LINE
  5
56E
330
1F
100
AcDbEntity
  8
0
  6
CONTINUOUS
 62
     7
100
AcDbLine
 10
947.8726831733602
 20
174.1196972588887
 30
0.0
 11
952.2868967357334
 21
174.1196972588887
 31
0.0
  0
LINE
  5
56F
330
1F
100
AcDbEntity
  8
0
  6
CONTINUOUS
 62
     7
100
AcDbLine
 10
947.5797899545469
 20
293.1196972588888
 30
0.0
 11
947.8726831733602
 21
293.1196972588888
 31
0.0
  0
LINE
  5
570
330
1F
100
AcDbEntity
  8
0
  6
CONTINUOUS
 62
     7
100
AcDbLine
 10
947.5797899545469
 20
199.1196972588887
 30
0.0
 11
947.8726831733602
 21
199.1196972588887
 31
0.0
  0
LINE
  5
571
330
1F
100
AcDbEntity
  8
0
  6
CONTINUOUS
 62
     7
100
AcDbLine
 10
956.1797899545469
 20
318.2053569661331
 30
0.0
 11
956.1797899545469
 21
293.1196972588888
 31
0.0
  0
LINE
  5
572
330
1F
100
AcDbEntity
  8
0
  6
CONTINUOUS
 62
     7
100
AcDbLine
 10
947.5797899545469
 20
293.1196972588888
 30
0.0
 11
947.5797899545469
 21
318.1389566156018
 31
0.0
  0
CIRCLE
  5
573
330
1F
100
AcDbEntity
  8
0
  6
CONTINUOUS
 62
     7
100
AcDbCircle
 10
716.9797899545468
 20
52.31969725888879
 30
0.0
 40
1.149999999999984
  0
CIRCLE
  5
574
330
1F
100
AcDbEntity
  8
0
  6
CONTINUOUS
 62
     7
100
AcDbCircle
 10
708.5797899545468
 20
66.31969725888878
 30
0.0
 40
1.149999999999984
  0
CIRCLE
  5
575
330
1F
100
AcDbEntity
  8
0
  6
CONTINUOUS
 62
     7
100
AcDbCircle
 10
733.7797899545467
 20
66.31969725888878
 30
0.0
 40
1.149999999999984
  0
LINE
  5
576
330
1F
100
AcDbEntity
  8
0
  6
CONTINUOUS
 62
     7
100
AcDbLine
 10
947.5797899545469
 20
268.1196972588887
 30
0.0
 11
947.5797899545469
 21
283.1196972588887
 31
0.0
  0
LINE
  5
577
330
1F
100
AcDbEntity
  8
0
  6
CONTINUOUS
 62
     7
100
AcDbLine
 10
947.8726831733602
 20
283.1196972588887
 30
0.0
 11
947.5797899545469
 21
283.1196972588887
 31
0.0
  0
LINE
  5
578
330
1F
100
AcDbEntity
  8
0
  6
CONTINUOUS
 62
     7
100
AcDbLine
 10
947.8726831733602
 20
293.1196972588888
 30
0.0
 11
952.2868967357334
 21
293.1196972588888
 31
0.0
  0
LINE
  5
579
330
1F
100
AcDbEntity
  8
0
  6
CONTINUOUS
 62
     7
100
AcDbLine
 10
947.5797899545469
 20
196.1196972588887
 30
0.0
 11
947.5797899545469
 21
199.1196972588887
 31
0.0
  0
LINE
  5
57A
330
1F
100
AcDbEntity
  8
0
  6
CONTINUOUS
 62
     7
100
AcDbLine
 10
947.8726831733602
 20
258.1196972588888
 30
0.0
 11
947.5797899545469
 21
258.1196972588888
 31
0.0
  0
LINE
  5
57B
330
1F
100
AcDbEntity
  8
0
  6
CONTINUOUS
 62
     7
100
AcDbLine
 10
952.2868967357334
 20
196.1196972588887
 30
0.0
 11
947.8726831733602
 21
196.1196972588887
 31
0.0
  0
CIRCLE
  5
57C
330
1F
100
AcDbEntity
  8
0
  6
CONTINUOUS
 62
     7
100
AcDbCircle
 10
708.5797899545468
 20
52.31969725888879
 30
0.0
 40
1.149999999999984
  0
LINE
  5
57D
330
1F
100
AcDbEntity
  8
0
  6
CONTINUOUS
 62
     7
100
AcDbLine
 10
947.5797899545469
 20
203.1196972588887
 30
0.0
 11
947.5797899545469
 21
206.1196972588887
 31
0.0
  0
LINE
  5
57E
330
1F
100
AcDbEntity
  8
0
  6
CONTINUOUS
 62
     7
100
AcDbLine
 10
947.5797899545469
 20
175.9696972588887
 30
0.0
 11
947.5797899545469
 21
176.1196972588887
 31
0.0
  0
LINE
  5
57F
330
1F
100
AcDbEntity
  8
0
  6
CONTINUOUS
 62
     7
100
AcDbLine
 10
956.1797899545469
 20
283.1196972588887
 30
0.0
 11
956.1797899545469
 21
268.1196972588887
 31
0.0
  0
CIRCLE
  5
580
330
1F
100
AcDbEntity
  8
0
  6
CONTINUOUS
 62
     7
100
AcDbCircle
 10
772.9797899545467
 20
18.71969725888879
 30
0.0
 40
1.149999999999984
  0
LINE
  5
581
330
1F
100
AcDbEntity
  8
0
  6
CONTINUOUS
 62
     7
100
AcDbLine
 10
947.5797899545469
 20
261.1196972588888
 30
0.0
 11
947.8726831733602
 21
261.1196972588888
 31
0.0
  0
CIRCLE
  5
582
330
1F
100
AcDbEntity
  8
0
  6
CONTINUOUS
 62
     7
100
AcDbCircle
 10
739.3797899545468
 20
-0.8803027411112135
 30
0.0
 40
1.149999999999984
  0
CIRCLE
  5
583
330
1F
100
AcDbEntity
  8
0
  6
CONTINUOUS
 62
     7
100
AcDbCircle
 10
714.1797899545468
 20
66.31969725888878
 30
0.0
 40
1.149999999999984
  0
CIRCLE
  5
584
330
1F
100
AcDbEntity
  8
0
  6
CONTINUOUS
 62
     7
100
AcDbCircle
 10
705.7797899545467
 20
66.31969725888878
 30
0.0
 40
1.149999999999984
  0
CIRCLE
  5
585
330
1F
100
AcDbEntity
  8
0
  6
CONTINUOUS
 62
     7
100
AcDbCircle
 10
714.1797899545468
 20
63.51969725888878
 30
0.0
 40
1.149999999999984
  0
LINE
  5
586
330
1F
100
AcDbEntity
  8
0
  6
CONTINUOUS
 62
     7
100
AcDbLine
 10
947.8726831733602
 20
171.1196972588887
 30
0.0
 11
947.5797899545469
 21
171.1196972588887
 31
0.0
  0
LINE
  5
587
330
1F
100
AcDbEntity
  8
0
  6
CONTINUOUS
 62
     7
100
AcDbLine
 10
956.1797899545469
 20
146.0340375516443
 30
0.0
 11
956.1797899545469
 21
145.326953075835
 31
0.0
  0
LINE
  5
588
330
1F
100
AcDbEntity
  8
0
  6
CONTINUOUS
 62
     7
100
AcDbLine
 10
947.8726831733602
 20
181.1196972588888
 30
0.0
 11
952.2868967357334
 21
181.1196972588888
 31
0.0
  0
LINE
  5
589
330
1F
100
AcDbEntity
  8
0
  6
CONTINUOUS
 62
     7
100
AcDbLine
 10
947.5797899545469
 20
262.9696972588887
 30
0.0
 11
947.5797899545469
 21
263.1196972588887
 31
0.0
  0
LINE
  5
58A
330
1F
100
AcDbEntity
  8
0
  6
CONTINUOUS
 62
     7
100
AcDbLine
 10
952.2868967357334
 20
171.1196972588887
 30
0.0
 11
947.8726831733602
 21
171.1196972588887
 31
0.0
  0
LINE
  5
58B
330
1F
100
AcDbEntity
  8
0
  6
CONTINUOUS
 62
     7
100
AcDbLine
 10
947.5797899545469
 20
258.1196972588888
 30
0.0
 11
947.5797899545469
 21
261.1196972588888
 31
0.0
  0
CIRCLE
  5
58C
330
1F
100
AcDbEntity
  8
0
  6
CONTINUOUS
 62
     7
100
AcDbCircle
 10
711.3797899545467
 20
52.31969725888879
 30
0.0
 40
1.149999999999984
  0
LINE
  5
58D
330
1F
100
AcDbEntity
  8
0
  6
CONTINUOUS
 62
     7
100
AcDbLine
 10
947.8726831733602
 20
178.1196972588887
 30
0.0
 11
947.5797899545469
 21
178.1196972588887
 31
0.0
  0
LINE
  5
58E
330
1F
100
AcDbEntity
  8
0
  6
CONTINUOUS
 62
     7
100
AcDbLine
 10
947.5797899545469
 20
283.1196972588887
 30
0.0
 11
947.5797899545469
 21
286.1196972588887
 31
0.0
  0
CIRCLE
  5
58F
330
1F
100
AcDbEntity
  8
0
  6
CONTINUOUS
 62
     7
100
AcDbCircle
 10
705.7797899545467
 20
43.9196972588888
 30
0.0
 40
1.150000000000095
  0
CIRCLE
  5
590
330
1F
100
AcDbEntity
  8
0
  6
CONTINUOUS
 62
     7
100
AcDbCircle
 10
697.3797899545467
 20
55.11969725888878
 30
0.0
 40
1.149999999999984
  0
CIRCLE
  5
591
330
1F
100
AcDbEntity
  8
0
  6
CONTINUOUS
 62
     7
100
AcDbCircle
 10
694.8297899545468
 20
41.11969725888879
 30
0.0
 40
1.149999999999984
  0
CIRCLE
  5
592
330
1F
100
AcDbEntity
  8
0
  6
CONTINUOUS
 62
     7
100
AcDbCircle
 10
725.3797899545467
 20
60.71969725888879
 30
0.0
 40
1.149999999999984
  0
LINE
  5
593
330
1F
100
AcDbEntity
  8
0
  6
CONTINUOUS
 62
     7
100
AcDbLine
 10
947.5797899545469
 20
174.1196972588887
 30
0.0
 11
947.5797899545469
 21
175.9696972588887
 31
0.0
  0
LINE
  5
594
330
1F
100
AcDbEntity
  8
0
  6
CONTINUOUS
 62
     7
100
AcDbLine
 10
952.2868967357334
 20
203.1196972588887
 30
0.0
 11
947.8726831733602
 21
203.1196972588887
 31
0.0
  0
LINE
  5
595
330
1F
100
AcDbEntity
  8
0
  6
CONTINUOUS
 62
     7
100
AcDbLine
 10
947.8726831733602
 20
261.1196972588888
 30
0.0
 11
952.2868967357334
 21
261.1196972588888
 31
0.0
  0
LINE
  5
596
330
1F
100
AcDbEntity
  8
0
  6
CONTINUOUS
 62
     7
100
AcDbLine
 10
947.8726831733602
 20
290.1196972588887
 30
0.0
 11
947.5797899545469
 21
290.1196972588887
 31
0.0
  0
LINE
  5
597
330
1F
100
AcDbEntity
  8
0
  6
CONTINUOUS
 62
     7
100
AcDbLine
 10
947.5797899545469
 20
268.1196972588887
 30
0.0
 11
947.8726831733602
 21
268.1196972588887
 31
0.0
  0
CIRCLE
  5
598
330
1F
100
AcDbEntity
  8
0
  6
CONTINUOUS
 62
     7
100
AcDbCircle
 10
753.3797899545468
 20
1.919697258888797
 30
0.0
 40
1.149999999999984
  0
CIRCLE
  5
599
330
1F
100
AcDbEntity
  8
0
  6
CONTINUOUS
 62
     7
100
AcDbCircle
 10
722.5797899545468
 20
60.71969725888879
 30
0.0
 40
1.149999999999984
  0
CIRCLE
  5
59A
330
1F
100
AcDbEntity
  8
0
  6
CONTINUOUS
 62
     7
100
AcDbCircle
 10
719.7797899545467
 20
60.71969725888879
 30
0.0
 40
1.149999999999984
  0
CIRCLE
  5
59B
330
1F
100
AcDbEntity
  8
0
  6
CONTINUOUS
 62
     7
100
AcDbCircle
 10
705.7797899545467
 20
63.51969725888878
 30
0.0
 40
1.149999999999984
  0
LINE
  5
59C
330
1F
100
AcDbEntity
  8
0
  6
CONTINUOUS
 62
     7
100
AcDbLine
 10
947.5797899545469
 20
206.1196972588887
 30
0.0
 11
947.5797899545469
 21
258.1196972588888
 31
0.0
  0
LINE
  5
59D
330
1F
100
AcDbEntity
  8
0
  6
CONTINUOUS
 62
     7
100
AcDbLine
 10
947.5797899545469
 20
199.1196972588887
 30
0.0
 11
947.5797899545469
 21
203.1196972588887
 31
0.0
  0
LINE
  5
59E
330
1F
100
AcDbEntity
  8
0
  6
CONTINUOUS
 62
     7
100
AcDbLine
 10
956.1797899545469
 20
318.9124414419425
 30
0.0
 11
956.1797899545469
 21
318.2053569661331
 31
0.0
  0
LINE
  5
59F
330
1F
100
AcDbEntity
  8
0
  6
CONTINUOUS
 62
     7
100
AcDbLine
 10
956.1797899545469
 20
171.1196972588887
 30
0.0
 11
956.1797899545469
 21
146.0340375516443
 31
0.0
  0
LINE
  5
5A0
330
1F
100
AcDbEntity
  8
0
  6
CONTINUOUS
 62
     7
100
AcDbLine
 10
947.8726831733602
 20
206.1196972588887
 30
0.0
 11
952.2868967357334
 21
206.1196972588887
 31
0.0
  0
CIRCLE
  5
5A1
330
1F
100
AcDbEntity
  8
0
  6
CONTINUOUS
 62
     7
100
AcDbCircle
 10
700.1797899545468
 20
55.11969725888878
 30
0.0
 40
1.149999999999984
  0
CIRCLE
  5
5A2
330
1F
100
AcDbEntity
  8
0
  6
CONTINUOUS
 62
     7
100
AcDbCircle
 10
711.3797899545467
 20
63.51969725888878
 30
0.0
 40
1.149999999999984
  0
CIRCLE
  5
5A3
330
1F
100
AcDbEntity
  8
0
  6
CONTINUOUS
 62
     7
100
AcDbCircle
 10
711.3797899545467
 20
66.31969725888878
 30
0.0
 40
1.149999999999984
  0
CIRCLE
  5
5A4
330
1F
100
AcDbEntity
  8
0
  6
CONTINUOUS
 62
     7
100
AcDbCircle
 10
728.1797899545468
 20
60.71969725888879
 30
0.0
 40
1.149999999999984
  0
LINE
  5
5A5
330
1F
100
AcDbEntity
  8
0
  6
CONTINUOUS
 62
     7
100
AcDbLine
 10
947.8726831733602
 20
199.1196972588887
 30
0.0
 11
952.2868967357334
 21
199.1196972588887
 31
0.0
  0
LINE
  5
5A6
330
1F
100
AcDbEntity
  8
0
  6
CONTINUOUS
 62
     7
100
AcDbLine
 10
947.5797899545469
 20
265.1196972588887
 30
0.0
 11
947.5797899545469
 21
263.1196972588887
 31
0.0
  0
LINE
  5
5A7
330
1F
100
AcDbEntity
  8
0
  6
CONTINUOUS
 62
     7
100
AcDbLine
 10
947.8726831733602
 20
286.1196972588887
 30
0.0
 11
952.2868967357334
 21
286.1196972588887
 31
0.0
  0
LINE
  5
5A8
330
1F
100
AcDbEntity
  8
0
  6
CONTINUOUS
 62
     7
100
AcDbLine
 10
947.8726831733602
 20
203.1196972588887
 30
0.0
 11
947.5797899545469
 21
203.1196972588887
 31
0.0
  0
LINE
  5
5A9
330
1F
100
AcDbEntity
  8
0
  6
CONTINUOUS
 62
     7
100
AcDbLine
 10
947.5797899545469
 20
286.1196972588887
 30
0.0
 11
947.8726831733602
 21
286.1196972588887
 31
0.0
  0
LINE
  5
5AA
330
1F
100
AcDbEntity
  8
0
  6
CONTINUOUS
 62
     7
100
AcDbLine
 10
956.1797899545469
 20
258.1196972588887
 30
0.0
 11
956.1797899545469
 21
206.1196972588887
 31
0.0
  0
LINE
  5
5AB
330
1F
100
AcDbEntity
  8
0
  6
CONTINUOUS
 62
     7
100
AcDbLine
 10
956.1797899545469
 20
176.1196972588887
 30
0.0
 11
947.5797899545469
 21
176.1196972588887
 31
0.0
  0
LINE
  5
5AC
330
1F
100
AcDbEntity
  8
0
  6
CONTINUOUS
 62
     7
100
AcDbLine
 10
947.5797899545469
 20
174.1196972588887
 30
0.0
 11
947.8726831733602
 21
174.1196972588887
 31
0.0
  0
LINE
  5
5AD
330
1F
100
AcDbEntity
  8
0
  6
CONTINUOUS
 62
     7
100
AcDbLine
 10
952.2868967357334
 20
290.1196972588887
 30
0.0
 11
947.8726831733602
 21
290.1196972588887
 31
0.0
  0
LINE
  5
5AE
330
1F
100
AcDbEntity
  8
0
  6
CONTINUOUS
 62
     7
100
AcDbLine
 10
952.2868967357334
 20
178.1196972588887
 30
0.0
 11
947.8726831733602
 21
178.1196972588887
 31
0.0
  0
LINE
  5
5AF
330
1F
100
AcDbEntity
  8
0
  6
CONTINUOUS
 62
     7
100
AcDbLine
 10
947.5797899545469
 20
176.1196972588887
 30
0.0
 11
947.5797899545469
 21
178.1196972588887
 31
0.0
  0
CIRCLE
  5
5B0
330
1F
100
AcDbEntity
  8
0
  6
CONTINUOUS
 62
     7
100
AcDbCircle
 10
747.7797899545467
 20
1.919697258888797
 30
0.0
 40
1.149999999999984
  0
CIRCLE
  5
5B1
330
1F
100
AcDbEntity
  8
0
  6
CONTINUOUS
 62
     7
100
AcDbCircle
 10
719.7797899545467
 20
63.51969725888878
 30
0.0
 40
1.149999999999984
  0
CIRCLE
  5
5B2
330
1F
100
AcDbEntity
  8
0
  6
CONTINUOUS
 62
     7
100
AcDbCircle
 10
708.5797899545468
 20
63.51969725888878
 30
0.0
 40
1.149999999999984
  0
CIRCLE
  5
5B3
330
1F
100
AcDbEntity
  8
0
  6
CONTINUOUS
 62
     7
100
AcDbCircle
 10
770.1797899545467
 20
15.9196972588888
 30
0.0
 40
1.150000000000095
  0
CIRCLE
  5
5B4
330
1F
100
AcDbEntity
  8
0
  6
CONTINUOUS
 62
     7
100
AcDbCircle
 10
719.7797899545467
 20
66.31969725888878
 30
0.0
 40
1.149999999999984
  0
CIRCLE
  5
5B5
330
1F
100
AcDbEntity
  8
0
  6
CONTINUOUS
 62
     7
100
AcDbCircle
 10
728.1797899545468
 20
63.51969725888878
 30
0.0
 40
1.149999999999984
  0
CIRCLE
  5
5B6
330
1F
100
AcDbEntity
  8
0
  6
CONTINUOUS
 62
     7
100
AcDbCircle
 10
702.9797899545467
 20
66.31969725888878
 30
0.0
 40
1.149999999999984
  0
CIRCLE
  5
5B7
330
1F
100
AcDbEntity
  8
0
  6
CONTINUOUS
 62
     7
100
AcDbCircle
 10
705.7797899545467
 20
46.71969725888879
 30
0.0
 40
1.150000000000095
  0
CIRCLE
  5
5B8
330
1F
100
AcDbEntity
  8
0
  6
CONTINUOUS
 62
     7
100
AcDbCircle
 10
716.9797899545467
 20
66.31969725888878
 30
0.0
 40
1.150000000000095
  0
CIRCLE
  5
5B9
330
1F
100
AcDbEntity
  8
0
  6
CONTINUOUS
 62
     7
100
AcDbCircle
 10
761.7797899545468
 20
7.519697258888791
 30
0.0
 40
1.149999999999984
  0
CIRCLE
  5
5BA
330
1F
100
AcDbEntity
  8
0
  6
CONTINUOUS
 62
     7
100
AcDbCircle
 10
702.9797899545467
 20
63.51969725888878
 30
0.0
 40
1.149999999999984
  0
CIRCLE
  5
5BB
330
1F
100
AcDbEntity
  8
0
  6
CONTINUOUS
 62
     7
100
AcDbCircle
 10
730.9797899545467
 20
66.31969725888878
 30
0.0
 40
1.150000000000095
  0
CIRCLE
  5
5BC
330
1F
100
AcDbEntity
  8
0
  6
CONTINUOUS
 62
     7
100
AcDbCircle
 10
694.5797899545468
 20
46.71969725888879
 30
0.0
 40
1.150000000000095
  0
CIRCLE
  5
5BD
330
1F
100
AcDbEntity
  8
0
  6
CONTINUOUS
 62
     7
100
AcDbCircle
 10
694.5797899545468
 20
43.9196972588888
 30
0.0
 40
1.150000000000095
  0
CIRCLE
  5
5BE
330
1F
100
AcDbEntity
  8
0
  6
CONTINUOUS
 62
     7
100
AcDbCircle
 10
742.1797899545468
 20
-0.8803027411112135
 30
0.0
 40
1.149999999999984
  0
CIRCLE
  5
5BF
330
1F
100
AcDbEntity
  8
0
  6
CONTINUOUS
 62
     7
100
AcDbCircle
 10
694.5797899545468
 20
49.51969725888879
 30
0.0
 40
1.150000000000095
  0
CIRCLE
  5
5C0
330
1F
100
AcDbEntity
  8
0
  6
CONTINUOUS
 62
     7
100
AcDbCircle
 10
728.1797899545468
 20
66.31969725888878
 30
0.0
 40
1.149999999999984
  0
CIRCLE
  5
5C1
330
1F
100
AcDbEntity
  8
0
  6
CONTINUOUS
 62
     7
100
AcDbCircle
 10
714.1797899545468
 20
52.31969725888879
 30
0.0
 40
1.149999999999984
  0
CIRCLE
  5
5C2
330
1F
100
AcDbEntity
  8
0
  6
CONTINUOUS
 62
     7
100
AcDbCircle
 10
730.9797899545467
 20
63.51969725888878
 30
0.0
 40
1.150000000000095
  0
CIRCLE
  5
5C3
330
1F
100
AcDbEntity
  8
0
  6
CONTINUOUS
 62
     7
100
AcDbCircle
 10
722.5797899545468
 20
63.51969725888878
 30
0.0
 40
1.149999999999984
  0
CIRCLE
  5
5C4
330
1F
100
AcDbEntity
  8
0
  6
CONTINUOUS
 62
     7
100
AcDbCircle
 10
756.1797899545467
 20
4.719697258888794
 30
0.0
 40
1.150000000000095
  0
CIRCLE
  5
5C5
330
1F
100
AcDbEntity
  8
0
  6
CONTINUOUS
 62
     7
100
AcDbCircle
 10
700.1797899545468
 20
43.9196972588888
 30
0.0
 40
1.149999999999984
  0
CIRCLE
  5
5C6
330
1F
100
AcDbEntity
  8
0
  6
CONTINUOUS
 62
     7
100
AcDbCircle
 10
725.3797899545467
 20
63.51969725888878
 30
0.0
 40
1.149999999999984
  0
CIRCLE
  5
5C7
330
1F
100
AcDbEntity
  8
0
  6
CONTINUOUS
 62
     7
100
AcDbCircle
 10
725.3797899545467
 20
66.31969725888878
 30
0.0
 40
1.149999999999984
  0
CIRCLE
  5
5C8
330
1F
100
AcDbEntity
  8
0
  6
CONTINUOUS
 62
     7
100
AcDbCircle
 10
697.3797899545467
 20
52.31969725888879
 30
0.0
 40
1.149999999999984
  0
LINE
  5
5C9
330
1F
100
AcDbEntity
  8
0
  6
CONTINUOUS
 62
     7
100
AcDbLine
 10
716.2136161086665
 20
-1.614845532164386
 30
0.0
 11
716.2240997974325
 21
-1.656315326659011
 31
0.0
  0
LINE
  5
5CA
330
1F
100
AcDbEntity
  8
0
  6
CONTINUOUS
 62
     7
100
AcDbLine
 10
716.2017316103287
 20
-1.575015047462477
 30
0.0
 11
716.2136161086665
 21
-1.614845532164386
 31
0.0
  0
LINE
  5
5CB
330
1F
100
AcDbEntity
  8
0
  6
CONTINUOUS
 62
     7
100
AcDbLine
 10
716.1881901872282
 20
-1.53567890653071
 30
0.0
 11
716.2017316103287
 21
-1.575015047462477
 31
0.0
  0
LINE
  5
5CC
330
1F
100
AcDbEntity
  8
0
  6
CONTINUOUS
 62
     7
100
AcDbLine
 10
696.8182121371043
 20
15.55808885195675
 30
0.0
 11
696.8583284971851
 21
15.54734366454845
 31
0.0
  0
LINE
  5
5CD
330
1F
100
AcDbEntity
  8
0
  6
CONTINUOUS
 62
     7
100
AcDbLine
 10
695.5797899545468
 20
-1.880340818047041
 30
0.0
 11
695.5797899545468
 21
14.58682522325545
 31
0.0
  0
LINE
  5
5CE
330
1F
100
AcDbEntity
  8
0
  6
CONTINUOUS
 62
     7
100
AcDbLine
 10
696.4421786072146
 20
15.57749790264246
 30
0.0
 11
696.4834575638637
 21
15.58235631576532
 31
0.0
  0
LINE
  5
5CF
330
1F
100
AcDbEntity
  8
0
  6
CONTINUOUS
 62
     7
100
AcDbLine
 10
716.2240997974325
 20
-1.656315326659011
 30
0.0
 11
716.2328078840306
 21
-1.698234057871367
 31
0.0
  0
LINE
  5
5D0
330
1F
100
AcDbEntity
  8
0
  6
CONTINUOUS
 62
     7
100
AcDbLine
 10
696.1595007343795
 20
15.49443505570262
 30
0.0
 11
696.197545271731
 21
15.51110757066282
 31
0.0
  0
LINE
  5
5D1
330
1F
100
AcDbEntity
  8
0
  6
CONTINUOUS
 62
     7
100
AcDbLine
 10
716.2397188155584
 20
-1.740486264667371
 30
0.0
 11
716.2448110391126
 21
-1.782956485912909
 31
0.0
  0
LINE
  5
5D2
330
1F
100
AcDbEntity
  8
0
  6
CONTINUOUS
 62
     7
100
AcDbLine
 10
695.7040086945951
 20
15.06969558066888
 30
0.0
 11
695.7254523283018
 21
15.10670810317159
 31
0.0
  0
LINE
  5
5D3
330
1F
100
AcDbEntity
  8
0
  6
CONTINUOUS
 62
     7
100
AcDbLine
 10
715.835866403876
 20
-1.07051964175453
 30
0.0
 11
715.8699802023589
 21
-1.096354772499919
 31
0.0
  0
LINE
  5
5D4
330
1F
100
AcDbEntity
  8
0
  6
CONTINUOUS
 62
     7
100
AcDbLine
 10
696.7367448174542
 20
15.57455596739424
 30
0.0
 11
696.7776491404566
 21
15.5671667427006
 31
0.0
  0
LINE
  5
5D5
330
1F
100
AcDbEntity
  8
0
  6
CONTINUOUS
 62
     7
100
AcDbLine
 10
697.1946908664219
 20
15.37539516443682
 30
0.0
 11
697.2278545422768
 21
15.34835792237761
 31
0.0
  0
LINE
  5
5D6
330
1F
100
AcDbEntity
  8
0
  6
CONTINUOUS
 62
     7
100
AcDbLine
 10
715.7304540419577
 20
-1.003792714859161
 30
0.0
 11
715.7665143928997
 21
-1.024577224500014
 31
0.0
  0
LINE
  5
5D7
330
1F
100
AcDbEntity
  8
0
  6
CONTINUOUS
 62
     7
100
AcDbLine
 10
715.8699802023589
 20
-1.096354772499919
 30
0.0
 11
715.9029889061333
 21
-1.123649212371458
 31
0.0
  0
LINE
  5
5D8
330
1F
100
AcDbEntity
  8
0
  6
CONTINUOUS
 62
     7
100
AcDbLine
 10
697.2278545422768
 20
15.34835792237761
 30
0.0
 11
697.259835746944
 21
15.31993178910759
 31
0.0
  0
LINE
  5
5D9
330
1F
100
AcDbEntity
  8
0
  6
CONTINUOUS
 62
     7
100
AcDbLine
 10
716.1374047040727
 20
-1.420489868586547
 30
0.0
 11
716.1562857668301
 21
-1.458893846997003
 31
0.0
  0
LINE
  5
5DA
330
1F
100
AcDbEntity
  8
0
  6
CONTINUOUS
 62
     7
100
AcDbLine
 10
696.6956044783097
 20
15.58023515665188
 30
0.0
 11
696.7367448174542
 21
15.57455596739424
 31
0.0
  0
LINE
  5
5DB
330
1F
100
AcDbEntity
  8
0
  6
CONTINUOUS
 62
     7
100
AcDbLine
 10
716.0208955727036
 20
-1.244225649776443
 30
0.0
 11
716.0467128675116
 21
-1.276872722273309
 31
0.0
  0
LINE
  5
5DC
330
1F
100
AcDbEntity
  8
0
  6
CONTINUOUS
 62
     7
100
AcDbLine
 10
697.0908357161068
 20
15.44638431629267
 30
0.0
 11
697.1261214213476
 21
15.42438888217323
 31
0.0
  0
LINE
  5
5DD
330
1F
100
AcDbEntity
  8
0
  6
CONTINUOUS
 62
     7
100
AcDbLine
 10
697.3852212678884
 20
15.17938943883836
 30
0.0
 11
697.4130549344376
 21
15.13957278142422
 31
0.0
  0
LINE
  5
5DE
330
1F
100
AcDbEntity
  8
0
  6
CONTINUOUS
 62
     7
100
AcDbLine
 10
715.2492233892236
 20
-2.880302741111201
 30
0.0
 11
696.5797518776109
 21
-2.880302741111215
 31
0.0
  0
LINE
  5
5DF
330
1F
100
AcDbEntity
  8
0
  6
CONTINUOUS
 62
     7
100
AcDbLine
 10
696.8991044755982
 20
15.53455060442049
 30
0.0
 11
696.9393334052692
 21
15.52001373908593
 31
0.0
  0
LINE
  5
5E0
330
1F
100
AcDbEntity
  8
0
  6
CONTINUOUS
 62
     7
100
AcDbLine
 10
696.9393334052692
 20
15.52001373908593
 30
0.0
 11
696.9789061262773
 21
15.50377527611056
 31
0.0
  0
LINE
  5
5E1
330
1F
100
AcDbEntity
  8
0
  6
CONTINUOUS
 62
     7
100
AcDbLine
 10
716.2492258779456
 20
-1.90748925296598
 30
0.0
 11
716.2472485212007
 21
-1.948979060768366
 31
0.0
  0
LINE
  5
5E2
330
1F
100
AcDbEntity
  8
0
  6
CONTINUOUS
 62
     7
100
AcDbLine
 10
697.3554529605684
 20
15.21785382150142
 30
0.0
 11
697.3852212678884
 21
15.17938943883836
 31
0.0
  0
LINE
  5
5E3
330
1F
100
AcDbEntity
  8
0
  6
CONTINUOUS
 62
     7
100
AcDbLine
 10
716.2494776477405
 20
-1.865917161198841
 30
0.0
 11
716.2492258779456
 21
-1.90748925296598
 31
0.0
  0
LINE
  5
5E4
330
1F
100
AcDbEntity
  8
0
  6
CONTINUOUS
 62
     7
100
AcDbLine
 10
716.1168793299703
 20
-1.382894250551395
 30
0.0
 11
716.1374047040727
 21
-1.420489868586547
 31
0.0
  0
LINE
  5
5E5
330
1F
100
AcDbEntity
  8
0
  6
CONTINUOUS
 62
     7
100
AcDbLine
 10
715.9653355726749
 20
-1.182309840353835
 30
0.0
 11
715.9937469191169
 21
-1.212677026653272
 31
0.0
  0
LINE
  5
5E6
330
1F
100
AcDbEntity
  8
0
  6
CONTINUOUS
 62
     7
100
AcDbLine
 10
696.5248668821978
 20
15.58549326224881
 30
0.0
 11
696.5675769817908
 21
15.58691566604521
 31
0.0
  0
LINE
  5
5E7
330
1F
100
AcDbEntity
  8
0
  6
CONTINUOUS
 62
     7
100
AcDbLine
 10
697.1261214213476
 20
15.42438888217323
 30
0.0
 11
697.1604337741313
 21
15.40096756835466
 31
0.0
  0
LINE
  5
5E8
330
1F
100
AcDbEntity
  8
0
  6
CONTINUOUS
 62
     7
100
AcDbLine
 10
715.6935936242854
 20
-0.9845400914513525
 30
0.0
 11
715.7304540419577
 21
-1.003792714859161
 31
0.0
  0
LINE
  5
5E9
330
1F
100
AcDbEntity
  8
0
  6
CONTINUOUS
 62
     7
100
AcDbLine
 10
697.259835746944
 20
15.31993178910759
 30
0.0
 11
697.2905454256711
 21
15.29019271155738
 31
0.0
  0
LINE
  5
5EA
330
1F
100
AcDbEntity
  8
0
  6
CONTINUOUS
 62
     7
100
AcDbLine
 10
716.2434082669562
 20
-1.991550383874094
 30
0.0
 11
716.2377457983865
 21
-2.03395738410854
 31
0.0
  0
LINE
  5
5EB
330
1F
100
AcDbEntity
  8
0
  6
CONTINUOUS
 62
     7
100
AcDbLine
 10
697.2905454256711
 20
15.29019271155738
 30
0.0
 11
697.3238582629914
 21
15.2548326666592
 31
0.0
  0
LINE
  5
5EC
330
1F
100
AcDbEntity
  8
0
  6
CONTINUOUS
 62
     7
100
AcDbLine
 10
716.0467128675116
 20
-1.276872722273309
 30
0.0
 11
716.0711301376181
 21
-1.310535256693793
 31
0.0
  0
LINE
  5
5ED
330
1F
100
AcDbEntity
  8
0
  6
CONTINUOUS
 62
     7
100
AcDbLine
 10
715.8016825544322
 20
-1.046838055192345
 30
0.0
 11
715.835866403876
 21
-1.07051964175453
 31
0.0
  0
LINE
  5
5EE
330
1F
100
AcDbEntity
  8
0
  6
CONTINUOUS
 62
     7
100
AcDbLine
 10
696.4834575638637
 20
15.58235631576532
 30
0.0
 11
696.5248668821978
 21
15.58549326224881
 31
0.0
  0
LINE
  5
5EF
330
1F
100
AcDbEntity
  8
0
  6
CONTINUOUS
 62
     7
100
AcDbLine
 10
716.2377457983865
 20
-2.03395738410854
 30
0.0
 11
716.23027909023
 21
-2.07608416080507
 31
0.0
  0
LINE
  5
5F0
330
1F
100
AcDbEntity
  8
0
  6
CONTINUOUS
 62
     7
100
AcDbLine
 10
716.2448110391126
 20
-1.782956485912909
 30
0.0
 11
716.2480054837434
 21
-1.824370375502593
 31
0.0
  0
LINE
  5
5F1
330
1F
100
AcDbEntity
  8
0
  6
CONTINUOUS
 62
     7
100
AcDbLine
 10
696.7776491404566
 20
15.5671667427006
 30
0.0
 11
696.8182121371043
 21
15.55808885195675
 31
0.0
  0
LINE
  5
5F2
330
1F
100
AcDbEntity
  8
0
  6
CONTINUOUS
 62
     7
100
AcDbLine
 10
715.7665143928997
 20
-1.024577224500014
 30
0.0
 11
715.8016825544322
 21
-1.046838055192345
 31
0.0
  0
LINE
  5
5F3
330
1F
100
AcDbEntity
  8
0
  6
CONTINUOUS
 62
     7
100
AcDbLine
 10
696.6103479811038
 20
15.58651100378537
 30
0.0
 11
696.6530628299919
 21
15.58428294435804
 31
0.0
  0
LINE
  5
5F4
330
1F
100
AcDbEntity
  8
0
  6
CONTINUOUS
 62
     7
100
AcDbLine
 10
715.9348036509786
 20
-1.152326416584332
 30
0.0
 11
715.9653355726749
 21
-1.182309840353835
 31
0.0
  0
LINE
  5
5F5
330
1F
100
AcDbEntity
  8
0
  6
CONTINUOUS
 62
     7
100
AcDbLine
 10
715.9937469191169
 20
-1.212677026653272
 30
0.0
 11
716.0208955727036
 21
-1.244225649776443
 31
0.0
  0
LINE
  5
5F6
330
1F
100
AcDbEntity
  8
0
  6
CONTINUOUS
 62
     7
100
AcDbLine
 10
696.4011364914231
 20
15.5709327687769
 30
0.0
 11
696.4421786072146
 21
15.57749790264246
 31
0.0
  0
LINE
  5
5F7
330
1F
100
AcDbEntity
  8
0
  6
CONTINUOUS
 62
     7
100
AcDbLine
 10
696.8583284971851
 20
15.54734366454845
 30
0.0
 11
696.8991044755982
 21
15.53455060442049
 31
0.0
  0
LINE
  5
5F8
330
1F
100
AcDbEntity
  8
0
  6
CONTINUOUS
 62
     7
100
AcDbLine
 10
715.9029889061333
 20
-1.123649212371458
 30
0.0
 11
715.9348036509786
 21
-1.152326416584332
 31
0.0
  0
LINE
  5
5F9
330
1F
100
AcDbEntity
  8
0
  6
CONTINUOUS
 62
     7
100
AcDbLine
 10
716.2328078840306
 20
-1.698234057871367
 30
0.0
 11
716.2397188155584
 21
-1.740486264667371
 31
0.0
  0
LINE
  5
5FA
330
1F
100
AcDbEntity
  8
0
  6
CONTINUOUS
 62
     7
100
AcDbLine
 10
716.2480054837434
 20
-1.824370375502593
 30
0.0
 11
716.2494776477405
 21
-1.865917161198841
 31
0.0
  0
LINE
  5
5FB
330
1F
100
AcDbEntity
  8
0
  6
CONTINUOUS
 62
     7
100
AcDbLine
 10
716.2472485212007
 20
-1.948979060768366
 30
0.0
 11
716.2434082669562
 21
-1.991550383874094
 31
0.0
  0
LINE
  5
5FC
330
1F
100
AcDbEntity
  8
0
  6
CONTINUOUS
 62
     7
100
AcDbLine
 10
697.3238582629914
 20
15.2548326666592
 30
0.0
 11
697.3554529605684
 21
15.21785382150142
 31
0.0
  0
LINE
  5
5FD
330
1F
100
AcDbEntity
  8
0
  6
CONTINUOUS
 62
     7
100
AcDbLine
 10
716.0947682669948
 20
-1.346208783163244
 30
0.0
 11
716.1168793299703
 21
-1.382894250551395
 31
0.0
  0
LINE
  5
5FE
330
1F
100
AcDbEntity
  8
0
  6
CONTINUOUS
 62
     7
100
AcDbLine
 10
696.0499090793751
 20
15.43512251955026
 30
0.0
 11
696.0855870119693
 21
15.45639327423447
 31
0.0
  0
LINE
  5
5FF
330
1F
100
AcDbEntity
  8
0
  6
CONTINUOUS
 62
     7
100
AcDbLine
 10
696.2373860993316
 20
15.52659231851278
 30
0.0
 11
696.277889618005
 21
15.540372171511
 31
0.0
  0
LINE
  5
600
330
1F
100
AcDbEntity
  8
0
  6
CONTINUOUS
 62
     7
100
AcDbLine
 10
695.636180914104
 20
14.91800538863076
 30
0.0
 11
695.6507536944897
 21
14.9569350593496
 31
0.0
  0
LINE
  5
601
330
1F
100
AcDbEntity
  8
0
  6
CONTINUOUS
 62
     7
100
AcDbLine
 10
696.3604376956617
 20
15.56267566006524
 30
0.0
 11
696.4011364914231
 21
15.5709327687769
 31
0.0
  0
LINE
  5
602
330
1F
100
AcDbEntity
  8
0
  6
CONTINUOUS
 62
     7
100
AcDbLine
 10
697.017713478702
 20
15.48587742306021
 30
0.0
 11
697.0546689660207
 21
15.46689884011948
 31
0.0
  0
LINE
  5
603
330
1F
100
AcDbEntity
  8
0
  6
CONTINUOUS
 62
     7
100
AcDbLine
 10
716.0711301376181
 20
-1.310535256693793
 30
0.0
 11
716.0947682669948
 21
-1.346208783163244
 31
0.0
  0
LINE
  5
604
330
1F
100
AcDbEntity
  8
0
  6
CONTINUOUS
 62
     7
100
AcDbLine
 10
716.1562857668301
 20
-1.458893846997003
 30
0.0
 11
716.1730291393877
 21
-1.496938157123942
 31
0.0
  0
LINE
  5
605
330
1F
100
AcDbEntity
  8
0
  6
CONTINUOUS
 62
     7
100
AcDbLine
 10
696.318944069524
 20
15.55241174643573
 30
0.0
 11
696.3604376956617
 21
15.56267566006524
 31
0.0
  0
LINE
  5
606
330
1F
100
AcDbEntity
  8
0
  6
CONTINUOUS
 62
     7
100
AcDbLine
 10
716.1730291393877
 20
-1.496938157123942
 30
0.0
 11
716.1881901872282
 21
-1.53567890653071
 31
0.0
  0
LINE
  5
607
330
1F
100
AcDbEntity
  8
0
  6
CONTINUOUS
 62
     7
100
AcDbLine
 10
696.6530628299919
 20
15.58428294435804
 30
0.0
 11
696.6956044783097
 21
15.58023515665188
 31
0.0
  0
LINE
  5
608
330
1F
100
AcDbEntity
  8
0
  6
CONTINUOUS
 62
     7
100
AcDbLine
 10
696.5675769817908
 20
15.58691566604521
 30
0.0
 11
696.6103479811038
 21
15.58651100378537
 31
0.0
  0
LINE
  5
609
330
1F
100
AcDbEntity
  8
0
  6
CONTINUOUS
 62
     7
100
AcDbLine
 10
715.4492535781243
 20
-2.860115862222734
 30
0.0
 11
715.4104600784514
 21
-2.867235547033317
 31
0.0
  0
LINE
  5
60A
330
1F
100
AcDbEntity
  8
0
  6
CONTINUOUS
 62
     7
100
AcDbLine
 10
696.277889618005
 20
15.540372171511
 30
0.0
 11
696.318944069524
 21
15.55241174643573
 31
0.0
  0
LINE
  5
60B
330
1F
100
AcDbEntity
  8
0
  6
CONTINUOUS
 62
     7
100
AcDbLine
 10
735.4650981449663
 20
79.6189522011183
 30
0.0
 11
735.4731785759045
 21
79.63812157769188
 31
0.0
  0
LINE
  5
60C
330
1F
100
AcDbEntity
  8
0
  6
CONTINUOUS
 62
     7
100
AcDbLine
 10
735.4297899545468
 20
79.43389082287142
 30
0.0
 11
735.4302193059449
 21
79.45466887804427
 31
0.0
  0
LINE
  5
60D
330
1F
100
AcDbEntity
  8
0
  6
CONTINUOUS
 62
     7
100
AcDbLine
 10
715.3301056397016
 20
-2.87702537784737
 30
0.0
 11
715.2896810861641
 21
-2.879482079702192
 31
0.0
  0
LINE
  5
60E
330
1F
100
AcDbEntity
  8
0
  6
CONTINUOUS
 62
     7
100
AcDbLine
 10
716.2210261172254
 20
-2.117814813297078
 30
0.0
 11
716.2103310040847
 21
-2.157932337592122
 31
0.0
  0
LINE
  5
60F
330
1F
100
AcDbEntity
  8
0
  6
CONTINUOUS
 62
     7
100
AcDbLine
 10
716.1312905688648
 20
-2.352213518179894
 30
0.0
 11
716.1103088507302
 21
-2.389475901484348
 31
0.0
  0
LINE
  5
610
330
1F
100
AcDbEntity
  8
0
  6
CONTINUOUS
 62
     7
100
AcDbLine
 10
716.2103310040847
 20
-2.157932337592122
 30
0.0
 11
716.1979679575047
 21
-2.197605247101039
 31
0.0
  0
LINE
  5
611
330
1F
100
AcDbEntity
  8
0
  6
CONTINUOUS
 62
     7
100
AcDbLine
 10
716.23027909023
 20
-2.07608416080507
 30
0.0
 11
716.2210261172254
 21
-2.117814813297078
 31
0.0
  0
LINE
  5
612
330
1F
100
AcDbEntity
  8
0
  6
CONTINUOUS
 62
     7
100
AcDbLine
 10
715.9255192930067
 20
-2.617265005857586
 30
0.0
 11
715.893390217188
 21
-2.645485140109899
 31
0.0
  0
LINE
  5
613
330
1F
100
AcDbEntity
  8
0
  6
CONTINUOUS
 62
     7
100
AcDbLine
 10
715.7206325328506
 20
-2.762366802652308
 30
0.0
 11
715.6825037946637
 21
-2.781682762768731
 31
0.0
  0
LINE
  5
614
330
1F
100
AcDbEntity
  8
0
  6
CONTINUOUS
 62
     7
100
AcDbLine
 10
735.4512127170391
 20
79.57914894436787
 30
0.0
 11
735.4578311397365
 21
79.5994793250064
 31
0.0
  0
LINE
  5
615
330
1F
100
AcDbEntity
  8
0
  6
CONTINUOUS
 62
     7
100
AcDbLine
 10
735.4578311397365
 20
79.5994793250064
 30
0.0
 11
735.4650981449663
 21
79.6189522011183
 31
0.0
  0
LINE
  5
616
330
1F
100
AcDbEntity
  8
0
  6
CONTINUOUS
 62
     7
100
AcDbLine
 10
715.6038766841846
 20
-2.815379248821942
 30
0.0
 11
715.56359341582
 21
-2.829667942473455
 31
0.0
  0
LINE
  5
617
330
1F
100
AcDbEntity
  8
0
  6
CONTINUOUS
 62
     7
100
AcDbLine
 10
735.9580068634199
 20
77.40915365841636
 30
0.0
 11
735.937244033484
 21
77.40825315634663
 31
0.0
  0
LINE
  5
618
330
1F
100
AcDbEntity
  8
0
  6
CONTINUOUS
 62
     7
100
AcDbLine
 10
735.4406019721328
 20
79.5376947019996
 30
0.0
 11
735.4454652960102
 21
79.55853503108744
 31
0.0
  0
LINE
  5
619
330
1F
100
AcDbEntity
  8
0
  6
CONTINUOUS
 62
     7
100
AcDbLine
 10
715.9564164769182
 20
-2.587701236557341
 30
0.0
 11
715.9255192930067
 21
-2.617265005857586
 31
0.0
  0
LINE
  5
61A
330
1F
100
AcDbEntity
  8
0
  6
CONTINUOUS
 62
     7
100
AcDbLine
 10
735.7710916629944
 20
77.43273096449296
 30
0.0
 11
735.7509002829917
 21
77.43981561571708
 31
0.0
  0
LINE
  5
61B
330
1F
100
AcDbEntity
  8
0
  6
CONTINUOUS
 62
     7
100
AcDbLine
 10
715.6825037946637
 20
-2.781682762768731
 30
0.0
 11
715.643549327787
 21
-2.799368883539488
 31
0.0
  0
LINE
  5
61C
330
1F
100
AcDbEntity
  8
0
  6
CONTINUOUS
 62
     7
100
AcDbLine
 10
715.893390217188
 20
-2.645485140109899
 30
0.0
 11
715.8601155659222
 21
-2.672282716761634
 31
0.0
  0
LINE
  5
61D
330
1F
100
AcDbEntity
  8
0
  6
CONTINUOUS
 62
     7
100
AcDbLine
 10
735.6462349261266
 20
79.84529885711719
 30
0.0
 11
735.6640217410436
 21
79.85686708066251
 31
0.0
  0
LINE
  5
61E
330
1F
100
AcDbEntity
  8
0
  6
CONTINUOUS
 62
     7
100
AcDbLine
 10
735.6743934394592
 20
77.47627291393772
 30
0.0
 11
735.6568217425881
 21
77.48708219018633
 31
0.0
  0
LINE
  5
61F
330
1F
100
AcDbEntity
  8
0
  6
CONTINUOUS
 62
     7
100
AcDbLine
 10
735.9158633508818
 20
77.40822821733825
 30
0.0
 11
735.8944815341728
 21
77.40911630081709
 31
0.0
  0
LINE
  5
620
330
1F
100
AcDbEntity
  8
0
  6
CONTINUOUS
 62
     7
100
AcDbLine
 10
735.4297899545468
 20
77.90550369490614
 30
0.0
 11
735.4297899545468
 21
79.43389082287142
 31
0.0
  0
LINE
  5
621
330
1F
100
AcDbEntity
  8
0
  6
CONTINUOUS
 62
     7
100
AcDbLine
 10
735.6568217425881
 20
77.48708219018633
 30
0.0
 11
735.6397155715268
 21
77.49861400866341
 31
0.0
  0
LINE
  5
622
330
1F
100
AcDbEntity
  8
0
  6
CONTINUOUS
 62
     7
100
AcDbLine
 10
735.6231204113952
 20
77.51083946323212
 30
0.0
 11
735.6065890237675
 21
77.52413948571058
 31
0.0
  0
LINE
  5
623
330
1F
100
AcDbEntity
  8
0
  6
CONTINUOUS
 62
     7
100
AcDbLine
 10
735.8314616784727
 20
77.41712751197402
 30
0.0
 11
735.8111209730813
 21
77.42148808143013
 31
0.0
  0
LINE
  5
624
330
1F
100
AcDbEntity
  8
0
  6
CONTINUOUS
 62
     7
100
AcDbLine
 10
735.4916951145011
 20
79.67534904058968
 30
0.0
 11
735.502423829212
 21
79.69386328595385
 31
0.0
  0
LINE
  5
625
330
1F
100
AcDbEntity
  8
0
  6
CONTINUOUS
 62
     7
100
AcDbLine
 10
715.792243198185
 20
-2.720218852088868
 30
0.0
 11
715.756859995771
 21
-2.742045421871925
 31
0.0
  0
LINE
  5
626
330
1F
100
AcDbEntity
  8
0
  6
CONTINUOUS
 62
     7
100
AcDbLine
 10
716.0396056834198
 20
-2.493435765371893
 30
0.0
 11
716.0134477720378
 21
-2.525724706179566
 31
0.0
  0
LINE
  5
627
330
1F
100
AcDbEntity
  8
0
  6
CONTINUOUS
 62
     7
100
AcDbLine
 10
716.1839711031839
 20
-2.236731618272009
 30
0.0
 11
716.1683745668213
 21
-2.275209527553196
 31
0.0
  0
LINE
  5
628
330
1F
100
AcDbEntity
  8
0
  6
CONTINUOUS
 62
     7
100
AcDbLine
 10
715.4877664428277
 20
-2.851466849845372
 30
0.0
 11
715.4492535781243
 21
-2.860115862222734
 31
0.0
  0
LINE
  5
629
330
1F
100
AcDbEntity
  8
0
  6
CONTINUOUS
 62
     7
100
AcDbLine
 10
735.4366358408898
 20
79.51668507393892
 30
0.0
 11
735.4406019721328
 21
79.5376947019996
 31
0.0
  0
LINE
  5
62A
330
1F
100
AcDbEntity
  8
0
  6
CONTINUOUS
 62
     7
100
AcDbLine
 10
716.0877744352055
 20
-2.425774288316362
 30
0.0
 11
716.064403225009
 21
-2.460090702647813
 31
0.0
  0
LINE
  5
62B
330
1F
100
AcDbEntity
  8
0
  6
CONTINUOUS
 62
     7
100
AcDbLine
 10
697.1604337741313
 20
15.40096756835466
 30
0.0
 11
697.1946908664219
 21
15.37539516443682
 31
0.0
  0
LINE
  5
62C
330
1F
100
AcDbEntity
  8
0
  6
CONTINUOUS
 62
     7
100
AcDbLine
 10
735.4336452161198
 20
79.49611903373327
 30
0.0
 11
735.4366358408898
 21
79.51668507393892
 31
0.0
  0
LINE
  5
62D
330
1F
100
AcDbEntity
  8
0
  6
CONTINUOUS
 62
     7
100
AcDbLine
 10
735.6122015656279
 20
79.81990168948859
 30
0.0
 11
735.6289457857616
 21
79.83296537204681
 31
0.0
  0
LINE
  5
62E
330
1F
100
AcDbEntity
  8
0
  6
CONTINUOUS
 62
     7
100
AcDbLine
 10
735.7114915138408
 20
77.45658035785283
 30
0.0
 11
735.6923851770196
 21
77.46621508605452
 31
0.0
  0
LINE
  5
62F
330
1F
100
AcDbEntity
  8
0
  6
CONTINUOUS
 62
     7
100
AcDbLine
 10
716.064403225009
 20
-2.460090702647813
 30
0.0
 11
716.0396056834198
 21
-2.493435765371893
 31
0.0
  0
LINE
  5
630
330
1F
100
AcDbEntity
  8
0
  6
CONTINUOUS
 62
     7
100
AcDbLine
 10
715.56359341582
 20
-2.829667942473455
 30
0.0
 11
715.5259094596852
 21
-2.84131028492203
 31
0.0
  0
LINE
  5
631
330
1F
100
AcDbEntity
  8
0
  6
CONTINUOUS
 62
     7
100
AcDbLine
 10
715.9859954524624
 20
-2.556872754761768
 30
0.0
 11
715.9564164769182
 21
-2.587701236557341
 31
0.0
  0
LINE
  5
632
330
1F
100
AcDbEntity
  8
0
  6
CONTINUOUS
 62
     7
100
AcDbLine
 10
715.5259094596852
 20
-2.84131028492203
 30
0.0
 11
715.4877664428277
 21
-2.851466849845372
 31
0.0
  0
LINE
  5
633
330
1F
100
AcDbEntity
  8
0
  6
CONTINUOUS
 62
     7
100
AcDbLine
 10
716.1103088507302
 20
-2.389475901484348
 30
0.0
 11
716.0877744352055
 21
-2.425774288316362
 31
0.0
  0
LINE
  5
634
330
1F
100
AcDbEntity
  8
0
  6
CONTINUOUS
 62
     7
100
AcDbLine
 10
735.4454652960102
 20
79.55853503108744
 30
0.0
 11
735.4512127170391
 21
79.57914894436787
 31
0.0
  0
LINE
  5
635
330
1F
100
AcDbEntity
  8
0
  6
CONTINUOUS
 62
     7
100
AcDbLine
 10
716.1683745668213
 20
-2.275209527553196
 30
0.0
 11
716.1506642530737
 21
-2.31409032975291
 31
0.0
  0
LINE
  5
636
330
1F
100
AcDbEntity
  8
0
  6
CONTINUOUS
 62
     7
100
AcDbLine
 10
715.4104600784514
 20
-2.867235547033317
 30
0.0
 11
715.370398240307
 21
-2.872940559104989
 31
0.0
  0
LINE
  5
637
330
1F
100
AcDbEntity
  8
0
  6
CONTINUOUS
 62
     7
100
AcDbLine
 10
715.370398240307
 20
-2.872940559104989
 30
0.0
 11
715.3301056397016
 21
-2.87702537784737
 31
0.0
  0
LINE
  5
638
330
1F
100
AcDbEntity
  8
0
  6
CONTINUOUS
 62
     7
100
AcDbLine
 10
715.8601155659222
 20
-2.672282716761634
 30
0.0
 11
715.8266918261997
 21
-2.696945236114856
 31
0.0
  0
LINE
  5
639
330
1F
100
AcDbEntity
  8
0
  6
CONTINUOUS
 62
     7
100
AcDbLine
 10
715.8266918261997
 20
-2.696945236114856
 30
0.0
 11
715.792243198185
 21
-2.720218852088868
 31
0.0
  0
LINE
  5
63A
330
1F
100
AcDbEntity
  8
0
  6
CONTINUOUS
 62
     7
100
AcDbLine
 10
716.0134477720378
 20
-2.525724706179566
 30
0.0
 11
715.9859954524624
 21
-2.556872754761768
 31
0.0
  0
LINE
  5
63B
330
1F
100
AcDbEntity
  8
0
  6
CONTINUOUS
 62
     7
100
AcDbLine
 10
716.1979679575047
 20
-2.197605247101039
 30
0.0
 11
716.1839711031839
 21
-2.236731618272009
 31
0.0
  0
LINE
  5
63C
330
1F
100
AcDbEntity
  8
0
  6
CONTINUOUS
 62
     7
100
AcDbLine
 10
715.643549327787
 20
-2.799368883539488
 30
0.0
 11
715.6038766841846
 21
-2.815379248821942
 31
0.0
  0
LINE
  5
63D
330
1F
100
AcDbEntity
  8
0
  6
CONTINUOUS
 62
     7
100
AcDbLine
 10
715.756859995771
 20
-2.742045421871925
 30
0.0
 11
715.7206325328506
 21
-2.762366802652308
 31
0.0
  0
LINE
  5
63E
330
1F
100
AcDbEntity
  8
0
  6
CONTINUOUS
 62
     7
100
AcDbLine
 10
697.0546689660207
 20
15.46689884011948
 30
0.0
 11
697.0908357161068
 21
15.44638431629267
 31
0.0
  0
LINE
  5
63F
330
1F
100
AcDbEntity
  8
0
  6
CONTINUOUS
 62
     7
100
AcDbLine
 10
735.431505382137
 20
79.47542929171664
 30
0.0
 11
735.4336452161198
 21
79.49611903373327
 31
0.0
  0
LINE
  5
640
330
1F
100
AcDbEntity
  8
0
  6
CONTINUOUS
 62
     7
100
AcDbLine
 10
735.7969988787593
 20
79.91435169950509
 30
0.0
 11
735.8174898243823
 21
79.91937033333377
 31
0.0
  0
LINE
  5
641
330
1F
100
AcDbEntity
  8
0
  6
CONTINUOUS
 62
     7
100
AcDbLine
 10
735.4302193059449
 20
79.45466887804427
 30
0.0
 11
735.431505382137
 21
79.47542929171664
 31
0.0
  0
LINE
  5
642
330
1F
100
AcDbEntity
  8
0
  6
CONTINUOUS
 62
     7
100
AcDbLine
 10
735.5392806690354
 20
79.74642286554368
 30
0.0
 11
735.5525199722655
 21
79.76222154530382
 31
0.0
  0
LINE
  5
643
330
1F
100
AcDbEntity
  8
0
  6
CONTINUOUS
 62
     7
100
AcDbLine
 10
735.9787324248895
 20
77.4109130767353
 30
0.0
 11
735.9580068634199
 21
77.40915365841636
 31
0.0
  0
LINE
  5
644
330
1F
100
AcDbEntity
  8
0
  6
CONTINUOUS
 62
     7
100
AcDbLine
 10
696.9789061262773
 20
15.50377527611056
 30
0.0
 11
697.017713478702
 21
15.48587742306021
 31
0.0
  0
LINE
  5
645
330
1F
100
AcDbEntity
  8
0
  6
CONTINUOUS
 62
     7
100
AcDbLine
 10
715.2896810861641
 20
-2.879482079702192
 30
0.0
 11
715.2492233892236
 21
-2.880302741111201
 31
0.0
  0
LINE
  5
646
330
1F
100
AcDbEntity
  8
0
  6
CONTINUOUS
 62
     7
100
AcDbLine
 10
716.1506642530737
 20
-2.31409032975291
 30
0.0
 11
716.1312905688648
 21
-2.352213518179894
 31
0.0
  0
LINE
  5
647
330
1F
100
AcDbEntity
  8
0
  6
CONTINUOUS
 62
     7
100
AcDbLine
 10
735.5809412803599
 20
79.79212084322154
 30
0.0
 11
735.5960495114039
 21
79.80614287347976
 31
0.0
  0
LINE
  5
648
330
1F
100
AcDbEntity
  8
0
  6
CONTINUOUS
 62
     7
100
AcDbLine
 10
735.8174898243823
 20
79.91937033333377
 30
0.0
 11
735.8376611875952
 21
79.92342010026101
 31
0.0
  0
LINE
  5
649
330
1F
100
AcDbEntity
  8
0
  6
CONTINUOUS
 62
     7
100
AcDbLine
 10
735.962446303234
 20
79.92993669844675
 30
0.0
 11
735.983512943601
 21
79.92795605933075
 31
0.0
  0
LINE
  5
64A
330
1F
100
AcDbEntity
  8
0
  6
CONTINUOUS
 62
     7
100
AcDbLine
 10
736.0198611456186
 20
77.41698070791983
 30
0.0
 11
735.99936806869
 21
77.4135244227532
 31
0.0
  0
LINE
  5
64B
330
1F
100
AcDbEntity
  8
0
  6
CONTINUOUS
 62
     7
100
AcDbLine
 10
735.6923851770196
 20
77.46621508605452
 30
0.0
 11
735.6743934394592
 21
77.47627291393772
 31
0.0
  0
LINE
  5
64C
330
1F
100
AcDbEntity
  8
0
  6
CONTINUOUS
 62
     7
100
AcDbLine
 10
735.937244033484
 20
77.40825315634663
 30
0.0
 11
735.9158633508818
 21
77.40822821733825
 31
0.0
  0
LINE
  5
64D
330
1F
100
AcDbEntity
  8
0
  6
CONTINUOUS
 62
     7
100
AcDbLine
 10
735.8784538424205
 20
79.92901269608495
 30
0.0
 11
735.8989708041878
 21
79.93054374142125
 31
0.0
  0
LINE
  5
64E
330
1F
100
AcDbEntity
  8
0
  6
CONTINUOUS
 62
     7
100
AcDbLine
 10
735.5341403028457
 20
77.5994896188748
 30
0.0
 11
735.5219001490553
 21
77.61596207894583
 31
0.0
  0
LINE
  5
64F
330
1F
100
AcDbEntity
  8
0
  6
CONTINUOUS
 62
     7
100
AcDbLine
 10
735.99936806869
 20
77.4135244227532
 30
0.0
 11
735.9787324248895
 21
77.4109130767353
 31
0.0
  0
LINE
  5
650
330
1F
100
AcDbEntity
  8
0
  6
CONTINUOUS
 62
     7
100
AcDbLine
 10
735.8944815341728
 20
77.40911630081709
 30
0.0
 11
735.8731571412382
 21
77.41091520664523
 31
0.0
  0
LINE
  5
651
330
1F
100
AcDbEntity
  8
0
  6
CONTINUOUS
 62
     7
100
AcDbLine
 10
735.8111209730813
 20
77.42148808143013
 30
0.0
 11
735.7909798793876
 21
77.42669303496561
 31
0.0
  0
LINE
  5
652
330
1F
100
AcDbEntity
  8
0
  6
CONTINUOUS
 62
     7
100
AcDbLine
 10
735.9412962015509
 20
79.93103033571917
 30
0.0
 11
735.962446303234
 21
79.92993669844675
 31
0.0
  0
LINE
  5
653
330
1F
100
AcDbEntity
  8
0
  6
CONTINUOUS
 62
     7
100
AcDbLine
 10
735.510363123994
 20
77.63291304903596
 30
0.0
 11
735.4992392105521
 21
77.65083833157755
 31
0.0
  0
LINE
  5
654
330
1F
100
AcDbEntity
  8
0
  6
CONTINUOUS
 62
     7
100
AcDbLine
 10
735.48205128245
 20
79.65693725681854
 30
0.0
 11
735.4916951145011
 21
79.67534904058968
 31
0.0
  0
LINE
  5
655
330
1F
100
AcDbEntity
  8
0
  6
CONTINUOUS
 62
     7
100
AcDbLine
 10
735.560602153003
 20
77.56814891713495
 30
0.0
 11
735.5470516244623
 21
77.58353784090912
 31
0.0
  0
LINE
  5
656
330
1F
100
AcDbEntity
  8
0
  6
CONTINUOUS
 62
     7
100
AcDbLine
 10
735.4331155295191
 20
77.84769281026021
 30
0.0
 11
735.4311293070069
 21
77.86875930578954
 31
0.0
  0
LINE
  5
657
330
1F
100
AcDbEntity
  8
0
  6
CONTINUOUS
 62
     7
100
AcDbLine
 10
735.6289457857616
 20
79.83296537204681
 30
0.0
 11
735.6462349261266
 21
79.84529885711719
 31
0.0
  0
LINE
  5
658
330
1F
100
AcDbEntity
  8
0
  6
CONTINUOUS
 62
     7
100
AcDbLine
 10
735.4512127170391
 20
71.17914894436788
 30
0.0
 11
735.4578311397365
 21
71.19947932500641
 31
0.0
  0
LINE
  5
659
330
1F
100
AcDbEntity
  8
0
  6
CONTINUOUS
 62
     7
100
AcDbLine
 10
735.4705530407733
 20
77.70725351046201
 30
0.0
 11
735.4628092921688
 21
77.72631481622705
 31
0.0
  0
LINE
  5
65A
330
1F
100
AcDbEntity
  8
0
  6
CONTINUOUS
 62
     7
100
AcDbLine
 10
735.6997507910987
 20
79.8770143798879
 30
0.0
 11
735.7182184188853
 21
79.88596493530682
 31
0.0
  0
LINE
  5
65B
330
1F
100
AcDbEntity
  8
0
  6
CONTINUOUS
 62
     7
100
AcDbLine
 10
735.8731571412382
 20
77.41091520664523
 30
0.0
 11
735.8519487299583
 21
77.41362273468472
 31
0.0
  0
LINE
  5
65C
330
1F
100
AcDbEntity
  8
0
  6
CONTINUOUS
 62
     7
100
AcDbLine
 10
735.4650981449663
 20
71.21895220111831
 30
0.0
 11
735.4731785759045
 21
71.23812157769189
 31
0.0
  0
LINE
  5
65D
330
1F
100
AcDbEntity
  8
0
  6
CONTINUOUS
 62
     7
100
AcDbLine
 10
735.4311293070069
 20
77.86875930578954
 30
0.0
 11
735.4301248529302
 21
77.88711929159614
 31
0.0
  0
LINE
  5
65E
330
1F
100
AcDbEntity
  8
0
  6
CONTINUOUS
 62
     7
100
AcDbLine
 10
735.7509002829917
 20
77.43981561571708
 30
0.0
 11
735.731015057886
 21
77.44777297395535
 31
0.0
  0
LINE
  5
65F
330
1F
100
AcDbEntity
  8
0
  6
CONTINUOUS
 62
     7
100
AcDbLine
 10
735.5262492505399
 20
79.72945051411546
 30
0.0
 11
735.5392806690354
 21
79.74642286554368
 31
0.0
  0
LINE
  5
660
330
1F
100
AcDbEntity
  8
0
  6
CONTINUOUS
 62
     7
100
AcDbLine
 10
735.4359887905258
 20
77.82670988060019
 30
0.0
 11
735.4331155295191
 21
77.84769281026021
 31
0.0
  0
LINE
  5
661
330
1F
100
AcDbEntity
  8
0
  6
CONTINUOUS
 62
     7
100
AcDbLine
 10
735.431505382137
 20
71.07542929171665
 30
0.0
 11
735.4336452161198
 21
71.09611903373327
 31
0.0
  0
LINE
  5
662
330
1F
100
AcDbEntity
  8
0
  6
CONTINUOUS
 62
     7
100
AcDbLine
 10
735.4366358408898
 20
71.11668507393892
 30
0.0
 11
735.4406019721328
 21
71.1376947019996
 31
0.0
  0
LINE
  5
663
330
1F
100
AcDbEntity
  8
0
  6
CONTINUOUS
 62
     7
100
AcDbLine
 10
735.4793081037261
 20
77.6880594791669
 30
0.0
 11
735.4705530407733
 21
77.70725351046201
 31
0.0
  0
LINE
  5
664
330
1F
100
AcDbEntity
  8
0
  6
CONTINUOUS
 62
     7
100
AcDbLine
 10
735.7182184188853
 20
79.88596493530682
 30
0.0
 11
735.7370249185409
 21
79.89413538731111
 31
0.0
  0
LINE
  5
665
330
1F
100
AcDbEntity
  8
0
  6
CONTINUOUS
 62
     7
100
AcDbLine
 10
735.5470516244623
 20
77.58353784090912
 30
0.0
 11
735.5341403028457
 21
77.5994896188748
 31
0.0
  0
LINE
  5
666
330
1F
100
AcDbEntity
  8
0
  6
CONTINUOUS
 62
     7
100
AcDbLine
 10
735.4628092921688
 20
77.72631481622705
 30
0.0
 11
735.4558533519157
 21
77.74569616000046
 31
0.0
  0
LINE
  5
667
330
1F
100
AcDbEntity
  8
0
  6
CONTINUOUS
 62
     7
100
AcDbLine
 10
735.8579999152489
 20
79.92663618510481
 30
0.0
 11
735.8784538424205
 21
79.92901269608495
 31
0.0
  0
LINE
  5
668
330
1F
100
AcDbEntity
  8
0
  6
CONTINUOUS
 62
     7
100
AcDbLine
 10
735.6065890237675
 20
77.52413948571058
 30
0.0
 11
735.5906300107772
 21
77.5381509827486
 31
0.0
  0
LINE
  5
669
330
1F
100
AcDbEntity
  8
0
  6
CONTINUOUS
 62
     7
100
AcDbLine
 10
736.0017375320163
 20
79.92551608983655
 30
0.0
 11
736.0198611456186
 21
79.92241380985773
 31
0.0
  0
LINE
  5
66A
330
1F
100
AcDbEntity
  8
0
  6
CONTINUOUS
 62
     7
100
AcDbLine
 10
735.4578311397365
 20
71.19947932500641
 30
0.0
 11
735.4650981449663
 21
71.21895220111831
 31
0.0
  0
LINE
  5
66B
330
1F
100
AcDbEntity
  8
0
  6
CONTINUOUS
 62
     7
100
AcDbLine
 10
735.4888788487242
 20
77.66923744724663
 30
0.0
 11
735.4793081037261
 21
77.6880594791669
 31
0.0
  0
LINE
  5
66C
330
1F
100
AcDbEntity
  8
0
  6
CONTINUOUS
 62
     7
100
AcDbLine
 10
735.5219001490553
 20
77.61596207894583
 30
0.0
 11
735.510363123994
 21
77.63291304903596
 31
0.0
  0
LINE
  5
66D
330
1F
100
AcDbEntity
  8
0
  6
CONTINUOUS
 62
     7
100
AcDbLine
 10
735.8376611875952
 20
79.92342010026101
 30
0.0
 11
735.8579999152489
 21
79.92663618510481
 31
0.0
  0
LINE
  5
66E
330
1F
100
AcDbEntity
  8
0
  6
CONTINUOUS
 62
     7
100
AcDbLine
 10
735.7370249185409
 20
79.89413538731111
 30
0.0
 11
735.7567115358178
 21
79.90171812265801
 31
0.0
  0
LINE
  5
66F
330
1F
100
AcDbEntity
  8
0
  6
CONTINUOUS
 62
     7
100
AcDbLine
 10
735.5525199722655
 20
79.76222154530382
 30
0.0
 11
735.5664191383437
 21
79.777467302513
 31
0.0
  0
LINE
  5
670
330
1F
100
AcDbEntity
  8
0
  6
CONTINUOUS
 62
     7
100
AcDbLine
 10
735.4497007482869
 20
77.76534739272071
 30
0.0
 11
735.4443670095543
 21
77.78521836532623
 31
0.0
  0
LINE
  5
671
330
1F
100
AcDbEntity
  8
0
  6
CONTINUOUS
 62
     7
100
AcDbLine
 10
735.4443670095543
 20
77.78521836532623
 30
0.0
 11
735.4397417354099
 21
77.80586642841902
 31
0.0
  0
LINE
  5
672
330
1F
100
AcDbEntity
  8
0
  6
CONTINUOUS
 62
     7
100
AcDbLine
 10
735.4297899545468
 20
71.03389082287143
 30
0.0
 11
735.4302193059449
 21
71.05466887804428
 31
0.0
  0
LINE
  5
673
330
1F
100
AcDbEntity
  8
0
  6
CONTINUOUS
 62
     7
100
AcDbLine
 10
735.7909798793876
 20
77.42669303496561
 30
0.0
 11
735.7710916629944
 21
77.43273096449296
 31
0.0
  0
LINE
  5
674
330
1F
100
AcDbEntity
  8
0
  6
CONTINUOUS
 62
     7
100
AcDbLine
 10
735.731015057886
 20
77.44777297395535
 30
0.0
 11
735.7114915138408
 21
77.45658035785283
 31
0.0
  0
LINE
  5
675
330
1F
100
AcDbEntity
  8
0
  6
CONTINUOUS
 62
     7
100
AcDbLine
 10
735.7767211525642
 20
79.90846226133458
 30
0.0
 11
735.7969988787593
 21
79.91435169950509
 31
0.0
  0
LINE
  5
676
330
1F
100
AcDbEntity
  8
0
  6
CONTINUOUS
 62
     7
100
AcDbLine
 10
735.8519487299583
 20
77.41362273468472
 30
0.0
 11
735.8314616784727
 21
77.41712751197402
 31
0.0
  0
LINE
  5
677
330
1F
100
AcDbEntity
  8
0
  6
CONTINUOUS
 62
     7
100
AcDbLine
 10
735.4406019721328
 20
71.1376947019996
 30
0.0
 11
735.4454652960102
 21
71.15853503108744
 31
0.0
  0
LINE
  5
678
330
1F
100
AcDbEntity
  8
0
  6
CONTINUOUS
 62
     7
100
AcDbLine
 10
735.983512943601
 20
79.92795605933075
 30
0.0
 11
736.0017375320163
 21
79.92551608983655
 31
0.0
  0
LINE
  5
679
330
1F
100
AcDbEntity
  8
0
  6
CONTINUOUS
 62
     7
100
AcDbLine
 10
735.4301248529302
 20
77.88711929159614
 30
0.0
 11
735.4297899545468
 21
77.90550369490614
 31
0.0
  0
LINE
  5
67A
330
1F
100
AcDbEntity
  8
0
  6
CONTINUOUS
 62
     7
100
AcDbLine
 10
735.4731785759045
 20
79.63812157769188
 30
0.0
 11
735.48205128245
 21
79.65693725681854
 31
0.0
  0
LINE
  5
67B
330
1F
100
AcDbEntity
  8
0
  6
CONTINUOUS
 62
     7
100
AcDbLine
 10
735.6640217410436
 20
79.85686708066251
 30
0.0
 11
735.6816694326589
 21
79.86730725151841
 31
0.0
  0
LINE
  5
67C
330
1F
100
AcDbEntity
  8
0
  6
CONTINUOUS
 62
     7
100
AcDbLine
 10
735.5960495114039
 20
79.80614287347976
 30
0.0
 11
735.6122015656279
 21
79.81990168948859
 31
0.0
  0
LINE
  5
67D
330
1F
100
AcDbEntity
  8
0
  6
CONTINUOUS
 62
     7
100
AcDbLine
 10
735.502423829212
 20
79.69386328595385
 30
0.0
 11
735.5139527559118
 21
79.71191388235732
 31
0.0
  0
LINE
  5
67E
330
1F
100
AcDbEntity
  8
0
  6
CONTINUOUS
 62
     7
100
AcDbLine
 10
735.5752866334977
 20
77.55283408350411
 30
0.0
 11
735.560602153003
 21
77.56814891713495
 31
0.0
  0
LINE
  5
67F
330
1F
100
AcDbEntity
  8
0
  6
CONTINUOUS
 62
     7
100
AcDbLine
 10
735.5906300107772
 20
77.5381509827486
 30
0.0
 11
735.5752866334977
 21
77.55283408350411
 31
0.0
  0
LINE
  5
680
330
1F
100
AcDbEntity
  8
0
  6
CONTINUOUS
 62
     7
100
AcDbLine
 10
735.8989708041878
 20
79.93054374142125
 30
0.0
 11
735.9201189360397
 21
79.93123375532002
 31
0.0
  0
LINE
  5
681
330
1F
100
AcDbEntity
  8
0
  6
CONTINUOUS
 62
     7
100
AcDbLine
 10
735.9201189360397
 20
79.93123375532002
 30
0.0
 11
735.9412962015509
 21
79.93103033571917
 31
0.0
  0
LINE
  5
682
330
1F
100
AcDbEntity
  8
0
  6
CONTINUOUS
 62
     7
100
AcDbLine
 10
735.6397155715268
 20
77.49861400866341
 30
0.0
 11
735.6231204113952
 21
77.51083946323212
 31
0.0
  0
LINE
  5
683
330
1F
100
AcDbEntity
  8
0
  6
CONTINUOUS
 62
     7
100
AcDbLine
 10
735.6816694326589
 20
79.86730725151841
 30
0.0
 11
735.6997507910987
 21
79.8770143798879
 31
0.0
  0
LINE
  5
684
330
1F
100
AcDbEntity
  8
0
  6
CONTINUOUS
 62
     7
100
AcDbLine
 10
735.7567115358178
 20
79.90171812265801
 30
0.0
 11
735.7767211525642
 21
79.90846226133458
 31
0.0
  0
LINE
  5
685
330
1F
100
AcDbEntity
  8
0
  6
CONTINUOUS
 62
     7
100
AcDbLine
 10
735.5664191383437
 20
79.777467302513
 30
0.0
 11
735.5809412803599
 21
79.79212084322154
 31
0.0
  0
LINE
  5
686
330
1F
100
AcDbEntity
  8
0
  6
CONTINUOUS
 62
     7
100
AcDbLine
 10
735.4992392105521
 20
77.65083833157755
 30
0.0
 11
735.4888788487242
 21
77.66923744724663
 31
0.0
  0
LINE
  5
687
330
1F
100
AcDbEntity
  8
0
  6
CONTINUOUS
 62
     7
100
AcDbLine
 10
735.5139527559118
 20
79.71191388235732
 30
0.0
 11
735.5262492505399
 21
79.72945051411546
 31
0.0
  0
LINE
  5
688
330
1F
100
AcDbEntity
  8
0
  6
CONTINUOUS
 62
     7
100
AcDbLine
 10
735.5809412803599
 20
71.39212084322155
 30
0.0
 11
735.5960495114039
 21
71.40614287347977
 31
0.0
  0
LINE
  5
689
330
1F
100
AcDbEntity
  8
0
  6
CONTINUOUS
 62
     7
100
AcDbLine
 10
735.8174898243823
 20
71.51937033333378
 30
0.0
 11
735.8376611875952
 21
71.52342010026102
 31
0.0
  0
LINE
  5
68A
330
1F
100
AcDbEntity
  8
0
  6
CONTINUOUS
 62
     7
100
AcDbLine
 10
735.7767211525642
 20
71.50846226133459
 30
0.0
 11
735.7969988787593
 21
71.5143516995051
 31
0.0
  0
LINE
  5
68B
330
1F
100
AcDbEntity
  8
0
  6
CONTINUOUS
 62
     7
100
AcDbLine
 10
735.5664191383437
 20
71.37746730251301
 30
0.0
 11
735.5809412803599
 21
71.39212084322155
 31
0.0
  0
LINE
  5
68C
330
1F
100
AcDbEntity
  8
0
  6
CONTINUOUS
 62
     7
100
AcDbLine
 10
735.9201189360397
 20
71.53123375532002
 30
0.0
 11
735.9412962015509
 21
71.53103033571918
 31
0.0
  0
LINE
  5
68D
330
1F
100
AcDbEntity
  8
0
  6
CONTINUOUS
 62
     7
100
AcDbLine
 10
735.4297899545468
 20
66.95550369490616
 30
0.0
 11
735.4297899545468
 21
71.03389082287144
 31
0.0
  0
LINE
  5
68E
330
1F
100
AcDbEntity
  8
0
  6
CONTINUOUS
 62
     7
100
AcDbLine
 10
735.6462349261266
 20
71.4452988571172
 30
0.0
 11
735.6640217410436
 21
71.45686708066252
 31
0.0
  0
LINE
  5
68F
330
1F
100
AcDbEntity
  8
0
  6
CONTINUOUS
 62
     7
100
AcDbLine
 10
735.5525199722655
 20
71.36222154530383
 30
0.0
 11
735.5664191383437
 21
71.37746730251301
 31
0.0
  0
LINE
  5
690
330
1F
100
AcDbEntity
  8
0
  6
CONTINUOUS
 62
     7
100
AcDbLine
 10
735.7182184188853
 20
71.48596493530682
 30
0.0
 11
735.7370249185409
 21
71.49413538731112
 31
0.0
  0
LINE
  5
691
330
1F
100
AcDbEntity
  8
0
  6
CONTINUOUS
 62
     7
100
AcDbLine
 10
735.4336452161198
 20
71.09611903373327
 30
0.0
 11
735.4366358408898
 21
71.11668507393892
 31
0.0
  0
LINE
  5
692
330
1F
100
AcDbEntity
  8
0
  6
CONTINUOUS
 62
     7
100
AcDbLine
 10
735.502423829212
 20
71.29386328595388
 30
0.0
 11
735.5139527559118
 21
71.31191388235733
 31
0.0
  0
LINE
  5
693
330
1F
100
AcDbEntity
  8
0
  6
CONTINUOUS
 62
     7
100
AcDbLine
 10
736.0017375320163
 20
71.52551608983657
 30
0.0
 11
736.0198611456186
 21
71.52241380985774
 31
0.0
  0
LINE
  5
694
330
1F
100
AcDbEntity
  8
0
  6
CONTINUOUS
 62
     7
100
AcDbLine
 10
735.6122015656279
 20
71.4199016894886
 30
0.0
 11
735.6289457857616
 21
71.43296537204682
 31
0.0
  0
LINE
  5
695
330
1F
100
AcDbEntity
  8
0
  6
CONTINUOUS
 62
     7
100
AcDbLine
 10
735.48205128245
 20
71.25693725681855
 30
0.0
 11
735.4916951145011
 21
71.2753490405897
 31
0.0
  0
LINE
  5
696
330
1F
100
AcDbEntity
  8
0
  6
CONTINUOUS
 62
     7
100
AcDbLine
 10
735.8989708041878
 20
71.53054374142125
 30
0.0
 11
735.9201189360397
 21
71.53123375532002
 31
0.0
  0
LINE
  5
697
330
1F
100
AcDbEntity
  8
0
  6
CONTINUOUS
 62
     7
100
AcDbLine
 10
735.962446303234
 20
71.52993669844676
 30
0.0
 11
735.983512943601
 21
71.52795605933076
 31
0.0
  0
LINE
  5
698
330
1F
100
AcDbEntity
  8
0
  6
CONTINUOUS
 62
     7
100
AcDbLine
 10
735.9787324248895
 20
66.4609130767353
 30
0.0
 11
735.9580068634199
 21
66.45915365841634
 31
0.0
  0
LINE
  5
699
330
1F
100
AcDbEntity
  8
0
  6
CONTINUOUS
 62
     7
100
AcDbLine
 10
735.9412962015509
 20
71.53103033571918
 30
0.0
 11
735.962446303234
 21
71.52993669844676
 31
0.0
  0
LINE
  5
69A
330
1F
100
AcDbEntity
  8
0
  6
CONTINUOUS
 62
     7
100
AcDbLine
 10
735.6997507910987
 20
71.4770143798879
 30
0.0
 11
735.7182184188853
 21
71.48596493530682
 31
0.0
  0
LINE
  5
69B
330
1F
100
AcDbEntity
  8
0
  6
CONTINUOUS
 62
     7
100
AcDbLine
 10
735.4558533519157
 20
77.74569616000046
 30
0.0
 11
735.4497007482869
 21
77.76534739272071
 31
0.0
  0
LINE
  5
69C
330
1F
100
AcDbEntity
  8
0
  6
CONTINUOUS
 62
     7
100
AcDbLine
 10
735.6816694326589
 20
71.46730725151842
 30
0.0
 11
735.6997507910987
 21
71.4770143798879
 31
0.0
  0
LINE
  5
69D
330
1F
100
AcDbEntity
  8
0
  6
CONTINUOUS
 62
     7
100
AcDbLine
 10
735.4454652960102
 20
71.15853503108744
 30
0.0
 11
735.4512127170391
 21
71.17914894436788
 31
0.0
  0
LINE
  5
69E
330
1F
100
AcDbEntity
  8
0
  6
CONTINUOUS
 62
     7
100
AcDbLine
 10
736.0198611456186
 20
66.46698070791984
 30
0.0
 11
735.99936806869
 21
66.4635244227532
 31
0.0
  0
LINE
  5
69F
330
1F
100
AcDbEntity
  8
0
  6
CONTINUOUS
 62
     7
100
AcDbLine
 10
735.8944815341728
 20
66.45911630081707
 30
0.0
 11
735.8731571412382
 21
66.46091520664523
 31
0.0
  0
LINE
  5
6A0
330
1F
100
AcDbEntity
  8
0
  6
CONTINUOUS
 62
     7
100
AcDbLine
 10
735.7567115358178
 20
71.50171812265802
 30
0.0
 11
735.7767211525642
 21
71.50846226133459
 31
0.0
  0
LINE
  5
6A1
330
1F
100
AcDbEntity
  8
0
  6
CONTINUOUS
 62
     7
100
AcDbLine
 10
735.937244033484
 20
66.45825315634664
 30
0.0
 11
735.9158633508818
 21
66.45822821733823
 31
0.0
  0
LINE
  5
6A2
330
1F
100
AcDbEntity
  8
0
  6
CONTINUOUS
 62
     7
100
AcDbLine
 10
735.8579999152489
 20
71.5266361851048
 30
0.0
 11
735.8784538424205
 21
71.52901269608496
 31
0.0
  0
LINE
  5
6A3
330
1F
100
AcDbEntity
  8
0
  6
CONTINUOUS
 62
     7
100
AcDbLine
 10
735.5139527559118
 20
71.31191388235733
 30
0.0
 11
735.5262492505399
 21
71.32945051411548
 31
0.0
  0
LINE
  5
6A4
330
1F
100
AcDbEntity
  8
0
  6
CONTINUOUS
 62
     7
100
AcDbLine
 10
735.9580068634199
 20
66.45915365841634
 30
0.0
 11
735.937244033484
 21
66.45825315634664
 31
0.0
  0
LINE
  5
6A5
330
1F
100
AcDbEntity
  8
0
  6
CONTINUOUS
 62
     7
100
AcDbLine
 10
735.8784538424205
 20
71.52901269608496
 30
0.0
 11
735.8989708041878
 21
71.53054374142125
 31
0.0
  0
LINE
  5
6A6
330
1F
100
AcDbEntity
  8
0
  6
CONTINUOUS
 62
     7
100
AcDbLine
 10
735.4731785759045
 20
71.23812157769189
 30
0.0
 11
735.48205128245
 21
71.25693725681855
 31
0.0
  0
LINE
  5
6A7
330
1F
100
AcDbEntity
  8
0
  6
CONTINUOUS
 62
     7
100
AcDbLine
 10
735.5960495114039
 20
71.40614287347977
 30
0.0
 11
735.6122015656279
 21
71.4199016894886
 31
0.0
  0
LINE
  5
6A8
330
1F
100
AcDbEntity
  8
0
  6
CONTINUOUS
 62
     7
100
AcDbLine
 10
735.5392806690354
 20
71.34642286554369
 30
0.0
 11
735.5525199722655
 21
71.36222154530383
 31
0.0
  0
LINE
  5
6A9
330
1F
100
AcDbEntity
  8
0
  6
CONTINUOUS
 62
     7
100
AcDbLine
 10
735.4302193059449
 20
71.05466887804428
 30
0.0
 11
735.431505382137
 21
71.07542929171665
 31
0.0
  0
LINE
  5
6AA
330
1F
100
AcDbEntity
  8
0
  6
CONTINUOUS
 62
     7
100
AcDbLine
 10
735.5262492505399
 20
71.32945051411548
 30
0.0
 11
735.5392806690354
 21
71.34642286554369
 31
0.0
  0
LINE
  5
6AB
330
1F
100
AcDbEntity
  8
0
  6
CONTINUOUS
 62
     7
100
AcDbLine
 10
735.4397417354099
 20
77.80586642841902
 30
0.0
 11
735.4359887905258
 21
77.82670988060019
 31
0.0
  0
LINE
  5
6AC
330
1F
100
AcDbEntity
  8
0
  6
CONTINUOUS
 62
     7
100
AcDbLine
 10
735.6640217410436
 20
71.45686708066252
 30
0.0
 11
735.6816694326589
 21
71.46730725151842
 31
0.0
  0
LINE
  5
6AD
330
1F
100
AcDbEntity
  8
0
  6
CONTINUOUS
 62
     7
100
AcDbLine
 10
735.8376611875952
 20
71.52342010026102
 30
0.0
 11
735.8579999152489
 21
71.5266361851048
 31
0.0
  0
LINE
  5
6AE
330
1F
100
AcDbEntity
  8
0
  6
CONTINUOUS
 62
     7
100
AcDbLine
 10
735.99936806869
 20
66.4635244227532
 30
0.0
 11
735.9787324248895
 21
66.4609130767353
 31
0.0
  0
LINE
  5
6AF
330
1F
100
AcDbEntity
  8
0
  6
CONTINUOUS
 62
     7
100
AcDbLine
 10
735.9158633508818
 20
66.45822821733823
 30
0.0
 11
735.8944815341728
 21
66.45911630081707
 31
0.0
  0
LINE
  5
6B0
330
1F
100
AcDbEntity
  8
0
  6
CONTINUOUS
 62
     7
100
AcDbLine
 10
735.983512943601
 20
71.52795605933076
 30
0.0
 11
736.0017375320163
 21
71.52551608983657
 31
0.0
  0
LINE
  5
6B1
330
1F
100
AcDbEntity
  8
0
  6
CONTINUOUS
 62
     7
100
AcDbLine
 10
735.6289457857616
 20
71.43296537204682
 30
0.0
 11
735.6462349261266
 21
71.4452988571172
 31
0.0
  0
LINE
  5
6B2
330
1F
100
AcDbEntity
  8
0
  6
CONTINUOUS
 62
     7
100
AcDbLine
 10
735.7370249185409
 20
71.49413538731112
 30
0.0
 11
735.7567115358178
 21
71.50171812265802
 31
0.0
  0
LINE
  5
6B3
330
1F
100
AcDbEntity
  8
0
  6
CONTINUOUS
 62
     7
100
AcDbLine
 10
735.7969988787593
 20
71.5143516995051
 30
0.0
 11
735.8174898243823
 21
71.51937033333378
 31
0.0
  0
LINE
  5
6B4
330
1F
100
AcDbEntity
  8
0
  6
CONTINUOUS
 62
     7
100
AcDbLine
 10
735.4916951145011
 20
71.2753490405897
 30
0.0
 11
735.502423829212
 21
71.29386328595388
 31
0.0
  0
LWPOLYLINE
  5
6B5
330
1F
100
AcDbEntity
  8
0
  6
CONTINUOUS
 62
     7
100
AcDbPolyline
 90
        5
 70
     0
 43
0.0
 10
826.286912507292
 20
145.326953075835
 10
826.4112690152564
 20
145.4784827438356
 10
826.503673874191
 20
145.6513629345004
 10
826.5605763603859
 20
145.8389506011422
 10
826.5797899545468
 20
146.0340375516443
  0
LWPOLYLINE
  5
6B6
330
1F
100
AcDbEntity
  8
0
  6
CONTINUOUS
 62
     7
100
AcDbPolyline
 90
        5
 70
     0
 43
0.0
 10
629.3726674018016
 20
281.9123462532274
 10
629.2483108938371
 20
281.7608165852268
 10
629.1559060349025
 20
281.587936394562
 10
629.0990035487077
 20
281.4003487279202
 10
629.0797899545468
 20
281.2052617774181
  0
LWPOLYLINE
  5
6B7
330
1F
100
AcDbEntity
  8
0
  6
CONTINUOUS
 62
     7
100
AcDbPolyline
 90
        5
 70
     0
 43
0.0
 10
650.4941302473022
 20
322.1196972588887
 10
650.2990432968002
 20
322.1004836647277
 10
650.1114556301584
 20
322.043581178533
 10
649.9385754394935
 20
321.9511763195982
 10
649.7870457714929
 20
321.8268198116339
  0
LWPOLYLINE
  5
6B8
330
1F
100
AcDbEntity
  8
0
  6
CONTINUOUS
 62
     7
100
AcDbPolyline
 90
        9
 70
     0
 43
0.0
 10
695.5797899545468
 20
-1.880340818047022
 10
695.5990035487077
 20
-2.07542776854913
 10
695.6559060349025
 20
-2.263015435190897
 10
695.7483108938371
 20
-2.435895625855738
 10
695.8726674018017
 20
-2.587425293856349
 10
696.0241970698022
 20
-2.711781801820754
 10
696.197077260467
 20
-2.8041866607555
 10
696.3846649271088
 20
-2.861089146950274
 10
696.5797518776109
 20
-2.880302741111214
  0
LWPOLYLINE
  5
6B9
330
1F
100
AcDbEntity
  8
0
  6
CONTINUOUS
 62
     7
100
AcDbPolyline
 90
        5
 70
     0
 43
0.0
 10
634.787140960208
 20
263.9125747061436
 10
634.9386706282087
 20
263.7882181981793
 10
635.1115508188735
 20
263.6958133392445
 10
635.2991384855153
 20
263.6389108530497
 10
635.4942254360174
 20
263.6196972588888
  0
LWPOLYLINE
  5
6BA
330
1F
100
AcDbEntity
  8
0
  6
CONTINUOUS
 62
     7
100
AcDbPolyline
 90
        5
 70
     0
 43
0.0
 10
635.4942254360174
 20
287.6196972588887
 10
635.2991384855153
 20
287.6004836647278
 10
635.1115508188735
 20
287.543581178533
 10
634.9386706282088
 20
287.4511763195983
 10
634.7871409602081
 20
287.3268198116339
  0
LWPOLYLINE
  5
6BB
330
1F
100
AcDbEntity
  8
0
  6
CONTINUOUS
 62
     7
100
AcDbPolyline
 90
        5
 70
     0
 43
0.0
 10
629.0797899545468
 20
183.0341327403594
 10
629.0990035487077
 20
182.8390457898573
 10
629.1559060349025
 20
182.6514581232155
 10
629.2483108938371
 20
182.4785779325507
 10
629.3726674018017
 20
182.3270482645501
  0
LWPOLYLINE
  5
6BC
330
1F
100
AcDbEntity
  8
0
  6
CONTINUOUS
 62
     7
100
AcDbPolyline
 90
        5
 70
     0
 43
0.0
 10
635.4942254360174
 20
200.6196972588887
 10
635.2991384855153
 20
200.6004836647278
 10
635.1115508188735
 20
200.543581178533
 10
634.9386706282087
 20
200.4511763195983
 10
634.787140960208
 20
200.3268198116339
  0
LWPOLYLINE
  5
6BD
330
1F
100
AcDbEntity
  8
0
  6
CONTINUOUS
 62
     7
100
AcDbPolyline
 90
        9
 70
     0
 43
0.0
 10
649.7797899545467
 20
188.9594131555864
 10
649.7509678751516
 20
189.1622800238443
 10
649.6656092533136
 20
189.3130237061849
 10
649.5269943730005
 20
189.4058512074336
 10
649.3404501263265
 20
189.4371952187758
 10
649.113145304076
 20
189.4058512074336
 10
648.8538151030943
 20
189.3130237061849
 10
648.5724254375709
 20
189.1622800238443
 10
648.2797899545467
 20
188.9594131555864
  0
LWPOLYLINE
  5
6BE
330
1F
100
AcDbEntity
  8
0
  6
CONTINUOUS
 62
     7
100
AcDbPolyline
 90
        9
 70
     0
 43
0.0
 10
776.5798280314826
 20
-2.880302741111199
 10
776.7749149819847
 20
-2.861089146950263
 10
776.9625026486265
 20
-2.804186660755491
 10
777.1353828392913
 20
-2.711781801820747
 10
777.2869125072918
 20
-2.587425293856346
 10
777.4112690152564
 20
-2.435895625855737
 10
777.503673874191
 20
-2.263015435190898
 10
777.5605763603858
 20
-2.075427768549134
 10
777.5797899545468
 20
-1.880340818047024
  0
LWPOLYLINE
  5
6BF
330
1F
100
AcDbEntity
  8
0
  6
CONTINUOUS
 62
     7
100
AcDbPolyline
 90
        9
 70
     0
 43
0.0
 10
646.5797899545468
 20
175.6197353358245
 10
646.5605763603858
 20
175.8148222863267
 10
646.503673874191
 20
176.0024099529684
 10
646.4112690152564
 20
176.1752901436332
 10
646.2869125072918
 20
176.3268198116339
 10
646.1353828392913
 20
176.4511763195983
 10
645.9625026486265
 20
176.543581178533
 10
645.7749149819847
 20
176.6004836647278
 10
645.5798280314826
 20
176.6196972588887
  0
LWPOLYLINE
  5
6C0
330
1F
100
AcDbEntity
  8
0
  6
CONTINUOUS
 62
     7
100
AcDbPolyline
 90
        5
 70
     0
 43
0.0
 10
634.7871409602081
 20
176.9125747061436
 10
634.9386706282087
 20
176.7882181981792
 10
635.1115508188735
 20
176.6958133392445
 10
635.2991384855153
 20
176.6389108530497
 10
635.4942254360174
 20
176.6196972588887
  0
LWPOLYLINE
  5
6C1
330
1F
100
AcDbEntity
  8
0
  6
CONTINUOUS
 62
     7
100
AcDbPolyline
 90
        5
 70
     0
 43
0.0
 10
822.6654496617912
 20
142.1196972588887
 10
822.8605366122932
 20
142.1389108530497
 10
823.048124278935
 20
142.1958133392445
 10
823.2210044695998
 20
142.2882181981792
 10
823.3725341376004
 20
142.4125747061436
  0
LWPOLYLINE
  5
6C2
330
1F
100
AcDbEntity
  8
0
  6
CONTINUOUS
 62
     7
100
AcDbPolyline
 90
        5
 70
     0
 43
0.0
 10
629.3726674018016
 20
194.9123462532274
 10
629.2483108938371
 20
194.7608165852268
 10
629.1559060349025
 20
194.587936394562
 10
629.0990035487076
 20
194.4003487279202
 10
629.0797899545468
 20
194.2052617774181
  0
LWPOLYLINE
  5
6C3
330
1F
100
AcDbEntity
  8
0
  6
CONTINUOUS
 62
     7
100
AcDbPolyline
 90
        5
 70
     0
 43
0.0
 10
646.5797899545469
 20
146.0340375516443
 10
646.5990035487077
 20
145.8389506011422
 10
646.6559060349025
 20
145.6513629345004
 10
646.7483108938372
 20
145.4784827438355
 10
646.8726674018017
 20
145.326953075835
  0
LWPOLYLINE
  5
6C4
330
1F
100
AcDbEntity
  8
0
  6
CONTINUOUS
 62
     7
100
AcDbPolyline
 90
        9
 70
     0
 43
0.0
 10
645.5798280314826
 20
200.6196972588888
 10
645.7749149819847
 20
200.6389108530497
 10
645.9625026486265
 20
200.6958133392445
 10
646.1353828392913
 20
200.7882181981792
 10
646.2869125072918
 20
200.9125747061436
 10
646.4112690152564
 20
201.0641043741443
 10
646.503673874191
 20
201.2369845648091
 10
646.5605763603858
 20
201.4245722314508
 10
646.5797899545468
 20
201.619659181953
  0
LWPOLYLINE
  5
6C5
330
1F
100
AcDbEntity
  8
0
  6
CONTINUOUS
 62
     7
100
AcDbPolyline
 90
        9
 70
     0
 43
0.0
 10
646.5797899545468
 20
262.6197353358245
 10
646.5605763603858
 20
262.8148222863266
 10
646.503673874191
 20
263.0024099529684
 10
646.4112690152563
 20
263.1752901436332
 10
646.2869125072918
 20
263.3268198116339
 10
646.1353828392912
 20
263.4511763195982
 10
645.9625026486265
 20
263.543581178533
 10
645.7749149819847
 20
263.6004836647277
 10
645.5798280314826
 20
263.6196972588887
  0
LWPOLYLINE
  5
6C6
330
1F
100
AcDbEntity
  8
0
  6
CONTINUOUS
 62
     7
100
AcDbPolyline
 90
        9
 70
     0
 43
0.0
 10
648.2797899545467
 20
188.2799813621911
 10
648.5724254375709
 20
188.0771144939332
 10
648.8538151030943
 20
187.9263708115927
 10
649.113145304076
 20
187.8335433103439
 10
649.3404501263265
 20
187.8021992990017
 10
649.5269943730005
 20
187.8335433103439
 10
649.6656092533136
 20
187.9263708115926
 10
649.7509678751516
 20
188.0771144939332
 10
649.7797899545467
 20
188.2799813621911
  0
LWPOLYLINE
  5
6C7
330
1F
100
AcDbEntity
  8
0
  6
CONTINUOUS
 62
     7
100
AcDbPolyline
 90
        5
 70
     0
 43
0.0
 10
826.5797899545468
 20
318.2053569661331
 10
826.5605763603858
 20
318.4004439166352
 10
826.503673874191
 20
318.588031583277
 10
826.4112690152564
 20
318.7609117739418
 10
826.286912507292
 20
318.9124414419424
  0
LWPOLYLINE
  5
6C8
330
1F
100
AcDbEntity
  8
0
  6
CONTINUOUS
 62
     7
100
AcDbPolyline
 90
        9
 70
     0
 43
0.0
 10
645.5798280314826
 20
287.6196972588888
 10
645.7749149819847
 20
287.6389108530498
 10
645.9625026486265
 20
287.6958133392445
 10
646.1353828392912
 20
287.7882181981793
 10
646.2869125072918
 20
287.9125747061436
 10
646.4112690152563
 20
288.0641043741442
 10
646.503673874191
 20
288.2369845648091
 10
646.5605763603858
 20
288.4245722314508
 10
646.5797899545468
 20
288.619659181953
  0
LWPOLYLINE
  5
6C9
330
1F
100
AcDbEntity
  8
0
  6
CONTINUOUS
 62
     7
100
AcDbPolyline
 90
        5
 70
     0
 43
0.0
 10
823.3725341376005
 20
321.8268198116339
 10
823.2210044695998
 20
321.9511763195982
 10
823.048124278935
 20
322.043581178533
 10
822.8605366122932
 20
322.1004836647278
 10
822.6654496617912
 20
322.1196972588888
  0
LWPOLYLINE
  5
6CA
330
1F
100
AcDbEntity
  8
0
  6
CONTINUOUS
 62
     7
100
AcDbPolyline
 90
        5
 70
     0
 43
0.0
 10
629.0797899545468
 20
270.0341327403594
 10
629.0990035487077
 20
269.8390457898573
 10
629.1559060349025
 20
269.6514581232155
 10
629.2483108938372
 20
269.4785779325507
 10
629.3726674018017
 20
269.3270482645501
  0
LWPOLYLINE
  5
6CB
330
1F
100
AcDbEntity
  8
0
  6
CONTINUOUS
 62
     7
100
AcDbPolyline
 90
        5
 70
     0
 43
0.0
 10
649.7870457714929
 20
142.4125747061436
 10
649.9385754394935
 20
142.2882181981792
 10
650.1114556301584
 20
142.1958133392445
 10
650.2990432968002
 20
142.1389108530497
 10
650.4941302473022
 20
142.1196972588887
  0
LWPOLYLINE
  5
6CC
330
1F
100
AcDbEntity
  8
0
  6
CONTINUOUS
 62
     7
100
AcDbPolyline
 90
        5
 70
     0
 43
0.0
 10
646.8726674018018
 20
318.9124414419424
 10
646.7483108938374
 20
318.7609117739418
 10
646.6559060349026
 20
318.588031583277
 10
646.5990035487079
 20
318.4004439166352
 10
646.5797899545469
 20
318.2053569661331
  0
ENDSEC
  0
SECTION
  2
OBJECTS
  0
DICTIONARY
  5
C
330
0
100
AcDbDictionary
  3
ACAD_GROUP
350
D
  3
ACAD_LAYOUT
350
1A
  3
ACAD_MATERIAL
350
43
  3
ACAD_MLEADERSTYLE
350
6B
  3
ACAD_MLINESTYLE
350
17
  3
ACAD_PLOTSETTINGS
350
19
  3
ACAD_SCALELIST
350
47
  3
ACAD_VISUALSTYLE
350
2A
  3
ACDBHEADERROUNDTRIPXREC
350
6CD
  3
ACDBVARIABLEDICTIONARY
350
6EE
  0
DICTIONARY
  5
6F5
330
8
100
AcDbDictionary
280
     1
  3
ACAD_XREC_ROUNDTRIP
360
6F6
  0
DICTIONARY
  5
D
102
{ACAD_REACTORS
330
C
102
}
330
C
100
AcDbDictionary
  0
DICTIONARY
  5
1A
102
{ACAD_REACTORS
330
C
102
}
330
C
100
AcDbDictionary
  0
DICTIONARY
  5
43
102
{ACAD_REACTORS
330
C
102
}
330
C
100
AcDbDictionary
  3
BYBLOCK
350
45
  3
BYLAYER
350
44
  3
GLOBAL
350
46
  0
DICTIONARY
  5
6B
102
{ACAD_REACTORS
330
C
102
}
330
C
100
AcDbDictionary
  3
STANDARD
350
6C
  0
DICTIONARY
  5
17
102
{ACAD_REACTORS
330
C
102
}
330
C
100
AcDbDictionary
  3
STANDARD
350
18
  0
DICTIONARY
  5
19
102
{ACAD_REACTORS
330
C
102
}
330
C
100
AcDbDictionary
  0
DICTIONARY
  5
47
102
{ACAD_REACTORS
330
C
102
}
330
C
100
AcDbDictionary
  3
A0
350
48
  3
A1
350
49
  3
A2
350
4A
  3
A3
350
4B
  3
A4
350
4C
  3
A5
350
4D
  3
A6
350
4E
  3
A7
350
4F
  3
A8
350
50
  3
A9
350
51
  3
B0
350
52
  3
B1
350
53
  3
B2
350
54
  3
B3
350
55
  3
B4
350
56
  3
B5
350
57
  3
B6
350
58
  3
B7
350
59
  3
B8
350
5A
  3
B9
350
5B
  3
C0
350
5C
  3
C1
350
5D
  3
C2
350
5E
  3
C3
350
5F
  3
C4
350
60
  3
C5
350
61
  3
C6
350
62
  3
C7
350
63
  3
C8
350
64
  3
C9
350
65
  3
D0
350
66
  3
D1
350
67
  3
D2
350
68
  0
DICTIONARY
  5
2A
102
{ACAD_REACTORS
330
C
102
}
330
C
100
AcDbDictionary
  3
2DWIREFRAME
350
2F
  3
BASIC
350
32
  3
BRIGHTEN
350
36
  3
COLORCHANGE
350
3A
  3
CONCEPTUAL
350
34
  3
DIM
350
35
  3
EDGECOLOROFF
350
3D
  3
FACEPATTERN
350
39
  3
FLAT
350
2B
  3
FLATWITHEDGES
350
2C
  3
GOURAUD
350
2D
  3
GOURAUDWITHEDGES
350
2E
  3
HIDDEN
350
31
  3
JITTEROFF
350
3B
  3
LINEPATTERN
350
38
  3
OVERHANGOFF
350
3C
  3
REALISTIC
350
33
  3
SHADED
350
42
  3
SHADED_WITH_EDGES
350
41
  3
SHADES_OF_GRAY
350
3E
  3
SKETCHY
350
3F
  3
THICKEN
350
37
  3
WIREFRAME
350
30
  3
X-RAY
350
40
  0
DICTIONARY
  5
6CD
102
{ACAD_REACTORS
330
C
102
}
330
C
100
AcDbDictionary
  3
CEPSNID
350
6D7
  3
CEPSNTYPE
350
6D6
  3
DIMSTYLEDATA
350
6ED
  3
FINGERPRINTGUID
350
6D8
  3
HYPERLINKBASE
350
6D0
  3
INSUNITS
350
6D5
  3
LAYOUTDICT
350
6D2
  3
LWETCUNION
350
6D4
  3
PLOTSETDICT
350
6D3
  3
PSVPSCALE
350
6DA
  3
PUCSBASE
350
6DD
  3
PUCSORGBACK
350
6E3
  3
PUCSORGBOTTOM
350
6DF
  3
PUCSORGFRONT
350
6E2
  3
PUCSORGLEFT
350
6E0
  3
PUCSORGRIGHT
350
6E1
  3
PUCSORGTOP
350
6DE
  3
PUCSORTHOREF
350
6DB
  3
PUCSORTHOVIEW
350
6DC
  3
STYLESHEET
350
6D1
  3
TSTACKALIGN
350
6CE
  3
TSTACKSIZE
350
6CF
  3
UCSBASE
350
6E6
  3
UCSORGBACK
350
6EC
  3
UCSORGBOTTOM
350
6E8
  3
UCSORGFRONT
350
6EB
  3
UCSORGLEFT
350
6E9
  3
UCSORGRIGHT
350
6EA
  3
UCSORGTOP
350
6E7
  3
UCSORTHOREF
350
6E4
  3
UCSORTHOVIEW
350
6E5
  3
VERSIONGUID
350
6D9
  0
DICTIONARY
  5
6EE
102
{ACAD_REACTORS
330
C
102
}
330
C
100
AcDbDictionary
  3
CANNOSCALE
350
6F7
  3
CMLEADERSTYLE
350
6F0
  3
CTABLESTYLE
350
6EF
  3
DIMASSOC
350
6F3
  3
HIDETEXT
350
6F4
  3
MSLTSCALE
350
6F8
  0
XRECORD
  5
6F6
102
{ACAD_REACTORS
330
6F5
102
}
330
6F5
100
AcDbXrecord
102
VTR_0.000_0.000_1.000_1.000_VISUALSTYLE
340
2F
102
VTR_0.000_0.000_1.000_1.000_GRIDDISPLAY
 70
     3
102
VTR_0.000_0.000_1.000_1.000_GRIDMAJOR
 70
     5
102
VTR_0.000_0.000_1.000_1.000_DEFAULTLIGHTING
280
     1
102
VTR_0.000_0.000_1.000_1.000_DEFAULTLIGHTINGTYPE
 70
     1
102
VTR_0.000_0.000_1.000_1.000_BRIGHTNESS
141
0.0
102
VTR_0.000_0.000_1.000_1.000_CONTRAST
142
0.0
  0
MATERIAL
  5
45
102
{ACAD_REACTORS
330
43
102
}
102
{ACAD_XDICTIONARY
360
6FB
102
}
330
43
100
AcDbMaterial
  1
BYBLOCK
  0
MATERIAL
  5
44
102
{ACAD_REACTORS
330
43
102
}
102
{ACAD_XDICTIONARY
360
6F9
102
}
330
43
100
AcDbMaterial
  1
BYLAYER
  0
MATERIAL
  5
46
102
{ACAD_REACTORS
330
43
102
}
102
{ACAD_XDICTIONARY
360
6FD
102
}
330
43
100
AcDbMaterial
  1
GLOBAL
  0
ACAD_PROXY_OBJECT
  5
6C
102
{ACAD_REACTORS
330
6B
102
}
330
6B
100
AcDbProxyObject
 90
      499
 91
      505
 93
      610
310
40901902A4063FBFFFFFE056BD1B81E855B9FC0AD7A3703D0AD73F4214DD185B99185C9900AD7A3703D0AC73F90141901A02B5E8DC0F42B1CFC02B5E8DC0F42B1CFE5764000000000000300FC0
340
14
340
0
340
11
340
0
 94
        0
1001
ACAD_MLEADERVER
1070
     2
  0
MLINESTYLE
  5
18
102
{ACAD_REACTORS
330
17
102
}
330
17
100
AcDbMlineStyle
  2
Standard
 70
     0
  3

 62
   256
 51
90.0
 52
90.0
 71
     2
 49
0.5
 62
   256
  6
BYLAYER
 49
-0.5
 62
   256
  6
BYLAYER
  0
ACAD_PROXY_OBJECT
  5
48
102
{ACAD_REACTORS
330
47
102
}
330
47
100
AcDbProxyObject
 90
      499
 91
      503
 93
       41
310
903313A31580
  0
ACAD_PROXY_OBJECT
  5
49
102
{ACAD_REACTORS
330
47
102
}
330
47
100
AcDbProxyObject
 90
      499
 91
      503
 93
      105
310
903313A324000000000000004000
  0
ACAD_PROXY_OBJECT
  5
4A
102
{ACAD_REACTORS
330
47
102
}
330
47
100
AcDbProxyObject
 90
      499
 91
      503
 93
      105
310
903313A344000000000000104000
  0
ACAD_PROXY_OBJECT
  5
4B
102
{ACAD_REACTORS
330
47
102
}
330
47
100
AcDbProxyObject
 90
      499
 91
      503
 93
      105
310
903313A354000000000000144000
  0
ACAD_PROXY_OBJECT
  5
4C
102
{ACAD_REACTORS
330
47
102
}
330
47
100
AcDbProxyObject
 90
      499
 91
      503
 93
      105
310
903313A384000000000000204000
  0
ACAD_PROXY_OBJECT
  5
4D
102
{ACAD_REACTORS
330
47
102
}
330
47
100
AcDbProxyObject
 90
      499
 91
      503
 93
      113
310
904313A31304000000000000244000
  0
ACAD_PROXY_OBJECT
  5
4E
102
{ACAD_REACTORS
330
47
102
}
330
47
100
AcDbProxyObject
 90
      499
 91
      503
 93
      113
310
904313A31364000000000000304000
  0
ACAD_PROXY_OBJECT
  5
4F
102
{ACAD_REACTORS
330
47
102
}
330
47
100
AcDbProxyObject
 90
      499
 91
      503
 93
      113
310
904313A32304000000000000344000
  0
ACAD_PROXY_OBJECT
  5
50
102
{ACAD_REACTORS
330
47
102
}
330
47
100
AcDbProxyObject
 90
      499
 91
      503
 93
      113
310
904313A333040000000000003E4000
  0
ACAD_PROXY_OBJECT
  5
51
102
{ACAD_REACTORS
330
47
102
}
330
47
100
AcDbProxyObject
 90
      499
 91
      503
 93
      113
310
904313A34304000000000000444000
  0
ACAD_PROXY_OBJECT
  5
52
102
{ACAD_REACTORS
330
47
102
}
330
47
100
AcDbProxyObject
 90
      499
 91
      503
 93
      113
310
904313A35304000000000000494000
  0
ACAD_PROXY_OBJECT
  5
53
102
{ACAD_REACTORS
330
47
102
}
330
47
100
AcDbProxyObject
 90
      499
 91
      503
 93
      121
310
905313A3130304000000000000594000
  0
ACAD_PROXY_OBJECT
  5
54
102
{ACAD_REACTORS
330
47
102
}
330
47
100
AcDbProxyObject
 90
      499
 91
      503
 93
      105
310
903323A310000000000000010100
  0
ACAD_PROXY_OBJECT
  5
55
102
{ACAD_REACTORS
330
47
102
}
330
47
100
AcDbProxyObject
 90
      499
 91
      503
 93
      105
310
903343A310000000000000410100
  0
ACAD_PROXY_OBJECT
  5
56
102
{ACAD_REACTORS
330
47
102
}
330
47
100
AcDbProxyObject
 90
      499
 91
      503
 93
      105
310
903383A310000000000000810100
  0
ACAD_PROXY_OBJECT
  5
57
102
{ACAD_REACTORS
330
47
102
}
330
47
100
AcDbProxyObject
 90
      499
 91
      503
 93
      113
310
90431303A310000000000000910100
  0
ACAD_PROXY_OBJECT
  5
58
102
{ACAD_REACTORS
330
47
102
}
330
47
100
AcDbProxyObject
 90
      499
 91
      503
 93
      121
310
9053130303A310000000000001650100
  0
ACAD_PROXY_OBJECT
  5
59
102
{ACAD_REACTORS
330
47
102
}
330
47
100
AcDbProxyObject
 90
      499
 91
      503
 93
      257
310
90E312F31323822203D2031272D3022000000000000200FC000000000000284000
  0
ACAD_PROXY_OBJECT
  5
5A
102
{ACAD_REACTORS
330
47
102
}
330
47
100
AcDbProxyObject
 90
      499
 91
      503
 93
      249
310
90D312F363422203D2031272D3022000000000000240FC000000000000284000
  0
ACAD_PROXY_OBJECT
  5
5B
102
{ACAD_REACTORS
330
47
102
}
330
47
100
AcDbProxyObject
 90
      499
 91
      503
 93
      249
310
90D312F333222203D2031272D3022000000000000280FC000000000000284000
  0
ACAD_PROXY_OBJECT
  5
5C
102
{ACAD_REACTORS
330
47
102
}
330
47
100
AcDbProxyObject
 90
      499
 91
      503
 93
      249
310
90D312F313622203D2031272D30220000000000002C0FC000000000000284000
  0
ACAD_PROXY_OBJECT
  5
5D
102
{ACAD_REACTORS
330
47
102
}
330
47
100
AcDbProxyObject
 90
      499
 91
      503
 93
      249
310
90D332F333222203D2031272D30220000000000002E0FC000000000000284000
  0
ACAD_PROXY_OBJECT
  5
5E
102
{ACAD_REACTORS
330
47
102
}
330
47
100
AcDbProxyObject
 90
      499
 91
      503
 93
      241
310
90C312F3822203D2031272D3022000000000000300FC000000000000284000
  0
ACAD_PROXY_OBJECT
  5
5F
102
{ACAD_REACTORS
330
47
102
}
330
47
100
AcDbProxyObject
 90
      499
 91
      503
 93
      249
310
90D332F313622203D2031272D3022000000000000320FC000000000000284000
  0
ACAD_PROXY_OBJECT
  5
60
102
{ACAD_REACTORS
330
47
102
}
330
47
100
AcDbProxyObject
 90
      499
 91
      503
 93
      241
310
90C312F3422203D2031272D3022000000000000340FC000000000000284000
  0
ACAD_PROXY_OBJECT
  5
61
102
{ACAD_REACTORS
330
47
102
}
330
47
100
AcDbProxyObject
 90
      499
 91
      503
 93
      241
310
90C332F3822203D2031272D3022000000000000360FC000000000000284000
  0
ACAD_PROXY_OBJECT
  5
62
102
{ACAD_REACTORS
330
47
102
}
330
47
100
AcDbProxyObject
 90
      499
 91
      503
 93
      241
310
90C312F3222203D2031272D3022000000000000380FC000000000000284000
  0
ACAD_PROXY_OBJECT
  5
63
102
{ACAD_REACTORS
330
47
102
}
330
47
100
AcDbProxyObject
 90
      499
 91
      503
 93
      241
310
90C332F3422203D2031272D30220000000000003A0FC000000000000284000
  0
ACAD_PROXY_OBJECT
  5
64
102
{ACAD_REACTORS
330
47
102
}
330
47
100
AcDbProxyObject
 90
      499
 91
      503
 93
      161
310
90A3122203D2031272D30224000000000000284000
  0
ACAD_PROXY_OBJECT
  5
65
102
{ACAD_REACTORS
330
47
102
}
330
47
100
AcDbProxyObject
 90
      499
 91
      503
 93
      257
310
90E312D312F3222203D2031272D30220000000000003E0FC000000000000284000
  0
ACAD_PROXY_OBJECT
  5
66
102
{ACAD_REACTORS
330
47
102
}
330
47
100
AcDbProxyObject
 90
      499
 91
      503
 93
      225
310
90A3322203D2031272D302200000000000002100000000000000284000
  0
ACAD_PROXY_OBJECT
  5
67
102
{ACAD_REACTORS
330
47
102
}
330
47
100
AcDbProxyObject
 90
      499
 91
      503
 93
      225
310
90A3622203D2031272D302200000000000006100000000000000284000
  0
ACAD_PROXY_OBJECT
  5
68
102
{ACAD_REACTORS
330
47
102
}
330
47
100
AcDbProxyObject
 90
      499
 91
      503
 93
      249
310
90D31272D3022203D2031272D30220000000000000A100000000000000284000
  0
ACAD_PROXY_OBJECT
  5
2F
102
{ACAD_REACTORS
330
2A
102
}
330
2A
100
AcDbProxyObject
 90
      499
 91
      501
 93
      436
310
42CC9915DA5C99599C985B595049028333333333333E33F0000000000000F90107901411070040501600405405064090741402480A0340
1001
ACAD
1000
AcDbSavedByObjectVersion
1070
     0
  0
ACAD_PROXY_OBJECT
  5
32
102
{ACAD_REACTORS
330
2A
102
}
330
2A
100
AcDbProxyObject
 90
      499
 91
      501
 93
      388
310
4150985CDA58D07406404333333333333E33F0000000000000F90107A41107004050150841D405064090741402480A0350
1001
ACAD
1000
AcDbSavedByObjectVersion
1070
     0
  0
ACAD_PROXY_OBJECT
  5
36
102
{ACAD_REACTORS
330
2A
102
}
330
2A
100
AcDbProxyObject
 90
      499
 91
      501
 93
      428
310
42109C9A59DA1D195B90C409028333333333333E33F0000000000000F9010790141107004050150841D405064090741402480A029950
1001
ACAD
1000
AcDbSavedByObjectVersion
1070
     0
  0
ACAD_PROXY_OBJECT
  5
3A
102
{ACAD_REACTORS
330
2A
102
}
330
2A
100
AcDbProxyObject
 90
      499
 91
      501
 93
      452
310
42D0DBDB1BDC90DA185B99D95104090240C333333333333E33F0000000000000F90108901411070040501508421405064090741402480A0350
1001
ACAD
1000
AcDbSavedByObjectVersion
1070
     0
  0
ACAD_PROXY_OBJECT
  5
34
102
{ACAD_REACTORS
330
2A
102
}
330
2A
100
AcDbProxyObject
 90
      499
 91
      501
 93
      500
310
4290DBDB98D95C1D1D585B10940D028333333333333E33F0000000000000F90107902409070040501000000000018199010841D405064090740C02480A0340
1001
ACAD
1000
AcDbSavedByObjectVersion
1070
     0
  0
ACAD_PROXY_OBJECT
  5
35
102
{ACAD_REACTORS
330
2A
102
}
330
2A
100
AcDbProxyObject
 90
      499
 91
      501
 93
      412
310
40D11A5B50B409028333333333333E33F0000000000000F9010790141107004050150841D405064090741402480A02677FFFFFD0
1001
ACAD
1000
AcDbSavedByObjectVersion
1070
     0
  0
ACAD_PROXY_OBJECT
  5
3D
102
{ACAD_REACTORS
330
2A
102
}
330
2A
100
AcDbProxyObject
 90
      499
 91
      501
 93
      452
310
43115919D950DBDB1BDC93D999916409028333333333333E33F0000000000000F9010790141107004050150841D405064090741402480A0350
1001
ACAD
1000
AcDbSavedByObjectVersion
1070
     0
  0
ACAD_PROXY_OBJECT
  5
39
102
{ACAD_REACTORS
330
2A
102
}
330
2A
100
AcDbProxyObject
 90
      499
 91
      501
 93
      444
310
42D19858D95C185D1D195C9B90F409028333333333333E33F0000000000000F9010790141107004050150841D405064090741402480A0350
1001
ACAD
1000
AcDbSavedByObjectVersion
1070
     0
  0
ACAD_PROXY_OBJECT
  5
2B
102
{ACAD_REACTORS
330
2A
102
}
330
2A
100
AcDbProxyObject
 90
      499
 91
      501
 93
      380
310
41119B185D240901404333333333333E33F0000000000000F9010740A907004050150841D405064090741402480A1B50
1001
ACAD
1000
AcDbSavedByObjectVersion
1070
     0
  0
ACAD_PROXY_OBJECT
  5
2C
102
{ACAD_REACTORS
330
2A
102
}
330
2A
100
AcDbProxyObject
 90
      499
 91
      501
 93
      468
310
43519B185D15DA5D1A115919D95CD0140901404333333333333E33F0000000000000F90107409019070040501600405405064090741402480A1B50
1001
ACAD
1000
AcDbSavedByObjectVersion
1070
     0
  0
ACAD_PROXY_OBJECT
  5
2D
102
{ACAD_REACTORS
330
2A
102
}
330
2A
100
AcDbProxyObject
 90
      499
 91
      501
 93
      404
310
41D1DBDD5C985D5910240902404333333333333E33F0000000000000F9010740A9070040501641D405064090741402480A1B50
1001
ACAD
1000
AcDbSavedByObjectVersion
1070
     0
  0
ACAD_PROXY_OBJECT
  5
2E
102
{ACAD_REACTORS
330
2A
102
}
330
2A
100
AcDbProxyObject
 90
      499
 91
      501
 93
      492
310
4411DBDD5C985D5915DA5D1A115919D95CD0340902404333333333333E33F0000000000000F90107409019070040501600405405064090741402480A1B50
1001
ACAD
1000
AcDbSavedByObjectVersion
1070
     0
  0
ACAD_PROXY_OBJECT
  5
31
102
{ACAD_REACTORS
330
2A
102
}
330
2A
100
AcDbProxyObject
 90
      499
 91
      501
 93
      476
310
41921A5919195B90640502408333333333333E33F0000000000000F901079024090700405020000000000001110200405405064090740C02480A0340
1001
ACAD
1000
AcDbSavedByObjectVersion
1070
     0
  0
ACAD_PROXY_OBJECT
  5
3B
102
{ACAD_REACTORS
330
2A
102
}
330
2A
100
AcDbProxyObject
 90
      499
 91
      501
 93
      428
310
42529A5D1D195C93D999914409028333333333333E33F0000000000000F9010790141107004050150A41D405064090741402480A0350
1001
ACAD
1000
AcDbSavedByObjectVersion
1070
     0
  0
ACAD_PROXY_OBJECT
  5
38
102
{ACAD_REACTORS
330
2A
102
}
330
2A
100
AcDbProxyObject
 90
      499
 91
      501
 93
      444
310
42D31A5B995C185D1D195C9B90E409028333333333333E33F0000000000000F9010790141107004050750841D405064090741402483A0350
1001
ACAD
1000
AcDbSavedByObjectVersion
1070
     0
  0
ACAD_PROXY_OBJECT
  5
3C
102
{ACAD_REACTORS
330
2A
102
}
330
2A
100
AcDbProxyObject
 90
      499
 91
      501
 93
      444
310
42D3DD995C9A185B99D3D999915409028333333333333E33F0000000000000F9010790141107004050150941D405064090741402480A0350
1001
ACAD
1000
AcDbSavedByObjectVersion
1070
     0
  0
ACAD_PROXY_OBJECT
  5
33
102
{ACAD_REACTORS
330
2A
102
}
330
2A
100
AcDbProxyObject
 90
      499
 91
      501
 93
      428
310
425499585B1A5CDD1A58D08409038333333333333E33F0000000000000F9010740A907004050150800405405064090740C02480A1B40
1001
ACAD
1000
AcDbSavedByObjectVersion
1070
     0
  0
ACAD_PROXY_OBJECT
  5
42
102
{ACAD_REACTORS
330
2A
102
}
330
2A
100
AcDbProxyObject
 90
      499
 91
      501
 93
      420
310
4194DA1859195911B40902404333333333333E33F0000000000000F9010740A41107004050150800405405064090840C02480A0B40
1001
ACAD
1000
AcDbSavedByObjectVersion
1070
     0
  0
ACAD_PROXY_OBJECT
  5
41
102
{ACAD_REACTORS
330
2A
102
}
330
2A
100
AcDbProxyObject
 90
      499
 91
      501
 93
      516
310
4454DA18591959081DDA5D1A08195919D95CD1A40902404333333333333E33F0000000000000F901074090142907004050250800405405064090740C02480A0B40
1001
ACAD
1000
AcDbSavedByObjectVersion
1070
     0
  0
ACAD_PROXY_OBJECT
  5
3E
102
{ACAD_REACTORS
330
2A
102
}
330
2A
100
AcDbProxyObject
 90
      499
 91
      501
 93
      532
310
4394DA1859195CC81BD98811DC985E5174090240C333333333333E33F0000000000000F901079024090741D01000000000000111010841D405064090740C02480A0340
1001
ACAD
1000
AcDbSavedByObjectVersion
1070
     0
  0
ACAD_PROXY_OBJECT
  5
3F
102
{ACAD_REACTORS
330
2A
102
}
330
2A
100
AcDbProxyObject
 90
      499
 91
      501
 93
      476
310
41D4DAD95D18DA1E51840502408333333333333E33F0000000000000F901079024090741D01000000000000111010B41D405064090741802480A0340
1001
ACAD
1000
AcDbSavedByObjectVersion
1070
     0
  0
ACAD_PROXY_OBJECT
  5
37
102
{ACAD_REACTORS
330
2A
102
}
330
2A
100
AcDbProxyObject
 90
      499
 91
      501
 93
      412
310
41D51A1A58DAD95B90D409028333333333333E33F0000000000000F9010790141107004050150C41D405064090741402480A0350
1001
ACAD
1000
AcDbSavedByObjectVersion
1070
     0
  0
ACAD_PROXY_OBJECT
  5
30
102
{ACAD_REACTORS
330
2A
102
}
330
2A
100
AcDbProxyObject
 90
      499
 91
      501
 93
      420
310
4255DA5C99599C985B595059028333333333333E33F0000000000000F90107901411070040501600405405064090740C02480A0340
1001
ACAD
1000
AcDbSavedByObjectVersion
1070
     0
  0
ACAD_PROXY_OBJECT
  5
40
102
{ACAD_REACTORS
330
2A
102
}
330
2A
100
AcDbProxyObject
 90
      499
 91
      501
 93
      404
310
41560B54985E51940902404000000000000E03F0000000000000F9010740501907004050150841D405064090740C02480A1B40
1001
ACAD
1000
AcDbSavedByObjectVersion
1070
     0
  0
XRECORD
  5
6D7
102
{ACAD_REACTORS
330
6CD
102
}
330
6CD
100
AcDbXrecord
340
0
  0
XRECORD
  5
6D6
102
{ACAD_REACTORS
330
6CD
102
}
330
6CD
100
AcDbXrecord
 90
        0
  0
XRECORD
  5
6ED
102
{ACAD_REACTORS
330
6CD
102
}
330
6CD
100
AcDbXrecord
1000
DSTYLE
1002
{
1070
   179
 70
     2
1070
   171
 70
     2
1070
   143
 40
25.4
1070
   274
 70
     2
1070
    41
 40
3.0
1070
   141
 40
0.09
1070
    43
 40
0.38
1070
   278
 70
    46
1070
    44
 40
1.5
1070
    42
 40
0.0625
1070
   147
 40
1.5
1070
   272
 70
     4
1070
    73
 70
     1
1070
   172
 70
     0
1070
    74
 70
     1
1070
   283
 70
     1
1070
   340
340
6E
1070
   140
 40
3.0
1070
   284
 70
     0
1070
    78
 70
     0
1002
}
  0
XRECORD
  5
6D8
102
{ACAD_REACTORS
330
6CD
102
}
330
6CD
100
AcDbXrecord
  1
{0DCC4699-F0A2-4A8D-B464-A335D414408B}
  0
XRECORD
  5
6D0
102
{ACAD_REACTORS
330
6CD
102
}
330
6CD
100
AcDbXrecord
  1

  0
XRECORD
  5
6D5
102
{ACAD_REACTORS
330
6CD
102
}
330
6CD
100
AcDbXrecord
 90
        4
  0
XRECORD
  5
6D2
102
{ACAD_REACTORS
330
6CD
102
}
330
6CD
100
AcDbXrecord
340
1A
  0
XRECORD
  5
6D4
102
{ACAD_REACTORS
330
6CD
102
}
330
6CD
100
AcDbXrecord
 90
    10269
  0
XRECORD
  5
6D3
102
{ACAD_REACTORS
330
6CD
102
}
330
6CD
100
AcDbXrecord
340
19
  0
XRECORD
  5
6DA
102
{ACAD_REACTORS
330
6CD
102
}
330
6CD
100
AcDbXrecord
 40
0.0
  0
XRECORD
  5
6DD
102
{ACAD_REACTORS
330
6CD
102
}
330
6CD
100
AcDbXrecord
340
0
  0
XRECORD
  5
6E3
102
{ACAD_REACTORS
330
6CD
102
}
330
6CD
100
AcDbXrecord
 10
0.0
 20
0.0
 30
0.0
  0
XRECORD
  5
6DF
102
{ACAD_REACTORS
330
6CD
102
}
330
6CD
100
AcDbXrecord
 10
0.0
 20
0.0
 30
0.0
  0
XRECORD
  5
6E2
102
{ACAD_REACTORS
330
6CD
102
}
330
6CD
100
AcDbXrecord
 10
0.0
 20
0.0
 30
0.0
  0
XRECORD
  5
6E0
102
{ACAD_REACTORS
330
6CD
102
}
330
6CD
100
AcDbXrecord
 10
0.0
 20
0.0
 30
0.0
  0
XRECORD
  5
6E1
102
{ACAD_REACTORS
330
6CD
102
}
330
6CD
100
AcDbXrecord
 10
0.0
 20
0.0
 30
0.0
  0
XRECORD
  5
6DE
102
{ACAD_REACTORS
330
6CD
102
}
330
6CD
100
AcDbXrecord
 10
0.0
 20
0.0
 30
0.0
  0
XRECORD
  5
6DB
102
{ACAD_REACTORS
330
6CD
102
}
330
6CD
100
AcDbXrecord
340
0
  0
XRECORD
  5
6DC
102
{ACAD_REACTORS
330
6CD
102
}
330
6CD
100
AcDbXrecord
 70
     0
  0
XRECORD
  5
6D1
102
{ACAD_REACTORS
330
6CD
102
}
330
6CD
100
AcDbXrecord
  1

  0
XRECORD
  5
6CE
102
{ACAD_REACTORS
330
6CD
102
}
330
6CD
100
AcDbXrecord
 90
        1
  0
XRECORD
  5
6CF
102
{ACAD_REACTORS
330
6CD
102
}
330
6CD
100
AcDbXrecord
 90
       70
  0
XRECORD
  5
6E6
102
{ACAD_REACTORS
330
6CD
102
}
330
6CD
100
AcDbXrecord
340
0
  0
XRECORD
  5
6EC
102
{ACAD_REACTORS
330
6CD
102
}
330
6CD
100
AcDbXrecord
 10
0.0
 20
0.0
 30
0.0
  0
XRECORD
  5
6E8
102
{ACAD_REACTORS
330
6CD
102
}
330
6CD
100
AcDbXrecord
 10
0.0
 20
0.0
 30
0.0
  0
XRECORD
  5
6EB
102
{ACAD_REACTORS
330
6CD
102
}
330
6CD
100
AcDbXrecord
 10
0.0
 20
0.0
 30
0.0
  0
XRECORD
  5
6E9
102
{ACAD_REACTORS
330
6CD
102
}
330
6CD
100
AcDbXrecord
 10
0.0
 20
0.0
 30
0.0
  0
XRECORD
  5
6EA
102
{ACAD_REACTORS
330
6CD
102
}
330
6CD
100
AcDbXrecord
 10
0.0
 20
0.0
 30
0.0
  0
XRECORD
  5
6E7
102
{ACAD_REACTORS
330
6CD
102
}
330
6CD
100
AcDbXrecord
 10
0.0
 20
0.0
 30
0.0
  0
XRECORD
  5
6E4
102
{ACAD_REACTORS
330
6CD
102
}
330
6CD
100
AcDbXrecord
340
0
  0
XRECORD
  5
6E5
102
{ACAD_REACTORS
330
6CD
102
}
330
6CD
100
AcDbXrecord
 70
     0
  0
XRECORD
  5
6D9
102
{ACAD_REACTORS
330
6CD
102
}
330
6CD
100
AcDbXrecord
  1
{FAEB1C32-E019-11D5-929B-00C0DF256EC4}
  0
DICTIONARYVAR
  5
6F7
102
{ACAD_REACTORS
330
6EE
102
}
330
6EE
100
DictionaryVariables
280
     0
  1
1:1
  0
DICTIONARYVAR
  5
6F0
102
{ACAD_REACTORS
330
6EE
102
}
330
6EE
100
DictionaryVariables
280
     0
  1
Standard
  0
DICTIONARYVAR
  5
6EF
102
{ACAD_REACTORS
330
6EE
102
}
330
6EE
100
DictionaryVariables
280
     0
  1
Standard
  0
DICTIONARYVAR
  5
6F3
102
{ACAD_REACTORS
330
6EE
102
}
330
6EE
100
DictionaryVariables
280
     0
  1
2
  0
DICTIONARYVAR
  5
6F4
102
{ACAD_REACTORS
330
6EE
102
}
330
6EE
100
DictionaryVariables
280
     0
  1
1
  0
DICTIONARYVAR
  5
6F8
102
{ACAD_REACTORS
330
6EE
102
}
330
6EE
100
DictionaryVariables
280
     0
  1
1
  0
DICTIONARY
  5
6FB
330
45
100
AcDbDictionary
280
     1
  3
ACAD_XREC_ROUNDTRIP
360
6FC
  0
DICTIONARY
  5
6F9
330
44
100
AcDbDictionary
280
     1
  3
ACAD_XREC_ROUNDTRIP
360
6FA
  0
DICTIONARY
  5
6FD
330
46
100
AcDbDictionary
280
     1
  3
ACAD_XREC_ROUNDTRIP
360
6FE
  0
XRECORD
  5
6FC
102
{ACAD_REACTORS
330
6FB
102
}
330
6FB
100
AcDbXrecord
102
MATERIAL
148
0.0
149
0.0
149
0.0
 93
        0
 94
      127
282
     0
 72
     1
 77
     1
171
     1
175
     1
179
     1
273
     0
  0
XRECORD
  5
6FA
102
{ACAD_REACTORS
330
6F9
102
}
330
6F9
100
AcDbXrecord
102
MATERIAL
148
0.0
149
0.0
149
0.0
 93
        0
 94
      127
282
     0
 72
     1
 77
     1
171
     1
175
     1
179
     1
273
     0
  0
XRECORD
  5
6FE
102
{ACAD_REACTORS
330
6FD
102
}
330
6FD
100
AcDbXrecord
102
MATERIAL
148
0.0
149
0.0
149
0.0
 93
        0
 94
      127
282
     0
 72
     1
 77
     1
171
     1
175
     1
179
     1
273
     0
  0
ENDSEC
  0
EOF
