  0
SECTION
  2
HEADER
  9
$ACADVER
  1
AC1004
  9
$INSBASE
 10
0.0
 20
0.0
  9
$EXTMIN
 10
-257.7019653871857
 20
66.47303023026627
  9
$EXTMAX
 10
243.7416666666667
 20
497.8386399551232
  9
$LIMMIN
 10
0.0
 20
0.0
  9
$LIMMAX
 10
12.0
 20
9.0
  9
$ORTHOMODE
 70
     0
  9
$REGENMODE
 70
     1
  9
$FILLMODE
 70
     1
  9
$QTEXTMODE
 70
     0
  9
$DRAGMODE
 70
     2
  9
$LTSCALE
 40
1.0
  9
$OSMODE
 70
    37
  9
$ATTMODE
 70
     1
  9
$TEXTSIZE
 40
0.2
  9
$TRACEWID
 40
0.05
  9
$TEXTSTYLE
  7
STANDARD
  9
$CLAYER
  8
0
  9
$CELTYPE
  6
BYLAYER
  9
$CECOLOR
 62
   256
  9
$DIMSCALE
 40
1.0
  9
$DIMASZ
 40
3.0
  9
$DIMEXO
 40
0.0625
  9
$DIMDLI
 40
0.38
  9
$DIMRND
 40
0.0
  9
$DIMDLE
 40
0.0
  9
$DIMEXE
 40
1.5
  9
$DIMTP
 40
0.0
  9
$DIMTM
 40
0.0
  9
$DIMTXT
 40
3.0
  9
$DIMCEN
 40
0.09
  9
$DIMTSZ
 40
0.0
  9
$DIMTOL
 70
     0
  9
$DIMLIM
 70
     0
  9
$DIMTIH
 70
     1
  9
$DIMTOH
 70
     1
  9
$DIMSE1
 70
     0
  9
$DIMSE2
 70
     0
  9
$DIMTAD
 70
     1
  9
$DIMZIN
 70
     0
  9
$DIMBLK
  1

  9
$DIMASO
 70
     1
  9
$DIMSHO
 70
     1
  9
$DIMPOST
  1

  9
$DIMAPOST
  1

  9
$DIMALT
 70
     0
  9
$DIMALTD
 70
     2
  9
$DIMALTF
 40
25.4
  9
$DIMLFAC
 40
1.0
  9
$DIMTOFL
 70
     0
  9
$DIMTVP
 40
0.0
  9
$DIMTIX
 70
     0
  9
$DIMSOXD
 70
     0
  9
$DIMSAH
 70
     0
  9
$DIMBLK1
  1

  9
$DIMBLK2
  1

  9
$LUNITS
 70
     2
  9
$LUPREC
 70
     4
  9
$SKETCHINC
 40
0.1
  9
$FILLETRAD
 40
0.5
  9
$AUNITS
 70
     0
  9
$AUPREC
 70
     0
  9
$MENU
  1
.
  9
$ELEVATION
 40
0.0
  9
$THICKNESS
 40
0.0
  9
$LIMCHECK
 70
     0
  9
$CHAMFERA
 40
0.0
  9
$CHAMFERB
 40
0.0
  9
$SKPOLY
 70
     0
  9
$TDCREATE
 40
2458964.587823229
  9
$TDUPDATE
 40
2458964.587824132
  9
$TDINDWG
 40
0.0000000116
  9
$TDUSRTIMER
 40
0.0000000116
  9
$USRTIMER
 70
     1
  9
$ANGBASE
 50
0.0
  9
$ANGDIR
 70
     0
  9
$PDMODE
 70
     0
  9
$PDSIZE
 40
0.0
  9
$PLINEWID
 40
0.0
  9
$COORDS
 70
     1
  9
$SPLFRAME
 70
     0
  9
$SPLINETYPE
 70
     6
  9
$SPLINESEGS
 70
     8
  9
$ATTDIA
 70
     0
  9
$ATTREQ
 70
     1
  9
$SURFTAB1
 70
     6
  9
$SURFTAB2
 70
     6
  9
$SURFTYPE
 70
     6
  9
$SURFU
 70
     6
  9
$SURFV
 70
     6
  9
$UCSNAME
  2

  9
$UCSORG
 10
0.0
 20
0.0
 30
0.0
  9
$UCSXDIR
 10
1.0
 20
0.0
 30
0.0
  9
$UCSYDIR
 10
0.0
 20
1.0
 30
0.0
  9
$USERI1
 70
     0
  9
$USERI2
 70
     0
  9
$USERI3
 70
     0
  9
$USERI4
 70
     0
  9
$USERI5
 70
     0
  9
$USERR1
 40
0.0
  9
$USERR2
 40
0.0
  9
$USERR3
 40
0.0
  9
$USERR4
 40
0.0
  9
$USERR5
 40
0.0
  9
$WORLDVIEW
 70
     1
  0
ENDSEC
  0
SECTION
  2
TABLES
  0
TABLE
  2
LTYPE
 70
     2
  0
LTYPE
  2
CONTINUOUS
 70
     0
  3
Solid line
 72
    65
 73
     0
 40
0.0
  0
LTYPE
  2
CENTER
 70
     0
  3

 72
    65
 73
     0
 40
0.0
  0
ENDTAB
  0
TABLE
  2
LAYER
 70
     1
  0
LAYER
  2
0
 70
     0
 62
     7
  6
CONTINUOUS
  0
ENDTAB
  0
TABLE
  2
STYLE
 70
     2
  0
STYLE
  2
STANDARD
 70
     0
 40
0.0
 41
1.0
 50
0.0
 71
     0
 42
0.2
  3
txt
  4

  0
STYLE
  2
ＭＳ_ゴシック
 70
     0
 40
0.0
 41
1.0
 50
0.0
 71
     0
 42
0.2
  3
ＭＳ ゴシック.shx
  4

  0
ENDTAB
  0
TABLE
  2
VIEW
 70
     0
  0
ENDTAB
  0
ENDSEC
  0
SECTION
  2
BLOCKS
  0
ENDSEC
  0
SECTION
  2
ENTITIES
  0
LINE
  8
0
  6
CONTINUOUS
 62
     7
 10
94.55586023064888
 20
372.6886399551228
 11
93.02747310268377
 21
372.6886399551227
  0
LINE
  8
0
  6
CONTINUOUS
 62
     7
 10
169.655860230649
 20
374.9886399551231
 11
168.1274731026841
 21
374.9886399551231
  0
LINE
  8
0
  6
CONTINUOUS
 62
     7
 10
55.321239745863
 20
493.0182130343189
 11
55.40893622618276
 21
492.9254986110611
  0
LINE
  8
0
  6
CONTINUOUS
 62
     7
 10
55.13273951339692
 20
493.1901000254706
 11
55.22910019135435
 21
493.106484383388
  0
LINE
  8
0
  6
CONTINUOUS
 62
     7
 10
54.11673483296164
 20
493.7039583522804
 11
54.23961465234597
 21
493.6698154817482
  0
LINE
  8
0
  6
CONTINUOUS
 62
     7
 10
190.5498486752442
 20
115.1132190611994
 11
190.5469434951685
 21
114.6642802277109
  0
LINE
  8
0
  6
CONTINUOUS
 62
     7
 10
53.48524652440067
 20
493.7821208128235
 11
53.61281093776673
 21
493.7789792045536
  0
LINE
  8
0
  6
CONTINUOUS
 62
     7
 10
53.86665011429881
 20
493.7538917262214
 11
53.99231341593416
 21
493.7320062882322
  0
LINE
  8
0
  6
CONTINUOUS
 62
     7
 10
54.23961465234594
 20
493.6698154817482
 11
54.36065687453578
 21
493.6296599218294
  0
LINE
  8
0
  6
CONTINUOUS
 62
     7
 10
53.61281093776671
 20
493.7789792045537
 11
53.7400476326087
 21
493.7695619474202
  0
LINE
  8
0
  6
CONTINUOUS
 62
     7
 10
54.47956992648351
 20
493.5835884014068
 11
54.59606736400066
 21
493.5317119000492
  0
LINE
  8
0
  6
CONTINUOUS
 62
     7
 10
190.8262512254143
 20
115.6831557126315
 11
190.5498486752442
 21
115.1132190611994
  0
LINE
  8
0
  6
CONTINUOUS
 62
     7
 10
243.7416666666665
 20
428.8386399551231
 11
243.7416666666665
 21
415.3386399551224
  0
CIRCLE
  8
0
  6
CONTINUOUS
 62
     7
 10
134.1416666666664
 20
340.2386399551229
 40
1.149999999999984
  0
CIRCLE
  8
0
  6
CONTINUOUS
 62
     7
 10
114.5416666666669
 20
351.4386399551232
 40
1.150000000000095
  0
CIRCLE
  8
0
  6
CONTINUOUS
 62
     7
 10
153.7416666666666
 20
390.6386399551229
 40
1.150000000000095
  0
CIRCLE
  8
0
  6
CONTINUOUS
 62
     7
 10
134.1416666666664
 20
317.8386399551225
 40
1.149999999999984
  0
CIRCLE
  8
0
  6
CONTINUOUS
 62
     7
 10
134.1416666666664
 20
345.8386399551226
 40
1.149999999999984
  0
CIRCLE
  8
0
  6
CONTINUOUS
 62
     7
 10
134.1416666666664
 20
329.0386399551226
 40
1.149999999999984
  0
CIRCLE
  8
0
  6
CONTINUOUS
 62
     7
 10
136.9416666666665
 20
348.638639955123
 40
1.150000000000095
  0
CIRCLE
  8
0
  6
CONTINUOUS
 62
     7
 10
111.7416666666665
 20
357.0386399551227
 40
1.150000000000095
  0
CIRCLE
  8
0
  6
CONTINUOUS
 62
     7
 10
106.1416666666668
 20
368.2386399551229
 40
1.149999999999984
  0
CIRCLE
  8
0
  6
CONTINUOUS
 62
     7
 10
120.1416666666666
 20
351.4386399551232
 40
1.149999999999873
  0
CIRCLE
  8
0
  6
CONTINUOUS
 62
     7
 10
134.1416666666664
 20
334.6386399551224
 40
1.149999999999984
  0
CIRCLE
  8
0
  6
CONTINUOUS
 62
     7
 10
108.9416666666663
 20
357.0386399551227
 40
1.150000000000095
  0
CIRCLE
  8
0
  6
CONTINUOUS
 62
     7
 10
148.1416666666668
 20
396.2386399551226
 40
1.149999999999984
  0
CIRCLE
  8
0
  6
CONTINUOUS
 62
     7
 10
134.1416666666664
 20
312.2386399551227
 40
1.149999999999984
  0
CIRCLE
  8
0
  6
CONTINUOUS
 62
     7
 10
142.5416666666663
 20
348.638639955123
 40
1.149999999999762
  0
LINE
  8
0
  6
CONTINUOUS
 62
     7
 10
212.0525759841389
 20
483.5276316376169
 11
212.0768630925186
 21
491.1739353810083
  0
ARC
  8
0
  6
CONTINUOUS
 62
     7
 10
64.97769643240014
 20
250.8386399551229
 40
1.000000000000001
 50
270.0
 51
310.0000000000015
  0
ARC
  8
0
  6
CONTINUOUS
 62
     7
 10
21.34166666666637
 20
298.8386399551228
 40
7.999999999999896
 50
221.4096221092707
 51
298.9550243718601
  0
ARC
  8
0
  6
CONTINUOUS
 62
     7
 10
21.34166666666637
 20
298.8386399551228
 40
6.699999999999928
 50
153.5756079211812
 51
206.4243920788195
  0
ARC
  8
0
  6
CONTINUOUS
 62
     7
 10
21.34166666666637
 20
448.8386399551227
 40
2.19999999999998
 50
166.8634412130565
 51
193.1365587869435
  0
ARC
  8
0
  6
CONTINUOUS
 62
     7
 10
131.3416666666667
 20
373.8386399551229
 40
14.00000000000001
 50
180.0
 51
0.0
  0
ARC
  8
0
  6
CONTINUOUS
 62
     7
 10
21.34166666666637
 20
448.8386399551227
 40
2.19999999999998
 50
256.863441213055
 51
283.1365587869566
  0
ARC
  8
0
  6
CONTINUOUS
 62
     7
 10
21.34166666666637
 20
298.8386399551228
 40
9.499999999999952
 50
149.6100575506717
 51
210.3899424493272
  0
ARC
  8
0
  6
CONTINUOUS
 62
     7
 10
21.34166666666637
 20
298.8386399551228
 40
8.000000000000007
 50
61.04497562814016
 51
138.5903778907293
  0
ARC
  8
0
  6
CONTINUOUS
 62
     7
 10
131.3416666666667
 20
312.2386399551227
 40
1.149999999999984
 50
180.0
 51
359.9999999999959
  0
ARC
  8
0
  6
CONTINUOUS
 62
     7
 10
89.5916666666664
 20
373.8386399551229
 40
2.999999999999892
 50
349.2430657428509
 51
10.75693425714917
  0
ARC
  8
0
  6
CONTINUOUS
 62
     7
 10
197.7056369009328
 20
250.8386399551229
 40
1.000000000000001
 50
229.9999999999979
 51
270.0
  0
ARC
  8
0
  6
CONTINUOUS
 62
     7
 10
131.3416666666667
 20
435.4386399551231
 40
1.149999999999984
 50
0.0
 51
180.0
  0
ARC
  8
0
  6
CONTINUOUS
 62
     7
 10
156.5416666666669
 20
373.8386399551229
 40
1.149999999999873
 50
90.0
 51
270.0
  0
ARC
  8
0
  6
CONTINUOUS
 62
     7
 10
164.6916666666667
 20
373.8386399551229
 40
3.000000000000003
 50
349.2430657428509
 51
10.75693425714917
  0
ARC
  8
0
  6
CONTINUOUS
 62
     7
 10
21.34166666666703
 20
298.8386399551228
 40
7.000000000000006
 50
152.3395501006993
 51
207.6604498993007
  0
ARC
  8
0
  6
CONTINUOUS
 62
     7
 10
21.34166666666637
 20
298.8386399551228
 40
2.19999999999998
 50
76.86344121305449
 51
103.1365587869566
  0
ARC
  8
0
  6
CONTINUOUS
 62
     7
 10
21.34166666666637
 20
298.8386399551228
 40
2.19999999999998
 50
166.8634412130545
 51
193.1365587869456
  0
ARC
  8
0
  6
CONTINUOUS
 62
     7
 10
21.34166666666637
 20
448.8386399551227
 40
2.199999999999869
 50
346.8634412130561
 51
13.1365587869571
  0
ARC
  8
0
  6
CONTINUOUS
 62
     7
 10
21.34166666666637
 20
205.9322720089751
 40
6.480740698407761
 50
70.69578039320834
 51
85.57513747057224
  0
ARC
  8
0
  6
CONTINUOUS
 62
     7
 10
97.99166666666636
 20
373.8386399551229
 40
3.000000000000003
 50
169.2430657428509
 51
190.7569342571491
  0
ARC
  8
0
  6
CONTINUOUS
 62
     7
 10
14.00954555473732
 20
294.5386399551227
 40
1.000000000000112
 50
210.389942449326
 51
270.0
  0
ARC
  8
0
  6
CONTINUOUS
 62
     7
 10
192.9416666666664
 20
373.8386399551229
 40
1.149999999999984
 50
270.0
 51
90.0
  0
ARC
  8
0
  6
CONTINUOUS
 62
     7
 10
131.3416666666667
 20
407.1886399551228
 40
3.000000000000114
 50
79.24306574285147
 51
100.7569342571485
  0
ARC
  8
0
  6
CONTINUOUS
 62
     7
 10
21.34166666666637
 20
448.8386399551227
 40
7.000000000000006
 50
154.1580672368336
 51
205.8419327631665
  0
ARC
  8
0
  6
CONTINUOUS
 62
     7
 10
69.74166666666659
 20
373.8386399551229
 40
1.149999999999873
 50
90.0
 51
269.9999999999959
  0
ARC
  8
0
  6
CONTINUOUS
 62
     7
 10
164.6916666666667
 20
373.8386399551229
 40
3.000000000000003
 50
169.2430657428509
 51
190.7569342571491
  0
ARC
  8
0
  6
CONTINUOUS
 62
     7
 10
173.0916666666666
 20
373.8386399551229
 40
2.999999999999892
 50
349.2430657428509
 51
10.75693425714917
  0
ARC
  8
0
  6
CONTINUOUS
 62
     7
 10
194.742327118773
 20
253.3251521003975
 40
1.000000000000001
 50
190.0000000000025
 51
230.0000000000009
  0
ARC
  8
0
  6
CONTINUOUS
 62
     7
 10
89.5916666666664
 20
373.8386399551229
 40
3.000000000000003
 50
169.2430657428512
 51
190.7569342571488
  0
ARC
  8
0
  6
CONTINUOUS
 62
     7
 10
131.3416666666667
 20
407.1886399551228
 40
3.000000000000003
 50
259.2430657428509
 51
280.7569342571491
  0
ARC
  8
0
  6
CONTINUOUS
 62
     7
 10
41.70563690093276
 20
250.8386399551229
 40
0.9999999999998899
 50
229.9999999999984
 51
270.0
  0
LINE
  8
0
  6
CONTINUOUS
 62
     7
 10
231.341666666667
 20
199.2322720089755
 11
231.341666666667
 21
102.8322720089754
  0
ARC
  8
0
  6
CONTINUOUS
 62
     7
 10
131.3416666666667
 20
348.638639955123
 40
1.149999999999984
 50
0.0
 51
180.0
  0
ARC
  8
0
  6
CONTINUOUS
 62
     7
 10
21.34166666666637
 20
448.8386399551227
 40
9.499999999999952
 50
149.6100575506724
 51
210.3899424493277
  0
ARC
  8
0
  6
CONTINUOUS
 62
     7
 10
21.34166666666637
 20
298.8386399551228
 40
2.19999999999998
 50
346.8634412130545
 51
13.13655878695659
  0
ARC
  8
0
  6
CONTINUOUS
 62
     7
 10
38.74232711877301
 20
253.3251521003975
 40
0.9999999999998899
 50
189.9999999999987
 51
230.0000000000015
  0
ARC
  8
0
  6
CONTINUOUS
 62
     7
 10
131.3416666666667
 20
415.5886399551226
 40
3.000000000000003
 50
259.2430657428509
 51
280.7569342571491
  0
ARC
  8
0
  6
CONTINUOUS
 62
     7
 10
21.34166666666637
 20
448.8386399551227
 40
2.19999999999998
 50
76.86344121305497
 51
103.1365587869566
  0
ARC
  8
0
  6
CONTINUOUS
 62
     7
 10
67.94100621456056
 20
253.3251521003975
 40
1.000000000000112
 50
309.9999999999985
 51
350.0000000000013
  0
ARC
  8
0
  6
CONTINUOUS
 62
     7
 10
131.3416666666667
 20
399.0386399551228
 40
1.149999999999984
 50
180.0
 51
0.0
  0
ARC
  8
0
  6
CONTINUOUS
 62
     7
 10
106.1416666666668
 20
373.8386399551229
 40
1.149999999999984
 50
270.0
 51
90.0
  0
ARC
  8
0
  6
CONTINUOUS
 62
     7
 10
131.3416666666667
 20
340.4886399551226
 40
3.000000000000003
 50
79.24306574285087
 51
100.7569342571491
  0
ARC
  8
0
  6
CONTINUOUS
 62
     7
 10
131.3416666666667
 20
332.088639955123
 40
3.000000000000003
 50
79.24306574285087
 51
100.7569342571491
  0
ARC
  8
0
  6
CONTINUOUS
 62
     7
 10
238.3416666666319
 20
331.7886399551231
 40
3.049999999999442
 50
10.38885781186332
 51
130.975610341744
  0
ARC
  8
0
  6
CONTINUOUS
 62
     7
 10
131.3416666666667
 20
340.4886399551226
 40
3.000000000000003
 50
259.2430657428509
 51
280.7569342571491
  0
ARC
  8
0
  6
CONTINUOUS
 62
     7
 10
14.00954555473732
 20
444.5386399551228
 40
1.000000000000001
 50
210.3899424493285
 51
270.0
  0
ARC
  8
0
  6
CONTINUOUS
 62
     7
 10
21.34166666666637
 20
298.8386399551228
 40
2.199999999999869
 50
256.863441213054
 51
283.1365587869572
  0
ARC
  8
0
  6
CONTINUOUS
 62
     7
 10
131.3416666666667
 20
373.8386399551229
 40
14.00000000000001
 50
0.0
 51
180.0
  0
ARC
  8
0
  6
CONTINUOUS
 62
     7
 10
220.9776964324007
 20
250.8386399551229
 40
0.9999999999998899
 50
270.0
 51
309.9999999999979
  0
ARC
  8
0
  6
CONTINUOUS
 62
     7
 10
14.00954555473732
 20
453.1386399551229
 40
0.9999999999998899
 50
90.0
 51
149.6100575506691
  0
ARC
  8
0
  6
CONTINUOUS
 62
     7
 10
223.9410062145605
 20
253.3251521003975
 40
0.9999999999998899
 50
309.9999999999979
 51
350.0000000000005
  0
ARC
  8
0
  6
CONTINUOUS
 62
     7
 10
131.3416666666667
 20
332.088639955123
 40
3.000000000000114
 50
259.2430657428515
 51
280.7569342571485
  0
CIRCLE
  8
0
  6
CONTINUOUS
 62
     7
 10
156.5416666666669
 20
362.6386399551227
 40
1.150000000000095
  0
ARC
  8
0
  6
CONTINUOUS
 62
     7
 10
173.0916666666666
 20
373.8386399551229
 40
2.999999999999892
 50
169.2430657428509
 51
190.7569342571491
  0
ARC
  8
0
  6
CONTINUOUS
 62
     7
 10
131.3416666666667
 20
415.5886399551226
 40
3.000000000000003
 50
79.24306574285087
 51
100.7569342571491
  0
ARC
  8
0
  6
CONTINUOUS
 62
     7
 10
14.00954555473732
 20
303.138639955123
 40
1.000000000000001
 50
90.0
 51
149.6100575506715
  0
ARC
  8
0
  6
CONTINUOUS
 62
     7
 10
21.34166666666637
 20
205.9322720089751
 40
6.480740698407761
 50
94.42486252942774
 51
109.3042196067917
  0
ARC
  8
0
  6
CONTINUOUS
 62
     7
 10
97.99166666666636
 20
373.8386399551229
 40
3.000000000000003
 50
349.2430657428509
 51
10.75693425714917
  0
CIRCLE
  8
0
  6
CONTINUOUS
 62
     7
 10
21.34166666666637
 20
448.8386399551227
 40
3.999999999999893
  0
CIRCLE
  8
0
  6
CONTINUOUS
 62
     7
 10
192.9416666666664
 20
315.0386399551228
 40
1.150000000000095
  0
CIRCLE
  8
0
  6
CONTINUOUS
 62
     7
 10
159.3416666666663
 20
376.6386399551226
 40
1.149999999999873
  0
CIRCLE
  8
0
  6
CONTINUOUS
 62
     7
 10
192.9416666666664
 20
312.2386399551227
 40
1.150000000000095
  0
CIRCLE
  8
0
  6
CONTINUOUS
 62
     7
 10
192.9416666666664
 20
376.6386399551226
 40
1.150000000000095
  0
CIRCLE
  8
0
  6
CONTINUOUS
 62
     7
 10
156.5416666666669
 20
379.4386399551228
 40
1.150000000000095
  0
CIRCLE
  8
0
  6
CONTINUOUS
 62
     7
 10
128.5416666666665
 20
435.4386399551231
 40
1.149999999999984
  0
CIRCLE
  8
0
  6
CONTINUOUS
 62
     7
 10
156.5416666666669
 20
385.0386399551223
 40
1.150000000000095
  0
CIRCLE
  8
0
  6
CONTINUOUS
 62
     7
 10
131.3416666666667
 20
373.8386399551229
 40
21.00000000000002
  0
CIRCLE
  8
0
  6
CONTINUOUS
 62
     7
 10
21.34166666666637
 20
298.8386399551228
 40
3.999999999999893
  0
CIRCLE
  8
0
  6
CONTINUOUS
 62
     7
 10
125.7416666666663
 20
399.0386399551228
 40
1.149999999999873
  0
CIRCLE
  8
0
  6
CONTINUOUS
 62
     7
 10
69.74166666666659
 20
371.0386399551226
 40
1.149999999999984
  0
CIRCLE
  8
0
  6
CONTINUOUS
 62
     7
 10
103.3416666666667
 20
371.0386399551226
 40
1.149999999999762
  0
CIRCLE
  8
0
  6
CONTINUOUS
 62
     7
 10
106.1416666666668
 20
362.6386399551227
 40
1.149999999999984
  0
CIRCLE
  8
0
  6
CONTINUOUS
 62
     7
 10
128.5416666666665
 20
401.8386399551231
 40
1.149999999999984
  0
CIRCLE
  8
0
  6
CONTINUOUS
 62
     7
 10
120.1416666666666
 20
399.0386399551228
 40
1.149999999999984
  0
LINE
  8
0
  6
CONTINUOUS
 62
     7
 10
33.63510456421537
 20
116.5464778810626
 11
34.09488863790519
 21
116.945031720818
  0
LINE
  8
0
  6
CONTINUOUS
 62
     7
 10
34.09488863790519
 20
116.9450317208179
 11
34.69923336662858
 21
116.587934492988
  0
LINE
  8
0
  6
CONTINUOUS
 62
     7
 10
243.7416666666665
 20
415.3386399551224
 11
235.2088558451682
 21
415.3386399551231
  0
LINE
  8
0
  6
CONTINUOUS
 62
     7
 10
243.7416666666665
 20
455.088639955123
 11
235.2088558451682
 21
455.088639955123
  0
LINE
  8
0
  6
CONTINUOUS
 62
     7
 10
243.7416666666665
 20
418.5886399551226
 11
235.2088558451682
 21
418.5886399551226
  0
TEXT
  8
0
  6
CONTINUOUS
 62
     7
 10
108.4118500067077
 20
66.09121204844809
 40
3.5
  1
ＰＶ４Ｂ－２０１０Ｆ
  0
LINE
  8
0
  6
CONTINUOUS
 62
     7
 10
55.74170817605572
 20
482.305911976192
 11
55.67845914889561
 21
482.1952322836901
  0
LINE
  8
0
  6
CONTINUOUS
 62
     7
 10
208.3625145069221
 20
266.5898218737053
 11
208.4838110152433
 21
266.6297231474932
  0
LINE
  8
0
  6
CONTINUOUS
 62
     7
 10
208.7315060765604
 20
266.691520129072
 11
208.8573079683029
 21
266.7132669769534
  0
LINE
  8
0
  6
CONTINUOUS
 62
     7
 10
208.1264837590528
 20
266.4924941103293
 11
208.2433097058695
 21
266.544042102388
  0
LINE
  8
0
  6
CONTINUOUS
 62
     7
 10
207.0048741844379
 20
265.4820476265556
 11
207.0734852762644
 21
265.5895172880161
  0
LINE
  8
0
  6
CONTINUOUS
 62
     7
 10
206.6601046791755
 20
264.5299336191467
 11
206.6823187051793
 21
264.6552683327674
  0
LINE
  8
0
  6
CONTINUOUS
 62
     7
 10
56.00101462815421
 20
483.0220115774783
 11
55.97266154840935
 21
482.897895304243
  0
LINE
  8
0
  6
CONTINUOUS
 62
     7
 10
56.05257598413949
 20
483.5276316376169
 11
56.04904042053951
 21
483.4004611795811
  0
LINE
  8
0
  6
CONTINUOUS
 62
     7
 10
206.9416251572778
 20
265.3713679340537
 11
207.004874184438
 21
265.4820476265556
  0
LINE
  8
0
  6
CONTINUOUS
 62
     7
 10
206.8318094442191
 20
265.1414519911031
 11
206.8838905524588
 21
265.2577448217382
  0
LINE
  8
0
  6
CONTINUOUS
 62
     7
 10
55.53604017468361
 20
481.983761870539
 11
55.45721329415581
 21
481.883480551252
  0
LINE
  8
0
  6
CONTINUOUS
 62
     7
 10
208.6910199173995
 20
253.9452736220135
 11
208.5665985003718
 21
253.9733215579654
  0
LINE
  8
0
  6
CONTINUOUS
 62
     7
 10
207.4542331419791
 20
254.5707955268586
 11
207.3620935874704
 21
254.6590668759276
  0
LINE
  8
0
  6
CONTINUOUS
 62
     7
 10
50.68231870518003
 20
483.0220115774783
 11
50.66010467917611
 21
483.147346291099
  0
LINE
  8
0
  6
CONTINUOUS
 62
     7
 10
54.07642628808662
 20
481.0136301028398
 11
53.95182725677322
 21
480.9857597811738
  0
LINE
  8
0
  6
CONTINUOUS
 62
     7
 10
53.23889031962881
 20
480.9359626081173
 11
53.11130601194638
 21
480.939084322071
  0
LINE
  8
0
  6
CONTINUOUS
 62
     7
 10
207.7550404620276
 20
254.3347096929756
 11
207.6509435025325
 21
254.4084213675564
  0
LINE
  8
0
  6
CONTINUOUS
 62
     7
 10
206.7106717849236
 20
264.7793846060027
 11
206.7450956199773
 21
264.9019834608647
  0
LINE
  8
0
  6
CONTINUOUS
 62
     7
 10
53.69932365125574
 20
480.9484419441778
 11
53.57202732138708
 21
480.939084322071
  0
LINE
  8
0
  6
CONTINUOUS
 62
     7
 10
54.67101525020457
 20
481.241977841127
 11
54.55684957428056
 21
481.1847857999166
  0
LINE
  8
0
  6
CONTINUOUS
 62
     7
 10
52.2433097058701
 20
481.1332378078577
 11
52.1264837590536
 21
481.1847857999165
  0
LINE
  8
0
  6
CONTINUOUS
 62
     7
 10
209.198086808932
 20
253.8951590974223
 11
209.0705223955667
 21
253.8983007056921
  0
LINE
  8
0
  6
CONTINUOUS
 62
     7
 10
207.6509435025324
 20
254.4084213675564
 11
207.5505938199361
 21
254.4871798847753
  0
LINE
  8
0
  6
CONTINUOUS
 62
     7
 10
207.550593819936
 20
254.4871798847752
 11
207.4542331419791
 21
254.5707955268585
  0
LINE
  8
0
  6
CONTINUOUS
 62
     7
 10
208.4838110152434
 20
266.6297231474932
 11
208.606907045247
 21
266.6636498074061
  0
LINE
  8
0
  6
CONTINUOUS
 62
     7
 10
50.83180944421917
 20
482.5358279191432
 11
50.78550728834691
 21
482.6545103356408
  0
LINE
  8
0
  6
CONTINUOUS
 62
     7
 10
54.55684957428053
 20
481.1847857999165
 11
54.44002362746394
 21
481.1332378078577
  0
LINE
  8
0
  6
CONTINUOUS
 62
     7
 10
55.19257516598097
 20
481.6073205522311
 11
55.09568498978812
 21
481.5242344083839
  0
LINE
  8
0
  6
CONTINUOUS
 62
     7
 10
56.02322865415798
 20
483.147346291099
 11
56.00101462815424
 21
483.0220115774783
  0
LINE
  8
0
  6
CONTINUOUS
 62
     7
 10
207.6884967665076
 20
266.2313052787151
 11
207.7930605071058
 21
266.3045501721929
  0
LINE
  8
0
  6
CONTINUOUS
 62
     7
 10
54.32081882641082
 20
481.0874580365404
 11
54.19952231809017
 21
481.0475567627525
  0
LINE
  8
0
  6
CONTINUOUS
 62
     7
 10
55.37355729793624
 20
481.7871602274311
 11
55.285273701111
 21
481.6950329206786
  0
LINE
  8
0
  6
CONTINUOUS
 62
     7
 10
55.67845914889558
 20
482.1952322836902
 11
55.609848057069
 21
482.0877626222297
  0
LINE
  8
0
  6
CONTINUOUS
 62
     7
 10
50.78550728834696
 20
482.6545103356407
 11
50.74509561997856
 21
482.775296449381
  0
LINE
  8
0
  6
CONTINUOUS
 62
     7
 10
207.4907581673525
 20
266.0699593580147
 11
207.5876483435454
 21
266.1530455018619
  0
LINE
  8
0
  6
CONTINUOUS
 62
     7
 10
56.03925011607424
 20
483.2735975320713
 11
56.02322865415801
 21
483.147346291099
  0
LINE
  8
0
  6
CONTINUOUS
 62
     7
 10
54.89027282622782
 20
481.3727297380529
 11
54.78224564678402
 21
481.304676164209
  0
LINE
  8
0
  6
CONTINUOUS
 62
     7
 10
55.89782604498716
 20
482.6545103356407
 11
55.8515238891144
 21
482.5358279191431
  0
LINE
  8
0
  6
CONTINUOUS
 62
     7
 10
51.90108768655022
 20
481.304676164209
 11
51.79306050710641
 21
481.3727297380529
  0
LINE
  8
0
  6
CONTINUOUS
 62
     7
 10
206.6823187051794
 20
264.6552683327674
 11
206.7106717849237
 21
264.7793846060027
  0
LINE
  8
0
  6
CONTINUOUS
 62
     7
 10
56.0490404205396
 20
483.4004611795811
 11
56.03925011607421
 21
483.2735975320713
  0
LINE
  8
0
  6
CONTINUOUS
 62
     7
 10
52.73150607656096
 20
480.9857597811737
 11
52.6069070452469
 21
481.0136301028397
  0
LINE
  8
0
  6
CONTINUOUS
 62
     7
 10
54.78224564678402
 20
481.304676164209
 11
54.6710152502046
 21
481.241977841127
  0
LINE
  8
0
  6
CONTINUOUS
 62
     7
 10
208.4437186809876
 20
254.0074644284974
 11
208.3226764587978
 21
254.0476199884162
  0
LINE
  8
0
  6
CONTINUOUS
 62
     7
 10
52.60690704524695
 20
481.0136301028398
 11
52.48381101524397
 21
481.0475567627525
  0
LINE
  8
0
  6
CONTINUOUS
 62
     7
 10
208.606907045247
 20
266.663649807406
 11
208.7315060765604
 21
266.691520129072
  0
LINE
  8
0
  6
CONTINUOUS
 62
     7
 10
54.44002362746403
 20
481.1332378078577
 11
54.32081882641085
 21
481.0874580365403
  0
LINE
  8
0
  6
CONTINUOUS
 62
     7
 10
207.2261200391778
 20
265.7937993589937
 11
207.3097760353973
 21
265.8901196828147
  0
LINE
  8
0
  6
CONTINUOUS
 62
     7
 10
207.9734647715694
 20
254.203124529568
 11
207.8626339440384
 21
254.2662224216993
  0
LINE
  8
0
  6
CONTINUOUS
 62
     7
 10
208.8166832190348
 20
253.9233881840248
 11
208.6910199173995
 21
253.9452736220135
  0
LINE
  8
0
  6
CONTINUOUS
 62
     7
 10
52.48381101524391
 20
481.0475567627525
 11
52.36251450692267
 21
481.0874580365405
  0
LINE
  8
0
  6
CONTINUOUS
 62
     7
 10
55.28527370111092
 20
481.6950329206786
 11
55.19257516598097
 21
481.607320552231
  0
LINE
  8
0
  6
CONTINUOUS
 62
     7
 10
52.85730796830357
 20
480.9640129332923
 11
52.73150607656099
 21
480.9857597811737
  0
LINE
  8
0
  6
CONTINUOUS
 62
     7
 10
53.11130601194635
 20
480.939084322071
 11
52.98400968207778
 21
480.9484419441778
  0
LINE
  8
0
  6
CONTINUOUS
 62
     7
 10
53.95182725677316
 20
480.9857597811737
 11
53.82602536503001
 21
480.9640129332923
  0
LINE
  8
0
  6
CONTINUOUS
 62
     7
 10
208.9840096820771
 20
266.7288379660678
 11
209.1113060119458
 21
266.7381955881748
  0
LINE
  8
0
  6
CONTINUOUS
 62
     7
 10
50.74509561997853
 20
482.775296449381
 11
50.71067178492414
 21
482.8978953042429
  0
LINE
  8
0
  6
CONTINUOUS
 62
     7
 10
206.785507288347
 20
265.0227695746049
 11
206.8318094442191
 21
265.1414519911031
  0
LINE
  8
0
  6
CONTINUOUS
 62
     7
 10
52.36251450692264
 20
481.0874580365404
 11
52.24330970587005
 21
481.1332378078577
  0
LINE
  8
0
  6
CONTINUOUS
 62
     7
 10
55.45721329415576
 20
481.883480551252
 11
55.37355729793622
 21
481.7871602274311
  0
LINE
  8
0
  6
CONTINUOUS
 62
     7
 10
55.09568498978812
 20
481.5242344083838
 11
54.99483656682591
 21
481.4459746315308
  0
LINE
  8
0
  6
CONTINUOUS
 62
     7
 10
52.01231808312956
 20
481.241977841127
 11
51.90108768655013
 21
481.304676164209
  0
LINE
  8
0
  6
CONTINUOUS
 62
     7
 10
54.99483656682602
 20
481.4459746315307
 11
54.89027282622785
 21
481.3727297380528
  0
LINE
  8
0
  6
CONTINUOUS
 62
     7
 10
53.5720273213871
 20
480.939084322071
 11
53.44444301370469
 21
480.9359626081173
  0
LINE
  8
0
  6
CONTINUOUS
 62
     7
 10
211.2852737011103
 20
265.9822469895676
 11
211.3735572979354
 21
265.8901196828146
  0
LINE
  8
0
  6
CONTINUOUS
 62
     7
 10
206.8525416749249
 20
255.3881862109745
 11
206.8012016872355
 21
255.5052201621605
  0
LINE
  8
0
  6
CONTINUOUS
 62
     7
 10
207.3620935874705
 20
254.6590668759274
 11
207.2743971071501
 21
254.7517812991846
  0
LINE
  8
0
  6
CONTINUOUS
 62
     7
 10
50.64408321725999
 20
483.2735975320708
 11
50.63429291279453
 21
483.400461179581
  0
LINE
  8
0
  6
CONTINUOUS
 62
     7
 10
210.9948365668255
 20
266.2313052787151
 11
211.0956849897875
 21
266.1530455018619
  0
LINE
  8
0
  6
CONTINUOUS
 62
     7
 10
208.2037634068499
 20
254.0936915088389
 11
208.0872659693321
 21
254.1455680101965
  0
LINE
  8
0
  6
CONTINUOUS
 62
     7
 10
211.8515238891138
 20
265.1414519911031
 11
211.8978260449867
 21
265.0227695746049
  0
LINE
  8
0
  6
CONTINUOUS
 62
     7
 10
207.1913549490413
 20
254.8487154611165
 11
207.1131671495826
 21
254.9496358614724
  0
LINE
  8
0
  6
CONTINUOUS
 62
     7
 10
208.566598500372
 20
253.9733215579655
 11
208.4437186809877
 21
254.0074644284975
  0
LINE
  8
0
  6
CONTINUOUS
 62
     7
 10
208.012318083129
 20
266.4353020691189
 11
208.1264837590529
 21
266.4924941103293
  0
LINE
  8
0
  6
CONTINUOUS
 62
     7
 10
206.630757349194
 20
264.1496482726289
 11
206.6342929127941
 21
264.2768187306647
  0
LINE
  8
0
  6
CONTINUOUS
 62
     7
 10
207.14729315865
 20
265.6935180397066
 11
207.2261200391778
 21
265.7937993589937
  0
LINE
  8
0
  6
CONTINUOUS
 62
     7
 10
210.1995223180897
 20
266.6297231474932
 11
210.3208188264109
 21
266.5898218737053
  0
LINE
  8
0
  6
CONTINUOUS
 62
     7
 10
206.634292912794
 20
264.2768187306647
 11
206.6440832172593
 21
264.4036823781749
  0
LINE
  8
0
  6
CONTINUOUS
 62
     7
 10
210.3208188264109
 20
266.5898218737053
 11
210.4400236274633
 21
266.5440421023881
  0
LINE
  8
0
  6
CONTINUOUS
 62
     7
 10
206.7450956199773
 20
264.9019834608648
 11
206.785507288347
 21
265.0227695746049
  0
LINE
  8
0
  6
CONTINUOUS
 62
     7
 10
211.9726615484088
 20
264.7793846060027
 11
212.0010146281535
 21
264.6552683327674
  0
LINE
  8
0
  6
CONTINUOUS
 62
     7
 10
211.6098480570683
 20
265.5895172880161
 11
211.6784591488949
 21
265.4820476265556
  0
LINE
  8
0
  6
CONTINUOUS
 62
     7
 10
211.0956849897875
 20
266.1530455018619
 11
211.1925751659803
 21
266.0699593580147
  0
LINE
  8
0
  6
CONTINUOUS
 62
     7
 10
208.2433097058696
 20
266.5440421023881
 11
208.3625145069222
 21
266.5898218737053
  0
LINE
  8
0
  6
CONTINUOUS
 62
     7
 10
207.7930605071059
 20
266.3045501721929
 11
207.9010876865497
 21
266.3726037460366
  0
LINE
  8
0
  6
CONTINUOUS
 62
     7
 10
208.3226764587978
 20
254.0476199884163
 11
208.2037634068499
 21
254.0936915088389
  0
LINE
  8
0
  6
CONTINUOUS
 62
     7
 10
208.0872659693322
 20
254.1455680101965
 11
207.9734647715695
 21
254.203124529568
  0
LINE
  8
0
  6
CONTINUOUS
 62
     7
 10
207.27439710715
 20
254.7517812991846
 11
207.1913549490412
 21
254.8487154611165
  0
LINE
  8
0
  6
CONTINUOUS
 62
     7
 10
50.94162515727785
 20
482.305911976192
 11
50.8838905524594
 21
482.419535088508
  0
LINE
  8
0
  6
CONTINUOUS
 62
     7
 10
207.5876483435454
 20
266.1530455018619
 11
207.6884967665076
 21
266.2313052787151
  0
LINE
  8
0
  6
CONTINUOUS
 62
     7
 10
206.8838905524588
 20
265.2577448217382
 11
206.9416251572778
 21
265.3713679340537
  0
LINE
  8
0
  6
CONTINUOUS
 62
     7
 10
206.6091953620223
 20
256.3753636288102
 11
206.6064702408144
 21
256.5033445292381
  0
LINE
  8
0
  6
CONTINUOUS
 62
     7
 10
207.1131671495825
 20
254.9496358614724
 11
207.0400220517718
 21
255.0542993977379
  0
LINE
  8
0
  6
CONTINUOUS
 62
     7
 10
206.7160139678106
 20
255.7462147972145
 11
206.6823714408582
 21
255.8695949601785
  0
LINE
  8
0
  6
CONTINUOUS
 62
     7
 10
211.457213294155
 20
265.7937993589937
 11
211.536040174683
 21
265.6935180397067
  0
LINE
  8
0
  6
CONTINUOUS
 62
     7
 10
208.8573079683029
 20
266.7132669769534
 11
208.9840096820771
 21
266.7288379660678
  0
LINE
  8
0
  6
CONTINUOUS
 62
     7
 10
50.66010467917614
 20
483.147346291099
 11
50.64408321725999
 21
483.2735975320708
  0
LINE
  8
0
  6
CONTINUOUS
 62
     7
 10
207.3097760353972
 20
265.8901196828147
 11
207.3980596322226
 21
265.9822469895677
  0
LINE
  8
0
  6
CONTINUOUS
 62
     7
 10
50.63429291279453
 20
483.4004611795811
 11
50.63075734919456
 21
483.5276316376169
  0
LINE
  8
0
  6
CONTINUOUS
 62
     7
 10
206.8012016872355
 20
255.5052201621604
 11
206.7556558804632
 21
255.6246589277584
  0
LINE
  8
0
  6
CONTINUOUS
 62
     7
 10
211.5360401746831
 20
265.6935180397066
 11
211.6098480570683
 21
265.5895172880161
  0
LINE
  8
0
  6
CONTINUOUS
 62
     7
 10
212.0232286541575
 20
264.5299336191467
 11
212.0392501160734
 21
264.4036823781748
  0
LINE
  8
0
  6
CONTINUOUS
 62
     7
 10
207.8626339440384
 20
254.2662224216993
 11
207.7550404620275
 21
254.3347096929755
  0
LINE
  8
0
  6
CONTINUOUS
 62
     7
 10
206.9095521729949
 20
255.2738389919099
 11
206.852541674925
 21
255.3881862109745
  0
LINE
  8
0
  6
CONTINUOUS
 62
     7
 10
206.6181771793632
 20
256.2476914941755
 11
206.6091953620223
 21
256.3753636288102
  0
LINE
  8
0
  6
CONTINUOUS
 62
     7
 10
209.8260253650295
 20
266.7132669769534
 11
209.9518272567726
 21
266.691520129072
  0
LINE
  8
0
  6
CONTINUOUS
 62
     7
 10
211.3735572979354
 20
265.8901196828147
 11
211.457213294155
 21
265.7937993589937
  0
LINE
  8
0
  6
CONTINUOUS
 62
     7
 10
212.0392501160735
 20
264.4036823781749
 11
212.0490404205389
 21
264.2768187306647
  0
LINE
  8
0
  6
CONTINUOUS
 62
     7
 10
206.7556558804633
 20
255.6246589277584
 11
206.7160139678106
 21
255.7462147972145
  0
LINE
  8
0
  6
CONTINUOUS
 62
     7
 10
208.9432857007243
 20
253.9077179628256
 11
208.8166832190348
 21
253.9233881840248
  0
LINE
  8
0
  6
CONTINUOUS
 62
     7
 10
207.3980596322226
 20
265.9822469895676
 11
207.4907581673525
 21
266.0699593580147
  0
LINE
  8
0
  6
CONTINUOUS
 62
     7
 10
209.1113060119458
 20
266.7381955881749
 11
209.2388903196287
 21
266.7413173021283
  0
LINE
  8
0
  6
CONTINUOUS
 62
     7
 10
50.88389055245934
 20
482.4195350885081
 11
50.8318094442192
 21
482.5358279191432
  0
LINE
  8
0
  6
CONTINUOUS
 62
     7
 10
211.1925751659803
 20
266.0699593580147
 11
211.2852737011103
 21
265.9822469895676
  0
LINE
  8
0
  6
CONTINUOUS
 62
     7
 10
209.5720273213873
 20
266.7381955881749
 11
209.6993236512553
 21
266.7288379660679
  0
LINE
  8
0
  6
CONTINUOUS
 62
     7
 10
50.71067178492417
 20
482.897895304243
 11
50.68231870518006
 21
483.0220115774783
  0
LINE
  8
0
  6
CONTINUOUS
 62
     7
 10
211.7994427808742
 20
265.2577448217382
 11
211.8515238891138
 21
265.1414519911031
  0
LINE
  8
0
  6
CONTINUOUS
 62
     7
 10
209.4444430137041
 20
266.7413173021283
 11
209.5720273213871
 21
266.7381955881749
  0
LINE
  8
0
  6
CONTINUOUS
 62
     7
 10
211.7417081760553
 20
265.3713679340537
 11
211.7994427808742
 21
265.2577448217382
  0
LINE
  8
0
  6
CONTINUOUS
 62
     7
 10
206.6440832172594
 20
264.4036823781749
 11
206.6601046791755
 21
264.5299336191467
  0
LINE
  8
0
  6
CONTINUOUS
 62
     7
 10
206.6823714408581
 20
255.8695949601785
 11
206.654809339545
 21
255.9945022118447
  0
LINE
  8
0
  6
CONTINUOUS
 62
     7
 10
209.0705223955668
 20
253.8983007056921
 11
208.9432857007243
 21
253.9077179628257
  0
LINE
  8
0
  6
CONTINUOUS
 62
     7
 10
206.6333940569496
 20
256.1206356688739
 11
206.6181771793631
 21
256.2476914941755
  0
LINE
  8
0
  6
CONTINUOUS
 62
     7
 10
209.6993236512552
 20
266.7288379660678
 11
209.8260253650294
 21
266.7132669769534
  0
LINE
  8
0
  6
CONTINUOUS
 62
     7
 10
210.4400236274633
 20
266.5440421023881
 11
210.5568495742799
 21
266.4924941103294
  0
LINE
  8
0
  6
CONTINUOUS
 62
     7
 10
206.9720958514752
 20
255.162453950728
 11
206.9095521729948
 21
255.2738389919099
  0
LINE
  8
0
  6
CONTINUOUS
 62
     7
 10
207.9010876865497
 20
266.3726037460366
 11
208.012318083129
 21
266.4353020691188
  0
LINE
  8
0
  6
CONTINUOUS
 62
     7
 10
207.0734852762644
 20
265.5895172880161
 11
207.14729315865
 21
265.6935180397066
  0
LINE
  8
0
  6
CONTINUOUS
 62
     7
 10
209.6128109377669
 20
253.8983007056921
 11
209.4852465244002
 21
253.8951590974223
  0
LINE
  8
0
  6
CONTINUOUS
 62
     7
 10
55.22910019135441
 20
254.5707955268586
 11
55.13273951339698
 21
254.4871798847753
  0
LINE
  8
0
  6
CONTINUOUS
 62
     7
 10
206.654809339545
 20
255.9945022118447
 11
206.6333940569496
 21
256.1206356688739
  0
LINE
  8
0
  6
CONTINUOUS
 62
     7
 10
210.9282928713054
 20
254.3347096929756
 11
210.8206993892939
 21
254.2662224216993
  0
LINE
  8
0
  6
CONTINUOUS
 62
     7
 10
209.7400476326082
 20
253.9077179628256
 11
209.6128109377669
 21
253.898300705692
  0
LINE
  8
0
  6
CONTINUOUS
 62
     7
 10
212.0490404205389
 20
264.2768187306647
 11
212.052575984139
 21
264.1496482726289
  0
LINE
  8
0
  6
CONTINUOUS
 62
     7
 10
212.0741379713106
 20
256.3753636288102
 11
212.0651561539697
 21
256.2476914941755
  0
LINE
  8
0
  6
CONTINUOUS
 62
     7
 10
212.0010146281535
 20
264.6552683327674
 11
212.0232286541575
 21
264.5299336191467
  0
LINE
  8
0
  6
CONTINUOUS
 62
     7
 10
209.9518272567726
 20
266.691520129072
 11
210.0764262880865
 21
266.663649807406
  0
LINE
  8
0
  6
CONTINUOUS
 62
     7
 10
210.3606568745352
 20
254.0476199884163
 11
210.2396146523454
 21
254.0074644284975
  0
LINE
  8
0
  6
CONTINUOUS
 62
     7
 10
55.71123748185835
 20
255.162453950728
 11
55.64331128156152
 21
255.0542993977378
  0
LINE
  8
0
  6
CONTINUOUS
 62
     7
 10
211.7112374818577
 20
255.162453950728
 11
211.6433112815609
 21
255.0542993977378
  0
LINE
  8
0
  6
CONTINUOUS
 62
     7
 10
209.8666501142976
 20
253.9233881840248
 11
209.7400476326083
 21
253.9077179628257
  0
LINE
  8
0
  6
CONTINUOUS
 62
     7
 10
55.13273951339692
 20
254.4871798847752
 11
55.03238983080105
 21
254.4084213675563
  0
LINE
  8
0
  6
CONTINUOUS
 62
     7
 10
212.0651561539697
 20
256.2476914941755
 11
212.0499392763827
 21
256.1206356688739
  0
LINE
  8
0
  6
CONTINUOUS
 62
     7
 10
211.4919783842917
 20
254.8487154611165
 11
211.4089362261822
 21
254.7517812991846
  0
LINE
  8
0
  6
CONTINUOUS
 62
     7
 10
55.321239745863
 20
254.6590668759274
 11
55.22910019135443
 21
254.5707955268585
  0
LINE
  8
0
  6
CONTINUOUS
 62
     7
 10
55.03238983080116
 20
254.4084213675564
 11
54.92829287130601
 21
254.3347096929756
  0
LINE
  8
0
  6
CONTINUOUS
 62
     7
 10
211.1327395133963
 20
254.4871798847752
 11
211.0323898308006
 21
254.4084213675563
  0
LINE
  8
0
  6
CONTINUOUS
 62
     7
 10
55.64331128156152
 20
255.0542993977378
 11
55.57016618375096
 21
254.9496358614724
  0
LINE
  8
0
  6
CONTINUOUS
 62
     7
 10
210.7822456467834
 20
266.3726037460366
 11
210.8902728262272
 21
266.3045501721929
  0
LINE
  8
0
  6
CONTINUOUS
 62
     7
 10
211.6784591488949
 20
265.4820476265556
 11
211.7417081760553
 21
265.3713679340537
  0
LINE
  8
0
  6
CONTINUOUS
 62
     7
 10
212.0009618924747
 20
255.8695949601785
 11
211.9673193655223
 21
255.7462147972145
  0
LINE
  8
0
  6
CONTINUOUS
 62
     7
 10
55.77378116033871
 20
255.2738389919099
 11
55.71123748185838
 21
255.162453950728
  0
LINE
  8
0
  6
CONTINUOUS
 62
     7
 10
211.7737811603382
 20
255.2738389919099
 11
211.7112374818578
 21
255.162453950728
  0
LINE
  8
0
  6
CONTINUOUS
 62
     7
 10
212.0499392763827
 20
256.1206356688739
 11
212.028523993788
 21
255.9945022118447
  0
LINE
  8
0
  6
CONTINUOUS
 62
     7
 10
210.8206993892939
 20
254.2662224216993
 11
210.7098685617629
 21
254.203124529568
  0
LINE
  8
0
  6
CONTINUOUS
 62
     7
 10
210.2396146523453
 20
254.0074644284974
 11
210.1167348329609
 21
253.9733215579654
  0
LINE
  8
0
  6
CONTINUOUS
 62
     7
 10
212.028523993788
 20
255.9945022118447
 11
212.0009618924747
 21
255.8695949601785
  0
LINE
  8
0
  6
CONTINUOUS
 62
     7
 10
56.06515615397045
 20
256.2476914941755
 11
56.04993927638346
 21
256.1206356688739
  0
LINE
  8
0
  6
CONTINUOUS
 62
     7
 10
210.55684957428
 20
266.4924941103293
 11
210.6710152502034
 21
266.4353020691188
  0
LINE
  8
0
  6
CONTINUOUS
 62
     7
 10
55.96731936552302
 20
255.7462147972145
 11
55.92767745286986
 21
255.6246589277584
  0
LINE
  8
0
  6
CONTINUOUS
 62
     7
 10
211.8307916584079
 20
255.3881862109745
 11
211.7737811603382
 21
255.2738389919099
  0
LINE
  8
0
  6
CONTINUOUS
 62
     7
 10
56.07686309251913
 20
256.5033445292381
 11
56.0741379713112
 21
256.3753636288102
  0
LINE
  8
0
  6
CONTINUOUS
 62
     7
 10
55.83079165840798
 20
255.3881862109745
 11
55.77378116033868
 21
255.27383899191
  0
LINE
  8
0
  6
CONTINUOUS
 62
     7
 10
211.2291001913538
 20
254.5707955268586
 11
211.1327395133963
 21
254.4871798847753
  0
LINE
  8
0
  6
CONTINUOUS
 62
     7
 10
56.07413797131122
 20
256.3753636288102
 11
56.06515615397042
 21
256.2476914941755
  0
LINE
  8
0
  6
CONTINUOUS
 62
     7
 10
55.4919783842922
 20
254.8487154611165
 11
55.40893622618276
 21
254.7517812991846
  0
LINE
  8
0
  6
CONTINUOUS
 62
     7
 10
210.0764262880865
 20
266.663649807406
 11
210.1995223180897
 21
266.6297231474931
  0
LINE
  8
0
  6
CONTINUOUS
 62
     7
 10
55.4089362261827
 20
254.7517812991846
 11
55.32123974586295
 21
254.6590668759274
  0
LINE
  8
0
  6
CONTINUOUS
 62
     7
 10
211.4089362261823
 20
254.7517812991846
 11
211.3212397458624
 21
254.6590668759274
  0
LINE
  8
0
  6
CONTINUOUS
 62
     7
 10
55.88213164609801
 20
255.5052201621604
 11
55.83079165840804
 21
255.3881862109744
  0
LINE
  8
0
  6
CONTINUOUS
 62
     7
 10
207.0400220517718
 20
255.0542993977378
 11
206.9720958514752
 21
255.162453950728
  0
LINE
  8
0
  6
CONTINUOUS
 62
     7
 10
211.9276774528691
 20
255.6246589277584
 11
211.8821316460974
 21
255.5052201621604
  0
LINE
  8
0
  6
CONTINUOUS
 62
     7
 10
211.0323898308006
 20
254.4084213675564
 11
210.9282928713055
 21
254.3347096929756
  0
LINE
  8
0
  6
CONTINUOUS
 62
     7
 10
211.8978260449866
 20
265.0227695746049
 11
211.938237713355
 21
264.9019834608648
  0
LINE
  8
0
  6
CONTINUOUS
 62
     7
 10
210.6710152502034
 20
266.4353020691189
 11
210.7822456467834
 21
266.3726037460367
  0
LINE
  8
0
  6
CONTINUOUS
 62
     7
 10
210.8902728262272
 20
266.3045501721929
 11
210.9948365668254
 21
266.2313052787151
  0
LINE
  8
0
  6
CONTINUOUS
 62
     7
 10
209.9923134159335
 20
253.9452736220135
 11
209.8666501142976
 21
253.9233881840248
  0
LINE
  8
0
  6
CONTINUOUS
 62
     7
 10
211.9673193655223
 20
255.7462147972145
 11
211.9276774528691
 21
255.6246589277584
  0
LINE
  8
0
  6
CONTINUOUS
 62
     7
 10
56.02852399378855
 20
255.9945022118447
 11
56.00096189247478
 21
255.8695949601785
  0
LINE
  8
0
  6
CONTINUOUS
 62
     7
 10
210.709868561763
 20
254.203124529568
 11
210.5960673640002
 21
254.1455680101965
  0
LINE
  8
0
  6
CONTINUOUS
 62
     7
 10
210.479569926483
 20
254.0936915088389
 11
210.3606568745353
 21
254.0476199884163
  0
LINE
  8
0
  6
CONTINUOUS
 62
     7
 10
56.04993927638336
 20
256.1206356688739
 11
56.02852399378852
 21
255.9945022118447
  0
LINE
  8
0
  6
CONTINUOUS
 62
     7
 10
211.5701661837504
 20
254.9496358614724
 11
211.4919783842918
 21
254.8487154611165
  0
LINE
  8
0
  6
CONTINUOUS
 62
     7
 10
211.3212397458624
 20
254.6590668759274
 11
211.2291001913537
 21
254.5707955268585
  0
LINE
  8
0
  6
CONTINUOUS
 62
     7
 10
211.643311281561
 20
255.0542993977378
 11
211.5701661837504
 21
254.9496358614724
  0
LINE
  8
0
  6
CONTINUOUS
 62
     7
 10
211.938237713355
 20
264.9019834608648
 11
211.9726615484088
 21
264.7793846060028
  0
LINE
  8
0
  6
CONTINUOUS
 62
     7
 10
55.92767745286986
 20
255.6246589277584
 11
55.88213164609804
 21
255.5052201621604
  0
LINE
  8
0
  6
CONTINUOUS
 62
     7
 10
55.57016618375099
 20
254.9496358614724
 11
55.49197838429217
 21
254.8487154611165
  0
LINE
  8
0
  6
CONTINUOUS
 62
     7
 10
211.8821316460974
 20
255.5052201621604
 11
211.8307916584079
 21
255.3881862109744
  0
LINE
  8
0
  6
CONTINUOUS
 62
     7
 10
210.5960673640002
 20
254.1455680101965
 11
210.4795699264829
 21
254.0936915088389
  0
LINE
  8
0
  6
CONTINUOUS
 62
     7
 10
56.00096189247483
 20
255.8695949601785
 11
55.96731936552299
 21
255.7462147972145
  0
LINE
  8
0
  6
CONTINUOUS
 62
     7
 10
212.0768630925186
 20
256.5033445292381
 11
212.0741379713106
 21
256.3753636288102
  0
LINE
  8
0
  6
CONTINUOUS
 62
     7
 10
54.89027282622782
 20
266.3045501721929
 11
54.994836566826
 21
266.2313052787151
  0
LINE
  8
0
  6
CONTINUOUS
 62
     7
 10
53.5720273213871
 20
266.7381955881749
 11
53.69932365125576
 21
266.7288379660679
  0
LINE
  8
0
  6
CONTINUOUS
 62
     7
 10
50.63429291279453
 20
264.2768187306647
 11
50.64408321725999
 21
264.4036823781749
  0
LINE
  8
0
  6
CONTINUOUS
 62
     7
 10
50.88389055245934
 20
265.2577448217382
 11
50.94162515727837
 21
265.3713679340537
  0
LINE
  8
0
  6
CONTINUOUS
 62
     7
 10
53.44444301370466
 20
266.7413173021283
 11
53.57202732138708
 21
266.7381955881749
  0
LINE
  8
0
  6
CONTINUOUS
 62
     7
 10
55.60984805706903
 20
265.5895172880161
 11
55.67845914889561
 21
265.4820476265556
  0
LINE
  8
0
  6
CONTINUOUS
 62
     7
 10
53.69932365125574
 20
266.7288379660678
 11
53.82602536502995
 21
266.7132669769534
  0
LINE
  8
0
  6
CONTINUOUS
 62
     7
 10
54.99483656682602
 20
266.2313052787151
 11
55.09568498978764
 21
266.1530455018619
  0
LINE
  8
0
  6
CONTINUOUS
 62
     7
 10
54.47956992648351
 20
254.0936915088389
 11
54.36065687453578
 21
254.0476199884163
  0
LINE
  8
0
  6
CONTINUOUS
 62
     7
 10
55.93823771335548
 20
264.9019834608648
 11
55.9726615484093
 21
264.7793846060028
  0
LINE
  8
0
  6
CONTINUOUS
 62
     7
 10
51.30977603539799
 20
265.8901196828147
 11
51.39805963222258
 21
265.9822469895672
  0
LINE
  8
0
  6
CONTINUOUS
 62
     7
 10
50.66010467917614
 20
264.5299336191467
 11
50.68231870518006
 21
264.6552683327674
  0
LINE
  8
0
  6
CONTINUOUS
 62
     7
 10
50.63075734919453
 20
264.1496482726289
 11
50.6342929127945
 21
264.2768187306647
  0
LINE
  8
0
  6
CONTINUOUS
 62
     7
 10
54.70986856176352
 20
254.203124529568
 11
54.59606736400066
 21
254.1455680101965
  0
LINE
  8
0
  6
CONTINUOUS
 62
     7
 10
55.4572132941552
 20
265.7937993589937
 11
55.53604017468358
 21
265.6935180397067
  0
LINE
  8
0
  6
CONTINUOUS
 62
     7
 10
55.09568498978756
 20
266.1530455018619
 11
55.192575165981
 21
266.0699593580147
  0
LINE
  8
0
  6
CONTINUOUS
 62
     7
 10
54.32081882641082
 20
266.5898218737053
 11
54.440023627464
 21
266.5440421023881
  0
LINE
  8
0
  6
CONTINUOUS
 62
     7
 10
55.79944278087478
 20
265.2577448217382
 11
55.85152388911443
 21
265.141451991103
  0
LINE
  8
0
  6
CONTINUOUS
 62
     7
 10
53.99231341593413
 20
253.9452736220135
 11
53.86665011429878
 21
253.9233881840248
  0
LINE
  8
0
  6
CONTINUOUS
 62
     7
 10
55.8515238891144
 20
265.1414519911031
 11
55.89782604498658
 21
265.0227695746049
  0
LINE
  8
0
  6
CONTINUOUS
 62
     7
 10
210.1167348329609
 20
253.9733215579655
 11
209.9923134159334
 21
253.9452736220135
  0
LINE
  8
0
  6
CONTINUOUS
 62
     7
 10
50.64408321725999
 20
264.4036823781749
 11
50.66010467917614
 21
264.5299336191467
  0
LINE
  8
0
  6
CONTINUOUS
 62
     7
 10
53.95182725677316
 20
266.691520129072
 11
54.07642628808657
 21
266.663649807406
  0
LINE
  8
0
  6
CONTINUOUS
 62
     7
 10
51.00487418443855
 20
265.4820476265556
 11
51.07348527626512
 21
265.5895172880161
  0
LINE
  8
0
  6
CONTINUOUS
 62
     7
 10
51.39805963222255
 20
265.982246989567
 11
51.49075816735316
 21
266.0699593580147
  0
LINE
  8
0
  6
CONTINUOUS
 62
     7
 10
50.74509561997853
 20
264.9019834608648
 11
50.78550728834693
 21
265.022769574605
  0
LINE
  8
0
  6
CONTINUOUS
 62
     7
 10
53.86665011429881
 20
253.9233881840248
 11
53.7400476326094
 21
253.9077179628257
  0
LINE
  8
0
  6
CONTINUOUS
 62
     7
 10
50.9416251572784
 20
265.3713679340537
 11
51.00487418443861
 21
265.4820476265556
  0
LINE
  8
0
  6
CONTINUOUS
 62
     7
 10
51.58764834354601
 20
266.1530455018619
 11
51.68849676650822
 21
266.2313052787151
  0
LINE
  8
0
  6
CONTINUOUS
 62
     7
 10
54.78224564678402
 20
266.3726037460366
 11
54.89027282622782
 21
266.3045501721929
  0
LINE
  8
0
  6
CONTINUOUS
 62
     7
 10
55.9726615484093
 20
264.7793846060027
 11
56.00101462815415
 21
264.6552683327674
  0
LINE
  8
0
  6
CONTINUOUS
 62
     7
 10
54.92829287130596
 20
254.3347096929756
 11
54.82069938929454
 21
254.2662224216993
  0
LINE
  8
0
  6
CONTINUOUS
 62
     7
 10
54.67101525020401
 20
266.4353020691189
 11
54.78224564678402
 21
266.3726037460367
  0
LINE
  8
0
  6
CONTINUOUS
 62
     7
 10
50.83180944421972
 20
265.1414519911031
 11
50.88389055245928
 21
265.2577448217382
  0
LINE
  8
0
  6
CONTINUOUS
 62
     7
 10
54.82069938929457
 20
254.2662224216993
 11
54.70986856176357
 21
254.203124529568
  0
LINE
  8
0
  6
CONTINUOUS
 62
     7
 10
55.89782604498649
 20
265.0227695746049
 11
55.93823771335548
 21
264.9019834608648
  0
LINE
  8
0
  6
CONTINUOUS
 62
     7
 10
55.67845914889558
 20
265.4820476265556
 11
55.7417081760557
 21
265.3713679340537
  0
LINE
  8
0
  6
CONTINUOUS
 62
     7
 10
51.14729315865052
 20
265.6935180397066
 11
51.2261200391784
 21
265.7937993589937
  0
LINE
  8
0
  6
CONTINUOUS
 62
     7
 10
55.53604017468361
 20
265.6935180397066
 11
55.60984805706906
 21
265.5895172880161
  0
LINE
  8
0
  6
CONTINUOUS
 62
     7
 10
51.49075816735316
 20
266.0699593580147
 11
51.58764834354593
 21
266.1530455018619
  0
LINE
  8
0
  6
CONTINUOUS
 62
     7
 10
54.59606736400069
 20
254.1455680101965
 11
54.47956992648353
 21
254.0936915088389
  0
LINE
  8
0
  6
CONTINUOUS
 62
     7
 10
54.44002362746403
 20
266.5440421023881
 11
54.55684957428061
 21
266.4924941103294
  0
LINE
  8
0
  6
CONTINUOUS
 62
     7
 10
54.55684957428053
 20
266.4924941103293
 11
54.67101525020396
 21
266.4353020691188
  0
LINE
  8
0
  6
CONTINUOUS
 62
     7
 10
54.36065687453584
 20
254.0476199884163
 11
54.239614652346
 21
254.0074644284975
  0
LINE
  8
0
  6
CONTINUOUS
 62
     7
 10
55.28527370111092
 20
265.982246989567
 11
55.37355729793617
 21
265.8901196828146
  0
LINE
  8
0
  6
CONTINUOUS
 62
     7
 10
54.07642628808662
 20
266.663649807406
 11
54.19952231809019
 21
266.6297231474931
  0
LINE
  8
0
  6
CONTINUOUS
 62
     7
 10
56.02322865415798
 20
264.5299336191467
 11
56.03925011607421
 21
264.4036823781748
  0
LINE
  8
0
  6
CONTINUOUS
 62
     7
 10
50.78550728834696
 20
265.0227695746049
 11
50.83180944421981
 21
265.1414519911031
  0
LINE
  8
0
  6
CONTINUOUS
 62
     7
 10
53.61281093776671
 20
253.8983007056921
 11
53.48524652440123
 21
253.8951590974223
  0
LINE
  8
0
  6
CONTINUOUS
 62
     7
 10
51.22612003917837
 20
265.7937993589937
 11
51.30977603539799
 21
265.8901196828147
  0
LINE
  8
0
  6
CONTINUOUS
 62
     7
 10
50.68231870518003
 20
264.6552683327674
 11
50.71067178492414
 21
264.7793846060027
  0
LINE
  8
0
  6
CONTINUOUS
 62
     7
 10
53.74004763260931
 20
253.9077179628256
 11
53.61281093776673
 21
253.898300705692
  0
LINE
  8
0
  6
CONTINUOUS
 62
     7
 10
53.82602536503001
 20
266.7132669769534
 11
53.95182725677316
 21
266.691520129072
  0
LINE
  8
0
  6
CONTINUOUS
 62
     7
 10
51.0734852762651
 20
265.5895172880161
 11
51.14729315865046
 21
265.6935180397066
  0
LINE
  8
0
  6
CONTINUOUS
 62
     7
 10
54.19952231809011
 20
266.6297231474932
 11
54.32081882641076
 21
266.5898218737053
  0
LINE
  8
0
  6
CONTINUOUS
 62
     7
 10
50.71067178492417
 20
264.7793846060027
 11
50.74509561997856
 21
264.9019834608647
  0
LINE
  8
0
  6
CONTINUOUS
 62
     7
 10
56.0490404205396
 20
264.2768187306647
 11
56.05257598413957
 21
264.1496482726289
  0
LINE
  8
0
  6
CONTINUOUS
 62
     7
 10
54.23961465234594
 20
254.0074644284974
 11
54.11673483296161
 21
253.9733215579654
  0
LINE
  8
0
  6
CONTINUOUS
 62
     7
 10
55.19257516598097
 20
266.0699593580147
 11
55.28527370111092
 21
265.982246989567
  0
LINE
  8
0
  6
CONTINUOUS
 62
     7
 10
55.74170817605572
 20
265.3713679340537
 11
55.79944278087476
 21
265.2577448217382
  0
LINE
  8
0
  6
CONTINUOUS
 62
     7
 10
54.11673483296164
 20
253.9733215579655
 11
53.99231341593411
 21
253.9452736220135
  0
LINE
  8
0
  6
CONTINUOUS
 62
     7
 10
56.03925011607424
 20
264.4036823781749
 11
56.04904042053963
 21
264.2768187306647
  0
LINE
  8
0
  6
CONTINUOUS
 62
     7
 10
55.37355729793624
 20
265.8901196828147
 11
55.4572132941552
 21
265.7937993589938
  0
LINE
  8
0
  6
CONTINUOUS
 62
     7
 10
56.00101462815421
 20
264.6552683327674
 11
56.02322865415795
 21
264.5299336191467
  0
LINE
  8
0
  6
CONTINUOUS
 62
     7
 10
207.4542331419791
 20
109.554635781004
 11
207.3620935874704
 21
109.5867639246036
  0
LINE
  8
0
  6
CONTINUOUS
 62
     7
 10
52.60690704524695
 20
266.663649807406
 11
52.73150607656102
 21
266.691520129072
  0
LINE
  8
0
  6
CONTINUOUS
 62
     7
 10
207.9734647715694
 20
109.4208144819874
 11
207.8626339440384
 21
109.4437802365679
  0
LINE
  8
0
  6
CONTINUOUS
 62
     7
 10
206.6181771793632
 20
110.1649759990684
 11
206.6091953620223
 21
110.2114448558207
  0
LINE
  8
0
  6
CONTINUOUS
 62
     7
 10
53.11130601194635
 20
266.7381955881749
 11
53.23889031962878
 21
266.7413173021283
  0
LINE
  8
0
  6
CONTINUOUS
 62
     7
 10
206.6091953620223
 20
110.2114448558207
 11
206.6064702408144
 21
110.2580260941309
  0
LINE
  8
0
  6
CONTINUOUS
 62
     7
 10
206.9720958514752
 20
109.7699818361454
 11
206.9095521729948
 21
109.8105226756781
  0
LINE
  8
0
  6
CONTINUOUS
 62
     7
 10
53.07052239556675
 20
109.3098676834013
 11
52.94328570072476
 21
109.3132952846863
  0
LINE
  8
0
  6
CONTINUOUS
 62
     7
 10
207.3620935874705
 20
109.5867639246035
 11
207.2743971071501
 21
109.6205092149564
  0
LINE
  8
0
  6
CONTINUOUS
 62
     7
 10
51.75504046202817
 20
109.4687075647387
 11
51.65094350253302
 21
109.495536420204
  0
LINE
  8
0
  6
CONTINUOUS
 62
     7
 10
51.79306050710641
 20
266.3045501721929
 11
51.90108768655022
 21
266.3726037460366
  0
LINE
  8
0
  6
CONTINUOUS
 62
     7
 10
209.0705223955668
 20
109.3098676834013
 11
208.9432857007243
 21
109.3132952846863
  0
LINE
  8
0
  6
CONTINUOUS
 62
     7
 10
52.48381101524391
 20
266.6297231474932
 11
52.6069070452469
 21
266.6636498074061
  0
LINE
  8
0
  6
CONTINUOUS
 62
     7
 10
52.01231808312956
 20
266.4353020691189
 11
52.12648375905357
 21
266.4924941103293
  0
LINE
  8
0
  6
CONTINUOUS
 62
     7
 10
207.0400220517718
 20
109.7306167981565
 11
206.9720958514752
 21
109.7699818361454
  0
LINE
  8
0
  6
CONTINUOUS
 62
     7
 10
207.550593819936
 20
109.5242021761665
 11
207.4542331419791
 21
109.5546357810039
  0
LINE
  8
0
  6
CONTINUOUS
 62
     7
 10
207.8626339440384
 20
109.443780236568
 11
207.7550404620275
 21
109.4687075647388
  0
LINE
  8
0
  6
CONTINUOUS
 62
     7
 10
50.90955217299542
 20
109.810522675678
 11
50.85254167492562
 21
109.8521416597887
  0
LINE
  8
0
  6
CONTINUOUS
 62
     7
 10
206.6333940569496
 20
110.1187314605685
 11
206.6181771793631
 21
110.1649759990685
  0
LINE
  8
0
  6
CONTINUOUS
 62
     7
 10
208.0872659693322
 20
109.3998656221482
 11
207.9734647715695
 21
109.4208144819874
  0
LINE
  8
0
  6
CONTINUOUS
 62
     7
 10
207.27439710715
 20
109.6205092149565
 11
207.1913549490412
 21
109.655790364583
  0
LINE
  8
0
  6
CONTINUOUS
 62
     7
 10
52.1264837590536
 20
266.4924941103293
 11
52.2433097058701
 21
266.544042102388
  0
LINE
  8
0
  6
CONTINUOUS
 62
     7
 10
52.69101991739999
 20
109.3269644267588
 11
52.56659850037262
 21
109.3371730405781
  0
LINE
  8
0
  6
CONTINUOUS
 62
     7
 10
52.94328570072471
 20
109.3132952846862
 11
52.81668321903538
 21
109.3189987787671
  0
LINE
  8
0
  6
CONTINUOUS
 62
     7
 10
208.8166832190348
 20
109.3189987787672
 11
208.6910199173995
 21
109.3269644267589
  0
LINE
  8
0
  6
CONTINUOUS
 62
     7
 10
208.3226764587978
 20
109.3642154577149
 11
208.2037634068499
 21
109.3809841197961
  0
LINE
  8
0
  6
CONTINUOUS
 62
     7
 10
209.198086808932
 20
109.3087242315034
 11
209.0705223955667
 21
109.3098676834013
  0
LINE
  8
0
  6
CONTINUOUS
 62
     7
 10
51.862633944039
 20
109.443780236568
 11
51.75504046202808
 21
109.4687075647387
  0
LINE
  8
0
  6
CONTINUOUS
 62
     7
 10
206.8012016872355
 20
109.8947385344189
 11
206.7556558804632
 21
109.9382106899141
  0
LINE
  8
0
  6
CONTINUOUS
 62
     7
 10
206.7556558804633
 20
109.938210689914
 11
206.7160139678106
 21
109.9824534081963
  0
LINE
  8
0
  6
CONTINUOUS
 62
     7
 10
51.68849676650822
 20
266.2313052787151
 11
51.79306050710638
 21
266.3045501721929
  0
LINE
  8
0
  6
CONTINUOUS
 62
     7
 10
52.85730796830357
 20
266.7132669769534
 11
52.98400968207778
 21
266.7288379660678
  0
LINE
  8
0
  6
CONTINUOUS
 62
     7
 10
207.1131671495825
 20
109.692522386343
 11
207.0400220517718
 21
109.7306167981566
  0
LINE
  8
0
  6
CONTINUOUS
 62
     7
 10
206.9095521729949
 20
109.810522675678
 11
206.852541674925
 21
109.8521416597887
  0
LINE
  8
0
  6
CONTINUOUS
 62
     7
 10
51.55059381993654
 20
109.5242021761665
 11
51.45423314197969
 21
109.5546357810039
  0
LINE
  8
0
  6
CONTINUOUS
 62
     7
 10
52.36251450692264
 20
266.5898218737053
 11
52.48381101524388
 21
266.6297231474932
  0
LINE
  8
0
  6
CONTINUOUS
 62
     7
 10
207.6509435025324
 20
109.4955364202039
 11
207.5505938199361
 21
109.5242021761665
  0
LINE
  8
0
  6
CONTINUOUS
 62
     7
 10
52.98400968207773
 20
266.7288379660678
 11
53.1113060119463
 21
266.7381955881748
  0
LINE
  8
0
  6
CONTINUOUS
 62
     7
 10
207.7550404620276
 20
109.4687075647387
 11
207.6509435025325
 21
109.4955364202039
  0
LINE
  8
0
  6
CONTINUOUS
 62
     7
 10
52.32267645879829
 20
109.3642154577149
 11
52.20376340685057
 21
109.3809841197961
  0
LINE
  8
0
  6
CONTINUOUS
 62
     7
 10
52.44371868098818
 20
109.3496000291642
 11
52.32267645879834
 21
109.3642154577149
  0
LINE
  8
0
  6
CONTINUOUS
 62
     7
 10
51.36209358747124
 20
109.5867639246035
 11
51.27439710715139
 21
109.6205092149564
  0
LINE
  8
0
  6
CONTINUOUS
 62
     7
 10
208.9432857007243
 20
109.3132952846862
 11
208.8166832190348
 21
109.3189987787671
  0
LINE
  8
0
  6
CONTINUOUS
 62
     7
 10
206.8525416749249
 20
109.8521416597888
 11
206.8012016872355
 21
109.8947385344189
  0
LINE
  8
0
  6
CONTINUOUS
 62
     7
 10
207.1913549490413
 20
109.6557903645831
 11
207.1131671495826
 21
109.692522386343
  0
LINE
  8
0
  6
CONTINUOUS
 62
     7
 10
52.56659850037259
 20
109.3371730405781
 11
52.44371868098818
 21
109.3496000291641
  0
LINE
  8
0
  6
CONTINUOUS
 62
     7
 10
208.6910199173995
 20
109.3269644267588
 11
208.5665985003718
 21
109.3371730405781
  0
LINE
  8
0
  6
CONTINUOUS
 62
     7
 10
51.90108768655022
 20
266.3726037460366
 11
52.01231808312964
 21
266.4353020691188
  0
LINE
  8
0
  6
CONTINUOUS
 62
     7
 10
208.4437186809876
 20
109.3496000291642
 11
208.3226764587978
 21
109.3642154577149
  0
LINE
  8
0
  6
CONTINUOUS
 62
     7
 10
52.2433097058701
 20
266.5440421023881
 11
52.36251450692269
 21
266.5898218737053
  0
LINE
  8
0
  6
CONTINUOUS
 62
     7
 10
52.73150607656096
 20
266.691520129072
 11
52.85730796830354
 21
266.7132669769534
  0
LINE
  8
0
  6
CONTINUOUS
 62
     7
 10
52.08726596933278
 20
109.3998656221482
 11
51.97346477157
 21
109.4208144819874
  0
LINE
  8
0
  6
CONTINUOUS
 62
     7
 10
51.97346477157005
 20
109.4208144819874
 11
51.86263394403906
 21
109.4437802365679
  0
LINE
  8
0
  6
CONTINUOUS
 62
     7
 10
206.7160139678106
 20
109.9824534081963
 11
206.6823714408582
 21
110.0273601150142
  0
LINE
  8
0
  6
CONTINUOUS
 62
     7
 10
52.81668321903543
 20
109.3189987787672
 11
52.69101991739999
 21
109.3269644267589
  0
LINE
  8
0
  6
CONTINUOUS
 62
     7
 10
51.45423314197972
 20
109.554635781004
 11
51.36209358747115
 21
109.5867639246036
  0
LINE
  8
0
  6
CONTINUOUS
 62
     7
 10
51.27439710715132
 20
109.6205092149565
 11
51.19135494904187
 21
109.655790364583
  0
LINE
  8
0
  6
CONTINUOUS
 62
     7
 10
206.654809339545
 20
110.0728226366648
 11
206.6333940569496
 21
110.1187314605684
  0
LINE
  8
0
  6
CONTINUOUS
 62
     7
 10
52.20376340685062
 20
109.3809841197961
 11
52.0872659693328
 21
109.3998656221482
  0
LINE
  8
0
  6
CONTINUOUS
 62
     7
 10
53.19808680893279
 20
109.3087242315034
 11
53.07052239556673
 21
109.3098676834013
  0
LINE
  8
0
  6
CONTINUOUS
 62
     7
 10
208.2037634068499
 20
109.3809841197961
 11
208.0872659693321
 21
109.3998656221482
  0
LINE
  8
0
  6
CONTINUOUS
 62
     7
 10
51.65094350253296
 20
109.4955364202039
 11
51.55059381993659
 21
109.5242021761665
  0
LINE
  8
0
  6
CONTINUOUS
 62
     7
 10
208.566598500372
 20
109.3371730405781
 11
208.4437186809877
 21
109.3496000291641
  0
LINE
  8
0
  6
CONTINUOUS
 62
     7
 10
206.6823714408581
 20
110.0273601150142
 11
206.654809339545
 21
110.0728226366648
  0
LINE
  8
0
  6
CONTINUOUS
 62
     7
 10
210.4400236274633
 20
113.9125411420266
 11
210.5568495742799
 21
113.8937792072811
  0
LINE
  8
0
  6
CONTINUOUS
 62
     7
 10
50.80120168723612
 20
109.8947385344189
 11
50.75565588046371
 21
109.9382106899141
  0
LINE
  8
0
  6
CONTINUOUS
 62
     7
 10
212.0499392763827
 20
110.1187314605685
 11
212.028523993788
 21
110.0728226366648
  0
LINE
  8
0
  6
CONTINUOUS
 62
     7
 10
211.3212397458624
 20
109.5867639246035
 11
211.2291001913537
 21
109.5546357810039
  0
LINE
  8
0
  6
CONTINUOUS
 62
     7
 10
212.0232286541575
 20
113.1794656055437
 11
212.0392501160734
 21
113.1335139117907
  0
LINE
  8
0
  6
CONTINUOUS
 62
     7
 10
211.5701661837504
 20
109.692522386343
 11
211.4919783842918
 21
109.6557903645831
  0
LINE
  8
0
  6
CONTINUOUS
 62
     7
 10
209.8260253650295
 20
113.9741339592659
 11
209.9518272567726
 21
113.9662187539479
  0
LINE
  8
0
  6
CONTINUOUS
 62
     7
 10
210.7822456467834
 20
113.8501426833031
 11
210.8902728262272
 21
113.8253732080886
  0
LINE
  8
0
  6
CONTINUOUS
 62
     7
 10
211.1327395133963
 20
109.5242021761665
 11
211.0323898308006
 21
109.4955364202039
  0
LINE
  8
0
  6
CONTINUOUS
 62
     7
 10
211.5360401746831
 20
113.6029756996834
 11
211.6098480570683
 21
113.5651225217267
  0
LINE
  8
0
  6
CONTINUOUS
 62
     7
 10
212.0490404205389
 20
113.0873393202867
 11
212.052575984139
 21
113.0410530588837
  0
LINE
  8
0
  6
CONTINUOUS
 62
     7
 10
51.19135494904192
 20
109.6557903645831
 11
51.11316714958319
 21
109.692522386343
  0
LINE
  8
0
  6
CONTINUOUS
 62
     7
 10
212.028523993788
 20
110.0728226366647
 11
212.0009618924747
 21
110.0273601150142
  0
LINE
  8
0
  6
CONTINUOUS
 62
     7
 10
210.5960673640002
 20
109.3998656221482
 11
210.4795699264829
 21
109.3809841197962
  0
LINE
  8
0
  6
CONTINUOUS
 62
     7
 10
210.479569926483
 20
109.3809841197961
 11
210.3606568745353
 21
109.3642154577149
  0
LINE
  8
0
  6
CONTINUOUS
 62
     7
 10
50.85254167492559
 20
109.8521416597888
 11
50.8012016872362
 21
109.8947385344189
  0
LINE
  8
0
  6
CONTINUOUS
 62
     7
 10
211.9276774528691
 20
109.938210689914
 11
211.8821316460974
 21
109.8947385344188
  0
LINE
  8
0
  6
CONTINUOUS
 62
     7
 10
51.0400220517726
 20
109.7306167981565
 11
50.97209585147577
 21
109.7699818361454
  0
LINE
  8
0
  6
CONTINUOUS
 62
     7
 10
210.709868561763
 20
109.4208144819874
 11
210.5960673640002
 21
109.3998656221481
  0
LINE
  8
0
  6
CONTINUOUS
 62
     7
 10
212.0651561539697
 20
110.1649759990684
 11
212.0499392763827
 21
110.1187314605684
  0
LINE
  8
0
  6
CONTINUOUS
 62
     7
 10
210.55684957428
 20
113.8937792072811
 11
210.6710152502034
 21
113.8729630066434
  0
LINE
  8
0
  6
CONTINUOUS
 62
     7
 10
50.68237144085863
 20
110.0273601150141
 11
50.65480933954552
 21
110.0728226366647
  0
LINE
  8
0
  6
CONTINUOUS
 62
     7
 10
50.71601396781067
 20
109.9824534081963
 11
50.68237144085874
 21
110.0273601150141
  0
LINE
  8
0
  6
CONTINUOUS
 62
     7
 10
211.1925751659803
 20
113.7399891344953
 11
211.2852737011103
 21
113.7080644432036
  0
LINE
  8
0
  6
CONTINUOUS
 62
     7
 10
211.0323898308006
 20
109.4955364202039
 11
210.9282928713055
 21
109.4687075647386
  0
LINE
  8
0
  6
CONTINUOUS
 62
     7
 10
50.75565588046382
 20
109.938210689914
 11
50.71601396781067
 21
109.9824534081963
  0
LINE
  8
0
  6
CONTINUOUS
 62
     7
 10
209.4444430137041
 20
113.9843434426908
 11
209.5720273213871
 21
113.9832072317318
  0
LINE
  8
0
  6
CONTINUOUS
 62
     7
 10
50.60919536202291
 20
110.2114448558207
 11
50.60647024081496
 21
110.258026094131
  0
LINE
  8
0
  6
CONTINUOUS
 62
     7
 10
50.97209585147577
 20
109.7699818361454
 11
50.90955217299536
 21
109.8105226756781
  0
LINE
  8
0
  6
CONTINUOUS
 62
     7
 10
209.6993236512552
 20
113.9798013358215
 11
209.8260253650294
 21
113.9741339592659
  0
LINE
  8
0
  6
CONTINUOUS
 62
     7
 10
211.7994427808742
 20
113.4443672194524
 11
211.8515238891138
 21
113.4020400906426
  0
LINE
  8
0
  6
CONTINUOUS
 62
     7
 10
211.4089362261823
 20
109.6205092149565
 11
211.3212397458624
 21
109.5867639246036
  0
LINE
  8
0
  6
CONTINUOUS
 62
     7
 10
211.643311281561
 20
109.7306167981565
 11
211.5701661837504
 21
109.6925223863429
  0
LINE
  8
0
  6
CONTINUOUS
 62
     7
 10
210.9282928713054
 20
109.4687075647387
 11
210.8206993892939
 21
109.443780236568
  0
LINE
  8
0
  6
CONTINUOUS
 62
     7
 10
210.8206993892939
 20
109.443780236568
 11
210.7098685617629
 21
109.4208144819874
  0
LINE
  8
0
  6
CONTINUOUS
 62
     7
 10
211.8515238891138
 20
113.4020400906426
 11
211.8978260449867
 21
113.3588432237066
  0
LINE
  8
0
  6
CONTINUOUS
 62
     7
 10
210.9948365668255
 20
113.7987142470507
 11
211.0956849897875
 21
113.7702300177359
  0
LINE
  8
0
  6
CONTINUOUS
 62
     7
 10
211.8821316460974
 20
109.8947385344189
 11
211.8307916584079
 21
109.8521416597888
  0
LINE
  8
0
  6
CONTINUOUS
 62
     7
 10
71.70038700164038
 20
115.7903329111959
 11
71.27033616651529
 21
115.8491023836355
  0
LINE
  8
0
  6
CONTINUOUS
 62
     7
 10
211.3735572979354
 20
113.6745328457826
 11
211.457213294155
 21
113.6394751149568
  0
LINE
  8
0
  6
CONTINUOUS
 62
     7
 10
50.65480933954558
 20
110.0728226366647
 11
50.63339405695017
 21
110.1187314605684
  0
LINE
  8
0
  6
CONTINUOUS
 62
     7
 10
209.5720273213873
 20
113.9832072317319
 11
209.6993236512553
 21
113.9798013358215
  0
LINE
  8
0
  6
CONTINUOUS
 62
     7
 10
50.61817717936378
 20
110.1649759990684
 11
50.60919536202299
 21
110.2114448558206
  0
LINE
  8
0
  6
CONTINUOUS
 62
     7
 10
211.8307916584079
 20
109.8521416597888
 11
211.7737811603382
 21
109.8105226756781
  0
LINE
  8
0
  6
CONTINUOUS
 62
     7
 10
211.4919783842917
 20
109.6557903645831
 11
211.4089362261822
 21
109.6205092149565
  0
LINE
  8
0
  6
CONTINUOUS
 62
     7
 10
211.9673193655223
 20
109.9824534081963
 11
211.9276774528691
 21
109.938210689914
  0
LINE
  8
0
  6
CONTINUOUS
 62
     7
 10
50.63339405695011
 20
110.1187314605685
 11
50.61817717936371
 21
110.1649759990685
  0
LINE
  8
0
  6
CONTINUOUS
 62
     7
 10
51.11316714958313
 20
109.692522386343
 11
51.04002205177257
 21
109.7306167981566
  0
LINE
  8
0
  6
CONTINUOUS
 62
     7
 10
210.3208188264109
 20
113.9292036161176
 11
210.4400236274633
 21
113.9125411420266
  0
LINE
  8
0
  6
CONTINUOUS
 62
     7
 10
211.2852737011103
 20
113.7080644432036
 11
211.3735572979354
 21
113.6745328457826
  0
LINE
  8
0
  6
CONTINUOUS
 62
     7
 10
227.9840999667048
 20
116.587934492988
 11
227.6232044912303
 21
116.2849836497711
  0
LINE
  8
0
  6
CONTINUOUS
 62
     7
 10
55.321239745863
 20
109.5867639246035
 11
55.22910019135443
 21
109.5546357810039
  0
LINE
  8
0
  6
CONTINUOUS
 62
     7
 10
206.9416251572778
 20
113.4857226502601
 11
207.004874184438
 21
113.5260067638684
  0
LINE
  8
0
  6
CONTINUOUS
 62
     7
 10
212.0741379713106
 20
110.2114448558207
 11
212.0651561539697
 21
110.1649759990684
  0
LINE
  8
0
  6
CONTINUOUS
 62
     7
 10
210.1167348329609
 20
109.3371730405781
 11
209.9923134159334
 21
109.3269644267588
  0
LINE
  8
0
  6
CONTINUOUS
 62
     7
 10
207.0734852762644
 20
113.5651225217267
 11
207.14729315865
 21
113.6029756996833
  0
LINE
  8
0
  6
CONTINUOUS
 62
     7
 10
207.3980596322226
 20
113.7080644432036
 11
207.4907581673525
 21
113.7399891344954
  0
LINE
  8
0
  6
CONTINUOUS
 62
     7
 10
207.4907581673525
 20
113.7399891344953
 11
207.5876483435454
 21
113.7702300177358
  0
LINE
  8
0
  6
CONTINUOUS
 62
     7
 10
210.0764262880865
 20
113.9560747864421
 11
210.1995223180897
 21
113.9437264920856
  0
LINE
  8
0
  6
CONTINUOUS
 62
     7
 10
211.6098480570683
 20
113.5651225217267
 11
211.6784591488949
 21
113.5260067638683
  0
LINE
  8
0
  6
CONTINUOUS
 62
     7
 10
211.7112374818577
 20
109.7699818361454
 11
211.6433112815609
 21
109.7306167981565
  0
LINE
  8
0
  6
CONTINUOUS
 62
     7
 10
54.36065687453584
 20
109.3642154577149
 11
54.239614652346
 21
109.3496000291642
  0
LINE
  8
0
  6
CONTINUOUS
 62
     7
 10
55.83079165840798
 20
109.8521416597888
 11
55.77378116033868
 21
109.8105226756781
  0
LINE
  8
0
  6
CONTINUOUS
 62
     7
 10
54.70986856176352
 20
109.4208144819874
 11
54.59606736400066
 21
109.3998656221481
  0
LINE
  8
0
  6
CONTINUOUS
 62
     7
 10
207.5876483435454
 20
113.7702300177359
 11
207.6884967665076
 21
113.7987142470507
  0
LINE
  8
0
  6
CONTINUOUS
 62
     7
 10
207.14729315865
 20
113.6029756996834
 11
207.2261200391778
 21
113.6394751149568
  0
LINE
  8
0
  6
CONTINUOUS
 62
     7
 10
210.1995223180897
 20
113.9437264920856
 11
210.3208188264109
 21
113.9292036161176
  0
LINE
  8
0
  6
CONTINUOUS
 62
     7
 10
206.6440832172594
 20
113.1335139117906
 11
206.6601046791755
 21
113.1794656055437
  0
LINE
  8
0
  6
CONTINUOUS
 62
     7
 10
210.6710152502034
 20
113.8729630066434
 11
210.7822456467834
 21
113.8501426833031
  0
LINE
  8
0
  6
CONTINUOUS
 62
     7
 10
211.7737811603382
 20
109.810522675678
 11
211.7112374818578
 21
109.7699818361454
  0
LINE
  8
0
  6
CONTINUOUS
 62
     7
 10
54.23961465234594
 20
109.3496000291642
 11
54.11673483296161
 21
109.3371730405782
  0
LINE
  8
0
  6
CONTINUOUS
 62
     7
 10
211.8978260449866
 20
113.3588432237065
 11
211.938237713355
 21
113.3148806735924
  0
LINE
  8
0
  6
CONTINUOUS
 62
     7
 10
210.3606568745352
 20
109.3642154577149
 11
210.2396146523454
 21
109.3496000291642
  0
LINE
  8
0
  6
CONTINUOUS
 62
     7
 10
212.0010146281535
 20
113.2250837106219
 11
212.0232286541575
 21
113.1794656055436
  0
LINE
  8
0
  6
CONTINUOUS
 62
     7
 10
211.938237713355
 20
113.3148806735925
 11
211.9726615484088
 21
113.2702583396676
  0
LINE
  8
0
  6
CONTINUOUS
 62
     7
 10
212.0392501160735
 20
113.1335139117906
 11
212.0490404205389
 21
113.0873393202866
  0
LINE
  8
0
  6
CONTINUOUS
 62
     7
 10
206.8838905524588
 20
113.4443672194524
 11
206.9416251572778
 21
113.4857226502601
  0
LINE
  8
0
  6
CONTINUOUS
 62
     7
 10
207.0048741844379
 20
113.5260067638684
 11
207.0734852762644
 21
113.5651225217268
  0
LINE
  8
0
  6
CONTINUOUS
 62
     7
 10
206.634292912794
 20
113.0873393202867
 11
206.6440832172593
 21
113.1335139117907
  0
LINE
  8
0
  6
CONTINUOUS
 62
     7
 10
206.7106717849236
 20
113.2702583396676
 11
206.7450956199773
 21
113.3148806735925
  0
LINE
  8
0
  6
CONTINUOUS
 62
     7
 10
209.9518272567726
 20
113.9662187539479
 11
210.0764262880865
 21
113.956074786442
  0
LINE
  8
0
  6
CONTINUOUS
 62
     7
 10
206.630757349194
 20
113.0410530588837
 11
206.6342929127941
 21
113.0873393202867
  0
LINE
  8
0
  6
CONTINUOUS
 62
     7
 10
228.5884446954282
 20
116.9450317208179
 11
227.9840999667048
 21
116.587934492988
  0
LINE
  8
0
  6
CONTINUOUS
 62
     7
 10
206.6601046791755
 20
113.1794656055438
 11
206.6823187051793
 21
113.225083710622
  0
LINE
  8
0
  6
CONTINUOUS
 62
     7
 10
211.9726615484088
 20
113.2702583396676
 11
212.0010146281535
 21
113.2250837106219
  0
LINE
  8
0
  6
CONTINUOUS
 62
     7
 10
209.9923134159335
 20
109.3269644267588
 11
209.8666501142976
 21
109.3189987787671
  0
LINE
  8
0
  6
CONTINUOUS
 62
     7
 10
212.0009618924747
 20
110.0273601150142
 11
211.9673193655223
 21
109.9824534081964
  0
LINE
  8
0
  6
CONTINUOUS
 62
     7
 10
207.3097760353972
 20
113.6745328457826
 11
207.3980596322226
 21
113.7080644432036
  0
LINE
  8
0
  6
CONTINUOUS
 62
     7
 10
55.03238983080116
 20
109.495536420204
 11
54.92829287130601
 21
109.4687075647387
  0
LINE
  8
0
  6
CONTINUOUS
 62
     7
 10
54.82069938929457
 20
109.443780236568
 11
54.70986856176357
 21
109.4208144819874
  0
LINE
  8
0
  6
CONTINUOUS
 62
     7
 10
206.785507288347
 20
113.3588432237066
 11
206.8318094442191
 21
113.4020400906425
  0
LINE
  8
0
  6
CONTINUOUS
 62
     7
 10
53.61281093776671
 20
109.3098676834013
 11
53.48524652440123
 21
109.3087242315034
  0
LINE
  8
0
  6
CONTINUOUS
 62
     7
 10
72.09513533216338
 20
115.2849516194421
 11
71.70038700164038
 21
115.7903329111959
  0
LINE
  8
0
  6
CONTINUOUS
 62
     7
 10
55.4919783842922
 20
109.6557903645831
 11
55.40893622618276
 21
109.6205092149565
  0
LINE
  8
0
  6
CONTINUOUS
 62
     7
 10
212.0768630925186
 20
110.2580260941309
 11
212.0741379713106
 21
110.2114448558207
  0
LINE
  8
0
  6
CONTINUOUS
 62
     7
 10
55.22910019135441
 20
109.554635781004
 11
55.13273951339698
 21
109.5242021761666
  0
LINE
  8
0
  6
CONTINUOUS
 62
     7
 10
210.8902728262272
 20
113.8253732080886
 11
210.9948365668254
 21
113.7987142470507
  0
LINE
  8
0
  6
CONTINUOUS
 62
     7
 10
211.7417081760553
 20
113.4857226502601
 11
211.7994427808742
 21
113.4443672194524
  0
LINE
  8
0
  6
CONTINUOUS
 62
     7
 10
211.6784591488949
 20
113.5260067638684
 11
211.7417081760553
 21
113.4857226502601
  0
LINE
  8
0
  6
CONTINUOUS
 62
     7
 10
206.7450956199773
 20
113.3148806735925
 11
206.785507288347
 21
113.3588432237066
  0
LINE
  8
0
  6
CONTINUOUS
 62
     7
 10
210.2396146523453
 20
109.3496000291642
 11
210.1167348329609
 21
109.3371730405782
  0
LINE
  8
0
  6
CONTINUOUS
 62
     7
 10
55.77378116033871
 20
109.810522675678
 11
55.71123748185838
 21
109.7699818361454
  0
LINE
  8
0
  6
CONTINUOUS
 62
     7
 10
211.0956849897875
 20
113.7702300177359
 11
211.1925751659803
 21
113.7399891344954
  0
LINE
  8
0
  6
CONTINUOUS
 62
     7
 10
56.06515615397045
 20
110.1649759990684
 11
56.04993927638346
 21
110.1187314605684
  0
LINE
  8
0
  6
CONTINUOUS
 62
     7
 10
211.457213294155
 20
113.6394751149568
 11
211.536040174683
 21
113.6029756996833
  0
LINE
  8
0
  6
CONTINUOUS
 62
     7
 10
206.8318094442191
 20
113.4020400906426
 11
206.8838905524588
 21
113.4443672194524
  0
LINE
  8
0
  6
CONTINUOUS
 62
     7
 10
53.74004763260931
 20
109.3132952846862
 11
53.61281093776673
 21
109.3098676834013
  0
LINE
  8
0
  6
CONTINUOUS
 62
     7
 10
55.4089362261827
 20
109.6205092149565
 11
55.32123974586295
 21
109.5867639246036
  0
LINE
  8
0
  6
CONTINUOUS
 62
     7
 10
72.13638983816517
 20
114.664280227711
 11
72.09513533216341
 21
115.2849516194421
  0
LINE
  8
0
  6
CONTINUOUS
 62
     7
 10
211.2291001913538
 20
109.554635781004
 11
211.1327395133963
 21
109.5242021761666
  0
LINE
  8
0
  6
CONTINUOUS
 62
     7
 10
53.99231341593413
 20
109.3269644267588
 11
53.86665011429878
 21
109.3189987787671
  0
LINE
  8
0
  6
CONTINUOUS
 62
     7
 10
209.7400476326082
 20
109.3132952846862
 11
209.6128109377669
 21
109.3098676834013
  0
LINE
  8
0
  6
CONTINUOUS
 62
     7
 10
209.8666501142976
 20
109.3189987787672
 11
209.7400476326083
 21
109.3132952846863
  0
LINE
  8
0
  6
CONTINUOUS
 62
     7
 10
56.04993927638336
 20
110.1187314605685
 11
56.02852399378852
 21
110.0728226366649
  0
LINE
  8
0
  6
CONTINUOUS
 62
     7
 10
207.7930605071059
 20
113.8253732080886
 11
207.9010876865497
 21
113.8501426833031
  0
LINE
  8
0
  6
CONTINUOUS
 62
     7
 10
54.92829287130596
 20
109.4687075647387
 11
54.82069938929454
 21
109.4437802365679
  0
LINE
  8
0
  6
CONTINUOUS
 62
     7
 10
56.02852399378855
 20
110.0728226366648
 11
56.00096189247478
 21
110.0273601150142
  0
LINE
  8
0
  6
CONTINUOUS
 62
     7
 10
229.048228769118
 20
116.5464778810626
 11
228.5884446954282
 21
116.945031720818
  0
LINE
  8
0
  6
CONTINUOUS
 62
     7
 10
51.0734852762651
 20
113.5651225217267
 11
51.14729315865046
 21
113.6029756996833
  0
LINE
  8
0
  6
CONTINUOUS
 62
     7
 10
208.3625145069221
 20
113.9292036161176
 11
208.4838110152433
 21
113.9437264920856
  0
LINE
  8
0
  6
CONTINUOUS
 62
     7
 10
50.63075734919453
 20
113.0410530588837
 11
50.6342929127945
 21
113.0873393202867
  0
LINE
  8
0
  6
CONTINUOUS
 62
     7
 10
52.2433097058701
 20
113.9125411420266
 11
52.36251450692269
 21
113.9292036161176
  0
LINE
  8
0
  6
CONTINUOUS
 62
     7
 10
55.74170817605572
 20
113.4857226502601
 11
55.79944278087476
 21
113.4443672194524
  0
LINE
  8
0
  6
CONTINUOUS
 62
     7
 10
56.07413797131122
 20
110.2114448558207
 11
56.06515615397042
 21
110.1649759990684
  0
LINE
  8
0
  6
CONTINUOUS
 62
     7
 10
54.32081882641082
 20
113.9292036161176
 11
54.440023627464
 21
113.9125411420266
  0
LINE
  8
0
  6
CONTINUOUS
 62
     7
 10
50.63429291279453
 20
113.0873393202867
 11
50.64408321725999
 21
113.1335139117907
  0
LINE
  8
0
  6
CONTINUOUS
 62
     7
 10
54.78224564678402
 20
113.8501426833031
 11
54.89027282622782
 21
113.8253732080886
  0
LINE
  8
0
  6
CONTINUOUS
 62
     7
 10
208.4838110152434
 20
113.9437264920856
 11
208.606907045247
 21
113.9560747864421
  0
LINE
  8
0
  6
CONTINUOUS
 62
     7
 10
55.28527370111092
 20
113.7080644432036
 11
55.37355729793617
 21
113.6745328457826
  0
LINE
  8
0
  6
CONTINUOUS
 62
     7
 10
54.11673483296164
 20
109.3371730405781
 11
53.99231341593411
 21
109.3269644267588
  0
LINE
  8
0
  6
CONTINUOUS
 62
     7
 10
55.8515238891144
 20
113.4020400906426
 11
55.89782604498658
 21
113.3588432237066
  0
LINE
  8
0
  6
CONTINUOUS
 62
     7
 10
209.6128109377669
 20
109.3098676834013
 11
209.4852465244002
 21
109.3087242315034
  0
LINE
  8
0
  6
CONTINUOUS
 62
     7
 10
50.66010467917614
 20
113.1794656055438
 11
50.68231870518006
 21
113.225083710622
  0
LINE
  8
0
  6
CONTINUOUS
 62
     7
 10
208.2433097058696
 20
113.9125411420266
 11
208.3625145069222
 21
113.9292036161176
  0
LINE
  8
0
  6
CONTINUOUS
 62
     7
 10
207.6884967665076
 20
113.7987142470507
 11
207.7930605071058
 21
113.8253732080886
  0
LINE
  8
0
  6
CONTINUOUS
 62
     7
 10
55.13273951339692
 20
109.5242021761665
 11
55.03238983080105
 21
109.495536420204
  0
LINE
  8
0
  6
CONTINUOUS
 62
     7
 10
55.93823771335548
 20
113.3148806735925
 11
55.9726615484093
 21
113.2702583396676
  0
LINE
  8
0
  6
CONTINUOUS
 62
     7
 10
55.9726615484093
 20
113.2702583396676
 11
56.00101462815415
 21
113.2250837106219
  0
LINE
  8
0
  6
CONTINUOUS
 62
     7
 10
56.03925011607424
 20
113.1335139117906
 11
56.04904042053963
 21
113.0873393202866
  0
LINE
  8
0
  6
CONTINUOUS
 62
     7
 10
208.8573079683029
 20
113.9741339592659
 11
208.9840096820771
 21
113.9798013358215
  0
LINE
  8
0
  6
CONTINUOUS
 62
     7
 10
53.69932365125574
 20
113.9798013358215
 11
53.82602536502995
 21
113.9741339592659
  0
LINE
  8
0
  6
CONTINUOUS
 62
     7
 10
56.0490404205396
 20
113.0873393202867
 11
56.05257598413957
 21
113.0410530588837
  0
LINE
  8
0
  6
CONTINUOUS
 62
     7
 10
206.6823187051794
 20
113.2250837106219
 11
206.7106717849237
 21
113.2702583396676
  0
LINE
  8
0
  6
CONTINUOUS
 62
     7
 10
56.07686309251913
 20
110.2580260941309
 11
56.0741379713112
 21
110.2114448558207
  0
LINE
  8
0
  6
CONTINUOUS
 62
     7
 10
54.59606736400069
 20
109.3998656221482
 11
54.47956992648353
 21
109.3809841197962
  0
LINE
  8
0
  6
CONTINUOUS
 62
     7
 10
208.1264837590528
 20
113.8937792072811
 11
208.2433097058695
 21
113.9125411420266
  0
LINE
  8
0
  6
CONTINUOUS
 62
     7
 10
55.92767745286986
 20
109.938210689914
 11
55.88213164609804
 21
109.8947385344188
  0
LINE
  8
0
  6
CONTINUOUS
 62
     7
 10
208.7315060765604
 20
113.9662187539479
 11
208.8573079683029
 21
113.9741339592659
  0
LINE
  8
0
  6
CONTINUOUS
 62
     7
 10
54.99483656682602
 20
113.7987142470507
 11
55.09568498978764
 21
113.7702300177359
  0
LINE
  8
0
  6
CONTINUOUS
 62
     7
 10
55.37355729793624
 20
113.6745328457826
 11
55.4572132941552
 21
113.6394751149568
  0
LINE
  8
0
  6
CONTINUOUS
 62
     7
 10
54.44002362746403
 20
113.9125411420266
 11
54.55684957428061
 21
113.893779207281
  0
LINE
  8
0
  6
CONTINUOUS
 62
     7
 10
207.9010876865497
 20
113.8501426833031
 11
208.012318083129
 21
113.8729630066434
  0
LINE
  8
0
  6
CONTINUOUS
 62
     7
 10
50.64408321725999
 20
113.1335139117906
 11
50.66010467917614
 21
113.1794656055437
  0
LINE
  8
0
  6
CONTINUOUS
 62
     7
 10
208.606907045247
 20
113.9560747864421
 11
208.7315060765604
 21
113.9662187539479
  0
LINE
  8
0
  6
CONTINUOUS
 62
     7
 10
55.79944278087478
 20
113.4443672194524
 11
55.85152388911443
 21
113.4020400906426
  0
LINE
  8
0
  6
CONTINUOUS
 62
     7
 10
53.82602536503001
 20
113.9741339592659
 11
53.95182725677316
 21
113.9662187539479
  0
LINE
  8
0
  6
CONTINUOUS
 62
     7
 10
207.2261200391778
 20
113.6394751149568
 11
207.3097760353973
 21
113.6745328457825
  0
LINE
  8
0
  6
CONTINUOUS
 62
     7
 10
55.88213164609801
 20
109.8947385344189
 11
55.83079165840804
 21
109.8521416597888
  0
LINE
  8
0
  6
CONTINUOUS
 62
     7
 10
55.96731936552302
 20
109.9824534081963
 11
55.92767745286986
 21
109.938210689914
  0
LINE
  8
0
  6
CONTINUOUS
 62
     7
 10
56.02322865415798
 20
113.1794656055438
 11
56.03925011607421
 21
113.1335139117907
  0
LINE
  8
0
  6
CONTINUOUS
 62
     7
 10
55.53604017468361
 20
113.6029756996834
 11
55.60984805706906
 21
113.5651225217267
  0
LINE
  8
0
  6
CONTINUOUS
 62
     7
 10
50.71067178492417
 20
113.2702583396676
 11
50.74509561997856
 21
113.3148806735925
  0
LINE
  8
0
  6
CONTINUOUS
 62
     7
 10
208.012318083129
 20
113.8729630066434
 11
208.1264837590529
 21
113.893779207281
  0
LINE
  8
0
  6
CONTINUOUS
 62
     7
 10
50.83180944421972
 20
113.4020400906426
 11
50.88389055245928
 21
113.4443672194524
  0
LINE
  8
0
  6
CONTINUOUS
 62
     7
 10
50.78550728834696
 20
113.3588432237066
 11
50.83180944421981
 21
113.4020400906425
  0
LINE
  8
0
  6
CONTINUOUS
 62
     7
 10
54.47956992648351
 20
109.3809841197961
 11
54.36065687453578
 21
109.3642154577149
  0
LINE
  8
0
  6
CONTINUOUS
 62
     7
 10
54.55684957428053
 20
113.8937792072809
 11
54.67101525020396
 21
113.8729630066434
  0
LINE
  8
0
  6
CONTINUOUS
 62
     7
 10
55.4572132941552
 20
113.6394751149568
 11
55.53604017468358
 21
113.6029756996833
  0
LINE
  8
0
  6
CONTINUOUS
 62
     7
 10
53.95182725677316
 20
113.9662187539479
 11
54.07642628808657
 21
113.956074786442
  0
LINE
  8
0
  6
CONTINUOUS
 62
     7
 10
55.09568498978756
 20
113.7702300177359
 11
55.192575165981
 21
113.7399891344954
  0
LINE
  8
0
  6
CONTINUOUS
 62
     7
 10
50.88389055245934
 20
113.4443672194524
 11
50.94162515727837
 21
113.4857226502601
  0
LINE
  8
0
  6
CONTINUOUS
 62
     7
 10
53.86665011429881
 20
109.3189987787672
 11
53.7400476326094
 21
109.3132952846863
  0
LINE
  8
0
  6
CONTINUOUS
 62
     7
 10
50.9416251572784
 20
113.4857226502601
 11
51.00487418443861
 21
113.5260067638684
  0
LINE
  8
0
  6
CONTINUOUS
 62
     7
 10
55.71123748185835
 20
109.7699818361454
 11
55.64331128156152
 21
109.7306167981565
  0
LINE
  8
0
  6
CONTINUOUS
 62
     7
 10
56.00096189247483
 20
110.0273601150142
 11
55.96731936552299
 21
109.9824534081964
  0
LINE
  8
0
  6
CONTINUOUS
 62
     7
 10
55.89782604498649
 20
113.3588432237066
 11
55.93823771335548
 21
113.3148806735925
  0
LINE
  8
0
  6
CONTINUOUS
 62
     7
 10
55.64331128156152
 20
109.7306167981565
 11
55.57016618375096
 21
109.6925223863429
  0
LINE
  8
0
  6
CONTINUOUS
 62
     7
 10
55.57016618375099
 20
109.692522386343
 11
55.49197838429217
 21
109.6557903645831
  0
LINE
  8
0
  6
CONTINUOUS
 62
     7
 10
51.00487418443855
 20
113.5260067638684
 11
51.07348527626512
 21
113.5651225217268
  0
LINE
  8
0
  6
CONTINUOUS
 62
     7
 10
-225.3306396581127
 20
275.0558397149303
 11
-225.3494561793399
 21
274.8300255244043
  0
LINE
  8
0
  6
CONTINUOUS
 62
     7
 10
-225.9951127053067
 20
469.1694169783571
 11
-226.1456416668959
 21
469.0636136015747
  0
LINE
  8
0
  6
CONTINUOUS
 62
     7
 10
51.39805963222255
 20
113.7080644432036
 11
51.49075816735316
 21
113.7399891344954
  0
LINE
  8
0
  6
CONTINUOUS
 62
     7
 10
51.49075816735316
 20
113.7399891344953
 11
51.58764834354593
 21
113.7702300177358
  0
LINE
  8
0
  6
CONTINUOUS
 62
     7
 10
52.1264837590536
 20
113.8937792072811
 11
52.2433097058701
 21
113.9125411420266
  0
LINE
  8
0
  6
CONTINUOUS
 62
     7
 10
51.30977603539799
 20
113.6745328457826
 11
51.39805963222258
 21
113.7080644432036
  0
LINE
  8
0
  6
CONTINUOUS
 62
     7
 10
55.60984805706903
 20
113.5651225217267
 11
55.67845914889561
 21
113.5260067638683
  0
LINE
  8
0
  6
CONTINUOUS
 62
     7
 10
-225.1130093868935
 20
472.5753901912528
 11
-225.0640564685341
 21
472.3357536882299
  0
LINE
  8
0
  6
CONTINUOUS
 62
     7
 10
-225.094677628975
 20
470.575755067558
 11
-225.1511406722467
 21
470.3837355099827
  0
LINE
  8
0
  6
CONTINUOUS
 62
     7
 10
-225.2980749131241
 20
470.0239624671905
 11
-225.3881752653969
 21
469.8571170082639
  0
LINE
  8
0
  6
CONTINUOUS
 62
     7
 10
-225.3231383171155
 20
275.2772302265369
 11
-225.3306396581128
 21
275.0558397149303
  0
LINE
  8
0
  6
CONTINUOUS
 62
     7
 10
-225.3269702502812
 20
275.4936630446962
 11
-225.3231383171155
 21
275.2772302265369
  0
LINE
  8
0
  6
CONTINUOUS
 62
     7
 10
208.9840096820771
 20
113.9798013358215
 11
209.1113060119458
 21
113.9832072317319
  0
LINE
  8
0
  6
CONTINUOUS
 62
     7
 10
55.19257516598097
 20
113.7399891344953
 11
55.28527370111092
 21
113.7080644432036
  0
LINE
  8
0
  6
CONTINUOUS
 62
     7
 10
51.90108768655022
 20
113.8501426833031
 11
52.01231808312964
 21
113.8729630066434
  0
LINE
  8
0
  6
CONTINUOUS
 62
     7
 10
-224.9851686046797
 20
471.4132044442463
 11
-224.9949265340144
 21
471.1944775726517
  0
LINE
  8
0
  6
CONTINUOUS
 62
     7
 10
53.11130601194635
 20
113.9832072317319
 11
53.23889031962878
 21
113.9843434426909
  0
LINE
  8
0
  6
CONTINUOUS
 62
     7
 10
-225.6005059922806
 20
469.5516126474688
 11
-225.7222004682569
 21
469.4137248039034
  0
LINE
  8
0
  6
CONTINUOUS
 62
     7
 10
-226.8324594898604
 20
468.7552969931601
 11
-227.0231720794777
 21
468.7079150066614
  0
LINE
  8
0
  6
CONTINUOUS
 62
     7
 10
51.14729315865052
 20
113.6029756996834
 11
51.2261200391784
 21
113.6394751149568
  0
LINE
  8
0
  6
CONTINUOUS
 62
     7
 10
52.48381101524391
 20
113.9437264920856
 11
52.6069070452469
 21
113.9560747864421
  0
LINE
  8
0
  6
CONTINUOUS
 62
     7
 10
-225.6669240193399
 20
276.8278416864383
 11
-225.5855377504083
 21
276.6599062196189
  0
LINE
  8
0
  6
CONTINUOUS
 62
     7
 10
54.89027282622782
 20
113.8253732080886
 11
54.994836566826
 21
113.7987142470507
  0
LINE
  8
0
  6
CONTINUOUS
 62
     7
 10
209.1113060119458
 20
113.9832072317319
 11
209.2388903196287
 21
113.9843434426909
  0
LINE
  8
0
  6
CONTINUOUS
 62
     7
 10
-225.7222004682569
 20
469.4137248039035
 11
-225.8538467927217
 21
469.2862189774589
  0
LINE
  8
0
  6
CONTINUOUS
 62
     7
 10
-225.1734516828283
 20
472.8174290271161
 11
-225.1130093868935
 21
472.5753901912527
  0
LINE
  8
0
  6
CONTINUOUS
 62
     7
 10
52.36251450692264
 20
113.9292036161176
 11
52.48381101524388
 21
113.9437264920856
  0
LINE
  8
0
  6
CONTINUOUS
 62
     7
 10
54.07642628808662
 20
113.9560747864421
 11
54.19952231809019
 21
113.9437264920856
  0
LINE
  8
0
  6
CONTINUOUS
 62
     7
 10
51.79306050710641
 20
113.8253732080886
 11
51.90108768655022
 21
113.8501426833031
  0
LINE
  8
0
  6
CONTINUOUS
 62
     7
 10
-224.9949265340143
 20
471.1944775726517
 11
-225.0164718686312
 21
470.9816383004788
  0
LINE
  8
0
  6
CONTINUOUS
 62
     7
 10
-225.3421262146302
 20
275.7046161132959
 11
-225.3269702502812
 21
275.4936630446963
  0
LINE
  8
0
  6
CONTINUOUS
 62
     7
 10
-225.8538467927216
 20
469.2862189774589
 11
-225.9951127053068
 21
469.1694169783572
  0
LINE
  8
0
  6
CONTINUOUS
 62
     7
 10
-227.2205530130238
 20
468.6726964210343
 11
-227.4241041234441
 21
468.6497301239879
  0
LINE
  8
0
  6
CONTINUOUS
 62
     7
 10
-225.0164718686312
 20
470.9816383004788
 11
-225.0497502305531
 21
470.7752238098716
  0
LINE
  8
0
  6
CONTINUOUS
 62
     7
 10
-226.0951695099661
 20
277.4088738757389
 11
-225.9731956184494
 21
277.2779461342463
  0
LINE
  8
0
  6
CONTINUOUS
 62
     7
 10
54.19952231809011
 20
113.9437264920856
 11
54.32081882641076
 21
113.9292036161176
  0
LINE
  8
0
  6
CONTINUOUS
 62
     7
 10
51.58764834354601
 20
113.7702300177359
 11
51.68849676650822
 21
113.7987142470507
  0
LINE
  8
0
  6
CONTINUOUS
 62
     7
 10
-225.7588143193081
 20
276.9870792405796
 11
-225.6669240193399
 21
276.8278416864383
  0
LINE
  8
0
  6
CONTINUOUS
 62
     7
 10
-225.5148518237727
 20
276.4836779161049
 11
-225.4550367404702
 21
276.2995818549754
  0
LINE
  8
0
  6
CONTINUOUS
 62
     7
 10
-227.5766652652536
 20
278.1031880333771
 11
-227.382611267923
 21
278.0714688200676
  0
LINE
  8
0
  6
CONTINUOUS
 62
     7
 10
50.68231870518003
 20
113.2250837106219
 11
50.71067178492414
 21
113.2702583396676
  0
LINE
  8
0
  6
CONTINUOUS
 62
     7
 10
-225.0010836612475
 20
471.8660993522501
 11
-224.9872227085323
 21
471.6372668734853
  0
LINE
  8
0
  6
CONTINUOUS
 62
     7
 10
-225.0267164793551
 20
472.0991243333585
 11
-225.0010836612475
 21
471.8660993522501
  0
LINE
  8
0
  6
CONTINUOUS
 62
     7
 10
51.68849676650822
 20
113.7987142470507
 11
51.79306050710638
 21
113.8253732080886
  0
LINE
  8
0
  6
CONTINUOUS
 62
     7
 10
-226.5166272525408
 20
277.739919868732
 11
-226.3672134246389
 21
277.6401396602855
  0
LINE
  8
0
  6
CONTINUOUS
 62
     7
 10
-225.3795424935955
 20
274.6003323398147
 11
-225.4208260298884
 21
274.3673142025103
  0
LINE
  8
0
  6
CONTINUOUS
 62
     7
 10
-225.3881752653969
 20
469.8571170082638
 11
-225.4890705078259
 21
469.6995344949021
  0
LINE
  8
0
  6
CONTINUOUS
 62
     7
 10
52.73150607656096
 20
113.9662187539479
 11
52.85730796830354
 21
113.9741339592659
  0
LINE
  8
0
  6
CONTINUOUS
 62
     7
 10
-225.0640564685341
 20
472.3357536882299
 11
-225.0267164793551
 21
472.0991243333585
  0
LINE
  8
0
  6
CONTINUOUS
 62
     7
 10
-224.9872227085322
 20
471.6372668734851
 11
-224.9851686046796
 21
471.4132044442462
  0
LINE
  8
0
  6
CONTINUOUS
 62
     7
 10
53.5720273213871
 20
113.9832072317319
 11
53.69932365125576
 21
113.9798013358215
  0
LINE
  8
0
  6
CONTINUOUS
 62
     7
 10
54.67101525020401
 20
113.8729630066434
 11
54.78224564678402
 21
113.8501426833031
  0
LINE
  8
0
  6
CONTINUOUS
 62
     7
 10
56.00101462815421
 20
113.2250837106219
 11
56.02322865415795
 21
113.1794656055437
  0
LINE
  8
0
  6
CONTINUOUS
 62
     7
 10
52.01231808312956
 20
113.8729630066434
 11
52.12648375905357
 21
113.893779207281
  0
LINE
  8
0
  6
CONTINUOUS
 62
     7
 10
-225.368569652565
 20
275.9095805938918
 11
-225.3421262146301
 21
275.7046161132957
  0
LINE
  8
0
  6
CONTINUOUS
 62
     7
 10
-226.8404375184643
 20
277.9065721027433
 11
-226.674495548159
 21
277.8288021469954
  0
LINE
  8
0
  6
CONTINUOUS
 62
     7
 10
53.44444301370466
 20
113.9843434426908
 11
53.57202732138708
 21
113.9832072317318
  0
LINE
  8
0
  6
CONTINUOUS
 62
     7
 10
55.67845914889558
 20
113.5260067638684
 11
55.7417081760557
 21
113.4857226502601
  0
LINE
  8
0
  6
CONTINUOUS
 62
     7
 10
51.22612003917837
 20
113.6394751149568
 11
51.30977603539799
 21
113.6745328457825
  0
LINE
  8
0
  6
CONTINUOUS
 62
     7
 10
50.74509561997853
 20
113.3148806735925
 11
50.78550728834693
 21
113.3588432237066
  0
LINE
  8
0
  6
CONTINUOUS
 62
     7
 10
-225.4208260298884
 20
274.3673142025103
 11
-225.4732072084844
 21
274.1315331739366
  0
LINE
  8
0
  6
CONTINUOUS
 62
     7
 10
-226.6744955481589
 20
277.8288021469954
 11
-226.5166272525407
 21
277.7399198687321
  0
LINE
  8
0
  6
CONTINUOUS
 62
     7
 10
-225.4062367800515
 20
276.1080620930712
 11
-225.3685696525651
 21
275.9095805938919
  0
LINE
  8
0
  6
CONTINUOUS
 62
     7
 10
-227.382611267923
 20
278.0714688200675
 11
-227.1949229042259
 21
278.0280519496307
  0
LINE
  8
0
  6
CONTINUOUS
 62
     7
 10
-226.145641666896
 20
469.0636136015747
 11
-226.3050537594902
 21
468.969075882817
  0
LINE
  8
0
  6
CONTINUOUS
 62
     7
 10
-226.3672134246389
 20
277.6401396602855
 11
-226.2266144645194
 21
277.5297022008094
  0
LINE
  8
0
  6
CONTINUOUS
 62
     7
 10
-226.2266144645194
 20
277.5297022008094
 11
-226.0951695099662
 21
277.4088738757389
  0
LINE
  8
0
  6
CONTINUOUS
 62
     7
 10
-227.7766168199062
 20
278.1231330798628
 11
-227.5766652652536
 21
278.103188033377
  0
LINE
  8
0
  6
CONTINUOUS
 62
     7
 10
-227.9819836301119
 20
278.1312558502168
 11
-227.7766168199061
 21
278.1231330798628
  0
LINE
  8
0
  6
CONTINUOUS
 62
     7
 10
-225.0497502305531
 20
470.7752238098717
 11
-225.094677628975
 21
470.575755067558
  0
LINE
  8
0
  6
CONTINUOUS
 62
     7
 10
-225.2189968540613
 20
470.1996497726968
 11
-225.2980749131241
 21
470.0239624671905
  0
LINE
  8
0
  6
CONTINUOUS
 62
     7
 10
-225.3494561793399
 20
274.8300255244043
 11
-225.3795424935956
 21
274.6003323398147
  0
LINE
  8
0
  6
CONTINUOUS
 62
     7
 10
-227.0140528959722
 20
277.9730421476009
 11
-226.8404375184643
 21
277.9065721027433
  0
LINE
  8
0
  6
CONTINUOUS
 62
     7
 10
-226.6488965810834
 20
468.8147227937783
 11
-226.8324594898604
 21
468.7552969931601
  0
LINE
  8
0
  6
CONTINUOUS
 62
     7
 10
-227.194922904226
 20
278.0280519496307
 11
-227.0140528959723
 21
277.9730421476009
  0
LINE
  8
0
  6
CONTINUOUS
 62
     7
 10
52.98400968207773
 20
113.9798013358215
 11
53.1113060119463
 21
113.9832072317319
  0
LINE
  8
0
  6
CONTINUOUS
 62
     7
 10
-225.8609870023531
 20
277.1372347862351
 11
-225.758814319308
 21
276.9870792405796
  0
LINE
  8
0
  6
CONTINUOUS
 62
     7
 10
-226.3050537594902
 20
468.9690758828171
 11
-226.4729466450763
 21
468.8860424245464
  0
LINE
  8
0
  6
CONTINUOUS
 62
     7
 10
52.85730796830357
 20
113.9741339592659
 11
52.98400968207778
 21
113.9798013358215
  0
LINE
  8
0
  6
CONTINUOUS
 62
     7
 10
-225.5855377504083
 20
276.6599062196189
 11
-225.5148518237727
 21
276.4836779161049
  0
LINE
  8
0
  6
CONTINUOUS
 62
     7
 10
-225.4890705078259
 20
469.6995344949022
 11
-225.6005059922806
 21
469.5516126474689
  0
LINE
  8
0
  6
CONTINUOUS
 62
     7
 10
-226.4729466450763
 20
468.8860424245462
 11
-226.6488965810834
 21
468.8147227937783
  0
LINE
  8
0
  6
CONTINUOUS
 62
     7
 10
-225.4550367404702
 20
276.2995818549754
 11
-225.4062367800514
 21
276.1080620930711
  0
LINE
  8
0
  6
CONTINUOUS
 62
     7
 10
54.36065687453584
 20
493.6296599218294
 11
54.47956992648356
 21
493.5835884014069
  0
LINE
  8
0
  6
CONTINUOUS
 62
     7
 10
54.70986856176352
 20
493.4741553806776
 11
54.82069938929451
 21
493.4110574885466
  0
LINE
  8
0
  6
CONTINUOUS
 62
     7
 10
53.74004763260876
 20
493.7695619474202
 11
53.86665011429875
 21
493.7538917262215
  0
LINE
  8
0
  6
CONTINUOUS
 62
     7
 10
54.82069938929457
 20
493.4110574885466
 11
54.92829287130598
 21
493.3425702172703
  0
LINE
  8
0
  6
CONTINUOUS
 62
     7
 10
54.92829287130596
 20
493.3425702172702
 11
55.03238983080111
 21
493.2688585426894
  0
LINE
  8
0
  6
CONTINUOUS
 62
     7
 10
55.03238983080116
 20
493.2688585426894
 11
55.13273951339703
 21
493.1901000254705
  0
LINE
  8
0
  6
CONTINUOUS
 62
     7
 10
191.4129971668181
 20
115.8491023836356
 11
190.8262512254144
 21
115.6831557126315
  0
LINE
  8
0
  6
CONTINUOUS
 62
     7
 10
-225.9731956184494
 20
277.2779461342463
 11
-225.8609870023532
 21
277.137234786235
  0
LINE
  8
0
  6
CONTINUOUS
 62
     7
 10
-225.1511406722468
 20
470.3837355099827
 11
-225.2189968540613
 21
470.1996497726967
  0
LINE
  8
0
  6
CONTINUOUS
 62
     7
 10
-227.4241041234441
 20
468.6497301239878
 11
-227.6333116708588
 21
468.6390740798464
  0
LINE
  8
0
  6
CONTINUOUS
 62
     7
 10
52.60690704524695
 20
113.9560747864421
 11
52.73150607656102
 21
113.9662187539479
  0
LINE
  8
0
  6
CONTINUOUS
 62
     7
 10
-227.0231720794778
 20
468.7079150066616
 11
-227.2205530130238
 21
468.6726964210343
  0
LINE
  8
0
  6
CONTINUOUS
 62
     7
 10
31.04166666666663
 20
217.8322720089755
 11
31.04166666666663
 21
210.8322720089753
  0
LINE
  8
0
  6
CONTINUOUS
 62
     7
 10
25.21465001287382
 20
207.8322720089753
 11
25.21465001287382
 21
209.3322720089753
  0
LINE
  8
0
  6
CONTINUOUS
 62
     7
 10
17.34166666666681
 20
211.0557473919551
 11
17.34166666666681
 21
209.3322720089753
  0
LINE
  8
0
  6
CONTINUOUS
 62
     7
 10
23.54166666666657
 20
212.0486434823243
 11
23.48409519522959
 21
212.0486434823243
  0
LINE
  8
0
  6
CONTINUOUS
 62
     7
 10
25.34166666666659
 20
209.3322720089752
 11
25.34166666666659
 21
211.055747391955
  0
LINE
  8
0
  6
CONTINUOUS
 62
     7
 10
227.9262609960558
 20
199.2322720089755
 11
34.75707233727724
 21
199.2322720089755
  0
LINE
  8
0
  6
CONTINUOUS
 62
     7
 10
25.34181897151011
 20
199.2322720089755
 11
15.25676777397661
 21
199.2322720089755
  0
LINE
  8
0
  6
CONTINUOUS
 62
     7
 10
243.7416666666665
 20
192.8322720089752
 11
243.7416666666665
 21
202.4180584466021
  0
LINE
  8
0
  6
CONTINUOUS
 62
     7
 10
21.84166666666676
 20
212.3936960006356
 11
21.84166666666676
 21
212.0486434823243
  0
LINE
  8
0
  6
CONTINUOUS
 62
     7
 10
15.34166666666636
 20
207.8322720089753
 11
15.34166666666636
 21
209.3322720089753
  0
LINE
  8
0
  6
CONTINUOUS
 62
     7
 10
31.04166666666663
 20
224.8322720089756
 11
31.04166666666663
 21
217.8322720089755
  0
LINE
  8
0
  6
CONTINUOUS
 62
     7
 10
232.9416666666666
 20
192.8322720089752
 11
232.8858147128058
 21
199.2322720089755
  0
LINE
  8
0
  6
CONTINUOUS
 62
     7
 10
27.47447748816478
 20
207.8322720089753
 11
34.89003546361916
 21
207.8322720089753
  0
LINE
  8
0
  6
CONTINUOUS
 62
     7
 10
235.2088558451682
 20
207.8322720089753
 11
238.3274531042933
 21
207.8322720089753
  0
LINE
  8
0
  6
CONTINUOUS
 62
     7
 10
15.1416666666665
 20
209.3322720089752
 11
15.34166666666631
 21
209.3322720089752
  0
LINE
  8
0
  6
CONTINUOUS
 62
     7
 10
25.34166666666659
 20
211.0557473919551
 11
17.34166666666681
 21
211.0557473919551
  0
LINE
  8
0
  6
CONTINUOUS
 62
     7
 10
21.84166666666676
 20
212.0486434823243
 11
20.84166666666654
 21
212.0486434823243
  0
LINE
  8
0
  6
CONTINUOUS
 62
     7
 10
26.63449680554097
 20
199.2322720089755
 11
26.34166666666674
 21
199.2322720089755
  0
LINE
  8
0
  6
CONTINUOUS
 62
     7
 10
9.974477488165157
 20
207.8322720089753
 11
15.3897309003185
 21
207.8322720089753
  0
LINE
  8
0
  6
CONTINUOUS
 62
     7
 10
20.84166666666654
 20
212.0486434823243
 11
20.84166666666654
 21
212.3936960006356
  0
LINE
  8
0
  6
CONTINUOUS
 62
     7
 10
15.34166666666636
 20
209.3322720089752
 11
25.21465001287382
 21
209.3322720089752
  0
LINE
  8
0
  6
CONTINUOUS
 62
     7
 10
29.54166666666658
 20
217.8322720089755
 11
29.54166666666658
 21
210.8322720089753
  0
LINE
  8
0
  6
CONTINUOUS
 62
     7
 10
25.21465001287382
 20
209.3322720089752
 11
28.04166666666663
 21
209.3322720089752
  0
LINE
  8
0
  6
CONTINUOUS
 62
     7
 10
227.7932978697139
 20
207.8322720089753
 11
235.2088558451682
 21
207.8322720089753
  0
LINE
  8
0
  6
CONTINUOUS
 62
     7
 10
25.34181897151011
 20
199.2322720089755
 11
26.34166666666676
 21
199.2322720089755
  0
LINE
  8
0
  6
CONTINUOUS
 62
     7
 10
13.14694307098074
 20
209.3322720089752
 11
11.8416666666665
 21
209.3322720089752
  0
LINE
  8
0
  6
CONTINUOUS
 62
     7
 10
15.38973090031848
 20
207.8322720089753
 11
25.47478209785215
 21
207.8322720089753
  0
LINE
  8
0
  6
CONTINUOUS
 62
     7
 10
236.048836527792
 20
199.2322720089755
 11
228.6332785523375
 21
199.2322720089755
  0
LINE
  8
0
  6
CONTINUOUS
 62
     7
 10
26.34166666666671
 20
199.2322720089755
 11
26.47462979300868
 21
206.8497244154129
  0
LINE
  8
0
  6
CONTINUOUS
 62
     7
 10
11.84166666666653
 20
209.3322720089752
 11
11.84166666666653
 21
207.8322720089752
  0
LINE
  8
0
  6
CONTINUOUS
 62
     7
 10
41.70563690093276
 20
108.0717570915515
 11
64.9776964324002
 21
108.0717570915515
  0
LINE
  8
0
  6
CONTINUOUS
 62
     7
 10
41.06284929124615
 20
102.8322720089754
 11
41.06284929124615
 21
107.1320644707656
  0
LINE
  8
0
  6
CONTINUOUS
 62
     7
 10
35.29782679272175
 20
116.0868345098938
 11
38.74232711877296
 21
108.9767734995729
  0
LINE
  8
0
  6
CONTINUOUS
 62
     7
 10
65.62048404208664
 20
107.1320644707656
 11
65.62048404208664
 21
102.8322720089754
  0
LINE
  8
0
  6
CONTINUOUS
 62
     7
 10
197.0628492912461
 20
107.1320644707656
 11
194.0995395090865
 21
108.037080878787
  0
LINE
  8
0
  6
CONTINUOUS
 62
     7
 10
19.19923813810376
 20
212.0486434823243
 11
19.14166666666669
 21
212.0486434823243
  0
LINE
  8
0
  6
CONTINUOUS
 62
     7
 10
41.06284929124615
 20
107.1320644707656
 11
41.70563690093268
 21
107.1320644707656
  0
LINE
  8
0
  6
CONTINUOUS
 62
     7
 10
34.05005478099543
 20
199.2322720089755
 11
26.63449680554106
 21
199.2322720089755
  0
LINE
  8
0
  6
CONTINUOUS
 62
     7
 10
64.97769643240014
 20
107.1320644707656
 11
65.62048404208667
 21
107.1320644707656
  0
LINE
  8
0
  6
CONTINUOUS
 62
     7
 10
64.97769643240014
 20
107.1320644707656
 11
41.70563690093272
 21
107.1320644707656
  0
LINE
  8
0
  6
CONTINUOUS
 62
     7
 10
15.25676777397655
 20
199.2322720089755
 11
14.54975021769464
 21
199.2322720089755
  0
LINE
  8
0
  6
CONTINUOUS
 62
     7
 10
64.97769643240014
 20
108.0717570915515
 11
67.94100621456056
 21
108.9767734995729
  0
LINE
  8
0
  6
CONTINUOUS
 62
     7
 10
15.1416666666665
 20
209.3322720089752
 11
15.1416666666665
 21
207.8322720089752
  0
LINE
  8
0
  6
CONTINUOUS
 62
     7
 10
34.89003546361924
 20
207.8322720089753
 11
227.7932978697139
 21
207.8322720089753
  0
LINE
  8
0
  6
CONTINUOUS
 62
     7
 10
197.7056369009328
 20
108.0717570915515
 11
220.9776964324002
 21
108.0717570915515
  0
LINE
  8
0
  6
CONTINUOUS
 62
     7
 10
197.0628492912461
 20
107.1320644707656
 11
197.7056369009328
 21
107.1320644707656
  0
LINE
  8
0
  6
CONTINUOUS
 62
     7
 10
220.9776964324002
 20
108.0717570915515
 11
223.9410062145604
 21
108.9767734995729
  0
LINE
  8
0
  6
CONTINUOUS
 62
     7
 10
239.7916666666669
 20
192.8322720089752
 11
239.7916666666669
 21
187.6305895888349
  0
LINE
  8
0
  6
CONTINUOUS
 62
     7
 10
8.841666666666525
 20
199.2322720089755
 11
8.974629793008587
 21
206.8497244154129
  0
LINE
  8
0
  6
CONTINUOUS
 62
     7
 10
194.742327118773
 20
108.9767734995729
 11
197.7056369009328
 21
108.0717570915515
  0
LINE
  8
0
  6
CONTINUOUS
 62
     7
 10
236.2087035403248
 20
206.8497244154128
 11
236.3416666666663
 21
199.2322720089755
  0
LINE
  8
0
  6
CONTINUOUS
 62
     7
 10
38.74232711877301
 20
108.9767734995729
 11
41.70563690093276
 21
108.0717570915515
  0
LINE
  8
0
  6
CONTINUOUS
 62
     7
 10
243.4487734478532
 20
203.1251652277889
 11
239.0345598854803
 21
207.5393787901619
  0
LINE
  8
0
  6
CONTINUOUS
 62
     7
 10
13.14694307098074
 20
209.3322720089752
 11
14.0095455547373
 21
209.3322720089752
  0
LINE
  8
0
  6
CONTINUOUS
 62
     7
 10
236.8916666666664
 20
187.6305895888348
 11
236.8916666666664
 21
192.8322720089752
  0
LINE
  8
0
  6
CONTINUOUS
 62
     7
 10
220.9776964324007
 20
107.1320644707656
 11
197.7056369009328
 21
107.1320644707656
  0
LINE
  8
0
  6
CONTINUOUS
 62
     7
 10
34.75707233727721
 20
199.2322720089755
 11
34.05005478099537
 21
199.2322720089755
  0
LINE
  8
0
  6
CONTINUOUS
 62
     7
 10
220.9776964324007
 20
107.1320644707656
 11
221.6204840420867
 21
107.1320644707656
  0
LINE
  8
0
  6
CONTINUOUS
 62
     7
 10
209.4444430137041
 20
266.7413173021283
 11
209.2388903196281
 21
266.7413173021283
  0
LINE
  8
0
  6
CONTINUOUS
 62
     7
 10
68.92581396757258
 20
494.5257759875152
 11
71.6918793001278
 21
478.8386399551227
  0
LINE
  8
0
  6
CONTINUOUS
 62
     7
 10
221.6204840420867
 20
107.1320644707656
 11
221.6204840420867
 21
102.8322720089754
  0
LINE
  8
0
  6
CONTINUOUS
 62
     7
 10
53.19808680893279
 20
253.8951590974223
 11
53.4852465244007
 21
253.8951590974223
  0
LINE
  8
0
  6
CONTINUOUS
 62
     7
 10
197.0628492912461
 20
102.8322720089754
 11
197.0628492912461
 21
107.1320644707656
  0
LINE
  8
0
  6
CONTINUOUS
 62
     7
 10
56.07686309251913
 20
256.5033445292381
 11
56.05257598413954
 21
264.1496482726289
  0
LINE
  8
0
  6
CONTINUOUS
 62
     7
 10
50.63075734919453
 20
264.1496482726289
 11
50.60647024081502
 21
256.5033445292381
  0
LINE
  8
0
  6
CONTINUOUS
 62
     7
 10
68.58379382424707
 20
108.0370808787869
 11
65.62048404208664
 21
107.1320644707656
  0
LINE
  8
0
  6
CONTINUOUS
 62
     7
 10
25.47478209785215
 20
207.8322720089753
 11
27.47447748816478
 21
207.8322720089753
  0
LINE
  8
0
  6
CONTINUOUS
 62
     7
 10
15.1416666666665
 20
209.3322720089752
 11
14.00954555473732
 21
209.3322720089752
  0
LINE
  8
0
  6
CONTINUOUS
 62
     7
 10
9.134496805540792
 20
199.2322720089755
 11
8.841666666666553
 21
199.2322720089755
  0
LINE
  8
0
  6
CONTINUOUS
 62
     7
 10
53.23889031962881
 20
266.7413173021283
 11
53.44444301370474
 21
266.7413173021283
  0
LINE
  8
0
  6
CONTINUOUS
 62
     7
 10
53.23889031962881
 20
480.9359626081173
 11
53.44444301370474
 21
480.9359626081173
  0
LINE
  8
0
  6
CONTINUOUS
 62
     7
 10
209.4852465244003
 20
253.8951590974223
 11
209.1980868089321
 21
253.8951590974223
  0
LINE
  8
0
  6
CONTINUOUS
 62
     7
 10
228.6332785523375
 20
199.2322720089755
 11
227.9262609960558
 21
199.2322720089755
  0
LINE
  8
0
  6
CONTINUOUS
 62
     7
 10
224.5837938242471
 20
108.0370808787869
 11
221.6204840420867
 21
107.1320644707656
  0
LINE
  8
0
  6
CONTINUOUS
 62
     7
 10
41.06284929124615
 20
107.1320644707656
 11
38.09953950908631
 21
108.037080878787
  0
LINE
  8
0
  6
CONTINUOUS
 62
     7
 10
29.54166666666658
 20
224.8322720089756
 11
31.04166666666658
 21
224.8322720089756
  0
LINE
  8
0
  6
CONTINUOUS
 62
     7
 10
236.3416666666662
 20
199.2322720089755
 11
236.0488365277926
 21
199.2322720089755
  0
LINE
  8
0
  6
CONTINUOUS
 62
     7
 10
29.54166666666658
 20
217.8322720089755
 11
29.54166666666658
 21
224.8322720089756
  0
LINE
  8
0
  6
CONTINUOUS
 62
     7
 10
14.54975021769467
 20
199.2322720089755
 11
9.134496805540737
 21
199.2322720089755
  0
LINE
  8
0
  6
CONTINUOUS
 62
     7
 10
212.0525759841389
 20
264.1496482726289
 11
212.0768630925186
 21
256.5033445292381
  0
LINE
  8
0
  6
CONTINUOUS
 62
     7
 10
29.54166666666658
 20
291.8386399551227
 11
29.54166666666658
 21
298.8386399551228
  0
LINE
  8
0
  6
CONTINUOUS
 62
     7
 10
20.84166666666654
 20
448.3386399551226
 11
19.19923813810378
 21
448.3386399551226
  0
LINE
  8
0
  6
CONTINUOUS
 62
     7
 10
23.48409519522954
 20
298.3386399551231
 11
21.8416666666667
 21
298.3386399551231
  0
LINE
  8
0
  6
CONTINUOUS
 62
     7
 10
21.84166666666676
 20
449.3386399551226
 11
23.48409519522901
 21
449.3386399551226
  0
LINE
  8
0
  6
CONTINUOUS
 62
     7
 10
29.54166666666658
 20
305.838639955123
 11
31.04166666666658
 21
305.838639955123
  0
LINE
  8
0
  6
CONTINUOUS
 62
     7
 10
29.54166666666658
 20
298.8386399551228
 11
29.54166666666658
 21
305.8386399551225
  0
LINE
  8
0
  6
CONTINUOUS
 62
     7
 10
19.19923813810376
 20
449.3386399551226
 11
20.84166666666651
 21
449.3386399551226
  0
LINE
  8
0
  6
CONTINUOUS
 62
     7
 10
34.99145403320581
 20
478.8386399551227
 11
37.75751936576035
 21
494.5257759875152
  0
LINE
  8
0
  6
CONTINUOUS
 62
     7
 10
52.81668321903543
 20
253.9233881840248
 11
52.69101991739999
 21
253.9452736220135
  0
LINE
  8
0
  6
CONTINUOUS
 62
     7
 10
28.04166666666652
 20
305.838639955123
 11
25.21465001287371
 21
305.838639955123
  0
LINE
  8
0
  6
CONTINUOUS
 62
     7
 10
52.44371868098818
 20
254.0074644284974
 11
52.32267645879834
 21
254.0476199884162
  0
LINE
  8
0
  6
CONTINUOUS
 62
     7
 10
52.32267645879829
 20
254.0476199884163
 11
52.20376340685057
 21
254.0936915088389
  0
LINE
  8
0
  6
CONTINUOUS
 62
     7
 10
29.54166666666658
 20
305.838639955123
 11
28.04166666666658
 21
305.838639955123
  0
LINE
  8
0
  6
CONTINUOUS
 62
     7
 10
15.34166666666636
 20
304.130142577252
 11
15.34166666666636
 21
301.8202502582981
  0
LINE
  8
0
  6
CONTINUOUS
 62
     7
 10
56.07686309251913
 20
491.1739353810083
 11
56.05257598413954
 21
483.5276316376169
  0
LINE
  8
0
  6
CONTINUOUS
 62
     7
 10
23.48409519522954
 20
448.3386399551226
 11
21.8416666666667
 21
448.3386399551226
  0
LINE
  8
0
  6
CONTINUOUS
 62
     7
 10
50.63075734919453
 20
483.5276316376169
 11
50.60647024081502
 21
491.1739353810083
  0
LINE
  8
0
  6
CONTINUOUS
 62
     7
 10
20.84166666666654
 20
296.6962114265597
 11
20.84166666666654
 21
298.338639955123
  0
LINE
  8
0
  6
CONTINUOUS
 62
     7
 10
193.7575193657603
 20
253.1515039227305
 11
190.9914540332057
 21
268.8386399551229
  0
LINE
  8
0
  6
CONTINUOUS
 62
     7
 10
21.84166666666676
 20
298.3386399551231
 11
21.84166666666676
 21
296.6962114265603
  0
LINE
  8
0
  6
CONTINUOUS
 62
     7
 10
206.6064702408144
 20
256.5033445292381
 11
206.6307573491933
 21
264.1496482726288
  0
LINE
  8
0
  6
CONTINUOUS
 62
     7
 10
68.58379382424707
 20
252.5591076572783
 11
65.62048404208664
 21
250.0725955120037
  0
LINE
  8
0
  6
CONTINUOUS
 62
     7
 10
41.06284929124615
 20
250.0725955120037
 11
38.09953950908631
 21
252.5591076572783
  0
LINE
  8
0
  6
CONTINUOUS
 62
     7
 10
220.9776964324007
 20
249.8386399551227
 11
197.7056369009328
 21
249.8386399551227
  0
LINE
  8
0
  6
CONTINUOUS
 62
     7
 10
19.19923813810376
 20
299.3386399551226
 11
20.84166666666651
 21
299.3386399551226
  0
LINE
  8
0
  6
CONTINUOUS
 62
     7
 10
227.6918793001277
 20
268.8386399551229
 11
224.9258139675725
 21
253.1515039227305
  0
LINE
  8
0
  6
CONTINUOUS
 62
     7
 10
21.84166666666676
 20
448.3386399551226
 11
21.84166666666676
 21
446.6962114265597
  0
LINE
  8
0
  6
CONTINUOUS
 62
     7
 10
197.0628492912461
 20
250.0725955120037
 11
194.0995395090865
 21
252.5591076572783
  0
LINE
  8
0
  6
CONTINUOUS
 62
     7
 10
21.84166666666676
 20
300.9810684836854
 11
21.84166666666676
 21
299.3386399551226
  0
LINE
  8
0
  6
CONTINUOUS
 62
     7
 10
31.04166666666663
 20
305.838639955123
 11
31.04166666666663
 21
298.8386399551228
  0
LINE
  8
0
  6
CONTINUOUS
 62
     7
 10
31.04166666666663
 20
291.8386399551227
 11
29.54166666666663
 21
291.8386399551227
  0
LINE
  8
0
  6
CONTINUOUS
 62
     7
 10
31.04166666666663
 20
298.8386399551228
 11
31.04166666666663
 21
291.8386399551227
  0
LINE
  8
0
  6
CONTINUOUS
 62
     7
 10
64.97769643240014
 20
249.8386399551227
 11
41.70563690093272
 21
249.8386399551227
  0
LINE
  8
0
  6
CONTINUOUS
 62
     7
 10
20.84166666666654
 20
299.3386399551226
 11
20.84166666666654
 21
300.9810684836854
  0
LINE
  8
0
  6
CONTINUOUS
 62
     7
 10
20.84166666666654
 20
449.3386399551226
 11
20.84166666666654
 21
450.9810684836854
  0
LINE
  8
0
  6
CONTINUOUS
 62
     7
 10
37.75751936576033
 20
253.1515039227305
 11
34.99145403320578
 21
268.8386399551229
  0
LINE
  8
0
  6
CONTINUOUS
 62
     7
 10
71.69187930012777
 20
268.8386399551229
 11
68.92581396757255
 21
253.1515039227305
  0
LINE
  8
0
  6
CONTINUOUS
 62
     7
 10
21.84166666666676
 20
299.3386399551226
 11
23.48409519522901
 21
299.3386399551226
  0
LINE
  8
0
  6
CONTINUOUS
 62
     7
 10
52.56659850037259
 20
253.9733215579655
 11
52.44371868098818
 21
254.0074644284975
  0
LINE
  8
0
  6
CONTINUOUS
 62
     7
 10
15.0416666666664
 20
443.5386399551224
 11
15.0416666666664
 21
445.7874106946441
  0
LINE
  8
0
  6
CONTINUOUS
 62
     7
 10
20.84166666666654
 20
446.6962114265597
 11
20.84166666666654
 21
448.3386399551225
  0
LINE
  8
0
  6
CONTINUOUS
 62
     7
 10
15.0416666666664
 20
451.889869215601
 11
15.0416666666664
 21
454.1386399551227
  0
LINE
  8
0
  6
CONTINUOUS
 62
     7
 10
53.19808680893279
 20
253.8951590974223
 11
53.07052239556673
 21
253.8983007056921
  0
LINE
  8
0
  6
CONTINUOUS
 62
     7
 10
21.84166666666676
 20
450.9810684836855
 11
21.84166666666676
 21
449.3386399551226
  0
LINE
  8
0
  6
CONTINUOUS
 62
     7
 10
20.84166666666654
 20
298.3386399551231
 11
19.19923813810378
 21
298.3386399551231
  0
LINE
  8
0
  6
CONTINUOUS
 62
     7
 10
14.00954555473732
 20
454.1386399551227
 11
15.04166666666634
 21
454.1386399551227
  0
LINE
  8
0
  6
CONTINUOUS
 62
     7
 10
224.5837938242471
 20
252.5591076572783
 11
221.6204840420867
 21
250.0725955120037
  0
LINE
  8
0
  6
CONTINUOUS
 62
     7
 10
51.36209358747124
 20
254.6590668759274
 11
51.27439710715139
 21
254.7517812991846
  0
LINE
  8
0
  6
CONTINUOUS
 62
     7
 10
50.68237144085863
 20
255.8695949601785
 11
50.65480933954552
 21
255.9945022118447
  0
LINE
  8
0
  6
CONTINUOUS
 62
     7
 10
236.1731740685029
 20
470.9787428116229
 11
236.2655637457073
 21
470.8058824504907
  0
LINE
  8
0
  6
CONTINUOUS
 62
     7
 10
51.55059381993654
 20
254.4871798847752
 11
51.45423314197969
 21
254.5707955268585
  0
LINE
  8
0
  6
CONTINUOUS
 62
     7
 10
236.3224564482846
 20
470.6183111164601
 11
236.3416666666668
 21
470.4232342845125
  0
LINE
  8
0
  6
CONTINUOUS
 62
     7
 10
50.60919536202291
 20
256.3753636288102
 11
50.60647024081496
 21
256.5033445292381
  0
LINE
  8
0
  6
CONTINUOUS
 62
     7
 10
50.85254167492559
 20
255.3881862109745
 11
50.8012016872362
 21
255.5052201621605
  0
LINE
  8
0
  6
CONTINUOUS
 62
     7
 10
50.61817717936378
 20
256.2476914941755
 11
50.60919536202299
 21
256.3753636288102
  0
LINE
  8
0
  6
CONTINUOUS
 62
     7
 10
52.94328570072471
 20
253.9077179628256
 11
52.81668321903538
 21
253.9233881840248
  0
LINE
  8
0
  6
CONTINUOUS
 62
     7
 10
51.862633944039
 20
254.2662224216993
 11
51.75504046202808
 21
254.3347096929755
  0
LINE
  8
0
  6
CONTINUOUS
 62
     7
 10
25.21465001287382
 20
291.8386399551227
 11
28.04166666666663
 21
291.8386399551227
  0
LINE
  8
0
  6
CONTINUOUS
 62
     7
 10
50.90955217299542
 20
255.2738389919099
 11
50.85254167492562
 21
255.3881862109745
  0
LINE
  8
0
  6
CONTINUOUS
 62
     7
 10
51.65094350253296
 20
254.4084213675564
 11
51.55059381993659
 21
254.4871798847753
  0
LINE
  8
0
  6
CONTINUOUS
 62
     7
 10
51.45423314197972
 20
254.5707955268586
 11
51.36209358747115
 21
254.6590668759276
  0
LINE
  8
0
  6
CONTINUOUS
 62
     7
 10
236.2655637457072
 20
470.8058824504907
 11
236.3224564482845
 21
470.6183111164601
  0
LINE
  8
0
  6
CONTINUOUS
 62
     7
 10
51.11316714958313
 20
254.9496358614724
 11
51.04002205177257
 21
255.0542993977378
  0
LINE
  8
0
  6
CONTINUOUS
 62
     7
 10
236.0488365277926
 20
471.1302518407942
 11
236.1731740685028
 21
470.9787428116228
  0
LINE
  8
0
  6
CONTINUOUS
 62
     7
 10
51.75504046202817
 20
254.3347096929756
 11
51.65094350253302
 21
254.4084213675564
  0
LINE
  8
0
  6
CONTINUOUS
 62
     7
 10
51.97346477157005
 20
254.203124529568
 11
51.86263394403906
 21
254.2662224216993
  0
LINE
  8
0
  6
CONTINUOUS
 62
     7
 10
15.34166666666636
 20
295.8570296519476
 11
15.34166666666636
 21
293.5471373329937
  0
LINE
  8
0
  6
CONTINUOUS
 62
     7
 10
52.20376340685062
 20
254.0936915088389
 11
52.0872659693328
 21
254.1455680101965
  0
LINE
  8
0
  6
CONTINUOUS
 62
     7
 10
50.71601396781067
 20
255.7462147972138
 11
50.68237144085874
 21
255.8695949601785
  0
LINE
  8
0
  6
CONTINUOUS
 62
     7
 10
28.04166666666652
 20
291.8386399551227
 11
29.54166666666652
 21
291.8386399551227
  0
LINE
  8
0
  6
CONTINUOUS
 62
     7
 10
50.75565588046382
 20
255.6246589277584
 11
50.71601396781067
 21
255.7462147972138
  0
LINE
  8
0
  6
CONTINUOUS
 62
     7
 10
53.07052239556675
 20
253.8983007056921
 11
52.94328570072476
 21
253.9077179628257
  0
LINE
  8
0
  6
CONTINUOUS
 62
     7
 10
50.97209585147577
 20
255.162453950728
 11
50.90955217299536
 21
255.2738389919099
  0
LINE
  8
0
  6
CONTINUOUS
 62
     7
 10
50.65480933954558
 20
255.9945022118447
 11
50.63339405695017
 21
256.1206356688739
  0
LINE
  8
0
  6
CONTINUOUS
 62
     7
 10
50.80120168723612
 20
255.5052201621604
 11
50.75565588046371
 21
255.6246589277584
  0
LINE
  8
0
  6
CONTINUOUS
 62
     7
 10
50.63339405695011
 20
256.1206356688739
 11
50.61817717936371
 21
256.2476914941755
  0
LINE
  8
0
  6
CONTINUOUS
 62
     7
 10
236.048836527792
 20
471.1302518407942
 11
228.6332785523375
 21
478.5458098162486
  0
LINE
  8
0
  6
CONTINUOUS
 62
     7
 10
51.27439710715132
 20
254.7517812991846
 11
51.19135494904187
 21
254.8487154611165
  0
CIRCLE
  8
0
  6
CONTINUOUS
 62
     7
 10
131.3416666666668
 20
143.8322720089753
 40
16.5
  0
LINE
  8
0
  6
CONTINUOUS
 62
     7
 10
51.19135494904192
 20
254.8487154611165
 11
51.11316714958319
 21
254.9496358614724
  0
LINE
  8
0
  6
CONTINUOUS
 62
     7
 10
15.0416666666664
 20
443.5386399551224
 11
14.00954555473738
 21
443.5386399551224
  0
LINE
  8
0
  6
CONTINUOUS
 62
     7
 10
52.69101991739999
 20
253.9452736220135
 11
52.56659850037262
 21
253.9733215579654
  0
LINE
  8
0
  6
CONTINUOUS
 62
     7
 10
51.0400220517726
 20
255.0542993977378
 11
50.97209585147577
 21
255.162453950728
  0
LINE
  8
0
  6
CONTINUOUS
 62
     7
 10
52.08726596933278
 20
254.1455680101965
 11
51.97346477157
 21
254.203124529568
  0
CIRCLE
  8
0
  6
CONTINUOUS
 62
     7
 10
176.3416666666667
 20
143.8322720089754
 40
16.5
  0
LINE
  8
0
  6
CONTINUOUS
 62
     7
 10
228.481769523166
 20
478.6701473569589
 11
228.6332785523375
 21
478.5458098162487
  0
LINE
  8
0
  6
CONTINUOUS
 62
     7
 10
52.1264837590536
 20
481.1847857999165
 11
52.01231808312959
 21
481.2419778411269
  0
LINE
  8
0
  6
CONTINUOUS
 62
     7
 10
53.82602536503001
 20
480.9640129332923
 11
53.69932365125579
 21
480.9484419441778
  0
LINE
  8
0
  6
CONTINUOUS
 62
     7
 10
55.9726615484093
 20
482.897895304243
 11
55.93823771335548
 21
482.775296449381
  0
LINE
  8
0
  6
CONTINUOUS
 62
     7
 10
236.3416666666662
 20
465.3386399551229
 11
236.3416666666662
 21
470.4232342845125
  0
LINE
  8
0
  6
CONTINUOUS
 62
     7
 10
52.98400968207773
 20
480.9484419441778
 11
52.85730796830351
 21
480.9640129332923
  0
LINE
  8
0
  6
CONTINUOUS
 62
     7
 10
51.0734852762651
 20
482.0877626222296
 11
51.00487418443853
 21
482.1952322836901
  0
LINE
  8
0
  6
CONTINUOUS
 62
     7
 10
51.00487418443855
 20
482.1952322836902
 11
50.94162515727776
 21
482.305911976192
  0
LINE
  8
0
  6
CONTINUOUS
 62
     7
 10
51.58764834354601
 20
481.5242344083838
 11
51.49075816735324
 21
481.607320552231
  0
LINE
  8
0
  6
CONTINUOUS
 62
     7
 10
55.60984805706903
 20
482.0877626222296
 11
55.53604017468358
 21
481.983761870539
  0
LINE
  8
0
  6
CONTINUOUS
 62
     7
 10
51.39805963222255
 20
481.6950329206786
 11
51.30977603539796
 21
481.7871602274311
  0
CIRCLE
  8
0
  6
CONTINUOUS
 62
     7
 10
86.34166666666675
 20
143.8322720089754
 40
16.5
  0
LINE
  8
0
  6
CONTINUOUS
 62
     7
 10
51.30977603539799
 20
481.7871602274311
 11
51.22612003917837
 21
481.883480551252
  0
LINE
  8
0
  6
CONTINUOUS
 62
     7
 10
51.68849676650822
 20
481.4459746315307
 11
51.58764834354601
 21
481.5242344083838
  0
LINE
  8
0
  6
CONTINUOUS
 62
     7
 10
51.79306050710641
 20
481.3727297380529
 11
51.68849676650824
 21
481.4459746315308
  0
LINE
  8
0
  6
CONTINUOUS
 62
     7
 10
55.79944278087478
 20
482.4195350885081
 11
55.74170817605575
 21
482.305911976192
  0
LINE
  8
0
  6
CONTINUOUS
 62
     7
 10
227.9262609960558
 20
478.8386399551229
 11
228.1213378280032
 21
478.8194297367407
  0
LINE
  8
0
  6
CONTINUOUS
 62
     7
 10
228.3089091620338
 20
478.7625370341635
 11
228.4817695231661
 21
478.6701473569589
  0
LINE
  8
0
  6
CONTINUOUS
 62
     7
 10
55.93823771335548
 20
482.775296449381
 11
55.89782604498708
 21
482.6545103356407
  0
LINE
  8
0
  6
CONTINUOUS
 62
     7
 10
51.49075816735316
 20
481.6073205522311
 11
51.39805963222255
 21
481.6950329206787
  0
LINE
  8
0
  6
CONTINUOUS
 62
     7
 10
55.8515238891144
 20
482.5358279191432
 11
55.79944278087476
 21
482.419535088508
  0
LINE
  8
0
  6
CONTINUOUS
 62
     7
 10
54.19952231809011
 20
481.0475567627525
 11
54.07642628808654
 21
481.0136301028398
  0
LINE
  8
0
  6
CONTINUOUS
 62
     7
 10
51.22612003917837
 20
481.883480551252
 11
51.14729315865049
 21
481.983761870539
  0
LINE
  8
0
  6
CONTINUOUS
 62
     7
 10
51.14729315865052
 20
481.983761870539
 11
51.07348527626515
 21
482.0877626222296
  0
LINE
  8
0
  6
CONTINUOUS
 62
     7
 10
228.1213378280032
 20
478.8194297367407
 11
228.3089091620338
 21
478.7625370341635
  0
LINE
  8
0
  6
CONTINUOUS
 62
     7
 10
243.7416666666665
 20
295.8386399551229
 11
243.7416666666665
 21
282.3386399551229
  0
LINE
  8
0
  6
CONTINUOUS
 62
     7
 10
243.7416666666665
 20
332.3386399551227
 11
235.2088558451682
 21
332.3386399551227
  0
LINE
  8
0
  6
CONTINUOUS
 62
     7
 10
-241.7147012794807
 20
497.7216621766826
 11
-241.7147012794807
 21
250.0725955120037
  0
LINE
  8
0
  6
CONTINUOUS
 62
   253
 10
-136.8781255111621
 20
455.1779650500936
 11
-136.9989227970148
 21
455.2843677647633
  0
LINE
  8
0
  6
CONTINUOUS
 62
   253
 10
-136.9989227970148
 20
455.2843677647633
 11
-137.1463721373565
 21
455.3723841032477
  0
LINE
  8
0
  6
CONTINUOUS
 62
   253
 10
-137.6900236075579
 20
292.1798127499708
 11
-137.4984778818268
 21
292.1963247850023
  0
LINE
  8
0
  6
CONTINUOUS
 62
   253
 10
194.212644220767
 20
108.7998285555918
 11
194.0657640526019
 21
108.6826498427118
  0
LINE
  8
0
  6
CONTINUOUS
 62
   253
 10
-136.8781255111621
 20
305.1779650500935
 11
-136.9989227970148
 21
305.2843677647633
  0
LINE
  8
0
  6
CONTINUOUS
 62
   253
 10
-137.1463721373565
 20
455.3723841032477
 11
-137.3149832472046
 21
455.4387367719335
  0
LINE
  8
0
  6
CONTINUOUS
 62
   253
 10
41.1063614352738
 20
107.3126372097962
 11
41.06284929124626
 21
107.1320644707655
  0
LINE
  8
0
  6
CONTINUOUS
 62
   253
 10
-137.3149832472046
 20
455.4387367719335
 11
-137.4984778818268
 21
455.4809551252433
  0
LINE
  8
0
  6
CONTINUOUS
 62
   253
 10
-137.4984778818268
 20
455.4809551252432
 11
-137.6900236075579
 21
455.4974671602748
  0
LINE
  8
0
  6
CONTINUOUS
 62
   253
 10
68.92581396757258
 20
108.0370808787871
 11
68.89728806211181
 21
108.2138667202132
  0
LINE
  8
0
  6
CONTINUOUS
 62
   253
 10
65.51266961520541
 20
107.4869454969546
 11
65.4298079763012
 21
107.6489422075104
  0
LINE
  8
0
  6
CONTINUOUS
 62
   253
 10
-136.8781255111621
 20
292.4993148601516
 11
-136.7884781739425
 21
292.6201420395797
  0
LINE
  8
0
  6
CONTINUOUS
 62
   253
 10
-137.3149832472047
 20
276.7388477016131
 11
-137.1463721373565
 21
276.8052003702983
  0
LINE
  8
0
  6
CONTINUOUS
 62
   253
 10
68.89728806211181
 20
108.2138667202133
 11
68.83473265858139
 21
108.3843615989229
  0
LINE
  8
0
  6
CONTINUOUS
 62
   253
 10
-136.8781255111621
 20
470.6776604867927
 11
-136.9989227970148
 21
470.7840632014625
  0
LINE
  8
0
  6
CONTINUOUS
 62
   253
 10
-136.7147012794809
 20
470.2902711581699
 11
-136.7333188093047
 21
470.4260806704119
  0
LINE
  8
0
  6
CONTINUOUS
 62
   253
 10
41.58211787276511
 20
108.0081465924679
 11
41.46288398205108
 21
107.914142943693
  0
LINE
  8
0
  6
CONTINUOUS
 62
   253
 10
-136.9989227970148
 20
292.3929121454819
 11
-136.8781255111621
 21
292.4993148601516
  0
LINE
  8
0
  6
CONTINUOUS
 62
   253
 10
41.70563690093276
 20
108.0717570915515
 11
41.5821178727652
 21
108.0081465924679
  0
LINE
  8
0
  6
CONTINUOUS
 62
   253
 10
-137.4984778818268
 20
292.1963247850024
 11
-137.3149832472046
 21
292.2385431383123
  0
LINE
  8
0
  6
CONTINUOUS
 62
   253
 10
-137.1463721373565
 20
470.8720795399468
 11
-137.3149832472046
 21
470.938432208632
  0
LINE
  8
0
  6
CONTINUOUS
 62
   253
 10
-137.1463721373565
 20
276.8052003702983
 11
-136.9989227970148
 21
276.8932167087827
  0
LINE
  8
0
  6
CONTINUOUS
 62
   253
 10
-136.7333188093047
 20
277.2511992398332
 11
-136.7147012794809
 21
277.3870087520752
  0
LINE
  8
0
  6
CONTINUOUS
 62
   253
 10
65.10121546056835
 20
108.0081465924679
 11
64.97769643240012
 21
108.0717570915515
  0
LINE
  8
0
  6
CONTINUOUS
 62
   253
 10
-136.7884781739426
 20
277.1204466028805
 11
-136.7333188093047
 21
277.2511992398333
  0
LINE
  8
0
  6
CONTINUOUS
 62
   253
 10
194.3783732703588
 20
108.8898647260699
 11
194.212644220767
 21
108.7998285555918
  0
LINE
  8
0
  6
CONTINUOUS
 62
   253
 10
-137.4984778818269
 20
276.6966293483027
 11
-137.3149832472047
 21
276.7388477016131
  0
LINE
  8
0
  6
CONTINUOUS
 62
   253
 10
-137.1463721373565
 20
292.304895806998
 11
-136.9989227970148
 21
292.3929121454819
  0
LINE
  8
0
  6
CONTINUOUS
 62
   253
 10
194.065764052602
 20
108.6826498427117
 11
193.9429595286763
 21
108.5424984174795
  0
LINE
  8
0
  6
CONTINUOUS
 62
   253
 10
193.7860452712219
 20
108.2138667202133
 11
193.7575193657605
 21
108.0370808787871
  0
LINE
  8
0
  6
CONTINUOUS
 62
   253
 10
-136.7333188093047
 20
470.4260806704119
 11
-136.7884781739426
 21
470.5568333073647
  0
LINE
  8
0
  6
CONTINUOUS
 62
   253
 10
65.42980797630116
 20
107.6489422075103
 11
65.33126162760708
 21
107.7930073314763
  0
LINE
  8
0
  6
CONTINUOUS
 62
   253
 10
-136.7884781739426
 20
470.5568333073646
 11
-136.8781255111621
 21
470.6776604867927
  0
LINE
  8
0
  6
CONTINUOUS
 62
   253
 10
-137.4984778818269
 20
470.9806505619425
 11
-137.6900236075579
 21
470.9971625969741
  0
LINE
  8
0
  6
CONTINUOUS
 62
   253
 10
-136.8781255111621
 20
276.9996194234525
 11
-136.7884781739425
 21
277.1204466028805
  0
LINE
  8
0
  6
CONTINUOUS
 62
   253
 10
65.62048404208664
 20
107.1320644707656
 11
65.57697189805978
 21
107.3126372097963
  0
LINE
  8
0
  6
CONTINUOUS
 62
   253
 10
-136.7333188093047
 20
292.7508946765331
 11
-136.7147012794809
 21
292.886704188775
  0
LINE
  8
0
  6
CONTINUOUS
 62
   253
 10
41.35207170572641
 20
107.7930073314763
 11
41.25352535703242
 21
107.6489422075103
  0
LINE
  8
0
  6
CONTINUOUS
 62
   253
 10
193.8486006747522
 20
108.384361598923
 11
193.7860452712218
 21
108.2138667202133
  0
LINE
  8
0
  6
CONTINUOUS
 62
   253
 10
-136.7147012794809
 20
304.7905757214707
 11
-136.7333188093047
 21
304.9263852337127
  0
LINE
  8
0
  6
CONTINUOUS
 62
   253
 10
-136.9989227970148
 20
470.7840632014625
 11
-137.1463721373565
 21
470.8720795399469
  0
LINE
  8
0
  6
CONTINUOUS
 62
   253
 10
-136.7884781739426
 20
292.6201420395798
 11
-136.7333188093047
 21
292.7508946765332
  0
LINE
  8
0
  6
CONTINUOUS
 62
   253
 10
194.742327118773
 20
108.976773499573
 11
194.5570536970093
 21
108.9495543973868
  0
LINE
  8
0
  6
CONTINUOUS
 62
   253
 10
-136.7333188093047
 20
304.9263852337127
 11
-136.7884781739426
 21
305.0571378706655
  0
LINE
  8
0
  6
CONTINUOUS
 62
   253
 10
41.46288398205111
 20
107.914142943693
 11
41.35207170572635
 21
107.7930073314762
  0
LINE
  8
0
  6
CONTINUOUS
 62
   253
 10
-136.9989227970148
 20
276.8932167087826
 11
-136.8781255111621
 21
276.9996194234525
  0
LINE
  8
0
  6
CONTINUOUS
 62
   253
 10
-136.7884781739426
 20
305.0571378706654
 11
-136.8781255111621
 21
305.1779650500935
  0
LINE
  8
0
  6
CONTINUOUS
 62
   253
 10
-137.3149832472046
 20
470.938432208632
 11
-137.4984778818269
 21
470.9806505619425
  0
LINE
  8
0
  6
CONTINUOUS
 62
   253
 10
65.33126162760716
 20
107.7930073314763
 11
65.22044935128174
 21
107.914142943693
  0
LINE
  8
0
  6
CONTINUOUS
 62
   253
 10
-137.6900236075579
 20
276.6801173132717
 11
-137.4984778818269
 21
276.6966293483027
  0
LINE
  8
0
  6
CONTINUOUS
 62
   253
 10
-136.9989227970148
 20
305.2843677647632
 11
-137.1463721373565
 21
305.3723841032476
  0
LINE
  8
0
  6
CONTINUOUS
 62
   253
 10
65.22044935128169
 20
107.914142943693
 11
65.10121546056841
 21
108.0081465924679
  0
LINE
  8
0
  6
CONTINUOUS
 62
   253
 10
65.57697189805988
 20
107.3126372097962
 11
65.51266961520544
 21
107.4869454969545
  0
LINE
  8
0
  6
CONTINUOUS
 62
   253
 10
-137.3149832472046
 20
305.4387367719329
 11
-137.4984778818268
 21
305.4809551252434
  0
LINE
  8
0
  6
CONTINUOUS
 62
   253
 10
-137.4984778818268
 20
305.4809551252433
 11
-137.6900236075579
 21
305.4974671602748
  0
LINE
  8
0
  6
CONTINUOUS
 62
   253
 10
-136.7147012794809
 20
454.7905757214705
 11
-136.7333188093047
 21
454.9263852337127
  0
LINE
  8
0
  6
CONTINUOUS
 62
   253
 10
193.9429595286762
 20
108.5424984174795
 11
193.8486006747522
 21
108.384361598923
  0
LINE
  8
0
  6
CONTINUOUS
 62
   253
 10
41.1706637181275
 20
107.4869454969546
 11
41.10636143527371
 21
107.3126372097963
  0
LINE
  8
0
  6
CONTINUOUS
 62
   253
 10
194.5570536970093
 20
108.9495543973868
 11
194.3783732703588
 21
108.8898647260699
  0
LINE
  8
0
  6
CONTINUOUS
 62
   253
 10
41.25352535703242
 20
107.6489422075102
 11
41.17066371812755
 21
107.4869454969545
  0
LINE
  8
0
  6
CONTINUOUS
 62
   253
 10
-137.1463721373565
 20
305.3723841032476
 11
-137.3149832472046
 21
305.4387367719328
  0
LINE
  8
0
  6
CONTINUOUS
 62
   253
 10
-137.3149832472046
 20
292.2385431383123
 11
-137.1463721373565
 21
292.304895806998
  0
LINE
  8
0
  6
CONTINUOUS
 62
   253
 10
-136.7333188093047
 20
454.9263852337127
 11
-136.7884781739426
 21
455.0571378706656
  0
LINE
  8
0
  6
CONTINUOUS
 62
   253
 10
-136.7884781739426
 20
455.0571378706656
 11
-136.8781255111621
 21
455.1779650500935
  0
LINE
  8
0
  6
CONTINUOUS
 62
     7
 10
-145.3147012794809
 20
268.8386399551229
 11
-145.3147012794809
 21
269.1314700939972
  0
LINE
  8
0
  6
CONTINUOUS
 62
     7
 10
-136.7147012794809
 20
477.7058291336244
 11
-136.7147012794809
 21
470.2902711581699
  0
LINE
  8
0
  6
CONTINUOUS
 62
     7
 10
-145.3147012794809
 20
471.1302518407944
 11
-145.3147012794809
 21
478.5458098162487
  0
LINE
  8
0
  6
CONTINUOUS
 62
     7
 10
-145.3147012794809
 20
292.0467235061506
 11
-145.3147012794809
 21
292.753741062433
  0
LINE
  8
0
  6
CONTINUOUS
 62
     7
 10
-135.2147012794809
 20
304.1386399551227
 11
-135.2147012794809
 21
303.6445223080637
  0
LINE
  8
0
  6
CONTINUOUS
 62
     7
 10
-145.3147012794809
 20
455.630556404095
 11
-145.3147012794809
 21
461.0458098162484
  0
LINE
  8
0
  6
CONTINUOUS
 62
     7
 10
-145.3147012794809
 20
311.3386399551227
 11
-137.6972488730436
 21
311.2056768287806
  0
LINE
  8
0
  6
CONTINUOUS
 62
     7
 10
-145.3147012794809
 20
470.4232342845118
 11
-145.3147012794809
 21
471.1302518407943
  0
LINE
  8
0
  6
CONTINUOUS
 62
     7
 10
-135.2147012794809
 20
293.5386399551225
 11
-136.7147012794809
 21
293.5386399551225
  0
LINE
  8
0
  6
CONTINUOUS
 62
     7
 10
-145.3147012794809
 20
312.3384876502793
 11
-145.3147012794809
 21
311.3386399551227
  0
LINE
  8
0
  6
CONTINUOUS
 62
     7
 10
-135.2147012794809
 20
444.0327576021814
 11
-135.2147012794809
 21
443.5386399551224
  0
LINE
  8
0
  6
CONTINUOUS
 62
     7
 10
-145.3147012794809
 20
277.2540456257333
 11
-145.3147012794809
 21
285.3387922599665
  0
LINE
  8
0
  6
CONTINUOUS
 62
     7
 10
-136.7147012794809
 20
470.2902711581699
 11
-136.7147012794809
 21
462.2055245239372
  0
LINE
  8
0
  6
CONTINUOUS
 62
     7
 10
-145.3147012794809
 20
286.6314700939972
 11
-145.3147012794809
 21
292.0467235061506
  0
LINE
  8
0
  6
CONTINUOUS
 62
     7
 10
-136.7147012794809
 20
285.4717553863084
 11
-136.7147012794809
 21
277.3870087520752
  0
LINE
  8
0
  6
CONTINUOUS
 62
     7
 10
-145.3147012794809
 20
304.9235388478127
 11
-145.3147012794809
 21
305.6305564040945
  0
LINE
  8
0
  6
CONTINUOUS
 62
     7
 10
-145.3147012794809
 20
436.3386399551232
 11
-145.3147012794809
 21
436.6314700939974
  0
LINE
  8
0
  6
CONTINUOUS
 62
     7
 10
-136.7147012794809
 20
460.2058291336248
 11
-136.7147012794809
 21
454.7905757214706
  0
CIRCLE
  8
0
  6
CONTINUOUS
 62
     7
 10
69.74166666666659
 20
312.2386399551227
 40
1.149999999999984
  0
CIRCLE
  8
0
  6
CONTINUOUS
 62
     7
 10
72.54166666666673
 20
312.2386399551227
 40
1.149999999999984
  0
CIRCLE
  8
0
  6
CONTINUOUS
 62
     7
 10
75.34166666666641
 20
312.2386399551227
 40
1.149999999999984
  0
CIRCLE
  8
0
  6
CONTINUOUS
 62
     7
 10
69.74166666666659
 20
315.0386399551228
 40
1.149999999999984
  0
CIRCLE
  8
0
  6
CONTINUOUS
 62
     7
 10
134.1416666666664
 20
315.0386399551228
 40
1.149999999999984
  0
CIRCLE
  8
0
  6
CONTINUOUS
 62
     7
 10
69.74166666666659
 20
317.8386399551225
 40
1.149999999999984
  0
CIRCLE
  8
0
  6
CONTINUOUS
 62
     7
 10
139.7416666666668
 20
348.638639955123
 40
1.150000000000095
  0
CIRCLE
  8
0
  6
CONTINUOUS
 62
     7
 10
134.1416666666664
 20
320.6386399551226
 40
1.149999999999984
  0
CIRCLE
  8
0
  6
CONTINUOUS
 62
     7
 10
103.3416666666667
 20
376.6386399551226
 40
1.149999999999762
  0
CIRCLE
  8
0
  6
CONTINUOUS
 62
     7
 10
134.1416666666664
 20
331.8386399551229
 40
1.149999999999984
  0
CIRCLE
  8
0
  6
CONTINUOUS
 62
     7
 10
106.1416666666668
 20
379.4386399551228
 40
1.149999999999984
  0
CIRCLE
  8
0
  6
CONTINUOUS
 62
     7
 10
106.1416666666668
 20
376.6386399551226
 40
1.149999999999984
  0
CIRCLE
  8
0
  6
CONTINUOUS
 62
     7
 10
134.1416666666664
 20
348.638639955123
 40
1.149999999999984
  0
CIRCLE
  8
0
  6
CONTINUOUS
 62
     7
 10
136.9416666666665
 20
312.2386399551227
 40
1.150000000000095
  0
CIRCLE
  8
0
  6
CONTINUOUS
 62
     7
 10
134.1416666666664
 20
337.4386399551226
 40
1.149999999999984
  0
CIRCLE
  8
0
  6
CONTINUOUS
 62
     7
 10
134.1416666666664
 20
326.2386399551231
 40
1.149999999999984
  0
CIRCLE
  8
0
  6
CONTINUOUS
 62
     7
 10
134.1416666666664
 20
343.0386399551231
 40
1.149999999999984
  0
LINE
  8
0
  6
CONTINUOUS
 62
   253
 10
38.74232711877301
 20
108.9767734995728
 11
38.55705369700915
 21
108.9495543973868
  0
CIRCLE
  8
0
  6
CONTINUOUS
 62
     7
 10
106.1416666666668
 20
385.0386399551223
 40
1.149999999999984
  0
LINE
  8
0
  6
CONTINUOUS
 62
   253
 10
38.55705369700912
 20
108.9495543973868
 11
38.37837327035879
 21
108.8898647260698
  0
LINE
  8
0
  6
CONTINUOUS
 62
   253
 10
38.37837327035876
 20
108.8898647260698
 11
38.21264422076698
 21
108.7998285555916
  0
LINE
  8
0
  6
CONTINUOUS
 62
   253
 10
38.21264422076698
 20
108.7998285555917
 11
38.06576405260187
 21
108.6826498427117
  0
LINE
  8
0
  6
CONTINUOUS
 62
   253
 10
38.06576405260187
 20
108.6826498427117
 11
37.94295952867607
 21
108.5424984174794
  0
LINE
  8
0
  6
CONTINUOUS
 62
   253
 10
37.9429595286761
 20
108.5424984174794
 11
37.84860067475221
 21
108.3843615989228
  0
LINE
  8
0
  6
CONTINUOUS
 62
   253
 10
37.78604527122176
 20
108.2138667202133
 11
37.75751936576033
 21
108.037080878787
  0
LINE
  8
0
  6
CONTINUOUS
 62
   253
 10
221.6204840420867
 20
107.1320644707656
 11
221.5769718980598
 21
107.3126372097963
  0
LINE
  8
0
  6
CONTINUOUS
 62
   253
 10
221.5769718980598
 20
107.3126372097963
 11
221.5126696152061
 21
107.4869454969547
  0
LINE
  8
0
  6
CONTINUOUS
 62
   253
 10
221.5126696152061
 20
107.4869454969547
 11
221.4298079763011
 21
107.6489422075104
  0
LINE
  8
0
  6
CONTINUOUS
 62
   253
 10
37.84860067475226
 20
108.3843615989228
 11
37.78604527122184
 21
108.2138667202133
  0
LINE
  8
0
  6
CONTINUOUS
 62
   253
 10
221.4298079763011
 20
107.6489422075104
 11
221.3312616276071
 21
107.7930073314764
  0
LINE
  8
0
  6
CONTINUOUS
 62
   253
 10
221.3312616276071
 20
107.7930073314764
 11
221.2204493512816
 21
107.9141429436932
  0
LINE
  8
0
  6
CONTINUOUS
 62
   253
 10
221.2204493512817
 20
107.9141429436932
 11
221.1012154605684
 21
108.008146592468
  0
LINE
  8
0
  6
CONTINUOUS
 62
   253
 10
221.1012154605684
 20
108.008146592468
 11
220.9776964324002
 21
108.0717570915516
  0
LINE
  8
0
  6
CONTINUOUS
 62
   253
 10
197.7056369009328
 20
108.0717570915515
 11
197.5821178727651
 21
108.0081465924679
  0
CIRCLE
  8
0
  6
CONTINUOUS
 62
     7
 10
106.1416666666668
 20
382.2386399551229
 40
1.149999999999984
  0
LINE
  8
0
  6
CONTINUOUS
 62
   253
 10
197.5821178727651
 20
108.0081465924679
 11
197.462883982051
 21
107.914142943693
  0
LINE
  8
0
  6
CONTINUOUS
 62
   253
 10
197.2535253570324
 20
107.6489422075103
 11
197.1706637181276
 21
107.4869454969545
  0
LINE
  8
0
  6
CONTINUOUS
 62
   253
 10
197.1706637181276
 20
107.4869454969546
 11
197.1063614352738
 21
107.3126372097964
  0
LINE
  8
0
  6
CONTINUOUS
 62
   253
 10
197.1063614352737
 20
107.3126372097963
 11
197.062849291246
 21
107.1320644707657
  0
LINE
  8
0
  6
CONTINUOUS
 62
   253
 10
197.462883982051
 20
107.914142943693
 11
197.3520717057263
 21
107.7930073314763
  0
LINE
  8
0
  6
CONTINUOUS
 62
   253
 10
197.3520717057262
 20
107.7930073314763
 11
197.2535253570324
 21
107.6489422075103
  0
CIRCLE
  8
0
  6
CONTINUOUS
 62
     7
 10
69.74166666666659
 20
368.2386399551229
 40
1.149999999999984
  0
CIRCLE
  8
0
  6
CONTINUOUS
 62
     7
 10
139.7416666666668
 20
399.0386399551228
 40
1.149999999999873
  0
CIRCLE
  8
0
  6
CONTINUOUS
 62
     7
 10
142.5416666666663
 20
399.0386399551228
 40
1.149999999999762
  0
CIRCLE
  8
0
  6
CONTINUOUS
 62
     7
 10
72.54166666666673
 20
371.0386399551226
 40
1.149999999999984
  0
CIRCLE
  8
0
  6
CONTINUOUS
 62
     7
 10
134.1416666666664
 20
399.0386399551228
 40
1.149999999999984
  0
CIRCLE
  8
0
  6
CONTINUOUS
 62
     7
 10
136.9416666666665
 20
399.0386399551228
 40
1.150000000000095
  0
CIRCLE
  8
0
  6
CONTINUOUS
 62
     7
 10
190.1416666666669
 20
435.4386399551231
 40
1.149999999999984
  0
CIRCLE
  8
0
  6
CONTINUOUS
 62
     7
 10
134.1416666666664
 20
432.638639955123
 40
1.149999999999984
  0
CIRCLE
  8
0
  6
CONTINUOUS
 62
     7
 10
136.9416666666665
 20
435.4386399551231
 40
1.150000000000095
  0
CIRCLE
  8
0
  6
CONTINUOUS
 62
     7
 10
134.1416666666664
 20
435.4386399551231
 40
1.149999999999984
  0
CIRCLE
  8
0
  6
CONTINUOUS
 62
     7
 10
192.9416666666664
 20
435.4386399551231
 40
1.150000000000095
  0
CIRCLE
  8
0
  6
CONTINUOUS
 62
     7
 10
156.5416666666669
 20
376.6386399551226
 40
1.150000000000095
  0
CIRCLE
  8
0
  6
CONTINUOUS
 62
     7
 10
128.5416666666665
 20
432.638639955123
 40
1.149999999999984
  0
CIRCLE
  8
0
  6
CONTINUOUS
 62
     7
 10
192.9416666666664
 20
432.638639955123
 40
1.150000000000095
  0
CIRCLE
  8
0
  6
CONTINUOUS
 62
     7
 10
156.5416666666669
 20
382.2386399551229
 40
1.150000000000095
  0
CIRCLE
  8
0
  6
CONTINUOUS
 62
     7
 10
122.9416666666667
 20
399.0386399551228
 40
1.149999999999984
  0
CIRCLE
  8
0
  6
CONTINUOUS
 62
     7
 10
192.9416666666664
 20
379.4386399551228
 40
1.150000000000095
  0
CIRCLE
  8
0
  6
CONTINUOUS
 62
     7
 10
131.3416666666667
 20
407.1886399551228
 40
1.149999999999984
  0
CIRCLE
  8
0
  6
CONTINUOUS
 62
     7
 10
131.3416666666667
 20
332.088639955123
 40
1.149999999999984
  0
CIRCLE
  8
0
  6
CONTINUOUS
 62
     7
 10
128.5416666666665
 20
399.0386399551228
 40
1.149999999999984
  0
CIRCLE
  8
0
  6
CONTINUOUS
 62
     7
 10
173.0916666666666
 20
373.8386399551229
 40
1.149999999999984
  0
CIRCLE
  8
0
  6
CONTINUOUS
 62
     7
 10
125.7416666666663
 20
435.4386399551231
 40
1.149999999999873
  0
CIRCLE
  8
0
  6
CONTINUOUS
 62
     7
 10
89.5916666666664
 20
373.8386399551229
 40
1.149999999999984
  0
CIRCLE
  8
0
  6
CONTINUOUS
 62
     7
 10
97.99166666666636
 20
373.8386399551229
 40
1.150000000000095
  0
CIRCLE
  8
0
  6
CONTINUOUS
 62
     7
 10
131.3416666666667
 20
373.8386399551229
 40
21.49999999999996
  0
CIRCLE
  8
0
  6
CONTINUOUS
 62
     7
 10
190.1416666666669
 20
376.6386399551226
 40
1.149999999999984
  0
CIRCLE
  8
0
  6
CONTINUOUS
 62
     7
 10
131.3416666666667
 20
415.5886399551226
 40
1.149999999999984
  0
CIRCLE
  8
0
  6
CONTINUOUS
 62
     7
 10
131.3416666666667
 20
115.3322720089752
 40
3.249999999999975
  0
CIRCLE
  8
0
  6
CONTINUOUS
 62
     7
 10
164.6916666666667
 20
373.8386399551229
 40
1.149999999999984
  0
CIRCLE
  8
0
  6
CONTINUOUS
 62
     7
 10
131.3416666666667
 20
340.4886399551226
 40
1.149999999999984
  0
CIRCLE
  8
0
  6
CONTINUOUS
 62
     7
 10
-126.7147012794809
 20
298.8386399551228
 40
3.500000000000003
  0
CIRCLE
  8
0
  6
CONTINUOUS
 62
     7
 10
238.3416666635183
 20
192.8322720089752
 40
0.974999999999504
  0
LINE
  8
0
  6
CONTINUOUS
 62
     7
 10
239.0345598854803
 20
285.5886399551231
 11
243.7416666666665
 21
285.5886399551231
  0
LINE
  8
0
  6
CONTINUOUS
 62
     7
 10
243.7416666666665
 20
292.5886399551227
 11
239.0345598854803
 21
292.5886399551227
  0
LINE
  8
0
  6
CONTINUOUS
 62
     7
 10
243.7416666666665
 20
282.3386399551229
 11
239.0345598854803
 21
282.3386399551229
  0
LINE
  8
0
  6
CONTINUOUS
 62
     7
 10
243.7416666666665
 20
451.838639955123
 11
235.2088558451682
 21
451.838639955123
  0
LINE
  8
0
  6
CONTINUOUS
 62
     7
 10
243.7416666666665
 20
462.0886399551231
 11
235.2088558451682
 21
462.0886399551231
  0
LINE
  8
0
  6
CONTINUOUS
 62
     7
 10
243.7416666666665
 20
296.838639955123
 11
236.3416666666662
 21
296.838639955123
  0
LINE
  8
0
  6
CONTINUOUS
 62
     7
 10
34.69923336662858
 20
116.587934492988
 11
35.29895725593215
 21
116.0845010328623
  0
LINE
  8
0
  6
CONTINUOUS
 62
     7
 10
239.0345598854803
 20
295.8386399551229
 11
243.7416666666665
 21
295.8386399551229
  0
LINE
  8
0
  6
CONTINUOUS
 62
     7
 10
243.7416666666665
 20
429.8386399551233
 11
236.3416666666662
 21
429.8386399551233
  0
LINE
  8
0
  6
CONTINUOUS
 62
     7
 10
243.7416666666665
 20
329.0886399551229
 11
235.2088558451682
 21
329.0886399551229
  0
LINE
  8
0
  6
CONTINUOUS
 62
     7
 10
243.7416666666665
 20
318.8386399551227
 11
235.2088558451682
 21
318.8386399551227
  0
LINE
  8
0
  6
CONTINUOUS
 62
     7
 10
243.7416666666665
 20
332.3386399551227
 11
243.7416666666665
 21
296.838639955123
  0
LINE
  8
0
  6
CONTINUOUS
 62
     7
 10
243.7416666666665
 20
322.0886399551228
 11
235.2088558451682
 21
322.0886399551228
  0
LINE
  8
0
  6
CONTINUOUS
 62
     7
 10
243.7416666666665
 20
465.3386399551229
 11
235.2088558451682
 21
465.3386399551229
  0
LINE
  8
0
  6
CONTINUOUS
 62
     7
 10
243.7416666666665
 20
425.588639955123
 11
235.2088558451682
 21
425.588639955123
  0
LINE
  8
0
  6
CONTINUOUS
 62
     7
 10
243.7416666666665
 20
429.8386399551233
 11
243.7416666666665
 21
465.3386399551229
  0
LINE
  8
0
  6
CONTINUOUS
 62
     7
 10
243.7416666666665
 20
428.8386399551231
 11
235.2088558451682
 21
428.8386399551231
  0
POINT
  8
0
 62
     7
 10
-241.7147012794807
 20
250.0725955120037
 30
0.0
  0
LINE
  8
0
  6
CONTINUOUS
 62
     7
 10
32.21435344574275
 20
102.8322720089754
 11
231.341666666667
 21
102.8322720089754
  0
POINT
  8
0
 62
     7
 10
176.3416666666667
 20
143.8322720089754
 30
0.0
  0
POINT
  8
0
 62
     7
 10
131.3416666666668
 20
143.8322720089753
 30
0.0
  0
LINE
  8
0
  6
CONTINUOUS
 62
     7
 10
34.20156381016681
 20
478.6701473569589
 11
34.05005478099537
 21
478.5458098162487
  0
LINE
  8
0
  6
CONTINUOUS
 62
     7
 10
14.87411960799834
 20
311.2625370341633
 11
14.7012592468661
 21
311.1701473569588
  0
LINE
  8
0
  6
CONTINUOUS
 62
   253
 10
15.25392138807657
 20
207.8136544791516
 11
15.12316875112379
 21
207.7584951145134
  0
LINE
  8
0
  6
CONTINUOUS
 62
   253
 10
14.80792251854157
 20
207.4006011510995
 11
14.74156984985575
 21
207.2319900412516
  0
LINE
  8
0
  6
CONTINUOUS
 62
   253
 10
68.61756928073159
 20
108.6826498427117
 11
68.47068911256656
 21
108.7998285555916
  0
LINE
  8
0
  6
CONTINUOUS
 62
     7
 10
34.3744241712991
 20
478.7625370341635
 11
34.20156381016687
 21
478.6701473569589
  0
LINE
  8
0
  6
CONTINUOUS
 62
   253
 10
14.699351496546
 20
207.0484954066295
 11
14.68283946151439
 21
206.856949680898
  0
LINE
  8
0
  6
CONTINUOUS
 62
     7
 10
26.32245644828457
 20
285.533869091914
 11
26.26556374570738
 21
285.7214404259446
  0
LINE
  8
0
  6
CONTINUOUS
 62
   253
 10
228.5001893085181
 20
206.8569496808986
 11
228.4836772734865
 21
207.0484954066295
  0
LINE
  8
0
  6
CONTINUOUS
 62
   253
 10
224.8972880621116
 20
108.2138667202133
 11
224.8347326585818
 21
108.3843615989229
  0
LINE
  8
0
  6
CONTINUOUS
 62
   253
 10
224.8347326585818
 20
108.384361598923
 11
224.7403738046574
 21
108.5424984174795
  0
LINE
  8
0
  6
CONTINUOUS
 62
     7
 10
26.34166666666671
 20
277.2540456257333
 11
26.36087688504898
 21
277.0589687937857
  0
LINE
  8
0
  6
CONTINUOUS
 62
     7
 10
34.75707233727721
 20
478.8386399551227
 11
34.56199550532954
 21
478.8194297367406
  0
LINE
  8
0
  6
CONTINUOUS
 62
   253
 10
15.12316875112374
 20
207.7584951145133
 11
15.00234157169575
 21
207.6688477772938
  0
LINE
  8
0
  6
CONTINUOUS
 62
     7
 10
26.17317406850272
 20
285.8943007870769
 11
26.0488365277925
 21
286.0458098162483
  0
LINE
  8
0
  6
CONTINUOUS
 62
     7
 10
26.04883652779255
 20
286.0458098162482
 11
25.89732749862053
 21
286.170147356959
  0
LINE
  8
0
  6
CONTINUOUS
 62
   253
 10
68.30496006297481
 20
108.8898647260699
 11
68.1262796363244
 21
108.9495543973868
  0
LINE
  8
0
  6
CONTINUOUS
 62
     7
 10
34.56199550532957
 20
478.8194297367406
 11
34.37442417129907
 21
478.7625370341634
  0
LINE
  8
0
  6
CONTINUOUS
 62
     7
 10
15.25676777397655
 20
311.3386399551227
 11
15.06169094202897
 21
311.3194297367405
  0
LINE
  8
0
  6
CONTINUOUS
 62
     7
 10
26.41776958762554
 20
276.8713974597551
 11
26.51015926483074
 21
276.6985370986235
  0
LINE
  8
0
  6
CONTINUOUS
 62
     7
 10
26.5101592648308
 20
276.6985370986234
 11
26.63449680554103
 21
276.5470280694514
  0
LINE
  8
0
  6
CONTINUOUS
 62
   253
 10
14.74156984985586
 20
207.2319900412516
 11
14.69935149654605
 21
207.0484954066295
  0
LINE
  8
0
  6
CONTINUOUS
 62
     7
 10
26.34166666666671
 20
285.3387922599665
 11
26.32245644828451
 21
285.5338690919141
  0
LINE
  8
0
  6
CONTINUOUS
 62
     7
 10
26.26556374570743
 20
285.7214404259446
 11
26.17317406850281
 21
285.8943007870768
  0
LINE
  8
0
  6
CONTINUOUS
 62
   253
 10
15.38973090031848
 20
207.8322720089753
 11
15.25392138807652
 21
207.8136544791515
  0
LINE
  8
0
  6
CONTINUOUS
 62
     7
 10
25.72446713748833
 20
286.2625370341637
 11
25.53689580345775
 21
286.3194297367402
  0
LINE
  8
0
  6
CONTINUOUS
 62
   253
 10
68.12627963632434
 20
108.9495543973868
 11
67.94100621456056
 21
108.976773499573
  0
LINE
  8
0
  6
CONTINUOUS
 62
     7
 10
25.53689580345775
 20
286.3194297367403
 11
25.34181897151008
 21
286.3386399551231
  0
LINE
  8
0
  6
CONTINUOUS
 62
   253
 10
15.00234157169578
 20
207.6688477772939
 11
14.895938857026
 21
207.5480504914415
  0
LINE
  8
0
  6
CONTINUOUS
 62
   253
 10
224.4706891125665
 20
108.7998285555918
 11
224.3049600629747
 21
108.8898647260699
  0
LINE
  8
0
  6
CONTINUOUS
 62
   253
 10
228.4836772734864
 20
207.0484954066295
 11
228.4414589201759
 21
207.2319900412516
  0
LINE
  8
0
  6
CONTINUOUS
 62
   253
 10
228.441458920176
 20
207.2319900412516
 11
228.3751062514908
 21
207.4006011510995
  0
LINE
  8
0
  6
CONTINUOUS
 62
   253
 10
14.895938857026
 20
207.5480504914415
 11
14.80792251854163
 21
207.4006011510995
  0
LINE
  8
0
  6
CONTINUOUS
 62
     7
 10
26.36087688504907
 20
277.0589687937857
 11
26.41776958762559
 21
276.8713974597551
  0
LINE
  8
0
  6
CONTINUOUS
 62
   253
 10
68.47068911256659
 20
108.7998285555917
 11
68.30496006297481
 21
108.8898647260699
  0
LINE
  8
0
  6
CONTINUOUS
 62
     7
 10
25.8973274986205
 20
286.170147356959
 11
25.72446713748835
 21
286.2625370341637
  0
LINE
  8
0
  6
CONTINUOUS
 62
   253
 10
228.3751062514908
 20
207.4006011510995
 11
228.2870899130063
 21
207.5480504914415
  0
LINE
  8
0
  6
CONTINUOUS
 62
   253
 10
224.9258139675732
 20
108.0370808787871
 11
224.8972880621117
 21
108.2138667202133
  0
LINE
  8
0
  6
CONTINUOUS
 62
     7
 10
15.06169094202903
 20
311.3194297367405
 11
14.87411960799836
 21
311.2625370341632
  0
LINE
  8
0
  6
CONTINUOUS
 62
   253
 10
228.2870899130063
 20
207.5480504914415
 11
228.1806871983367
 21
207.6688477772939
  0
LINE
  8
0
  6
CONTINUOUS
 62
   253
 10
228.1806871983367
 20
207.6688477772939
 11
228.0598600189086
 21
207.7584951145133
  0
LINE
  8
0
  6
CONTINUOUS
 62
   253
 10
224.1262796363244
 20
108.9495543973868
 11
223.9410062145604
 21
108.976773499573
  0
LINE
  8
0
  6
CONTINUOUS
 62
     7
 10
14.70125924686616
 20
311.1701473569587
 11
14.54975021769414
 21
311.0458098162484
  0
LINE
  8
0
  6
CONTINUOUS
 62
   253
 10
68.83473265858142
 20
108.3843615989228
 11
68.74037380465744
 21
108.5424984174794
  0
LINE
  8
0
  6
CONTINUOUS
 62
   253
 10
224.6175692807315
 20
108.6826498427117
 11
224.4706891125664
 21
108.7998285555917
  0
LINE
  8
0
  6
CONTINUOUS
 62
   253
 10
68.74037380465737
 20
108.5424984174794
 11
68.61756928073156
 21
108.6826498427117
  0
LINE
  8
0
  6
CONTINUOUS
 62
   253
 10
224.7403738046574
 20
108.5424984174795
 11
224.6175692807315
 21
108.6826498427117
  0
LINE
  8
0
  6
CONTINUOUS
 62
   253
 10
224.3049600629747
 20
108.8898647260699
 11
224.1262796363245
 21
108.9495543973868
  0
LINE
  8
0
  6
CONTINUOUS
 62
   253
 10
34.50264613499643
 20
207.6688477772939
 11
34.39624342032657
 21
207.5480504914415
  0
LINE
  8
0
  6
CONTINUOUS
 62
   253
 10
34.30822708184211
 20
207.4006011510995
 11
34.24187441315687
 21
207.2319900412516
  0
LINE
  8
0
  6
CONTINUOUS
 62
     7
 10
34.05005478099543
 20
269.1314700939971
 11
34.20156381016687
 21
269.0071325532869
  0
LINE
  8
0
  6
CONTINUOUS
 62
     7
 10
236.0488365277926
 20
276.5470280694515
 11
236.1731740685028
 21
276.698537098623
  0
LINE
  8
0
  6
CONTINUOUS
 62
     7
 10
26.32245644828457
 20
435.5338690919141
 11
26.26556374570738
 21
435.7214404259447
  0
LINE
  8
0
  6
CONTINUOUS
 62
     7
 10
26.36087688504907
 20
470.6183111164594
 11
26.34166666666679
 21
470.4232342845119
  0
LINE
  8
0
  6
CONTINUOUS
 62
     7
 10
228.3089091620338
 20
268.9147428760823
 11
228.4817695231661
 21
269.0071325532869
  0
LINE
  8
0
  6
CONTINUOUS
 62
     7
 10
26.17317406850272
 20
435.8943007870769
 11
26.0488365277925
 21
436.0458098162483
  0
LINE
  8
0
  6
CONTINUOUS
 62
     7
 10
9.010159264830508
 20
292.1982325353226
 11
9.134496805540737
 21
292.0467235061506
  0
LINE
  8
0
  6
CONTINUOUS
 62
     7
 10
236.1731740685029
 20
276.6985370986229
 11
236.2655637457073
 21
276.871397459755
  0
LINE
  8
0
  6
CONTINUOUS
 62
     7
 10
236.2655637457072
 20
276.8713974597551
 11
236.3224564482845
 21
277.0589687937857
  0
LINE
  8
0
  6
CONTINUOUS
 62
     7
 10
14.87411960799834
 20
286.4147428760818
 11
15.061690942029
 21
286.3578501735053
  0
LINE
  8
0
  6
CONTINUOUS
 62
     7
 10
8.860876885048773
 20
442.5586642304855
 11
8.917769587625967
 21
442.3710928964544
  0
LINE
  8
0
  6
CONTINUOUS
 62
     7
 10
26.5101592648308
 20
470.9787428116223
 11
26.41776958762618
 21
470.8058824504901
  0
LINE
  8
0
  6
CONTINUOUS
 62
     7
 10
25.53689580345775
 20
461.3578501735049
 11
25.72446713748833
 21
461.414742876082
  0
LINE
  8
0
  6
CONTINUOUS
 62
     7
 10
25.72446713748833
 20
461.414742876082
 11
25.89732749862048
 21
461.5071325532867
  0
LINE
  8
0
  6
CONTINUOUS
 62
     7
 10
15.25676777397655
 20
461.3386399551226
 11
15.06169094202897
 21
461.3194297367404
  0
LINE
  8
0
  6
CONTINUOUS
 62
     7
 10
34.3744241712991
 20
268.9147428760823
 11
34.5619955053296
 21
268.8578501735051
  0
LINE
  8
0
  6
CONTINUOUS
 62
     7
 10
9.134496805540792
 20
305.6305564040951
 11
9.010159264830564
 21
305.479047374923
  0
LINE
  8
0
  6
CONTINUOUS
 62
     7
 10
8.860876885048773
 20
305.1186156797603
 11
8.841666666666498
 21
304.9235388478127
  0
LINE
  8
0
  6
CONTINUOUS
 62
     7
 10
8.917769587626022
 20
442.3710928964543
 11
9.010159264830564
 21
442.1982325353226
  0
LINE
  8
0
  6
CONTINUOUS
 62
     7
 10
14.87411960799834
 20
436.4147428760824
 11
15.061690942029
 21
436.3578501735054
  0
LINE
  8
0
  6
CONTINUOUS
 62
   253
 10
34.39624342032654
 20
207.5480504914415
 11
34.30822708184217
 21
207.4006011510995
  0
LINE
  8
0
  6
CONTINUOUS
 62
     7
 10
8.841666666666525
 20
442.7537410624332
 11
8.860876885048802
 21
442.5586642304855
  0
LINE
  8
0
  6
CONTINUOUS
 62
     7
 10
228.1213378280032
 20
268.857850173505
 11
228.3089091620338
 21
268.9147428760822
  0
LINE
  8
0
  6
CONTINUOUS
 62
     7
 10
15.06169094202903
 20
286.3578501735053
 11
15.25676777397661
 21
286.3386399551224
  0
LINE
  8
0
  6
CONTINUOUS
 62
     7
 10
25.8973274986205
 20
461.5071325532867
 11
26.04883652779252
 21
461.6314700939969
  0
LINE
  8
0
  6
CONTINUOUS
 62
     7
 10
26.04883652779255
 20
461.6314700939969
 11
26.17317406850278
 21
461.7829791231689
  0
LINE
  8
0
  6
CONTINUOUS
 62
     7
 10
25.53689580345775
 20
436.3194297367407
 11
25.34181897151008
 21
436.3386399551231
  0
LINE
  8
0
  6
CONTINUOUS
 62
     7
 10
26.17317406850272
 20
461.7829791231689
 11
26.26556374570735
 21
461.9558394843011
  0
LINE
  8
0
  6
CONTINUOUS
 62
     7
 10
26.63449680554097
 20
471.1302518407944
 11
26.51015926483074
 21
470.9787428116223
  0
LINE
  8
0
  6
CONTINUOUS
 62
     7
 10
26.26556374570743
 20
435.7214404259446
 11
26.17317406850281
 21
435.8943007870769
  0
LINE
  8
0
  6
CONTINUOUS
 62
     7
 10
15.06169094202903
 20
436.3578501735054
 11
15.25676777397661
 21
436.3386399551231
  0
LINE
  8
0
  6
CONTINUOUS
 62
   253
 10
34.24187441315696
 20
207.2319900412516
 11
34.19965605984665
 21
207.0484954066295
  0
LINE
  8
0
  6
CONTINUOUS
 62
     7
 10
8.841666666666525
 20
292.7537410624325
 11
8.860876885048802
 21
292.5586642304854
  0
LINE
  8
0
  6
CONTINUOUS
 62
   253
 10
34.75422595137723
 20
207.8136544791516
 11
34.62347331442436
 21
207.7584951145134
  0
LINE
  8
0
  6
CONTINUOUS
 62
     7
 10
8.860876885048773
 20
292.5586642304855
 11
8.917769587625967
 21
292.3710928964543
  0
LINE
  8
0
  6
CONTINUOUS
 62
     7
 10
15.06169094202903
 20
461.3194297367405
 11
14.87411960799836
 21
461.2625370341634
  0
LINE
  8
0
  6
CONTINUOUS
 62
     7
 10
14.87411960799834
 20
461.2625370341634
 11
14.7012592468661
 21
461.1701473569594
  0
LINE
  8
0
  6
CONTINUOUS
 62
     7
 10
228.481769523166
 20
269.0071325532869
 11
228.6332785523375
 21
269.1314700939971
  0
LINE
  8
0
  6
CONTINUOUS
 62
     7
 10
14.70125924686616
 20
436.5071325532865
 11
14.87411960799839
 21
436.4147428760824
  0
LINE
  8
0
  6
CONTINUOUS
 62
     7
 10
8.917769587626022
 20
292.3710928964542
 11
9.010159264830564
 21
292.1982325353226
  0
LINE
  8
0
  6
CONTINUOUS
 62
     7
 10
14.54975021769411
 20
286.6314700939972
 11
14.70125924686613
 21
286.5071325532864
  0
LINE
  8
0
  6
CONTINUOUS
 62
     7
 10
14.70125924686616
 20
286.5071325532864
 11
14.87411960799839
 21
286.4147428760818
  0
LINE
  8
0
  6
CONTINUOUS
 62
     7
 10
34.20156381016681
 20
269.0071325532869
 11
34.37442417129905
 21
268.9147428760823
  0
LINE
  8
0
  6
CONTINUOUS
 62
     7
 10
8.917769587626022
 20
305.3061870137909
 11
8.86087688504883
 21
305.1186156797603
  0
LINE
  8
0
  6
CONTINUOUS
 62
   253
 10
34.62347331442439
 20
207.7584951145133
 11
34.5026461349964
 21
207.6688477772938
  0
LINE
  8
0
  6
CONTINUOUS
 62
     7
 10
25.34181897151011
 20
461.3386399551226
 11
25.53689580345777
 21
461.3578501735049
  0
LINE
  8
0
  6
CONTINUOUS
 62
     7
 10
9.010159264830508
 20
442.1982325353226
 11
9.134496805540737
 21
442.0467235061507
  0
LINE
  8
0
  6
CONTINUOUS
 62
   253
 10
34.89003546361924
 20
207.8322720089753
 11
34.75422595137728
 21
207.8136544791515
  0
LINE
  8
0
  6
CONTINUOUS
 62
   253
 10
34.19965605984654
 20
207.0484954066295
 11
34.18314402481551
 21
206.856949680898
  0
LINE
  8
0
  6
CONTINUOUS
 62
   253
 10
227.9291073819556
 20
207.8136544791516
 11
227.7932978697138
 21
207.8322720089753
  0
LINE
  8
0
  6
CONTINUOUS
 62
     7
 10
9.010159264830508
 20
305.4790473749231
 11
8.917769587625967
 21
305.3061870137909
  0
LINE
  8
0
  6
CONTINUOUS
 62
     7
 10
236.3224564482846
 20
277.0589687937857
 11
236.3416666666668
 21
277.2540456257333
  0
LINE
  8
0
  6
CONTINUOUS
 62
     7
 10
14.70125924686616
 20
461.1701473569594
 11
14.54975021769414
 21
461.0458098162485
  0
LINE
  8
0
  6
CONTINUOUS
 62
     7
 10
34.56199550532957
 20
268.857850173505
 11
34.75707233727724
 21
268.8386399551229
  0
LINE
  8
0
  6
CONTINUOUS
 62
     7
 10
227.9262609960558
 20
268.8386399551229
 11
228.1213378280032
 21
268.8578501735051
  0
LINE
  8
0
  6
CONTINUOUS
 62
     7
 10
26.34166666666671
 20
435.3387922599665
 11
26.32245644828451
 21
435.5338690919141
  0
LINE
  8
0
  6
CONTINUOUS
 62
     7
 10
25.8973274986205
 20
436.170147356959
 11
25.72446713748835
 21
436.2625370341637
  0
LINE
  8
0
  6
CONTINUOUS
 62
     7
 10
14.54975021769411
 20
436.6314700939973
 11
14.70125924686613
 21
436.5071325532864
  0
LINE
  8
0
  6
CONTINUOUS
 62
     7
 10
26.4177695876262
 20
470.8058824504901
 11
26.36087688504909
 21
470.6183111164594
  0
LINE
  8
0
  6
CONTINUOUS
 62
     7
 10
25.72446713748833
 20
436.2625370341637
 11
25.53689580345775
 21
436.3194297367407
  0
LINE
  8
0
  6
CONTINUOUS
 62
     7
 10
26.04883652779255
 20
436.0458098162483
 11
25.89732749862053
 21
436.170147356959
  0
LINE
  8
0
  6
CONTINUOUS
 62
   253
 10
228.0598600189086
 20
207.7584951145133
 11
227.9291073819556
 21
207.8136544791514
  0
LINE
  8
0
  6
CONTINUOUS
 62
     7
 10
26.04883652779255
 20
311.6314700939968
 11
26.17317406850278
 21
311.7829791231689
  0
LINE
  8
0
  6
CONTINUOUS
 62
   253
 10
-137.6900236075579
 20
442.1798127499708
 11
-137.4984778818269
 21
442.1963247850024
  0
LINE
  8
0
  6
CONTINUOUS
 62
     7
 10
26.26556374570743
 20
461.9558394843011
 11
26.32245644828463
 21
462.1434108183316
  0
LINE
  8
0
  6
CONTINUOUS
 62
     7
 10
53.23889031962881
 20
113.9843434426908
 11
53.44444301370474
 21
113.9843434426908
  0
LINE
  8
0
  6
CENTER
 62
     1
 10
131.3416666666667
 20
249.8386399551227
 11
131.3416666666667
 21
497.8386399551232
  0
LINE
  8
0
  6
CONTINUOUS
 62
   253
 10
-136.8781255111621
 20
442.4993148601516
 11
-136.7884781739425
 21
442.6201420395797
  0
LINE
  8
0
  6
CONTINUOUS
 62
   253
 10
-137.1463721373565
 20
442.3048958069982
 11
-136.9989227970148
 21
442.3929121454821
  0
LINE
  8
0
  6
CONTINUOUS
 62
     7
 10
236.3416666666662
 20
451.838639955123
 11
236.3416666666662
 21
428.8386399551231
  0
LINE
  8
0
  6
CONTINUOUS
 62
     7
 10
131.3416666666667
 20
89.23227200897531
 11
131.3416666666667
 21
210.8322720089753
  0
LINE
  8
0
  6
CONTINUOUS
 62
     7
 10
50.63075734919453
 20
113.0410530588837
 11
50.60647024081502
 21
110.258026094131
  0
LINE
  8
0
  6
CONTINUOUS
 62
     7
 10
14.22745310429341
 20
187.3322720089751
 11
13.64166666666655
 21
187.3322720089751
  0
LINE
  8
0
  6
CONTINUOUS
 62
     7
 10
8.860876885048773
 20
455.1186156797602
 11
8.841666666666498
 21
454.9235388478126
  0
LINE
  8
0
  6
CONTINUOUS
 62
     7
 10
26.32245644828457
 20
312.1434108183316
 11
26.34166666666676
 21
312.3384876502792
  0
LINE
  8
0
  6
CONTINUOUS
 62
     7
 10
25.34181897151011
 20
311.3386399551227
 11
25.53689580345777
 21
311.3578501735047
  0
LINE
  8
0
  6
CONTINUOUS
 62
     7
 10
224.9258139675726
 20
494.5257759875152
 11
227.6918793001275
 21
478.8386399551227
  0
LINE
  8
0
  6
CONTINUOUS
 62
   253
 10
-137.3149832472046
 20
442.2385431383123
 11
-137.1463721373565
 21
442.304895806998
  0
LINE
  8
0
  6
CONTINUOUS
 62
   253
 10
-136.7333188093047
 20
442.7508946765326
 11
-136.7147012794809
 21
442.8867041887751
  0
LINE
  8
0
  6
CONTINUOUS
 62
     7
 10
30.47689503903772
 20
187.3322720089751
 11
18.47009379141304
 21
187.3322720089751
  0
LINE
  8
0
  6
CENTER
 62
     1
 10
8.841666666666525
 20
373.8386399551229
 11
243.7416666666665
 21
373.8386399551229
  0
LINE
  8
0
  6
CONTINUOUS
 62
     7
 10
9.134496805540792
 20
455.630556404095
 11
9.010159264830564
 21
455.479047374923
  0
LINE
  8
0
  6
CONTINUOUS
 62
     7
 10
26.17317406850272
 20
311.7829791231689
 11
26.26556374570735
 21
311.9558394843006
  0
LINE
  8
0
  6
CONTINUOUS
 62
     7
 10
13.64166666666655
 20
187.3322720089751
 11
13.64166666666655
 21
199.2322720089755
  0
LINE
  8
0
  6
CONTINUOUS
 62
     7
 10
26.32245644828457
 20
462.1434108183316
 11
26.34166666666676
 21
462.3384876502786
  0
LINE
  8
0
  6
CONTINUOUS
 62
   253
 10
-136.9989227970148
 20
442.3929121454819
 11
-136.8781255111621
 21
442.4993148601515
  0
LINE
  8
0
  6
CONTINUOUS
 62
     7
 10
190.9914540332057
 20
478.8386399551227
 11
193.7575193657604
 21
494.5257759875153
  0
LINE
  8
0
  6
CONTINUOUS
 62
     7
 10
8.917769587626022
 20
455.3061870137909
 11
8.86087688504883
 21
455.1186156797603
  0
LINE
  8
0
  6
CONTINUOUS
 62
   253
 10
-137.4984778818269
 20
442.1963247850024
 11
-137.3149832472046
 21
442.2385431383123
  0
LINE
  8
0
  6
CONTINUOUS
 62
     7
 10
9.010159264830508
 20
455.479047374923
 11
8.917769587625967
 21
455.3061870137908
  0
ARC
  8
0
  6
CONTINUOUS
 62
     7
 10
238.3416666666319
 20
464.7886399551233
 40
3.049999999999442
 50
10.38885781186332
 51
130.975610341744
  0
LINE
  8
0
  6
CONTINUOUS
 62
     7
 10
25.53689580345775
 20
311.3578501735048
 11
25.72446713748833
 21
311.414742876082
  0
LINE
  8
0
  6
CONTINUOUS
 62
   253
 10
-136.7884781739426
 20
442.6201420395797
 11
-136.7333188093047
 21
442.7508946765326
  0
LINE
  8
0
  6
CONTINUOUS
 62
     7
 10
25.8973274986205
 20
311.5071325532867
 11
26.04883652779252
 21
311.6314700939969
  0
LINE
  8
0
  6
CONTINUOUS
 62
     7
 10
25.72446713748833
 20
311.4147428760821
 11
25.89732749862048
 21
311.5071325532867
  0
LINE
  8
0
  6
CONTINUOUS
 62
     7
 10
-126.612409639448
 20
373.8386399551229
 11
-257.7019653871857
 21
373.8386399551229
  0
LINE
  8
0
  6
CONTINUOUS
 62
     7
 10
26.26556374570743
 20
311.9558394843005
 11
26.32245644828463
 21
312.1434108183316
  0
LINE
  8
0
  6
CONTINUOUS
 62
     7
 10
243.7416666666665
 20
429.8386399551233
 11
243.7416666666665
 21
434.838639955123
  0
LINE
  8
0
  6
CONTINUOUS
 62
     7
 10
236.3416666666662
 20
462.0886399551231
 11
236.3416666666662
 21
455.088639955123
  0
LINE
  8
0
  6
CONTINUOUS
 62
     7
 10
208.3226764587978
 20
493.6296599218294
 11
208.4437186809876
 21
493.6698154817482
  0
LINE
  8
0
  6
CONTINUOUS
 62
     7
 10
50.71601396781067
 20
491.9310651130311
 11
50.75565588046382
 21
492.0526209824873
  0
LINE
  8
0
  6
CONTINUOUS
 62
     7
 10
52.56659850037259
 20
493.7039583522804
 11
52.69101991739996
 21
493.7320062882322
  0
LINE
  8
0
  6
CONTINUOUS
 62
     7
 10
53.99231341593413
 20
493.7320062882322
 11
54.11673483296167
 21
493.7039583522804
  0
LINE
  8
0
  6
CONTINUOUS
 62
     7
 10
55.71123748185835
 20
492.5148259595177
 11
55.77378116033868
 21
492.4034409183359
  0
LINE
  8
0
  6
CONTINUOUS
 62
     7
 10
55.83079165840798
 20
492.2890936992712
 11
55.88213164609795
 21
492.1720597480851
  0
LINE
  8
0
  6
CONTINUOUS
 62
     7
 10
55.57016618375099
 20
492.7276440487734
 11
55.64331128156155
 21
492.6229805125083
  0
LINE
  8
0
  6
CONTINUOUS
 62
     7
 10
55.96731936552302
 20
491.9310651130311
 11
56.00096189247486
 21
491.8076849500678
  0
LINE
  8
0
  6
CONTINUOUS
 62
     7
 10
55.22910019135441
 20
493.1064843833879
 11
55.32123974586298
 21
493.0182130343189
  0
LINE
  8
0
  6
CONTINUOUS
 62
     7
 10
50.60919536202291
 20
491.3019162814354
 11
50.61817717936371
 21
491.4295884160701
  0
LINE
  8
0
  6
CONTINUOUS
 62
     7
 10
51.11316714958313
 20
492.7276440487734
 11
51.19135494904187
 21
492.8285644491293
  0
LINE
  8
0
  6
CONTINUOUS
 62
     7
 10
52.32267645879829
 20
493.6296599218294
 11
52.44371868098813
 21
493.6698154817482
  0
LINE
  8
0
  6
CONTINUOUS
 62
     7
 10
55.4919783842922
 20
492.8285644491293
 11
55.57016618375102
 21
492.7276440487734
  0
LINE
  8
0
  6
CONTINUOUS
 62
     7
 10
51.0400220517726
 20
492.6229805125084
 11
51.11316714958316
 21
492.7276440487734
  0
LINE
  8
0
  6
CONTINUOUS
 62
     7
 10
55.4089362261827
 20
492.9254986110611
 11
55.49197838429215
 21
492.8285644491293
  0
LINE
  8
0
  6
CONTINUOUS
 62
     7
 10
206.9095521729949
 20
492.4034409183359
 11
206.9720958514753
 21
492.5148259595177
  0
LINE
  8
0
  6
CONTINUOUS
 62
     7
 10
51.55059381993654
 20
493.1901000254706
 11
51.65094350253291
 21
493.2688585426895
  0
LINE
  8
0
  6
CONTINUOUS
 62
     7
 10
55.92767745286986
 20
492.0526209824874
 11
55.96731936552302
 21
491.9310651130311
  0
LINE
  8
0
  6
CONTINUOUS
 62
     7
 10
55.77378116033871
 20
492.4034409183359
 11
55.83079165840801
 21
492.2890936992712
  0
LINE
  8
0
  6
CONTINUOUS
 62
     7
 10
52.08726596933278
 20
493.5317119000493
 11
52.20376340685059
 21
493.5835884014069
  0
LINE
  8
0
  6
CONTINUOUS
 62
     7
 10
52.94328570072471
 20
493.7695619474202
 11
53.0705223955667
 21
493.7789792045537
  0
LINE
  8
0
  6
CONTINUOUS
 62
     7
 10
52.20376340685062
 20
493.5835884014068
 11
52.32267645879834
 21
493.6296599218293
  0
LINE
  8
0
  6
CONTINUOUS
 62
     7
 10
207.9734647715699
 20
493.4741553806776
 11
208.0872659693326
 21
493.5317119000492
  0
LINE
  8
0
  6
CONTINUOUS
 62
     7
 10
51.36209358747124
 20
493.0182130343189
 11
51.45423314197981
 21
493.1064843833879
  0
LINE
  8
0
  6
CONTINUOUS
 62
     7
 10
207.6509435025324
 20
493.2688585426894
 11
207.7550404620276
 21
493.3425702172702
  0
LINE
  8
0
  6
CONTINUOUS
 62
     7
 10
206.8012016872355
 20
492.1720597480852
 11
206.8525416749249
 21
492.2890936992712
  0
LINE
  8
0
  6
CONTINUOUS
 62
     7
 10
56.07413797131122
 20
491.3019162814354
 11
56.07686309251916
 21
491.1739353810082
  0
LINE
  8
0
  6
CONTINUOUS
 62
     7
 10
50.75565588046382
 20
492.0526209824874
 11
50.80120168723623
 21
492.1720597480859
  0
LINE
  8
0
  6
CONTINUOUS
 62
     7
 10
51.45423314197972
 20
493.1064843833879
 11
51.55059381993657
 21
493.1901000254705
  0
LINE
  8
0
  6
CONTINUOUS
 62
     7
 10
206.6333940569496
 20
491.5566442413725
 11
206.654809339545
 21
491.682777698401
  0
LINE
  8
0
  6
CONTINUOUS
 62
     7
 10
206.654809339545
 20
491.682777698401
 11
206.6823714408582
 21
491.8076849500673
  0
LINE
  8
0
  6
CONTINUOUS
 62
     7
 10
206.8525416749249
 20
492.2890936992712
 11
206.9095521729948
 21
492.4034409183358
  0
LINE
  8
0
  6
CONTINUOUS
 62
     7
 10
207.550593819936
 20
493.1901000254706
 11
207.6509435025324
 21
493.2688585426895
  0
LINE
  8
0
  6
CONTINUOUS
 62
     7
 10
52.81668321903543
 20
493.7538917262214
 11
52.94328570072476
 21
493.7695619474202
  0
LINE
  8
0
  6
CONTINUOUS
 62
     7
 10
207.1131671495825
 20
492.7276440487734
 11
207.1913549490412
 21
492.8285644491293
  0
LINE
  8
0
  6
CONTINUOUS
 62
     7
 10
207.1913549490413
 20
492.8285644491293
 11
207.2743971071507
 21
492.9254986110611
  0
LINE
  8
0
  6
CONTINUOUS
 62
     7
 10
206.6091953620223
 20
491.3019162814354
 11
206.6181771793632
 21
491.4295884160701
  0
LINE
  8
0
  6
CONTINUOUS
 62
     7
 10
56.06515615397045
 20
491.4295884160702
 11
56.07413797131125
 21
491.3019162814355
  0
LINE
  8
0
  6
CONTINUOUS
 62
     7
 10
207.2743971071507
 20
492.9254986110611
 11
207.3620935874704
 21
493.0182130343189
  0
LINE
  8
0
  6
CONTINUOUS
 62
     7
 10
206.9720958514752
 20
492.5148259595177
 11
207.0400220517719
 21
492.6229805125083
  0
LINE
  8
0
  6
CONTINUOUS
 62
     7
 10
206.7160139678106
 20
491.9310651130311
 11
206.7556558804632
 21
492.0526209824873
  0
LINE
  8
0
  6
CONTINUOUS
 62
     7
 10
56.04993927638336
 20
491.5566442413725
 11
56.06515615397034
 21
491.4295884160701
  0
LINE
  8
0
  6
CONTINUOUS
 62
     7
 10
56.00096189247483
 20
491.8076849500679
 11
56.0285239937886
 21
491.6827776984011
  0
LINE
  8
0
  6
CONTINUOUS
 62
     7
 10
50.61817717936378
 20
491.4295884160702
 11
50.63339405695019
 21
491.5566442413725
  0
LINE
  8
0
  6
CONTINUOUS
 62
     7
 10
52.69101991739999
 20
493.7320062882322
 11
52.81668321903543
 21
493.7538917262214
  0
LINE
  8
0
  6
CONTINUOUS
 62
     7
 10
206.6823714408581
 20
491.8076849500673
 11
206.7160139678105
 21
491.9310651130311
  0
LINE
  8
0
  6
CONTINUOUS
 62
     7
 10
50.97209585147577
 20
492.5148259595177
 11
51.0400220517726
 21
492.6229805125083
  0
LINE
  8
0
  6
CONTINUOUS
 62
     7
 10
54.59606736400069
 20
493.5317119000493
 11
54.70986856176354
 21
493.4741553806777
  0
LINE
  8
0
  6
CONTINUOUS
 62
     7
 10
206.6064702408144
 20
491.1739353810083
 11
206.6091953620222
 21
491.3019162814354
  0
LINE
  8
0
  6
CONTINUOUS
 62
     7
 10
56.02852399378855
 20
491.682777698401
 11
56.04993927638338
 21
491.5566442413724
  0
LINE
  8
0
  6
CONTINUOUS
 62
     7
 10
55.88213164609801
 20
492.1720597480852
 11
55.92767745286983
 21
492.0526209824874
  0
LINE
  8
0
  6
CONTINUOUS
 62
     7
 10
55.64331128156152
 20
492.6229805125084
 11
55.71123748185835
 21
492.5148259595177
  0
LINE
  8
0
  6
CONTINUOUS
 62
     7
 10
51.19135494904192
 20
492.8285644491293
 11
51.27439710715137
 21
492.9254986110611
  0
LINE
  8
0
  6
CONTINUOUS
 62
     7
 10
207.0400220517718
 20
492.6229805125084
 11
207.1131671495825
 21
492.7276440487734
  0
LINE
  8
0
  6
CONTINUOUS
 62
     7
 10
50.60647024081499
 20
491.1739353810083
 11
50.60919536202294
 21
491.3019162814354
  0
LINE
  8
0
  6
CONTINUOUS
 62
     7
 10
50.63339405695011
 20
491.5566442413725
 11
50.65480933954552
 21
491.682777698401
  0
LINE
  8
0
  6
CONTINUOUS
 62
     7
 10
212.0499392763827
 20
491.5566442413725
 11
212.0651561539697
 21
491.4295884160701
  0
LINE
  8
0
  6
CONTINUOUS
 62
     7
 10
207.7930605071059
 20
481.3727297380529
 11
207.6884967665076
 21
481.4459746315308
  0
LINE
  8
0
  6
CONTINUOUS
 62
     7
 10
208.606907045247
 20
481.0136301028398
 11
208.4838110152433
 21
481.0475567627525
  0
LINE
  8
0
  6
CONTINUOUS
 62
     7
 10
206.6823187051794
 20
483.0220115774783
 11
206.6601046791756
 21
483.147346291099
  0
LINE
  8
0
  6
CONTINUOUS
 62
     7
 10
52.44371868098818
 20
493.6698154817482
 11
52.56659850037259
 21
493.7039583522804
  0
LINE
  8
0
  6
CONTINUOUS
 62
     7
 10
208.1264837590528
 20
481.1847857999165
 11
208.0123180831289
 21
481.2419778411269
  0
LINE
  8
0
  6
CONTINUOUS
 62
     7
 10
211.2291001913538
 20
493.1064843833879
 11
211.3212397458624
 21
493.0182130343189
  0
LINE
  8
0
  6
CONTINUOUS
 62
     7
 10
51.75504046202817
 20
493.3425702172702
 11
51.86263394403909
 21
493.4110574885466
  0
LINE
  8
0
  6
CONTINUOUS
 62
     7
 10
208.8166832190348
 20
493.7538917262214
 11
208.9432857007243
 21
493.7695619474202
  0
LINE
  8
0
  6
CONTINUOUS
 62
     7
 10
207.3620935874705
 20
493.0182130343189
 11
207.4542331419791
 21
493.1064843833879
  0
LINE
  8
0
  6
CONTINUOUS
 62
     7
 10
211.7112374818577
 20
492.5148259595177
 11
211.7737811603381
 21
492.4034409183359
  0
LINE
  8
0
  6
CONTINUOUS
 62
     7
 10
50.65480933954558
 20
491.682777698401
 11
50.68237144085869
 21
491.8076849500678
  0
LINE
  8
0
  6
CONTINUOUS
 62
     7
 10
211.8307916584079
 20
492.2890936992712
 11
211.8821316460974
 21
492.1720597480851
  0
LINE
  8
0
  6
CONTINUOUS
 62
     7
 10
207.0734852762644
 20
482.0877626222296
 11
207.004874184438
 21
482.1952322836901
  0
LINE
  8
0
  6
CONTINUOUS
 62
     7
 10
206.7556558804633
 20
492.0526209824874
 11
206.8012016872355
 21
492.1720597480852
  0
LINE
  8
0
  6
CONTINUOUS
 62
     7
 10
51.27439710715132
 20
492.9254986110611
 11
51.36209358747115
 21
493.0182130343189
  0
LINE
  8
0
  6
CONTINUOUS
 62
     7
 10
209.7400476326088
 20
493.7695619474202
 11
209.8666501142983
 21
493.7538917262215
  0
LINE
  8
0
  6
CONTINUOUS
 62
     7
 10
207.3980596322226
 20
481.6950329206779
 11
207.3097760353972
 21
481.7871602274311
  0
LINE
  8
0
  6
CONTINUOUS
 62
     7
 10
211.4919783842917
 20
492.8285644491293
 11
211.5701661837502
 21
492.7276440487734
  0
LINE
  8
0
  6
CONTINUOUS
 62
     7
 10
211.9276774528691
 20
492.0526209824874
 11
211.9673193655223
 21
491.9310651130311
  0
LINE
  8
0
  6
CONTINUOUS
 62
     7
 10
211.643311281561
 20
492.6229805125084
 11
211.7112374818578
 21
492.5148259595177
  0
LINE
  8
0
  6
CONTINUOUS
 62
     7
 10
208.4838110152434
 20
481.0475567627525
 11
208.3625145069222
 21
481.0874580365405
  0
LINE
  8
0
  6
CONTINUOUS
 62
     7
 10
208.4437186809876
 20
493.6698154817482
 11
208.5665985003719
 21
493.7039583522804
  0
LINE
  8
0
  6
CONTINUOUS
 62
     7
 10
208.2433097058696
 20
481.1332378078577
 11
208.1264837590529
 21
481.1847857999165
  0
LINE
  8
0
  6
CONTINUOUS
 62
     7
 10
211.0323898308006
 20
493.2688585426894
 11
211.1327395133963
 21
493.1901000254705
  0
LINE
  8
0
  6
CONTINUOUS
 62
     7
 10
208.9432857007243
 20
493.7695619474202
 11
209.0705223955668
 21
493.7789792045537
  0
LINE
  8
0
  6
CONTINUOUS
 62
     7
 10
209.0705223955668
 20
493.7789792045537
 11
209.1980868089321
 21
493.7821208128236
  0
LINE
  8
0
  6
CONTINUOUS
 62
     7
 10
210.1167348329609
 20
493.7039583522804
 11
210.2396146523453
 21
493.6698154817482
  0
LINE
  8
0
  6
CONTINUOUS
 62
     7
 10
210.8206993892939
 20
493.4110574885466
 11
210.9282928713054
 21
493.3425702172703
  0
LINE
  8
0
  6
CONTINUOUS
 62
     7
 10
210.709868561763
 20
493.4741553806776
 11
210.820699389294
 21
493.4110574885466
  0
LINE
  8
0
  6
CONTINUOUS
 62
     7
 10
211.8821316460974
 20
492.1720597480852
 11
211.9276774528691
 21
492.0526209824874
  0
LINE
  8
0
  6
CONTINUOUS
 62
     7
 10
209.1113060119458
 20
480.939084322071
 11
208.9840096820771
 21
480.9484419441778
  0
LINE
  8
0
  6
CONTINUOUS
 62
     7
 10
211.4089362261823
 20
492.9254986110611
 11
211.4919783842917
 21
492.8285644491293
  0
LINE
  8
0
  6
CONTINUOUS
 62
     7
 10
210.2396146523453
 20
493.6698154817482
 11
210.3606568745352
 21
493.6296599218294
  0
LINE
  8
0
  6
CONTINUOUS
 62
     7
 10
50.68237144085863
 20
491.8076849500679
 11
50.71601396781055
 21
491.9310651130312
  0
LINE
  8
0
  6
CONTINUOUS
 62
     7
 10
208.6910199173995
 20
493.7320062882322
 11
208.8166832190347
 21
493.7538917262214
  0
LINE
  8
0
  6
CONTINUOUS
 62
     7
 10
206.634292912794
 20
483.4004611795811
 11
206.6307573491939
 21
483.5276316376169
  0
LINE
  8
0
  6
CONTINUOUS
 62
     7
 10
212.0651561539697
 20
491.4295884160702
 11
212.0741379713106
 21
491.3019162814355
  0
LINE
  8
0
  6
CONTINUOUS
 62
     7
 10
210.3606568745352
 20
493.6296599218294
 11
210.4795699264829
 21
493.5835884014069
  0
LINE
  8
0
  6
CONTINUOUS
 62
     7
 10
212.0741379713106
 20
491.3019162814354
 11
212.0768630925186
 21
491.1739353810082
  0
LINE
  8
0
  6
CONTINUOUS
 62
     7
 10
207.7550404620276
 20
493.3425702172702
 11
207.8626339440385
 21
493.4110574885466
  0
LINE
  8
0
  6
CONTINUOUS
 62
     7
 10
50.80120168723612
 20
492.1720597480859
 11
50.8525416749255
 21
492.2890936992712
  0
LINE
  8
0
  6
CONTINUOUS
 62
     7
 10
207.8626339440384
 20
493.4110574885466
 11
207.9734647715699
 21
493.4741553806776
  0
LINE
  8
0
  6
CONTINUOUS
 62
     7
 10
210.9282928713054
 20
493.3425702172702
 11
211.0323898308006
 21
493.2688585426894
  0
LINE
  8
0
  6
CONTINUOUS
 62
     7
 10
207.901087686549
 20
481.304676164209
 11
207.7930605071059
 21
481.3727297380529
  0
LINE
  8
0
  6
CONTINUOUS
 62
     7
 10
208.8573079683029
 20
480.9640129332923
 11
208.7315060765604
 21
480.9857597811737
  0
LINE
  8
0
  6
CONTINUOUS
 62
     7
 10
210.479569926483
 20
493.5835884014068
 11
210.5960673640009
 21
493.5317119000492
  0
LINE
  8
0
  6
CONTINUOUS
 62
     7
 10
207.4907581673525
 20
481.6073205522311
 11
207.3980596322226
 21
481.695032920678
  0
LINE
  8
0
  6
CONTINUOUS
 62
     7
 10
207.14729315865
 20
481.983761870539
 11
207.0734852762644
 21
482.0877626222296
  0
LINE
  8
0
  6
CONTINUOUS
 62
     7
 10
209.4852465244003
 20
493.7821208128235
 11
209.6128109377669
 21
493.7789792045536
  0
LINE
  8
0
  6
CONTINUOUS
 62
     7
 10
53.07052239556675
 20
493.7789792045537
 11
53.19808680893281
 21
493.7821208128236
  0
LINE
  8
0
  6
CONTINUOUS
 62
     7
 10
209.6128109377669
 20
493.7789792045537
 11
209.7400476326087
 21
493.7695619474202
  0
LINE
  8
0
  6
CONTINUOUS
 62
     7
 10
50.90955217299542
 20
492.4034409183359
 11
50.97209585147583
 21
492.5148259595177
  0
LINE
  8
0
  6
CONTINUOUS
 62
     7
 10
209.8666501142983
 20
493.7538917262214
 11
209.9923134159336
 21
493.7320062882322
  0
LINE
  8
0
  6
CONTINUOUS
 62
     7
 10
50.85254167492559
 20
492.2890936992712
 11
50.90955217299539
 21
492.4034409183358
  0
LINE
  8
0
  6
CONTINUOUS
 62
     7
 10
51.862633944039
 20
493.4110574885466
 11
51.97346477157
 21
493.4741553806776
  0
LINE
  8
0
  6
CONTINUOUS
 62
     7
 10
211.3212397458624
 20
493.0182130343189
 11
211.4089362261823
 21
492.9254986110611
  0
LINE
  8
0
  6
CONTINUOUS
 62
     7
 10
207.4542331419791
 20
493.1064843833879
 11
207.550593819936
 21
493.1901000254705
  0
LINE
  8
0
  6
CONTINUOUS
 62
     7
 10
206.6181771793632
 20
491.4295884160702
 11
206.6333940569496
 21
491.5566442413725
  0
LINE
  8
0
  6
CONTINUOUS
 62
     7
 10
51.65094350253296
 20
493.2688585426894
 11
51.75504046202811
 21
493.3425702172702
  0
LINE
  8
0
  6
CONTINUOUS
 62
     7
 10
208.566598500372
 20
493.7039583522804
 11
208.6910199173996
 21
493.7320062882322
  0
LINE
  8
0
  6
CONTINUOUS
 62
     7
 10
208.0872659693327
 20
493.5317119000493
 11
208.2037634068499
 21
493.5835884014069
  0
LINE
  8
0
  6
CONTINUOUS
 62
     7
 10
51.97346477157005
 20
493.4741553806776
 11
52.08726596933283
 21
493.5317119000492
  0
LINE
  8
0
  6
CONTINUOUS
 62
     7
 10
208.2037634068499
 20
493.5835884014068
 11
208.3226764587978
 21
493.6296599218293
  0
LINE
  8
0
  6
CONTINUOUS
 62
     7
 10
209.9923134159335
 20
493.7320062882322
 11
210.116734832961
 21
493.7039583522804
  0
LINE
  8
0
  6
CONTINUOUS
 62
     7
 10
207.2261200391778
 20
481.883480551252
 11
207.14729315865
 21
481.983761870539
  0
LINE
  8
0
  6
CONTINUOUS
 62
     7
 10
206.6440832172594
 20
483.2735975320708
 11
206.6342929127941
 21
483.400461179581
  0
LINE
  8
0
  6
CONTINUOUS
 62
     7
 10
206.7106717849236
 20
482.897895304243
 11
206.6823187051793
 21
483.0220115774783
  0
LINE
  8
0
  6
CONTINUOUS
 62
     7
 10
211.1925751659803
 20
481.6073205522311
 11
211.0956849897875
 21
481.5242344083839
  0
LINE
  8
0
  6
CONTINUOUS
 62
     7
 10
211.7737811603382
 20
492.4034409183359
 11
211.8307916584079
 21
492.2890936992712
  0
LINE
  8
0
  6
CONTINUOUS
 62
     7
 10
208.7315060765604
 20
480.9857597811737
 11
208.606907045247
 21
481.0136301028397
  0
LINE
  8
0
  6
CONTINUOUS
 62
     7
 10
207.5876483435454
 20
481.5242344083838
 11
207.4907581673525
 21
481.607320552231
  0
LINE
  8
0
  6
CONTINUOUS
 62
     7
 10
211.897826044986
 20
482.6545103356407
 11
211.8515238891137
 21
482.5358279191431
  0
LINE
  8
0
  6
CONTINUOUS
 62
     7
 10
212.028523993788
 20
491.682777698401
 11
212.0499392763828
 21
491.5566442413724
  0
LINE
  8
0
  6
CONTINUOUS
 62
     7
 10
212.0490404205389
 20
483.4004611795811
 11
212.0392501160735
 21
483.2735975320708
  0
LINE
  8
0
  6
CONTINUOUS
 62
     7
 10
207.6884967665076
 20
481.4459746315307
 11
207.5876483435454
 21
481.5242344083838
  0
LINE
  8
0
  6
CONTINUOUS
 62
     7
 10
206.7450956199773
 20
482.775296449381
 11
206.7106717849237
 21
482.8978953042429
  0
LINE
  8
0
  6
CONTINUOUS
 62
     7
 10
211.938237713355
 20
482.775296449381
 11
211.897826044986
 21
482.6545103356407
  0
LINE
  8
0
  6
CONTINUOUS
 62
     7
 10
212.0232286541575
 20
483.147346291099
 11
212.0010146281535
 21
483.0220115774783
  0
LINE
  8
0
  6
CONTINUOUS
 62
     7
 10
209.9518272567726
 20
480.9857597811737
 11
209.8260253650295
 21
480.9640129332923
  0
LINE
  8
0
  6
CONTINUOUS
 62
     7
 10
210.0764262880865
 20
481.0136301028398
 11
209.9518272567726
 21
480.9857597811738
  0
LINE
  8
0
  6
CONTINUOUS
 62
     7
 10
211.457213294155
 20
481.883480551252
 11
211.3735572979354
 21
481.7871602274311
  0
LINE
  8
0
  6
CONTINUOUS
 62
     7
 10
211.5701661837504
 20
492.7276440487734
 11
211.643311281561
 21
492.6229805125083
  0
LINE
  8
0
  6
CONTINUOUS
 62
     7
 10
209.2388903196282
 20
480.9359626081173
 11
209.1113060119458
 21
480.939084322071
  0
LINE
  8
0
  6
CONTINUOUS
 62
     7
 10
207.0048741844379
 20
482.1952322836902
 11
206.9416251572777
 21
482.305911976192
  0
LINE
  8
0
  6
CONTINUOUS
 62
     7
 10
207.3097760353972
 20
481.7871602274311
 11
207.2261200391778
 21
481.883480551252
  0
LINE
  8
0
  6
CONTINUOUS
 62
     7
 10
211.9673193655223
 20
491.9310651130311
 11
212.0009618924747
 21
491.8076849500678
  0
LINE
  8
0
  6
CONTINUOUS
 62
     7
 10
210.5960673640008
 20
493.5317119000493
 11
210.7098685617629
 21
493.4741553806777
  0
LINE
  8
0
  6
CONTINUOUS
 62
     7
 10
206.6601046791755
 20
483.147346291099
 11
206.6440832172594
 21
483.2735975320708
  0
LINE
  8
0
  6
CONTINUOUS
 62
     7
 10
206.9416251572778
 20
482.305911976192
 11
206.8838905524588
 21
482.4195350885075
  0
LINE
  8
0
  6
CONTINUOUS
 62
     7
 10
206.785507288347
 20
482.6545103356407
 11
206.7450956199773
 21
482.775296449381
  0
LINE
  8
0
  6
CONTINUOUS
 62
     7
 10
212.0009618924747
 20
491.8076849500679
 11
212.028523993788
 21
491.6827776984011
  0
LINE
  8
0
  6
CONTINUOUS
 62
     7
 10
211.1327395133963
 20
493.1901000254706
 11
211.2291001913537
 21
493.106484383388
  0
LINE
  8
0
  6
CONTINUOUS
 62
     7
 10
208.3625145069221
 20
481.0874580365404
 11
208.2433097058695
 21
481.1332378078577
  0
LINE
  8
0
  6
CONTINUOUS
 62
     7
 10
208.9840096820771
 20
480.9484419441778
 11
208.8573079683029
 21
480.9640129332923
  0
LINE
  8
0
  6
CONTINUOUS
 62
     7
 10
212.0525759841389
 20
483.5276316376169
 11
212.0490404205389
 21
483.4004611795811
  0
LINE
  8
0
  6
CONTINUOUS
 62
     7
 10
206.8318094442191
 20
482.5358279191432
 11
206.785507288347
 21
482.6545103356408
  0
LINE
  8
0
  6
CONTINUOUS
 62
     7
 10
206.8838905524588
 20
482.4195350885075
 11
206.8318094442191
 21
482.5358279191432
  0
LINE
  8
0
  6
CONTINUOUS
 62
     7
 10
209.5720273213873
 20
480.939084322071
 11
209.4444430137047
 21
480.9359626081173
  0
LINE
  8
0
  6
CONTINUOUS
 62
     7
 10
208.012318083129
 20
481.241977841127
 11
207.901087686549
 21
481.304676164209
  0
LINE
  8
0
  6
CONTINUOUS
 62
     7
 10
210.9948365668255
 20
481.4459746315307
 11
210.8902728262272
 21
481.3727297380528
  0
LINE
  8
0
  6
CONTINUOUS
 62
     7
 10
212.0010146281535
 20
483.0220115774783
 11
211.9726615484088
 21
482.897895304243
  0
LINE
  8
0
  6
CONTINUOUS
 62
     7
 10
211.6098480570683
 20
482.0877626222296
 11
211.5360401746831
 21
481.983761870539
  0
LINE
  8
0
  6
CONTINUOUS
 62
     7
 10
211.6784591488949
 20
482.1952322836902
 11
211.6098480570683
 21
482.0877626222297
  0
LINE
  8
0
  6
CONTINUOUS
 62
     7
 10
211.5360401746831
 20
481.983761870539
 11
211.4572132941551
 21
481.883480551252
  0
LINE
  8
0
  6
CONTINUOUS
 62
     7
 10
210.6710152502034
 20
481.241977841127
 11
210.5568495742799
 21
481.1847857999166
  0
LINE
  8
0
  6
CONTINUOUS
 62
     7
 10
17.05588022904003
 20
187.3322720089751
 11
14.22745310429335
 21
187.3322720089751
  0
LINE
  8
0
  6
CONTINUOUS
 62
     7
 10
211.7994427808742
 20
482.4195350885075
 11
211.7417081760553
 21
482.305911976192
  0
LINE
  8
0
  6
CONTINUOUS
 62
     7
 10
210.7822456467834
 20
481.304676164209
 11
210.6710152502034
 21
481.241977841127
  0
LINE
  8
0
  6
CONTINUOUS
 62
     7
 10
210.8902728262272
 20
481.3727297380529
 11
210.7822456467834
 21
481.304676164209
  0
LINE
  8
0
  6
CONTINUOUS
 62
     7
 10
209.8260253650295
 20
480.9640129332923
 11
209.6993236512553
 21
480.9484419441778
  0
LINE
  8
0
  6
CONTINUOUS
 62
     7
 10
210.55684957428
 20
481.1847857999165
 11
210.4400236274633
 21
481.1332378078577
  0
LINE
  8
0
  6
CONTINUOUS
 62
     7
 10
211.3735572979354
 20
481.7871602274311
 11
211.2852737011102
 21
481.6950329206779
  0
LINE
  8
0
  6
CONTINUOUS
 62
     7
 10
210.4400236274633
 20
481.1332378078577
 11
210.3208188264109
 21
481.0874580365403
  0
LINE
  8
0
  6
CONTINUOUS
 62
     7
 10
241.791795268848
 20
188.6781640868807
 11
231.341666666667
 21
179.9989751339183
  0
LINE
  8
0
  6
CONTINUOUS
 62
     7
 10
210.1995223180897
 20
481.0475567627525
 11
210.0764262880865
 21
481.0136301028398
  0
LINE
  8
0
  6
CONTINUOUS
 62
     7
 10
211.7417081760553
 20
482.305911976192
 11
211.6784591488949
 21
482.1952322836901
  0
LINE
  8
0
  6
CONTINUOUS
 62
     7
 10
211.9726615484088
 20
482.897895304243
 11
211.938237713355
 21
482.775296449381
  0
LINE
  8
0
  6
CONTINUOUS
 62
     7
 10
211.0956849897875
 20
481.5242344083838
 11
210.9948365668254
 21
481.4459746315308
  0
LINE
  8
0
  6
CONTINUOUS
 62
     7
 10
211.8515238891138
 20
482.5358279191432
 11
211.7994427808742
 21
482.4195350885075
  0
LINE
  8
0
  6
CONTINUOUS
 62
     7
 10
212.0392501160735
 20
483.2735975320708
 11
212.0232286541575
 21
483.1473462910989
  0
LINE
  8
0
  6
CONTINUOUS
 62
     7
 10
211.2852737011103
 20
481.6950329206779
 11
211.1925751659803
 21
481.607320552231
  0
LINE
  8
0
  6
CONTINUOUS
 62
     7
 10
210.3208188264109
 20
481.0874580365404
 11
210.1995223180897
 21
481.0475567627525
  0
LINE
  8
0
  6
CONTINUOUS
 62
     7
 10
209.6993236512552
 20
480.9484419441778
 11
209.5720273213871
 21
480.939084322071
  0
ARC
  8
0
  6
CONTINUOUS
 62
     7
 10
223.9410062145605
 20
494.3521278098481
 40
0.9999999999998899
 50
9.999999999999464
 51
49.99999999999899
  0
ARC
  8
0
  6
CONTINUOUS
 62
     7
 10
197.7056369009328
 20
496.8386399551228
 40
1.000000000000001
 50
90.0
 51
130.0000000000022
  0
ARC
  8
0
  6
CONTINUOUS
 62
     7
 10
238.3416666666666
 20
192.8322720089752
 40
5.400000000000071
 50
180.0000000000035
 51
254.423870923428
  0
ARC
  8
0
  6
CONTINUOUS
 62
     7
 10
-200.7147012794809
 20
354.4503018211571
 40
85.00000000000001
 50
279.6051245754048
 51
280.0682074305927
  0
ARC
  8
0
  6
CONTINUOUS
 62
     7
 10
-140.1147012794809
 20
448.8386399551227
 40
6.49999999999995
 50
19.78317037266093
 51
37.97987244485235
  0
ARC
  8
0
  6
CONTINUOUS
 62
     7
 10
242.7416666666664
 20
202.4180584466021
 40
1.000000000000112
 50
0.0
 51
44.99999999999663
  0
ARC
  8
0
  6
CONTINUOUS
 62
     7
 10
194.742327118773
 20
494.3521278098481
 40
0.9999999999998899
 50
129.9999999999948
 51
170.0000000000005
  0
LINE
  8
0
  6
CONTINUOUS
 62
     7
 10
149.041666666667
 20
143.8322720089753
 11
203.6416666666669
 21
143.8322720089753
  0
ARC
  8
0
  6
CONTINUOUS
 62
     7
 10
-140.1147012794809
 20
448.8386399551227
 40
6.500000000000061
 50
322.0201275551476
 51
340.2168296273377
  0
ARC
  8
0
  6
CONTINUOUS
 62
     7
 10
-138.6147012794809
 20
298.8386399551228
 40
6.49999999999995
 50
322.0201275551482
 51
340.2168296273384
  0
ARC
  8
0
  6
CONTINUOUS
 62
     7
 10
-200.7147012794809
 20
354.4503018211571
 40
85.00000000000013
 50
259.9422869477114
 51
260.3666248128068
  0
ARC
  8
0
  6
CONTINUOUS
 62
     7
 10
-225.8787930424629
 20
270.8386399551227
 40
3.000000000000003
 50
90.0
 51
160.0000000000009
  0
LINE
  8
0
  6
CONTINUOUS
 62
     7
 10
34.05005478099543
 20
199.2322720089755
 11
34.18314402481562
 21
206.8569496808986
  0
ARC
  8
0
  6
CONTINUOUS
 62
     7
 10
-137.7147012794809
 20
287.4714507766211
 40
1.000000000000001
 50
270.9999999999994
 51
0.0
  0
ARC
  8
0
  6
CONTINUOUS
 62
     7
 10
-140.1147012794809
 20
448.8386399551227
 40
6.480740698407927
 50
340.6957803932077
 51
355.5751374705731
  0
ARC
  8
0
  6
CONTINUOUS
 62
     7
 10
-216.0407012794809
 20
271.8386399551229
 40
1.000000000000112
 50
247.5000000000012
 51
270.0
  0
ARC
  8
0
  6
CONTINUOUS
 62
     7
 10
64.97769643240014
 20
496.8386399551228
 40
1.000000000000112
 50
50.00000000000152
 51
90.00000000000001
  0
ARC
  8
0
  6
CONTINUOUS
 62
     7
 10
21.34166666666637
 20
205.9322720089751
 40
6.49999999999995
 50
109.7831703726616
 51
127.9798724448518
  0
ARC
  8
0
  6
CONTINUOUS
 62
     7
 10
-140.1147012794809
 20
448.8386399551227
 40
6.480740698407872
 50
4.424862529426977
 51
19.30421960679092
  0
ARC
  8
0
  6
CONTINUOUS
 62
     7
 10
-225.6123488351934
 20
476.1065905121058
 40
3.000000000000003
 50
200.0000000000007
 51
270.4999999999989
  0
ARC
  8
0
  6
CONTINUOUS
 62
     7
 10
-137.7147012794809
 20
310.2058291336247
 40
1.000000000000001
 50
0.0
 51
89.00000000000057
  0
ARC
  8
0
  6
CONTINUOUS
 62
     7
 10
-137.7147012794809
 20
269.9714507766209
 40
0.9999999999998899
 50
270.9999999999995
 51
0.0
  0
ARC
  8
0
  6
CONTINUOUS
 62
     7
 10
-185.3887012794808
 20
271.8386399551229
 40
1.000000000000001
 50
289.4942971454792
 51
292.4999999999987
  0
LINE
  8
0
  6
CONTINUOUS
 62
     7
 10
53.19808680893279
 20
493.7821208128235
 11
53.4852465244007
 21
493.7821208128235
  0
ARC
  8
0
  6
CONTINUOUS
 62
     7
 10
-185.3887012794808
 20
271.8386399551229
 40
1.000000000000001
 50
292.4999999999989
 51
346.2423924092334
  0
ARC
  8
0
  6
CONTINUOUS
 62
     7
 10
-137.7147012794809
 20
477.7058291336244
 40
1.000000000000001
 50
0.0
 51
89.00000000000048
  0
ARC
  8
0
  6
CONTINUOUS
 62
     7
 10
-185.3887012794808
 20
271.8386399551229
 40
0.9999999999998899
 50
270.0
 51
289.4942971454785
  0
ARC
  8
0
  6
CONTINUOUS
 62
     7
 10
9.974477488165157
 20
206.832272008975
 40
1.000000000000001
 50
90.0
 51
179.0000000000005
  0
ARC
  8
0
  6
CONTINUOUS
 62
     7
 10
238.3416666666666
 20
192.8322720089752
 40
5.400000000000071
 50
285.5761290765719
 51
0.0
  0
LINE
  8
0
  6
CONTINUOUS
 62
     7
 10
104.0416666666667
 20
143.8322720089753
 11
158.6416666666669
 21
143.8322720089753
  0
LINE
  8
0
  6
CONTINUOUS
 62
     7
 10
206.6064702408144
 20
491.1739353810083
 11
206.6307573491939
 21
483.5276316376169
  0
ARC
  8
0
  6
CONTINUOUS
 62
     7
 10
-200.7147012794809
 20
354.4503018211571
 40
85.00000000000013
 50
260.3666248128068
 51
279.6051245754048
  0
ARC
  8
0
  6
CONTINUOUS
 62
     7
 10
238.3416666635496
 20
192.8322720089752
 40
1.474999999999782
 50
190.563965565014
 51
349.4360357557432
  0
LINE
  8
0
  6
CONTINUOUS
 62
     7
 10
86.34166666666675
 20
116.5322720089754
 11
86.34166666666675
 21
171.1322720089754
  0
ARC
  8
0
  6
CONTINUOUS
 62
     7
 10
-200.7147012794809
 20
354.4503018211571
 40
85.00000000000001
 50
280.0682074305927
 51
280.3697598054774
  0
LINE
  8
0
  6
CONTINUOUS
 62
     7
 10
31.04166666666663
 20
217.8322720089755
 11
29.54166666666663
 21
217.8322720089755
  0
ARC
  8
0
  6
CONTINUOUS
 62
     7
 10
-237.4149088176906
 20
496.8386399551228
 40
0.9999999999998899
 50
20.0000000000031
 51
90.0
  0
LINE
  8
0
  6
CONTINUOUS
 62
     7
 10
59.04166666666677
 20
143.8322720089753
 11
113.6416666666668
 21
143.8322720089753
  0
LINE
  8
0
  6
CONTINUOUS
 62
     7
 10
18.47009379141307
 20
199.2322720089755
 11
18.47009379141307
 21
187.3322720089751
  0
LINE
  8
0
  6
CONTINUOUS
 62
     7
 10
14.54975021769467
 20
199.2322720089755
 11
14.68283946151436
 21
206.8569496808986
  0
LINE
  8
0
  6
CONTINUOUS
 62
     7
 10
209.4444430137047
 20
480.9359626081173
 11
209.2388903196282
 21
480.9359626081173
  0
ARC
  8
0
  6
CONTINUOUS
 62
     7
 10
-200.7147012794809
 20
354.4503018211571
 40
85.00000000000001
 50
259.6302401945226
 51
259.9422869477114
  0
ARC
  8
0
  6
CONTINUOUS
 62
     7
 10
21.34166666666637
 20
205.9322720089751
 40
6.49999999999995
 50
52.02012755514819
 51
70.21682962733838
  0
LINE
  8
0
  6
CONTINUOUS
 62
     7
 10
231.0487465233936
 20
102.8322720089754
 11
231.0487465233936
 21
199.2322720089755
  0
LINE
  8
0
  6
CONTINUOUS
 62
     7
 10
176.3416666666667
 20
116.5322720089754
 11
176.3416666666667
 21
171.1322720089754
  0
LINE
  8
0
  6
CONTINUOUS
 62
     7
 10
228.5001893085181
 20
206.8569496808986
 11
228.6332785523375
 21
199.2322720089755
  0
ARC
  8
0
  6
CONTINUOUS
 62
     7
 10
38.74232711877301
 20
494.3521278098481
 40
1.000000000000001
 50
129.9999999999985
 51
170.0000000000013
  0
ARC
  8
0
  6
CONTINUOUS
 62
     7
 10
-138.6147012794809
 20
298.8386399551228
 40
6.480740698407816
 50
340.6957803932082
 51
355.5751374705723
  0
ARC
  8
0
  6
CONTINUOUS
 62
     7
 10
67.94100621456056
 20
494.3521278098481
 40
1.000000000000001
 50
9.999999999998694
 51
50.00000000000155
  0
LINE
  8
0
  6
CONTINUOUS
 62
     7
 10
176.5274731026839
 20
372.6886399551227
 11
176.0389501156974
 21
373.2787111461948
  0
LINE
  8
0
  6
CONTINUOUS
 62
     7
 10
14.00954555473732
 20
304.1386399551227
 11
15.1416666666665
 21
304.1386399551227
  0
LINE
  8
0
  6
CONTINUOUS
 62
     7
 10
131.9015954755944
 20
404.2413565060918
 11
132.4916666666663
 21
403.7528335191052
  0
LINE
  8
0
  6
CONTINUOUS
 62
     7
 10
132.4916666666664
 20
348.638639955123
 11
132.4916666666664
 21
343.9244463911399
  0
LINE
  8
0
  6
CONTINUOUS
 62
     7
 10
130.1916666666667
 20
419.0244463911401
 11
130.1916666666667
 21
435.4386399551231
  0
LINE
  8
0
  6
CONTINUOUS
 62
     7
 10
130.1916666666667
 20
403.7528335191052
 11
130.7817378577386
 21
404.2413565060918
  0
LINE
  8
0
  6
CONTINUOUS
 62
     7
 10
176.5274731026839
 20
372.6886399551227
 11
192.9416666666664
 21
372.6886399551227
  0
LINE
  8
0
  6
CONTINUOUS
 62
     7
 10
15.1416666666665
 20
304.1386399551227
 11
15.1416666666665
 21
302.0882553169769
  0
LINE
  8
0
  6
CONTINUOUS
 62
     7
 10
95.04438321763553
 20
373.2787111461948
 11
94.55586023064888
 21
372.6886399551228
  0
LINE
  8
0
  6
CONTINUOUS
 62
     7
 10
132.4916666666664
 20
410.6244463911401
 11
132.4916666666664
 21
412.1528335191053
  0
LINE
  8
0
  6
CONTINUOUS
 62
     7
 10
132.4916666666664
 20
403.7528335191052
 11
132.4916666666664
 21
399.0386399551227
  0
LINE
  8
0
  6
CONTINUOUS
 62
     7
 10
130.1916666666667
 20
399.0386399551228
 11
130.1916666666667
 21
403.7528335191053
  0
LINE
  8
0
  6
CONTINUOUS
 62
     7
 10
132.4916666666664
 20
335.52444639114
 11
131.9015954755945
 21
335.0359234041538
  0
LINE
  8
0
  6
CONTINUOUS
 62
     7
 10
169.655860230649
 20
372.6886399551227
 11
168.127473102684
 21
372.6886399551227
  0
LINE
  8
0
  6
CONTINUOUS
 62
     7
 10
130.1916666666667
 20
337.0528335191058
 11
130.7817378577386
 21
337.5413565060917
  0
LINE
  8
0
  6
CONTINUOUS
 62
     7
 10
94.55586023064888
 20
374.9886399551231
 11
95.04438321763553
 21
374.398568764051
  0
LINE
  8
0
  6
CONTINUOUS
 62
     7
 10
130.7817378577385
 20
410.135923404154
 11
130.1916666666666
 21
410.6244463911401
  0
LINE
  8
0
  6
CONTINUOUS
 62
     7
 10
130.7817378577385
 20
343.435923404154
 11
130.1916666666666
 21
343.92444639114
  0
LINE
  8
0
  6
CONTINUOUS
 62
     7
 10
161.2558602306491
 20
372.6886399551227
 11
156.541666666667
 21
372.6886399551227
  0
LINE
  8
0
  6
CONTINUOUS
 62
     7
 10
130.1916666666667
 20
412.1528335191053
 11
130.1916666666667
 21
410.6244463911401
  0
LINE
  8
0
  6
CONTINUOUS
 62
     7
 10
130.1916666666667
 20
328.6528335191057
 11
130.7817378577386
 21
329.1413565060917
  0
LINE
  8
0
  6
CONTINUOUS
 62
     7
 10
15.1416666666665
 20
293.5386399551225
 11
14.00954555473732
 21
293.5386399551225
  0
LINE
  8
0
  6
CONTINUOUS
 62
     7
 10
161.2558602306491
 20
374.9886399551231
 11
161.7443832176352
 21
374.398568764051
  0
LINE
  8
0
  6
CONTINUOUS
 62
     7
 10
86.15586023064891
 20
372.6886399551227
 11
69.7416666666665
 21
372.6886399551227
  0
LINE
  8
0
  6
CONTINUOUS
 62
     7
 10
15.1416666666665
 20
295.5890245932683
 11
15.1416666666665
 21
293.5386399551225
  0
LINE
  8
0
  6
CONTINUOUS
 62
     7
 10
93.02747310268377
 20
372.6886399551227
 11
92.53895011569779
 21
373.2787111461948
  0
LINE
  8
0
  6
CONTINUOUS
 62
     7
 10
192.9416666666664
 20
374.9886399551231
 11
176.5274731026838
 21
374.9886399551231
  0
LINE
  8
0
  6
CONTINUOUS
 62
     7
 10
132.4916666666664
 20
410.6244463911401
 11
131.9015954755945
 21
410.135923404154
  0
LINE
  8
0
  6
CONTINUOUS
 62
     7
 10
176.0389501156974
 20
374.398568764051
 11
176.5274731026838
 21
374.9886399551231
  0
LINE
  8
0
  6
CONTINUOUS
 62
     7
 10
132.4916666666664
 20
337.0528335191058
 11
132.4916666666664
 21
335.52444639114
  0
LINE
  8
0
  6
CONTINUOUS
 62
     7
 10
86.64438321763556
 20
373.2787111461948
 11
86.155860230649
 21
372.6886399551228
  0
LINE
  8
0
  6
CONTINUOUS
 62
     7
 10
130.1916666666667
 20
335.52444639114
 11
130.1916666666667
 21
337.0528335191058
  0
LINE
  8
0
  6
CONTINUOUS
 62
     7
 10
86.15586023064891
 20
374.9886399551231
 11
86.64438321763548
 21
374.398568764051
  0
LINE
  8
0
  6
CONTINUOUS
 62
     7
 10
130.7817378577385
 20
335.0359234041538
 11
130.1916666666666
 21
335.5244463911399
  0
LINE
  8
0
  6
CONTINUOUS
 62
     7
 10
130.1916666666667
 20
343.92444639114
 11
130.1916666666667
 21
348.638639955123
  0
LINE
  8
0
  6
CONTINUOUS
 62
     7
 10
132.4916666666664
 20
343.92444639114
 11
131.9015954755945
 21
343.435923404154
  0
LINE
  8
0
  6
CONTINUOUS
 62
     7
 10
167.6389501156974
 20
374.398568764051
 11
168.1274731026841
 21
374.9886399551231
  0
LINE
  8
0
  6
CONTINUOUS
 62
     7
 10
131.9015954755944
 20
337.5413565060917
 11
132.4916666666663
 21
337.0528335191058
  0
LINE
  8
0
  6
CONTINUOUS
 62
     7
 10
94.55586023064888
 20
374.9886399551231
 11
93.02747310268377
 21
374.9886399551231
  0
LINE
  8
0
  6
CONTINUOUS
 62
     7
 10
9.134496805540792
 20
455.630556404095
 11
14.54975021769472
 21
461.0458098162484
  0
LINE
  8
0
  6
CONTINUOUS
 62
     7
 10
34.75707233727721
 20
478.8386399551227
 11
227.9262609960558
 21
478.8386399551227
  0
LINE
  8
0
  6
CONTINUOUS
 62
     7
 10
132.4916666666664
 20
312.2386399551227
 11
132.4916666666664
 21
328.6528335191057
  0
LINE
  8
0
  6
CONTINUOUS
 62
     7
 10
161.7443832176352
 20
373.2787111461948
 11
161.255860230649
 21
372.6886399551228
  0
LINE
  8
0
  6
CONTINUOUS
 62
     7
 10
132.4916666666664
 20
435.4386399551231
 11
132.4916666666664
 21
419.0244463911401
  0
LINE
  8
0
  6
CONTINUOUS
 62
     7
 10
130.1916666666667
 20
328.6528335191057
 11
130.1916666666667
 21
312.2386399551227
  0
LINE
  8
0
  6
CONTINUOUS
 62
     7
 10
170.1443832176357
 20
373.2787111461948
 11
169.655860230649
 21
372.6886399551228
  0
LINE
  8
0
  6
CONTINUOUS
 62
     7
 10
92.53895011569779
 20
374.398568764051
 11
93.02747310268377
 21
374.9886399551231
  0
LINE
  8
0
  6
CONTINUOUS
 62
     7
 10
131.9015954755944
 20
329.1413565060917
 11
132.4916666666663
 21
328.6528335191057
  0
LINE
  8
0
  6
CONTINUOUS
 62
     7
 10
69.74166666666659
 20
374.9886399551231
 11
86.155860230649
 21
374.9886399551231
  0
LINE
  8
0
  6
CONTINUOUS
 62
     7
 10
131.9015954755944
 20
412.641356506092
 11
132.4916666666663
 21
412.1528335191053
  0
LINE
  8
0
  6
CONTINUOUS
 62
     7
 10
26.34166666666671
 20
277.2540456257333
 11
26.34166666666671
 21
285.3387922599665
  0
LINE
  8
0
  6
CONTINUOUS
 62
     7
 10
25.34181897151011
 20
286.3386399551231
 11
15.25676777397661
 21
286.3386399551231
  0
LINE
  8
0
  6
CONTINUOUS
 62
     7
 10
8.841666666666525
 20
442.7537410624332
 11
8.841666666666525
 21
454.9235388478127
  0
LINE
  8
0
  6
CONTINUOUS
 62
     7
 10
169.655860230649
 20
374.9886399551231
 11
170.1443832176357
 21
374.398568764051
  0
LINE
  8
0
  6
CONTINUOUS
 62
     7
 10
34.05005478099543
 20
269.1314700939971
 11
26.63449680554106
 21
276.5470280694515
  0
LINE
  8
0
  6
CONTINUOUS
 62
     7
 10
15.25676777397655
 20
311.3386399551227
 11
25.34181897151005
 21
311.3386399551227
  0
LINE
  8
0
  6
CONTINUOUS
 62
     7
 10
132.4916666666664
 20
419.0244463911401
 11
131.9015954755945
 21
418.5359234041534
  0
LINE
  8
0
  6
CONTINUOUS
 62
     7
 10
236.048836527792
 20
276.5470280694515
 11
228.6332785523375
 21
269.1314700939972
  0
LINE
  8
0
  6
CONTINUOUS
 62
     7
 10
236.3416666666662
 20
425.5886399551229
 11
236.3416666666662
 21
418.5886399551226
  0
LINE
  8
0
  6
CONTINUOUS
 62
     7
 10
156.5416666666669
 20
374.9886399551231
 11
161.255860230649
 21
374.9886399551231
  0
LINE
  8
0
  6
CONTINUOUS
 62
     7
 10
130.7817378577385
 20
418.5359234041534
 11
130.1916666666666
 21
419.0244463911401
  0
LINE
  8
0
  6
CONTINUOUS
 62
     7
 10
130.1916666666667
 20
412.1528335191053
 11
130.7817378577386
 21
412.641356506092
  0
LINE
  8
0
  6
CONTINUOUS
 62
     7
 10
101.4274731026836
 20
372.6886399551227
 11
100.9389501156978
 21
373.2787111461948
  0
LINE
  8
0
  6
CONTINUOUS
 62
     7
 10
236.3416666666662
 20
282.3386399551229
 11
236.3416666666662
 21
277.2540456257333
  0
LINE
  8
0
  6
CONTINUOUS
 62
     7
 10
14.54975021769467
 20
286.6314700939972
 11
9.134496805540737
 21
292.0467235061506
  0
LINE
  8
0
  6
CONTINUOUS
 62
     7
 10
15.25676777397655
 20
461.3386399551226
 11
25.34181897151005
 21
461.3386399551226
  0
LINE
  8
0
  6
CONTINUOUS
 62
     7
 10
236.3416666666662
 20
292.5886399551227
 11
236.3416666666662
 21
285.5886399551231
  0
LINE
  8
0
  6
CONTINUOUS
 62
     7
 10
9.134496805540792
 20
305.6305564040945
 11
14.54975021769472
 21
311.0458098162484
  0
LINE
  8
0
  6
CONTINUOUS
 62
     7
 10
106.1416666666668
 20
372.6886399551227
 11
101.4274731026837
 21
372.6886399551227
  0
LINE
  8
0
  6
CONTINUOUS
 62
     7
 10
100.9389501156979
 20
374.398568764051
 11
101.4274731026837
 21
374.9886399551231
  0
LINE
  8
0
  6
CONTINUOUS
 62
     7
 10
26.34166666666671
 20
462.3384876502791
 11
26.34166666666671
 21
470.4232342845118
  0
LINE
  8
0
  6
CONTINUOUS
 62
     7
 10
8.841666666666525
 20
292.753741062433
 11
8.841666666666525
 21
304.9235388478127
  0
LINE
  8
0
  6
CONTINUOUS
 62
     7
 10
101.4274731026836
 20
374.9886399551231
 11
106.1416666666667
 21
374.9886399551231
  0
LINE
  8
0
  6
CONTINUOUS
 62
     7
 10
14.54975021769467
 20
436.6314700939973
 11
9.134496805540737
 21
442.0467235061507
  0
LINE
  8
0
  6
CONTINUOUS
 62
     7
 10
236.3416666666662
 20
329.0886399551229
 11
236.3416666666662
 21
322.0886399551228
  0
LINE
  8
0
  6
CONTINUOUS
 62
     7
 10
236.3416666666662
 20
318.8386399551227
 11
236.3416666666662
 21
295.8386399551229
  0
LINE
  8
0
  6
CONTINUOUS
 62
     7
 10
168.1274731026841
 20
372.6886399551227
 11
167.6389501156974
 21
373.2787111461948
  0
LINE
  8
0
  6
CONTINUOUS
 62
     7
 10
25.34181897151011
 20
436.3386399551232
 11
15.25676777397661
 21
436.3386399551232
  0
LINE
  8
0
  6
CONTINUOUS
 62
     7
 10
26.34166666666671
 20
312.3384876502793
 11
26.34166666666671
 21
435.3387922599665
  0
LINE
  8
0
  6
CONTINUOUS
 62
     7
 10
236.3416666666662
 20
415.3386399551231
 11
236.3416666666662
 21
332.3386399551226
  0
LINE
  8
0
  6
CONTINUOUS
 62
     7
 10
26.63449680554097
 20
471.1302518407944
 11
34.05005478099535
 21
478.5458098162487
  0
LINE
  8
0
  6
CONTINUOUS
 62
     7
 10
227.9262609960558
 20
268.8386399551229
 11
34.75707233727724
 21
268.8386399551229
  0
LINE
  8
0
  6
CONTINUOUS
 62
     7
 10
243.7416666666665
 20
285.5886399551231
 11
243.7416666666665
 21
292.5886399551227
  0
CIRCLE
  8
0
  6
CONTINUOUS
 62
     7
 10
128.5416666666665
 20
345.8386399551226
 40
1.149999999999984
  0
CIRCLE
  8
0
  6
CONTINUOUS
 62
     7
 10
128.5416666666665
 20
326.2386399551231
 40
1.149999999999984
  0
CIRCLE
  8
0
  6
CONTINUOUS
 62
     7
 10
128.5416666666665
 20
340.2386399551229
 40
1.149999999999984
  0
CIRCLE
  8
0
  6
CONTINUOUS
 62
     7
 10
128.5416666666665
 20
348.638639955123
 40
1.149999999999984
  0
CIRCLE
  8
0
  6
CONTINUOUS
 62
     7
 10
128.5416666666665
 20
337.4386399551226
 40
1.149999999999984
  0
CIRCLE
  8
0
  6
CONTINUOUS
 62
     7
 10
128.5416666666665
 20
315.0386399551228
 40
1.149999999999984
  0
CIRCLE
  8
0
  6
CONTINUOUS
 62
     7
 10
128.5416666666665
 20
329.0386399551226
 40
1.149999999999984
  0
CIRCLE
  8
0
  6
CONTINUOUS
 62
     7
 10
190.1416666666669
 20
312.2386399551227
 40
1.149999999999984
  0
CIRCLE
  8
0
  6
CONTINUOUS
 62
     7
 10
128.5416666666665
 20
312.2386399551227
 40
1.149999999999984
  0
CIRCLE
  8
0
  6
CONTINUOUS
 62
     7
 10
128.5416666666665
 20
317.8386399551225
 40
1.149999999999984
  0
CIRCLE
  8
0
  6
CONTINUOUS
 62
     7
 10
128.5416666666665
 20
320.6386399551226
 40
1.149999999999984
  0
CIRCLE
  8
0
  6
CONTINUOUS
 62
     7
 10
125.7416666666663
 20
348.638639955123
 40
1.150000000000095
  0
CIRCLE
  8
0
  6
CONTINUOUS
 62
     7
 10
128.5416666666665
 20
331.8386399551229
 40
1.149999999999984
  0
CIRCLE
  8
0
  6
CONTINUOUS
 62
     7
 10
125.7416666666663
 20
312.2386399551227
 40
1.149999999999873
  0
CIRCLE
  8
0
  6
CONTINUOUS
 62
     7
 10
120.1416666666666
 20
348.638639955123
 40
1.149999999999984
  0
CIRCLE
  8
0
  6
CONTINUOUS
 62
     7
 10
128.5416666666665
 20
323.4386399551229
 40
1.149999999999984
  0
CIRCLE
  8
0
  6
CONTINUOUS
 62
     7
 10
128.5416666666665
 20
334.6386399551224
 40
1.149999999999984
  0
CIRCLE
  8
0
  6
CONTINUOUS
 62
     7
 10
122.9416666666667
 20
348.638639955123
 40
1.149999999999984
  0
CIRCLE
  8
0
  6
CONTINUOUS
 62
     7
 10
128.5416666666665
 20
343.0386399551231
 40
1.149999999999984
  0
ARC
  8
0
  6
CONTINUOUS
 62
     7
 10
28.04166666666652
 20
210.8322720089753
 40
3.000000000000114
 50
270.0
 51
0.0
  0
ARC
  8
0
  6
CONTINUOUS
 62
     7
 10
-216.0407012794809
 20
271.8386399551229
 40
1.000000000000112
 50
193.8560094873267
 51
247.4999999999994
  0
ARC
  8
0
  6
CONTINUOUS
 62
     7
 10
-138.6147012794809
 20
298.8386399551228
 40
6.500000000000005
 50
19.78317037266164
 51
37.97987244485182
  0
ARC
  8
0
  6
CONTINUOUS
 62
     7
 10
-126.7147012794809
 20
298.8386399551228
 40
6.99999999999995
 50
270.0
 51
0.0
  0
ARC
  8
0
  6
CONTINUOUS
 62
     7
 10
220.9776964324007
 20
496.8386399551228
 40
0.9999999999998899
 50
50.00000000000518
 51
90.00000000000001
  0
ARC
  8
0
  6
CONTINUOUS
 62
     7
 10
235.2088558451682
 20
206.832272008975
 40
1.000000000000112
 50
0.999999999999352
 51
90.0
  0
ARC
  8
0
  6
CONTINUOUS
 62
     7
 10
238.3416666666666
 20
192.8322720089752
 40
1.450000000000062
 50
0.0
 51
180.0
  0
ARC
  8
0
  6
CONTINUOUS
 62
     7
 10
28.04166666666652
 20
210.8322720089753
 40
1.500000000000057
 50
270.0
 51
0.0
  0
ARC
  8
0
  6
CONTINUOUS
 62
     7
 10
27.47447748816478
 20
206.832272008975
 40
0.9999999999998899
 50
90.0
 51
179.0000000000005
  0
ARC
  8
0
  6
CONTINUOUS
 62
     7
 10
238.3416666666666
 20
192.8322720089752
 40
5.400000000000071
 50
254.423870923428
 51
285.5761290765719
  0
CIRCLE
  8
0
  6
CONTINUOUS
 62
     7
 10
122.9416666666667
 20
312.2386399551227
 40
1.149999999999984
  0
ARC
  8
0
  6
CONTINUOUS
 62
     7
 10
238.3274531042934
 20
206.832272008975
 40
1.000000000000001
 50
44.99999999999663
 51
90.0
  0
ARC
  8
0
  6
CONTINUOUS
 62
     7
 10
-138.6147012794809
 20
298.8386399551228
 40
6.480740698407816
 50
4.424862529427718
 51
19.3042196067902
  0
ARC
  8
0
  6
CONTINUOUS
 62
     7
 10
41.70563690093276
 20
496.8386399551228
 40
0.9999999999998899
 50
90.0
 51
130.000000000001
  0
ARC
  8
0
  6
CONTINUOUS
 62
     7
 10
-237.4149088176906
 20
250.8386399551229
 40
1.000000000000001
 50
270.0
 51
339.9999999999986
  0
ARC
  8
0
  6
CONTINUOUS
 62
     7
 10
-126.7147012794809
 20
298.8386399551228
 40
6.99999999999995
 50
0.0
 51
90.0
  0
ARC
  8
0
  6
CONTINUOUS
 62
     7
 10
-137.7147012794809
 20
437.4714507766209
 40
0.9999999999998899
 50
270.9999999999995
 51
0.0
  0
ARC
  8
0
  6
CONTINUOUS
 62
     7
 10
-137.7147012794809
 20
460.2058291336248
 40
1.000000000000001
 50
0.0
 51
89.00000000000048
  0
CIRCLE
  8
0
  6
CONTINUOUS
 62
     7
 10
153.7416666666666
 20
385.0386399551223
 40
1.150000000000095
  0
CIRCLE
  8
0
  6
CONTINUOUS
 62
     7
 10
190.1416666666669
 20
371.0386399551226
 40
1.149999999999984
  0
CIRCLE
  8
0
  6
CONTINUOUS
 62
     7
 10
111.7416666666665
 20
393.4386399551231
 40
1.150000000000095
  0
CIRCLE
  8
0
  6
CONTINUOUS
 62
     7
 10
153.7416666666666
 20
357.0386399551227
 40
1.150000000000095
  0
CIRCLE
  8
0
  6
CONTINUOUS
 62
     7
 10
148.1416666666668
 20
354.2386399551225
 40
1.149999999999984
  0
CIRCLE
  8
0
  6
CONTINUOUS
 62
     7
 10
108.9416666666663
 20
359.8386399551231
 40
1.150000000000095
  0
CIRCLE
  8
0
  6
CONTINUOUS
 62
     7
 10
142.5416666666663
 20
396.2386399551226
 40
1.149999999999762
  0
CIRCLE
  8
0
  6
CONTINUOUS
 62
     7
 10
108.9416666666663
 20
390.6386399551229
 40
1.150000000000095
  0
CIRCLE
  8
0
  6
CONTINUOUS
 62
     7
 10
108.9416666666663
 20
385.0386399551223
 40
1.150000000000095
  0
CIRCLE
  8
0
  6
CONTINUOUS
 62
     7
 10
120.1416666666666
 20
396.2386399551226
 40
1.149999999999873
  0
CIRCLE
  8
0
  6
CONTINUOUS
 62
     7
 10
114.5416666666669
 20
393.4386399551231
 40
1.150000000000095
  0
CIRCLE
  8
0
  6
CONTINUOUS
 62
     7
 10
192.9416666666664
 20
371.0386399551226
 40
1.150000000000095
  0
CIRCLE
  8
0
  6
CONTINUOUS
 62
     7
 10
156.5416666666669
 20
371.0386399551226
 40
1.150000000000095
  0
CIRCLE
  8
0
  6
CONTINUOUS
 62
     7
 10
153.7416666666666
 20
387.8386399551226
 40
1.150000000000095
  0
CIRCLE
  8
0
  6
CONTINUOUS
 62
     7
 10
108.9416666666663
 20
387.8386399551226
 40
1.150000000000095
  0
CIRCLE
  8
0
  6
CONTINUOUS
 62
     7
 10
192.9416666666664
 20
368.2386399551229
 40
1.150000000000095
  0
CIRCLE
  8
0
  6
CONTINUOUS
 62
     7
 10
142.5416666666663
 20
351.4386399551232
 40
1.149999999999762
  0
CIRCLE
  8
0
  6
CONTINUOUS
 62
     7
 10
114.5416666666669
 20
354.2386399551225
 40
1.150000000000095
  0
CIRCLE
  8
0
  6
CONTINUOUS
 62
     7
 10
114.5416666666669
 20
396.2386399551226
 40
1.150000000000095
  0
CIRCLE
  8
0
  6
CONTINUOUS
 62
     7
 10
134.1416666666664
 20
323.4386399551229
 40
1.149999999999984
  0
CIRCLE
  8
0
  6
CONTINUOUS
 62
     7
 10
145.3416666666667
 20
396.2386399551226
 40
1.149999999999984
  0
CIRCLE
  8
0
  6
CONTINUOUS
 62
     7
 10
153.7416666666666
 20
362.6386399551227
 40
1.150000000000095
  0
CIRCLE
  8
0
  6
CONTINUOUS
 62
     7
 10
150.9416666666663
 20
357.0386399551227
 40
1.150000000000095
  0
CIRCLE
  8
0
  6
CONTINUOUS
 62
     7
 10
108.9416666666663
 20
362.6386399551227
 40
1.150000000000095
  0
CIRCLE
  8
0
  6
CONTINUOUS
 62
     7
 10
150.9416666666663
 20
393.4386399551231
 40
1.150000000000095
  0
CIRCLE
  8
0
  6
CONTINUOUS
 62
     7
 10
153.7416666666666
 20
359.8386399551231
 40
1.150000000000095
  0
CIRCLE
  8
0
  6
CONTINUOUS
 62
     7
 10
148.1416666666668
 20
351.4386399551232
 40
1.149999999999984
  0
LINE
  8
0
  6
CONTINUOUS
 62
     7
 10
33.63510456421492
 20
116.5464778810628
 11
33.60948493057311
 21
102.8322720089754
  0
LINE
  8
0
  6
CONTINUOUS
 62
     7
 10
37.49057529509692
 20
115.8491023836356
 11
35.29782679272178
 21
116.0868345098938
  0
LINE
  8
0
  6
CONTINUOUS
 62
     7
 10
224.9258139675726
 20
108.0370808787869
 11
224.9258139675726
 21
102.8322720089752
  0
LINE
  8
0
  6
CONTINUOUS
 62
     7
 10
68.58379382424707
 20
108.0370808787869
 11
68.9258139675725
 21
108.0370808787869
  0
CIRCLE
  8
0
  6
CONTINUOUS
 62
     7
 10
148.1416666666668
 20
393.4386399551231
 40
1.149999999999984
  0
LINE
  8
0
  6
CONTINUOUS
 62
     7
 10
229.0738484027603
 20
102.8322720089753
 11
229.0482287691179
 21
116.5464778810627
  0
LINE
  8
0
  6
CONTINUOUS
 62
     7
 10
193.7575193657603
 20
102.8322720089753
 11
193.7575193657603
 21
108.037080878787
  0
CIRCLE
  8
0
  6
CONTINUOUS
 62
     7
 10
150.9416666666663
 20
390.6386399551229
 40
1.150000000000095
  0
LINE
  8
0
  6
CONTINUOUS
 62
     7
 10
229.048228769118
 20
116.5464778810628
 11
224.9258139675726
 21
108.0370808787871
  0
CIRCLE
  8
0
  6
CONTINUOUS
 62
     7
 10
156.5416666666669
 20
365.4386399551228
 40
1.150000000000095
  0
CIRCLE
  8
0
  6
CONTINUOUS
 62
     7
 10
117.3416666666665
 20
396.2386399551226
 40
1.149999999999984
  0
LINE
  8
0
  6
CONTINUOUS
 62
     7
 10
37.75751936576033
 20
108.0370808787869
 11
38.09953950908634
 21
108.0370808787869
  0
LINE
  8
0
  6
CONTINUOUS
 62
     7
 10
72.13638983816517
 20
114.664280227711
 11
68.92581396757258
 21
108.037080878787
  0
LINE
  8
0
  6
CONTINUOUS
 62
     7
 10
72.13638983816517
 20
102.8322720089753
 11
72.13638983816517
 21
114.664280227711
  0
LINE
  8
0
  6
CONTINUOUS
 62
     7
 10
223.9410062145605
 20
108.9767734995729
 11
227.3855065406119
 21
116.0868345098941
  0
LINE
  8
0
  6
CONTINUOUS
 62
     7
 10
224.5837938242471
 20
108.0370808787869
 11
224.9258139675726
 21
108.0370808787869
  0
LINE
  8
0
  6
CONTINUOUS
 62
     7
 10
225.1927580382365
 20
115.8491023836356
 11
191.4129971668181
 21
115.8491023836356
  0
LINE
  8
0
  6
CONTINUOUS
 62
     7
 10
191.4129971668181
 20
115.8491023836356
 11
194.7423271187731
 21
108.9767734995729
  0
CIRCLE
  8
0
  6
CONTINUOUS
 62
     7
 10
150.9416666666663
 20
354.2386399551225
 40
1.150000000000095
  0
CIRCLE
  8
0
  6
CONTINUOUS
 62
     7
 10
111.7416666666665
 20
354.2386399551225
 40
1.150000000000095
  0
CIRCLE
  8
0
  6
CONTINUOUS
 62
     7
 10
159.3416666666663
 20
371.0386399551226
 40
1.149999999999873
  0
LINE
  8
0
  6
CONTINUOUS
 62
     7
 10
193.7575193657603
 20
108.0370808787869
 11
194.0995395090864
 21
108.0370808787869
  0
LINE
  8
0
  6
CONTINUOUS
 62
     7
 10
68.92581396757258
 20
108.0370808787869
 11
68.92581396757258
 21
102.8322720089752
  0
LINE
  8
0
  6
CONTINUOUS
 62
     7
 10
37.75751936576033
 20
102.8322720089753
 11
37.75751936576033
 21
108.037080878787
  0
LINE
  8
0
  6
CONTINUOUS
 62
     7
 10
190.5469434951685
 20
114.664280227711
 11
190.5469434951685
 21
102.8322720089753
  0
LINE
  8
0
  6
CONTINUOUS
 62
     7
 10
67.94100621456056
 20
108.9767734995729
 11
71.27033616651526
 21
115.8491023836356
  0
CIRCLE
  8
0
  6
CONTINUOUS
 62
     7
 10
145.3416666666667
 20
351.4386399551232
 40
1.149999999999984
  0
LINE
  8
0
  6
CONTINUOUS
 62
     7
 10
227.3855065406123
 20
116.086834509894
 11
225.1927580382364
 21
115.8491023836356
  0
LINE
  8
0
  6
CONTINUOUS
 62
     7
 10
227.6232044912303
 20
116.284983649771
 11
227.3855065406119
 21
116.0868345098941
  0
LINE
  8
0
  6
CONTINUOUS
 62
     7
 10
71.27033616651524
 20
115.8491023836356
 11
37.49057529509686
 21
115.8491023836356
  0
CIRCLE
  8
0
  6
CONTINUOUS
 62
     7
 10
111.7416666666665
 20
390.6386399551229
 40
1.150000000000095
  0
CIRCLE
  8
0
  6
CONTINUOUS
 62
     7
 10
117.3416666666665
 20
351.4386399551232
 40
1.149999999999984
  0
LINE
  8
0
  6
CONTINUOUS
 62
     7
 10
193.7575193657603
 20
108.0370808787869
 11
190.5469434951684
 21
114.6642802277109
  0
CIRCLE
  8
0
  6
CONTINUOUS
 62
     7
 10
176.3416666666667
 20
143.8322720089753
 40
15.29999999999998
  0
CIRCLE
  8
0
  6
CONTINUOUS
 62
     7
 10
156.5416666666669
 20
368.2386399551229
 40
1.150000000000095
  0
CIRCLE
  8
0
  6
CONTINUOUS
 62
     7
 10
131.3416666666667
 20
143.8322720089753
 40
15.29999999999998
  0
CIRCLE
  8
0
  6
CONTINUOUS
 62
     7
 10
86.34166666666675
 20
143.8322720089753
 40
15.30000000000009
  0
LINE
  8
0
  6
CONTINUOUS
 62
     7
 10
37.75751936576033
 20
108.0370808787869
 11
33.63510456421492
 21
116.5464778810626
  0
LINE
  8
0
  6
CONTINUOUS
 62
     7
 10
209.4852465244003
 20
493.7821208128235
 11
209.1980868089321
 21
493.7821208128235
  0
LINE
  8
0
  6
CONTINUOUS
 62
     7
 10
38.0995395090864
 20
495.1181722529674
 11
41.06284929124623
 21
497.604684398242
  0
LINE
  8
0
  6
CONTINUOUS
 62
     7
 10
197.7056369009328
 20
497.8386399551232
 11
220.9776964324007
 21
497.8386399551232
  0
LINE
  8
0
  6
CONTINUOUS
 62
     7
 10
-157.2147012794809
 20
303.1244263927499
 11
-157.2147012794809
 21
305.9528535174958
  0
LINE
  8
0
  6
CONTINUOUS
 62
     7
 10
-157.2147012794809
 20
294.5528535174959
 11
-157.2147012794809
 21
295.9670670798689
  0
LINE
  8
0
  6
CONTINUOUS
 62
     7
 10
-157.2147012794809
 20
301.7102128303769
 11
-157.2147012794809
 21
303.1244263927499
  0
LINE
  8
0
  6
CONTINUOUS
 62
     7
 10
-157.2147012794809
 20
295.9670670798689
 11
-157.2147012794809
 21
301.710212830377
  0
LINE
  8
0
  6
CONTINUOUS
 62
     7
 10
-241.7147012794807
 20
252.5591076572783
 11
-241.7147012794807
 21
253.1515039227304
  0
LINE
  8
0
  6
CONTINUOUS
 62
     7
 10
-157.2147012794809
 20
441.1386399551229
 11
-157.2147012794809
 21
440.1386399551229
  0
LINE
  8
0
  6
CONTINUOUS
 62
     7
 10
-216.0407012794809
 20
270.8386399551227
 11
-215.9095852248959
 21
270.8386399551227
  0
LINE
  8
0
  6
CONTINUOUS
 62
     7
 10
-185.9109220657746
 20
270.8386399551227
 11
-185.6453365661557
 21
270.8386399551227
  0
LINE
  8
0
  6
CONTINUOUS
 62
     7
 10
-132.4983298061316
 20
298.3386399551231
 11
-132.4983298061316
 21
299.3386399551227
  0
LINE
  8
0
  6
CONTINUOUS
 62
     7
 10
-212.3685361776991
 20
270.8386399551227
 11
-200.7147012794809
 21
270.8386399551227
  0
LINE
  8
0
  6
CONTINUOUS
 62
     7
 10
-132.4983298061316
 20
296.6386399551226
 11
-132.4983298061316
 21
296.6962114265597
  0
LINE
  8
0
  6
CONTINUOUS
 62
     7
 10
-184.3887012794809
 20
271.8386399551229
 11
-184.4382845024409
 21
271.5289225696889
  0
LINE
  8
0
  6
CONTINUOUS
 62
     7
 10
221.6204840420867
 20
497.604684398242
 11
224.5837938242471
 21
495.1181722529674
  0
LINE
  8
0
  6
CONTINUOUS
 62
     7
 10
41.70563690093276
 20
497.8386399551232
 11
64.9776964324002
 21
497.8386399551232
  0
LINE
  8
0
  6
CONTINUOUS
 62
     7
 10
-215.518480493187
 20
270.8386399551227
 11
-215.4095725360707
 21
270.8386399551227
  0
LINE
  8
0
  6
CONTINUOUS
 62
     7
 10
-133.9983298061317
 20
446.6386399551228
 11
-133.9983298061317
 21
446.6962114265597
  0
LINE
  8
0
  6
CONTINUOUS
 62
     7
 10
-186.5553235642129
 20
270.8386399551227
 11
-186.019830022891
 21
270.8386399551227
  0
LINE
  8
0
  6
CONTINUOUS
 62
     7
 10
-157.2147012794809
 20
307.5386399551228
 11
-157.2147012794809
 21
306.5386399551227
  0
LINE
  8
0
  6
CONTINUOUS
 62
     7
 10
-157.2147012794809
 20
291.138639955123
 11
-157.2147012794809
 21
291.7244263927499
  0
LINE
  8
0
  6
CONTINUOUS
 62
     7
 10
-133.6532772878208
 20
448.3386399551226
 11
-133.9983298061316
 21
448.3386399551226
  0
LINE
  8
0
  6
CONTINUOUS
 62
     7
 10
-157.2147012794809
 20
306.5386399551227
 11
-145.3147012794809
 21
306.5386399551227
  0
LINE
  8
0
  6
CONTINUOUS
 62
     7
 10
-157.2147012794809
 20
456.5386399551226
 11
-145.3147012794809
 21
456.5386399551226
  0
LINE
  8
0
  6
CONTINUOUS
 62
     7
 10
-134.9912258965011
 20
448.8386399551227
 11
-134.9912258965011
 21
452.8386399551231
  0
LINE
  8
0
  6
CONTINUOUS
 62
     7
 10
-157.2147012794809
 20
441.72442639275
 11
-157.2147012794809
 21
444.552853517496
  0
LINE
  8
0
  6
CONTINUOUS
 62
     7
 10
-157.2147012794809
 20
453.1244263927497
 11
-157.2147012794809
 21
455.9528535174957
  0
LINE
  8
0
  6
CONTINUOUS
 62
     7
 10
-133.9983298061319
 20
450.9810684836855
 11
-133.9983298061319
 21
451.0386399551224
  0
LINE
  8
0
  6
CONTINUOUS
 62
     7
 10
-157.2147012794809
 20
441.1386399551229
 11
-157.2147012794809
 21
441.7244263927499
  0
LINE
  8
0
  6
CONTINUOUS
 62
     7
 10
-157.2147012794809
 20
291.7244263927499
 11
-157.2147012794809
 21
294.5528535174959
  0
LINE
  8
0
  6
CONTINUOUS
 62
     7
 10
-187.2459502108237
 20
270.8386399551227
 11
-186.555323564213
 21
270.8386399551227
  0
LINE
  8
0
  6
CONTINUOUS
 62
     7
 10
-228.4601387785622
 20
272.5178640338735
 11
-235.5701997888833
 21
252.9831319570721
  0
LINE
  8
0
  6
CONTINUOUS
 62
     7
 10
-236.4752161969046
 20
497.1806600984483
 11
-235.5701997888832
 21
494.6941479531742
  0
LINE
  8
0
  6
CONTINUOUS
 62
     7
 10
-157.2147012794809
 20
445.967067079869
 11
-157.2147012794809
 21
451.7102128303769
  0
LINE
  8
0
  6
CONTINUOUS
 62
     7
 10
65.62048404208664
 20
497.604684398242
 11
68.58379382424707
 21
495.1181722529674
  0
LINE
  8
0
  6
CONTINUOUS
 62
     7
 10
-133.9983298061317
 20
448.3386399551226
 11
-133.9983298061317
 21
449.3386399551226
  0
LINE
  8
0
  6
CONTINUOUS
 62
     7
 10
-216.9911180565284
 20
271.5289225697117
 11
-217.0407012794809
 21
271.8386399551229
  0
LINE
  8
0
  6
CONTINUOUS
 62
     7
 10
-145.3147012794809
 20
441.1386399551229
 11
-157.2147012794809
 21
441.1386399551229
  0
LINE
  8
0
  6
CONTINUOUS
 62
     7
 10
-145.3147012794809
 20
291.138639955123
 11
-157.2147012794809
 21
291.138639955123
  0
LINE
  8
0
  6
CONTINUOUS
 62
     7
 10
194.0995395090864
 20
495.1181722529674
 11
197.062849291246
 21
497.604684398242
  0
LINE
  8
0
  6
CONTINUOUS
 62
     7
 10
-157.2147012794809
 20
305.9528535174959
 11
-157.2147012794809
 21
306.5386399551227
  0
LINE
  8
0
  6
CONTINUOUS
 62
     7
 10
-215.2656918212226
 20
271.8386399551229
 11
-215.7078373472294
 21
271.8386399551229
  0
LINE
  8
0
  6
CONTINUOUS
 62
     7
 10
-157.2147012794809
 20
444.5528535174961
 11
-157.2147012794809
 21
445.967067079869
  0
LINE
  8
0
  6
CONTINUOUS
 62
     7
 10
-185.5198173340658
 20
270.8386399551227
 11
-185.3887012794808
 21
270.8386399551227
  0
LINE
  8
0
  6
CONTINUOUS
 62
     7
 10
-137.6900236075579
 20
442.1798127499708
 11
-145.3147012794809
 21
442.0467235061507
  0
LINE
  8
0
  6
CONTINUOUS
 62
     7
 10
-136.7147012794809
 20
294.0327576021815
 11
-135.2147012794809
 21
294.0327576021815
  0
LINE
  8
0
  6
CONTINUOUS
 62
     7
 10
-225.3031958236457
 20
472.921326457288
 11
-225.1734516828283
 21
472.8174290271161
  0
LINE
  8
0
  6
CONTINUOUS
 62
     7
 10
-133.7147012794809
 20
305.838639955123
 11
-133.7147012794809
 21
302.838639955123
  0
LINE
  8
0
  6
CONTINUOUS
 62
     7
 10
-145.3147012794809
 20
444.5528535174961
 11
-157.2147012794809
 21
444.5528535174961
  0
LINE
  8
0
  6
CONTINUOUS
 62
     7
 10
-133.7147012794809
 20
294.8386399551227
 11
-133.7147012794809
 21
291.8386399551227
  0
LINE
  8
0
  6
CONTINUOUS
 62
     7
 10
-132.1532772878209
 20
298.3386399551231
 11
-132.4983298061317
 21
298.3386399551231
  0
LINE
  8
0
  6
CONTINUOUS
 62
     7
 10
-225.5861692286984
 20
473.1067047429129
 11
-225.3031958236457
 21
472.921326457288
  0
LINE
  8
0
  6
CONTINUOUS
 62
     7
 10
-241.7147012794807
 20
250.0725955120037
 11
-241.7147012794807
 21
252.5591076572783
  0
LINE
  8
0
  6
CONTINUOUS
 62
     7
 10
-217.2147012794809
 20
273.8386399551227
 11
-217.2147012794809
 21
271.8386399551229
  0
LINE
  8
0
  6
CONTINUOUS
 62
     7
 10
-235.5701997888833
 20
494.6941479531743
 11
-228.1588086510755
 21
474.331518155301
  0
LINE
  8
0
  6
CONTINUOUS
 62
     7
 10
-133.4912258965011
 20
298.8386399551228
 11
-133.4912258965011
 21
302.838639955123
  0
LINE
  8
0
  6
CONTINUOUS
 62
     7
 10
-132.4983298061316
 20
299.3386399551226
 11
-132.1532772878208
 21
299.3386399551226
  0
LINE
  8
0
  6
CONTINUOUS
 62
     7
 10
-137.6900236075579
 20
292.1798127499708
 11
-145.3147012794809
 21
292.0467235061506
  0
LINE
  8
0
  6
CONTINUOUS
 62
     7
 10
-225.6267237173331
 20
274.0019308673165
 11
-225.8787930424629
 21
273.8386399551227
  0
LINE
  8
0
  6
CONTINUOUS
 62
     7
 10
-145.3147012794809
 20
305.6305564040945
 11
-137.6900236075579
 21
305.4974671602748
  0
LINE
  8
0
  6
CONTINUOUS
 62
     7
 10
-145.3147012794809
 20
294.5528535174959
 11
-157.2147012794809
 21
294.5528535174959
  0
LINE
  8
0
  6
CONTINUOUS
 62
     7
 10
-157.2147012794809
 20
451.7102128303768
 11
-157.2147012794809
 21
453.1244263927497
  0
LINE
  8
0
  6
CONTINUOUS
 62
     7
 10
-189.1424811606025
 20
270.9177472917491
 11
-189.1424359836377
 21
270.9188542691885
  0
LINE
  8
0
  6
CONTINUOUS
 62
     7
 10
-214.8740789947488
 20
270.8386399551227
 11
-214.1834523481381
 21
270.8386399551227
  0
LINE
  8
0
  6
CONTINUOUS
 62
     7
 10
-241.7147012794807
 20
278.2767481371022
 11
-227.9819836301119
 21
278.1312558502168
  0
LINE
  8
0
  6
CONTINUOUS
 62
     7
 10
-185.0916933583169
 20
271.8386399551229
 11
-185.1500316847119
 21
271.5892156512887
  0
LINE
  8
0
  6
CONTINUOUS
 62
     7
 10
-157.2147012794809
 20
453.1244263927497
 11
-145.3147012794809
 21
453.1244263927497
  0
LINE
  8
0
  6
CONTINUOUS
 62
     7
 10
-135.2147012794809
 20
303.6445223080637
 11
-136.7147012794809
 21
303.6445223080637
  0
LINE
  8
0
  6
CONTINUOUS
 62
     7
 10
-185.1500316847118
 20
271.5892156512887
 11
-185.1727546240048
 21
271.5289225696848
  0
LINE
  8
0
  6
CONTINUOUS
 62
     7
 10
-216.9240924089865
 20
271.8386399551229
 11
-217.1060747262146
 21
271.8386399551229
  0
LINE
  8
0
  6
CONTINUOUS
 62
     7
 10
-227.6333116708588
 20
468.6390740798465
 11
-241.7147012794808
 21
468.3406876508956
  0
LINE
  8
0
  6
CONTINUOUS
 62
     7
 10
-145.3147012794809
 20
455.630556404095
 11
-137.6900236075579
 21
455.4974671602749
  0
LINE
  8
0
  6
CONTINUOUS
 62
     7
 10
-217.1060747262147
 20
271.8386399551229
 11
-217.1598412111189
 21
271.8386399551229
  0
LINE
  8
0
  6
CONTINUOUS
 62
     7
 10
-184.2147012794809
 20
271.8386399551229
 11
-184.2147012794809
 21
273.8386399551227
  0
LINE
  8
0
  6
CONTINUOUS
 62
     7
 10
-137.6900236075579
 20
276.6801173132717
 11
-145.3147012794809
 21
276.5470280694515
  0
LINE
  8
0
  6
CONTINUOUS
 62
     7
 10
-157.2147012794809
 20
455.9528535174957
 11
-157.2147012794809
 21
456.5386399551226
  0
LINE
  8
0
  6
CONTINUOUS
 62
     7
 10
-186.3018471927629
 20
271.7359972143647
 11
-186.3164547177297
 21
271.8386399551229
  0
LINE
  8
0
  6
CONTINUOUS
 62
     7
 10
-216.8414498259797
 20
271.8386399551229
 11
-216.9240924089866
 21
271.8386399551229
  0
LINE
  8
0
  6
CONTINUOUS
 62
     7
 10
-145.3147012794809
 20
442.0467235061507
 11
-145.3147012794809
 21
442.7537410624331
  0
LINE
  8
0
  6
CONTINUOUS
 62
     7
 10
-157.2147012794809
 20
303.1244263927499
 11
-145.3147012794809
 21
303.1244263927499
  0
LINE
  8
0
  6
CONTINUOUS
 62
     7
 10
-217.1598412111188
 20
271.8386399551229
 11
-217.2147012794808
 21
271.8386399551229
  0
LINE
  8
0
  6
CONTINUOUS
 62
     7
 10
-136.7147012794809
 20
290.838639955123
 11
-135.2147012794809
 21
290.838639955123
  0
LINE
  8
0
  6
CONTINUOUS
 62
     7
 10
-136.7147012794809
 20
444.0327576021814
 11
-135.2147012794809
 21
444.0327576021814
  0
LINE
  8
0
  6
CONTINUOUS
 62
     7
 10
-135.2147012794809
 20
306.8386399551227
 11
-136.7147012794809
 21
306.8386399551227
  0
LINE
  8
0
  6
CONTINUOUS
 62
     7
 10
-135.2147012794809
 20
453.6445223080636
 11
-136.7147012794809
 21
453.6445223080636
  0
LINE
  8
0
  6
CONTINUOUS
 62
     7
 10
-145.3147012794809
 20
471.1302518407944
 11
-137.6900236075579
 21
470.9971625969741
  0
LINE
  8
0
  6
CONTINUOUS
 62
     7
 10
-185.010190802987
 20
270.9188542691855
 11
-185.0595812989209
 21
270.9011454218057
  0
LINE
  8
0
  6
CONTINUOUS
 62
     7
 10
-235.5701997888833
 20
252.9831319570721
 11
-236.4752161969046
 21
250.4966198117975
  0
LINE
  8
0
  6
CONTINUOUS
 62
     7
 10
-216.2566479349678
 20
271.8386399551229
 11
-216.3823327439052
 21
271.8386399551229
  0
LINE
  8
0
  6
CONTINUOUS
 62
     7
 10
-184.2147012794809
 20
271.8386399551229
 11
-184.2655652728842
 21
271.8386399551229
  0
LINE
  8
0
  6
CONTINUOUS
 62
     7
 10
-126.7147012794809
 20
305.838639955123
 11
-133.7147012794809
 21
305.838639955123
  0
LINE
  8
0
  6
CONTINUOUS
 62
     7
 10
-145.3147012794809
 20
273.8386399551227
 11
-225.8787930424629
 21
273.8386399551227
  0
LINE
  8
0
  6
CONTINUOUS
 62
     7
 10
-215.9349007952064
 20
271.8386399551229
 11
-216.2566479349678
 21
271.8386399551229
  0
LINE
  8
0
  6
CONTINUOUS
 62
     7
 10
-200.7147012794809
 20
270.8386399551227
 11
-189.0608663812636
 21
270.8386399551227
  0
LINE
  8
0
  6
CONTINUOUS
 62
     7
 10
-215.9095852248958
 20
270.8386399551227
 11
-215.5184804931871
 21
270.8386399551227
  0
LINE
  8
0
  6
CONTINUOUS
 62
     7
 10
-189.0608663812636
 20
270.8386399551227
 11
-188.0841433126599
 21
270.8386399551227
  0
LINE
  8
0
  6
CONTINUOUS
 62
     7
 10
-216.7588049660424
 20
271.8386399551229
 11
-216.8414498259796
 21
271.8386399551229
  0
LINE
  8
0
  6
CONTINUOUS
 62
     7
 10
-214.1834523481381
 20
270.8386399551227
 11
-213.3452592463018
 21
270.8386399551227
  0
LINE
  8
0
  6
CONTINUOUS
 62
     7
 10
-157.2147012794809
 20
457.5386399551229
 11
-157.2147012794809
 21
456.5386399551227
  0
LINE
  8
0
  6
CONTINUOUS
 62
     7
 10
-186.019830022891
 20
270.8386399551227
 11
-185.9109220657746
 21
270.8386399551227
  0
LINE
  8
0
  6
CONTINUOUS
 62
     7
 10
-134.9912258965011
 20
444.8386399551225
 11
-134.9912258965011
 21
448.8386399551227
  0
LINE
  8
0
  6
CONTINUOUS
 62
     7
 10
-184.4382845024332
 20
271.8386399551229
 11
-184.5053101499752
 21
271.8386399551229
  0
LINE
  8
0
  6
CONTINUOUS
 62
     7
 10
-133.4912258965011
 20
294.8386399551227
 11
-133.4912258965011
 21
298.8386399551228
  0
LINE
  8
0
  6
CONTINUOUS
 62
     7
 10
-237.4149088176906
 20
249.8386399551227
 11
-241.7147012794809
 21
249.8386399551227
  0
LINE
  8
0
  6
CONTINUOUS
 62
     7
 10
-241.7147012794808
 20
249.8386399551227
 11
-241.7147012794808
 21
250.0725955120037
  0
LINE
  8
0
  6
CONTINUOUS
 62
     7
 10
-135.2147012794809
 20
291.8386399551227
 11
-133.7147012794809
 21
291.8386399551227
  0
LINE
  8
0
  6
CONTINUOUS
 62
     7
 10
-241.7147012794808
 20
497.8386399551232
 11
-237.4149088176906
 21
497.8386399551232
  0
LINE
  8
0
  6
CONTINUOUS
 62
     7
 10
-137.6972488730436
 20
436.471603081465
 11
-145.3147012794809
 21
436.3386399551232
  0
LINE
  8
0
  6
CONTINUOUS
 62
     7
 10
-216.5045375043742
 20
271.8386399551229
 11
-216.7588049660425
 21
271.8386399551229
  0
LINE
  8
0
  6
CONTINUOUS
 62
     7
 10
-184.587926358442
 20
271.8386399551229
 11
-184.6993264364822
 21
271.8386399551229
  0
LINE
  8
0
  6
CONTINUOUS
 62
     7
 10
-126.7147012794809
 20
291.8386399551227
 11
-133.7147012794809
 21
291.8386399551227
  0
LINE
  8
0
  6
CONTINUOUS
 62
     7
 10
-185.6453365661557
 20
270.8386399551227
 11
-185.5198173340659
 21
270.8386399551227
  0
LINE
  8
0
  6
CONTINUOUS
 62
     7
 10
-184.2655652728843
 20
271.8386399551229
 11
-184.3232994538492
 21
271.8386399551229
  0
LINE
  8
0
  6
CONTINUOUS
 62
     7
 10
-132.4983298061319
 20
300.9810684836854
 11
-132.4983298061319
 21
301.0386399551224
  0
LINE
  8
0
  6
CONTINUOUS
 62
     7
 10
-213.3452592463018
 20
270.8386399551227
 11
-212.368536177699
 21
270.8386399551227
  0
LINE
  8
0
  6
CONTINUOUS
 62
     7
 10
-133.9983298061317
 20
449.3386399551226
 11
-133.6532772878209
 21
449.3386399551226
  0
LINE
  8
0
  6
CONTINUOUS
 62
     7
 10
-188.0841433126598
 20
270.8386399551227
 11
-187.2459502108236
 21
270.8386399551227
  0
LINE
  8
0
  6
CONTINUOUS
 62
     7
 10
-184.3232994538492
 20
271.8386399551229
 11
-184.4382845024333
 21
271.8386399551229
  0
LINE
  8
0
  6
CONTINUOUS
 62
     7
 10
-215.7078373472294
 20
271.8386399551229
 11
-215.9349007952065
 21
271.8386399551229
  0
LINE
  8
0
  6
CONTINUOUS
 62
     7
 10
-225.5861692286984
 20
473.1067047429129
 11
-145.3147012794808
 21
473.8072232310761
  0
LINE
  8
0
  6
CONTINUOUS
 62
     7
 10
-215.4095725360707
 20
270.8386399551227
 11
-214.8740789947488
 21
270.8386399551227
  0
LINE
  8
0
  6
CONTINUOUS
 62
     7
 10
-145.3147012794809
 20
454.9235388478127
 11
-145.3147012794809
 21
455.630556404095
  0
LINE
  8
0
  6
CONTINUOUS
 62
     7
 10
-157.2147012794809
 20
291.138639955123
 11
-157.2147012794809
 21
290.1386399551229
  0
LINE
  8
0
  6
CONTINUOUS
 62
     7
 10
-135.2147012794809
 20
454.1386399551227
 11
-135.2147012794809
 21
453.6445223080636
  0
LINE
  8
0
  6
CONTINUOUS
 62
     7
 10
-133.7147012794809
 20
305.838639955123
 11
-135.2147012794809
 21
305.838639955123
  0
LINE
  8
0
  6
CONTINUOUS
 62
     7
 10
-136.7147012794809
 20
287.4714507766211
 11
-136.7147012794809
 21
285.4717553863084
  0
LINE
  8
0
  6
CONTINUOUS
 62
     7
 10
-137.6972488730436
 20
268.9716030814648
 11
-145.3147012794809
 21
268.8386399551229
  0
LINE
  8
0
  6
CONTINUOUS
 62
     7
 10
-145.3147012794809
 20
305.6305564040945
 11
-145.3147012794809
 21
311.0458098162484
  0
LINE
  8
0
  6
CONTINUOUS
 62
     7
 10
-135.2147012794809
 20
444.8386399551225
 11
-134.9912258965011
 21
444.8386399551225
  0
LINE
  8
0
  6
CONTINUOUS
 62
     7
 10
-216.3823327439052
 20
271.8386399551229
 11
-216.5045375043742
 21
271.8386399551229
  0
LINE
  8
0
  6
CONTINUOUS
 62
     7
 10
-145.3147012794809
 20
436.3386399551232
 11
-145.3147012794809
 21
435.3387922599666
  0
LINE
  8
0
  6
CONTINUOUS
 62
     7
 10
-145.3147012794809
 20
269.1314700939971
 11
-145.3147012794809
 21
276.5470280694514
  0
LINE
  8
0
  6
CONTINUOUS
 62
     7
 10
-135.2147012794809
 20
294.0327576021815
 11
-135.2147012794809
 21
303.6445223080638
  0
LINE
  8
0
  6
CONTINUOUS
 62
     7
 10
-136.7147012794809
 20
462.2055245239372
 11
-136.7147012794809
 21
460.2058291336248
  0
LINE
  8
0
  6
CONTINUOUS
 62
     7
 10
-145.3147012794809
 20
286.3386399551231
 11
-145.3147012794809
 21
285.3387922599665
  0
LINE
  8
0
  6
CONTINUOUS
 62
     7
 10
-136.7147012794809
 20
442.8867041887751
 11
-136.7147012794809
 21
437.4714507766209
  0
LINE
  8
0
  6
CONTINUOUS
 62
     7
 10
-145.3147012794809
 20
461.0458098162484
 11
-145.3147012794809
 21
461.3386399551226
  0
LINE
  8
0
  6
CONTINUOUS
 62
     7
 10
-145.3147012794809
 20
478.8386399551227
 11
-137.6972488730436
 21
478.7056768287808
  0
LINE
  8
0
  6
CONTINUOUS
 62
     7
 10
-136.7147012794809
 20
277.3870087520752
 11
-136.7147012794809
 21
269.9714507766209
  0
LINE
  8
0
  6
CONTINUOUS
 62
     7
 10
-136.7147012794809
 20
304.1386399551227
 11
-135.2147012794809
 21
304.1386399551227
  0
LINE
  8
0
  6
CONTINUOUS
 62
     7
 10
-136.7147012794809
 20
304.7905757214707
 11
-136.7147012794809
 21
292.8867041887751
  0
LINE
  8
0
  6
CONTINUOUS
 62
     7
 10
-135.2147012794809
 20
293.5471373329937
 11
-135.2147012794809
 21
290.838639955123
  0
LINE
  8
0
  6
CONTINUOUS
 62
     7
 10
-136.7147012794809
 20
437.4714507766209
 11
-136.7147012794809
 21
435.4717553863085
  0
LINE
  8
0
  6
CONTINUOUS
 62
     7
 10
-145.3147012794809
 20
478.5458098162487
 11
-145.3147012794809
 21
478.8386399551229
  0
LINE
  8
0
  6
CONTINUOUS
 62
     7
 10
-145.3147012794809
 20
462.3384876502791
 11
-145.3147012794809
 21
461.3386399551225
  0
LINE
  8
0
  6
CONTINUOUS
 62
     7
 10
-145.3147012794809
 20
436.6314700939973
 11
-145.3147012794809
 21
442.0467235061507
  0
LINE
  8
0
  6
CONTINUOUS
 62
     7
 10
-136.7147012794809
 20
312.2055245239372
 11
-136.7147012794809
 21
310.2058291336246
  0
LINE
  8
0
  6
CONTINUOUS
 62
     7
 10
-145.3147012794809
 20
312.3384876502793
 11
-145.3147012794809
 21
435.3387922599665
  0
LINE
  8
0
  6
CONTINUOUS
 62
     7
 10
-145.3147012794809
 20
442.7537410624332
 11
-145.3147012794809
 21
454.9235388478127
  0
LINE
  8
0
  6
CONTINUOUS
 62
     7
 10
-145.3147012794809
 20
461.3386399551226
 11
-137.6972488730436
 21
461.2056768287808
  0
LINE
  8
0
  6
CONTINUOUS
 62
     7
 10
-137.6972488730436
 20
286.4716030814645
 11
-145.3147012794809
 21
286.338639955123
  0
LINE
  8
0
  6
CONTINUOUS
 62
     7
 10
-133.4912258965011
 20
302.838639955123
 11
-135.2147012794809
 21
302.838639955123
  0
LINE
  8
0
  6
CONTINUOUS
 62
     7
 10
-136.7147012794809
 20
310.2058291336247
 11
-136.7147012794809
 21
304.7905757214708
  0
LINE
  8
0
  6
CONTINUOUS
 62
     7
 10
-145.3147012794809
 20
292.753741062433
 11
-145.3147012794809
 21
304.9235388478127
  0
LINE
  8
0
  6
CONTINUOUS
 62
     7
 10
-134.9912258965011
 20
452.8386399551232
 11
-135.2147012794809
 21
452.8386399551232
  0
LINE
  8
0
  6
CONTINUOUS
 62
     7
 10
-184.6993264364823
 20
271.8386399551229
 11
-185.0210088640511
 21
271.8386399551229
  0
LINE
  8
0
  6
CONTINUOUS
 62
     7
 10
-184.5053101499751
 20
271.8386399551229
 11
-184.587926358442
 21
271.8386399551229
  0
LINE
  8
0
  6
CONTINUOUS
 62
     7
 10
-136.7147012794809
 20
454.7905757214705
 11
-136.7147012794809
 21
442.8867041887751
  0
LINE
  8
0
  6
CONTINUOUS
 62
     7
 10
-145.3147012794809
 20
286.3386399551231
 11
-145.3147012794809
 21
286.6314700939973
  0
LINE
  8
0
  6
CONTINUOUS
 62
     7
 10
-135.2147012794809
 20
306.8386399551227
 11
-135.2147012794809
 21
304.1301425772521
  0
LINE
  8
0
  6
CONTINUOUS
 62
     7
 10
-145.3147012794809
 20
311.0458098162485
 11
-145.3147012794809
 21
311.3386399551228
  0
LINE
  8
0
  6
CONTINUOUS
 62
     7
 10
-135.2147012794809
 20
443.5386399551224
 11
-136.7147012794809
 21
443.5386399551224
  0
LINE
  8
0
  6
CONTINUOUS
 62
     7
 10
-185.0210088640512
 20
271.8386399551229
 11
-185.6192647569035
 21
271.8386399551229
  0
LINE
  8
0
  6
CONTINUOUS
 62
     7
 10
-135.2147012794809
 20
453.6445223080636
 11
-135.2147012794809
 21
444.0327576021813
  0
LINE
  8
0
  6
CONTINUOUS
 62
     7
 10
-135.2147012794809
 20
294.8386399551227
 11
-133.4912258965011
 21
294.8386399551227
  0
LINE
  8
0
  6
CONTINUOUS
 62
     7
 10
-136.7147012794809
 20
435.4717553863085
 11
-136.7147012794809
 21
312.2055245239374
  0
LINE
  8
0
  6
CONTINUOUS
 62
     7
 10
-145.3147012794809
 20
462.3384876502791
 11
-145.3147012794809
 21
470.4232342845118
  0
LINE
  8
0
  6
CONTINUOUS
 62
     7
 10
-136.7147012794809
 20
292.8867041887751
 11
-136.7147012794809
 21
287.4714507766211
  0
LINE
  8
0
  6
CONTINUOUS
 62
     7
 10
-145.3147012794809
 20
276.5470280694515
 11
-145.3147012794809
 21
277.2540456257333
  0
LINE
  8
0
  6
CONTINUOUS
 62
     7
 10
-136.7147012794809
 20
454.1386399551227
 11
-135.2147012794809
 21
454.1386399551227
  0
LINE
  8
0
  6
CONTINUOUS
 62
     7
 10
-225.4732072084844
 20
274.1315331739366
 11
-225.626723717333
 21
274.0019308673164
  0
LINE
  8
0
  6
CONTINUOUS
 62
     7
 10
-135.2147012794809
 20
294.0327576021815
 11
-135.2147012794809
 21
293.5386399551225
  0
LINE
  8
0
  6
CONTINUOUS
 62
     7
 10
243.7416666666665
 20
295.8386399551229
 11
235.2088558451682
 21
295.8386399551229
  0
LINE
  8
0
  6
CONTINUOUS
 62
     7
 10
243.7416666666665
 20
282.3386399551229
 11
235.2088558451682
 21
282.3386399551229
  0
LINE
  8
0
  6
CONTINUOUS
 62
     7
 10
243.7416666666665
 20
292.5886399551227
 11
235.2088558451682
 21
292.5886399551227
  0
LINE
  8
0
  6
CONTINUOUS
 62
     7
 10
243.7416666666665
 20
285.5886399551231
 11
235.2088558451682
 21
285.5886399551231
  0
CIRCLE
  8
0
  6
CONTINUOUS
 62
     7
 10
69.74166666666659
 20
379.4386399551228
 40
1.149999999999984
  0
CIRCLE
  8
0
  6
CONTINUOUS
 62
     7
 10
106.1416666666668
 20
365.4386399551228
 40
1.149999999999984
  0
CIRCLE
  8
0
  6
CONTINUOUS
 62
     7
 10
69.74166666666659
 20
376.6386399551226
 40
1.149999999999984
  0
CIRCLE
  8
0
  6
CONTINUOUS
 62
     7
 10
72.54166666666673
 20
435.4386399551231
 40
1.150000000000095
  0
CIRCLE
  8
0
  6
CONTINUOUS
 62
     7
 10
134.1416666666664
 20
401.8386399551231
 40
1.149999999999984
  0
LINE
  8
0
  6
CONTINUOUS
 62
     7
 10
53.19808680893279
 20
109.3087242315034
 11
53.4852465244007
 21
109.3087242315034
  0
LINE
  8
0
  6
CONTINUOUS
 62
     7
 10
56.07686309251913
 20
110.2580260941309
 11
56.05257598413954
 21
113.0410530588836
  0
LINE
  8
0
  6
CONTINUOUS
 62
     7
 10
209.4852465244003
 20
109.3087242315034
 11
209.1980868089321
 21
109.3087242315034
  0
LINE
  8
0
  6
CONTINUOUS
 62
     7
 10
212.0525759841389
 20
113.0410530588837
 11
212.0768630925186
 21
110.258026094131
  0
LINE
  8
0
  6
CONTINUOUS
 62
     7
 10
231.341666666667
 20
198.2322720089753
 11
232.8945415805964
 21
198.2322720089753
  0
LINE
  8
0
  6
CONTINUOUS
 62
     7
 10
30.47689503903772
 20
187.3322720089751
 11
31.47693311742364
 21
187.3322720089751
  0
LINE
  8
0
  6
CONTINUOUS
 62
     7
 10
18.47009379141307
 20
187.3322720089751
 11
17.05588022904006
 21
187.3322720089751
  0
LINE
  8
0
  6
CONTINUOUS
 62
     7
 10
206.6064702408144
 20
110.2580260941309
 11
206.6307573491933
 21
113.0410530588836
  0
LINE
  8
0
  6
CONTINUOUS
 62
     7
 10
209.4444430137041
 20
113.9843434426908
 11
209.2388903196281
 21
113.9843434426908
  0
LINE
  8
0
  6
CONTINUOUS
 62
     7
 10
32.21435344574275
 20
102.8322720089754
 11
31.37308339071351
 21
199.2322720089755
  0
CIRCLE
  8
0
  6
CONTINUOUS
 62
     7
 10
72.54166666666673
 20
376.6386399551226
 40
1.149999999999984
  0
CIRCLE
  8
0
  6
CONTINUOUS
 62
     7
 10
69.74166666666659
 20
435.4386399551231
 40
1.149999999999984
  0
CIRCLE
  8
0
  6
CONTINUOUS
 62
     7
 10
69.74166666666659
 20
432.638639955123
 40
1.149999999999984
  0
CIRCLE
  8
0
  6
CONTINUOUS
 62
     7
 10
106.1416666666668
 20
371.0386399551226
 40
1.149999999999984
  0
POINT
  8
0
 62
     7
 10
33.63510456421492
 20
116.5464778810628
 30
0.0
  0
ENDSEC
  0
EOF
