  0
SECTION
  2
HEADER
  9
$ACADVER
  1
AC1004
  9
$INSBASE
 10
0.0
 20
0.0
  9
$EXTMIN
 10
-307.9214272180445
 20
-1.42142721804446
  9
$EXTMAX
 10
-28.74523944862222
 20
272.9214272180445
  9
$LIMMIN
 10
0.0
 20
0.0
  9
$LIMMAX
 10
12.0
 20
9.0
  9
$ORTHOMODE
 70
     0
  9
$REGENMODE
 70
     1
  9
$FILLMODE
 70
     1
  9
$QTEXTMODE
 70
     0
  9
$DRAGMODE
 70
     2
  9
$LTSCALE
 40
1.0
  9
$OSMODE
 70
    37
  9
$ATTMODE
 70
     1
  9
$TEXTSIZE
 40
0.2
  9
$TRACEWID
 40
0.05
  9
$TEXTSTYLE
  7
STANDARD
  9
$CLAYER
  8
0
  9
$CELTYPE
  6
BYLAYER
  9
$CECOLOR
 62
   256
  9
$DIMSCALE
 40
1.0
  9
$DIMASZ
 40
3.0
  9
$DIMEXO
 40
0.0625
  9
$DIMDLI
 40
0.38
  9
$DIMRND
 40
0.0
  9
$DIMDLE
 40
0.0
  9
$DIMEXE
 40
1.5
  9
$DIMTP
 40
0.0
  9
$DIMTM
 40
0.0
  9
$DIMTXT
 40
3.0
  9
$DIMCEN
 40
0.09
  9
$DIMTSZ
 40
0.0
  9
$DIMTOL
 70
     0
  9
$DIMLIM
 70
     0
  9
$DIMTIH
 70
     1
  9
$DIMTOH
 70
     1
  9
$DIMSE1
 70
     0
  9
$DIMSE2
 70
     0
  9
$DIMTAD
 70
     1
  9
$DIMZIN
 70
     0
  9
$DIMBLK
  1

  9
$DIMASO
 70
     1
  9
$DIMSHO
 70
     1
  9
$DIMPOST
  1

  9
$DIMAPOST
  1

  9
$DIMALT
 70
     0
  9
$DIMALTD
 70
     2
  9
$DIMALTF
 40
25.4
  9
$DIMLFAC
 40
1.0
  9
$DIMTOFL
 70
     0
  9
$DIMTVP
 40
0.0
  9
$DIMTIX
 70
     0
  9
$DIMSOXD
 70
     0
  9
$DIMSAH
 70
     0
  9
$DIMBLK1
  1

  9
$DIMBLK2
  1

  9
$LUNITS
 70
     2
  9
$LUPREC
 70
     4
  9
$SKETCHINC
 40
0.1
  9
$FILLETRAD
 40
0.5
  9
$AUNITS
 70
     0
  9
$AUPREC
 70
     0
  9
$MENU
  1
.
  9
$ELEVATION
 40
0.0
  9
$THICKNESS
 40
0.0
  9
$LIMCHECK
 70
     0
  9
$CHAMFERA
 40
0.0
  9
$CHAMFERB
 40
0.0
  9
$SKPOLY
 70
     0
  9
$TDCREATE
 40
2460150.663293819
  9
$TDUPDATE
 40
2460150.663294306
  9
$TDINDWG
 40
0.0000000116
  9
$TDUSRTIMER
 40
0.0000000116
  9
$USRTIMER
 70
     1
  9
$ANGBASE
 50
0.0
  9
$ANGDIR
 70
     0
  9
$PDMODE
 70
     0
  9
$PDSIZE
 40
0.0
  9
$PLINEWID
 40
0.0
  9
$COORDS
 70
     1
  9
$SPLFRAME
 70
     0
  9
$SPLINETYPE
 70
     6
  9
$SPLINESEGS
 70
     8
  9
$ATTDIA
 70
     0
  9
$ATTREQ
 70
     1
  9
$SURFTAB1
 70
     6
  9
$SURFTAB2
 70
     6
  9
$SURFTYPE
 70
     6
  9
$SURFU
 70
     6
  9
$SURFV
 70
     6
  9
$UCSNAME
  2

  9
$UCSORG
 10
0.0
 20
0.0
 30
0.0
  9
$UCSXDIR
 10
1.0
 20
0.0
 30
0.0
  9
$UCSYDIR
 10
0.0
 20
1.0
 30
0.0
  9
$USERI1
 70
     0
  9
$USERI2
 70
     0
  9
$USERI3
 70
     0
  9
$USERI4
 70
     0
  9
$USERI5
 70
     0
  9
$USERR1
 40
0.0
  9
$USERR2
 40
0.0
  9
$USERR3
 40
0.0
  9
$USERR4
 40
0.0
  9
$USERR5
 40
0.0
  9
$WORLDVIEW
 70
     1
  0
ENDSEC
  0
SECTION
  2
TABLES
  0
TABLE
  2
LTYPE
 70
     2
  0
LTYPE
  2
CONTINUOUS
 70
     0
  3
Solid line
 72
    65
 73
     0
 40
0.0
  0
LTYPE
  2
CENTER
 70
     0
  3

 72
    65
 73
     0
 40
0.0
  0
ENDTAB
  0
TABLE
  2
LAYER
 70
     2
  0
LAYER
  2
0
 70
     0
 62
     7
  6
CONTINUOUS
  0
LAYER
  2
1
 70
     0
 62
     7
  6
CONTINUOUS
  0
ENDTAB
  0
TABLE
  2
STYLE
 70
     2
  0
STYLE
  2
STANDARD
 70
     0
 40
0.0
 41
1.0
 50
0.0
 71
     0
 42
0.2
  3
txt
  4

  0
STYLE
  2
ＭＳ_ゴシック
 70
     0
 40
0.0
 41
1.0
 50
0.0
 71
     0
 42
0.2
  3
ＭＳ ゴシック.shx
  4

  0
ENDTAB
  0
TABLE
  2
VIEW
 70
     0
  0
ENDTAB
  0
ENDSEC
  0
SECTION
  2
BLOCKS
  0
BLOCK
  8
0
  2
D_FRAME_VIEW_4399
 70
     0
 10
0.0
 20
0.0
  0
LINE
  8
1
  6
CONTINUOUS
 62
     7
 10
-86.24523944862223
 20
184.5
 11
-86.24523944862223
 21
193.7
  0
ARC
  8
1
  6
CONTINUOUS
 62
     7
 10
-84.24523944862221
 20
193.7
 40
2.000000000000002
 50
90.0
 51
180.0000000000002
  0
LINE
  8
1
  6
CONTINUOUS
 62
     7
 10
-84.24523944862221
 20
195.7
 11
-80.24523944862221
 21
195.7
  0
LINE
  8
1
  6
CONTINUOUS
 62
     7
 10
-80.24523944862221
 20
195.7
 11
-80.24523944862221
 21
184.5
  0
LINE
  8
1
  6
CONTINUOUS
 62
     7
 10
-80.24523944862221
 20
79.30000000000001
 11
-84.24523944862221
 21
79.30000000000001
  0
LINE
  8
1
  6
CONTINUOUS
 62
     7
 10
-80.24523944862221
 20
90.50000000000003
 11
-80.24523944862221
 21
79.30000000000001
  0
LINE
  8
1
  6
CONTINUOUS
 62
     7
 10
-80.24523944862221
 20
90.50000000000001
 11
-80.24523944862221
 21
184.5
  0
ARC
  8
1
  6
CONTINUOUS
 62
     7
 10
-84.24523944862221
 20
81.30000000000001
 40
2.000000000000002
 50
180.0
 51
270.0
  0
LINE
  8
1
  6
CONTINUOUS
 62
     7
 10
-86.24523944862223
 20
81.30000000000001
 11
-86.24523944862223
 21
90.50000000000003
  0
LINE
  8
1
  6
CONTINUOUS
 62
     7
 10
-86.24523944862223
 20
90.50000000000003
 11
-86.24523944862223
 21
184.5
  0
LINE
  8
1
  6
CONTINUOUS
 62
     7
 10
-30.24523944862221
 20
184.5
 11
-30.24523944862221
 21
90.50000000000001
  0
LINE
  8
1
  6
CONTINUOUS
 62
     7
 10
-30.74523944862221
 20
82.50000000000001
 11
-80.24523944862221
 21
82.50000000000001
  0
LINE
  8
1
  6
CONTINUOUS
 62
     7
 10
-30.24523944862221
 20
90.50000000000001
 11
-30.24523944862221
 21
83.00000000000001
  0
ARC
  8
1
  6
CONTINUOUS
 62
     7
 10
-30.74523944862221
 20
83.00000000000001
 40
0.5000000000000004
 50
270.0
 51
0.0
  0
LINE
  8
1
  6
CONTINUOUS
 62
     7
 10
-80.24523944862221
 20
192.5
 11
-30.74523944862221
 21
192.5
  0
ARC
  8
1
  6
CONTINUOUS
 62
     7
 10
-30.74523944862221
 20
192.0
 40
0.5000000000000004
 50
0.0
 51
90.0
  0
LINE
  8
1
  6
CONTINUOUS
 62
     7
 10
-30.24523944862221
 20
192.0
 11
-30.24523944862221
 21
184.5
  0
LINE
  8
1
  6
CONTINUOUS
 62
     7
 10
-41.24523944862222
 20
80.50000000000001
 11
-57.74523944862222
 21
80.50000000000001
  0
LINE
  8
1
  6
CONTINUOUS
 62
     7
 10
-57.74523944862222
 20
80.50000000000001
 11
-74.24523944862223
 21
80.50000000000001
  0
ARC
  8
1
  6
CONTINUOUS
 62
     7
 10
-77.9452394486222
 20
184.5
 40
8.48438418507791
 50
186.8708385579016
 51
191.966825767847
  0
LINE
  8
1
  6
CONTINUOUS
 62
     7
 10
-86.36869182873336
 20
183.985
 11
-86.36869182873336
 21
183.485
  0
LINE
  8
1
  6
CONTINUOUS
 62
     7
 10
-86.24523944862221
 20
183.985
 11
-86.36869182873336
 21
183.985
  0
LINE
  8
1
  6
CONTINUOUS
 62
     7
 10
-86.36869182873338
 20
185.015
 11
-86.24523944862224
 21
185.015
  0
LINE
  8
1
  6
CONTINUOUS
 62
     7
 10
-86.36869182873336
 20
185.515
 11
-86.36869182873336
 21
185.015
  0
ARC
  8
1
  6
CONTINUOUS
 62
     7
 10
-77.9452394486222
 20
184.5
 40
8.48438418507792
 50
168.0331742321529
 51
173.1291614420983
  0
ARC
  8
1
  6
CONTINUOUS
 62
     7
 10
-77.9452394486222
 20
90.5
 40
8.48438418507791
 50
186.8708385579016
 51
191.966825767847
  0
LINE
  8
1
  6
CONTINUOUS
 62
     7
 10
-86.36869182873336
 20
89.98500000000001
 11
-86.36869182873336
 21
89.48500000000001
  0
LINE
  8
1
  6
CONTINUOUS
 62
     7
 10
-86.24523944862221
 20
89.98500000000001
 11
-86.36869182873336
 21
89.98500000000001
  0
LINE
  8
1
  6
CONTINUOUS
 62
     7
 10
-86.36869182873338
 20
91.01500000000001
 11
-86.24523944862224
 21
91.01500000000001
  0
LINE
  8
1
  6
CONTINUOUS
 62
     7
 10
-86.36869182873336
 20
91.51500000000001
 11
-86.36869182873336
 21
91.01500000000001
  0
ARC
  8
1
  6
CONTINUOUS
 62
     7
 10
-77.9452394486222
 20
90.5
 40
8.48438418507792
 50
168.0331742321529
 51
173.1291614420983
  0
LINE
  8
1
  6
CONTINUOUS
 62
     7
 10
-73.07124077776646
 20
79.50000000579965
 11
-42.41924077776646
 21
79.50000000579965
  0
LINE
  8
1
  6
CONTINUOUS
 62
     7
 10
-42.66348019963969
 20
80.19028262038879
 11
-42.64980425547465
 21
80.34515805068064
  0
POLYLINE
  8
1
  6
CONTINUOUS
 62
     7
 66
     1
  0
VERTEX
  8
1
  6
CONTINUOUS
 62
     7
 10
-42.98315610520783
 20
79.58021431986658
  0
VERTEX
  8
1
  6
CONTINUOUS
 62
     7
 10
-42.88834181039257
 20
79.66881005124718
  0
VERTEX
  8
1
  6
CONTINUOUS
 62
     7
 10
-42.8199587560964
 20
79.76223181578924
  0
SEQEND
  8
1
  6
CONTINUOUS
 62
     7
  0
ARC
  8
1
  6
CONTINUOUS
 62
     7
 10
-43.88487362116831
 20
80.39414945945148
 40
1.238290587149391
 50
329.3152192026664
 51
350.5239277310553
  0
LINE
  8
1
  6
CONTINUOUS
 62
     7
 10
-42.98747910008773
 20
79.56250547248226
 11
-42.99683204965131
 21
79.56606623377144
  0
LINE
  8
1
  6
CONTINUOUS
 62
     7
 10
-42.90888123771019
 20
79.58021431986276
 11
-42.98219020764427
 21
79.56273540256973
  0
LINE
  8
1
  6
CONTINUOUS
 62
     7
 10
-42.98219020764427
 20
79.56273540256973
 11
-42.9874791000902
 21
79.56250547248095
  0
POLYLINE
  8
1
  6
CONTINUOUS
 62
     7
 66
     1
  0
VERTEX
  8
1
  6
CONTINUOUS
 62
     7
 10
-42.20329412228955
 20
80.19028262036389
  0
VERTEX
  8
1
  6
CONTINUOUS
 62
     7
 10
-42.25633329446799
 20
80.08143802227102
  0
VERTEX
  8
1
  6
CONTINUOUS
 62
     7
 10
-42.32396727140924
 20
79.97966516699057
  0
VERTEX
  8
1
  6
CONTINUOUS
 62
     7
 10
-42.40918752429774
 20
79.88162162943286
  0
VERTEX
  8
1
  6
CONTINUOUS
 62
     7
 10
-42.51690082238203
 20
79.78608193912677
  0
SEQEND
  8
1
  6
CONTINUOUS
 62
     7
  0
ARC
  8
1
  6
CONTINUOUS
 62
     7
 10
-43.31649817360611
 20
80.83244095987557
 40
1.316899056263225
 50
288.0307789587901
 51
307.3860181260654
  0
LINE
  8
1
  6
CONTINUOUS
 62
     7
 10
-42.1222328566024
 20
80.50000000579965
 11
-42.20329412228955
 21
80.19028262036389
  0
LINE
  8
1
  6
CONTINUOUS
 62
     7
 10
-42.13606796296285
 20
80.19028262038877
 11
-42.1153433104492
 21
80.38339526084826
  0
POLYLINE
  8
1
  6
CONTINUOUS
 62
     7
 66
     1
  0
VERTEX
  8
1
  6
CONTINUOUS
 62
     7
 10
-42.52504126204078
 20
79.58021431986658
  0
VERTEX
  8
1
  6
CONTINUOUS
 62
     7
 10
-42.48588248005114
 20
79.60583666542517
  0
VERTEX
  8
1
  6
CONTINUOUS
 62
     7
 10
-42.44736617746857
 20
79.63533744771992
  0
VERTEX
  8
1
  6
CONTINUOUS
 62
     7
 10
-42.409676188082
 20
79.66880768126158
  0
VERTEX
  8
1
  6
CONTINUOUS
 62
     7
 10
-42.38128245130589
 20
79.69739890881145
  0
VERTEX
  8
1
  6
CONTINUOUS
 62
     7
 10
-42.35350598751663
 20
79.72853090698673
  0
VERTEX
  8
1
  6
CONTINUOUS
 62
     7
 10
-42.32647118593277
 20
79.76222629674481
  0
VERTEX
  8
1
  6
CONTINUOUS
 62
     7
 10
-42.30030243577281
 20
79.79850769904309
  0
VERTEX
  8
1
  6
CONTINUOUS
 62
     7
 10
-42.27849261875581
 20
79.83194170142566
  0
VERTEX
  8
1
  6
CONTINUOUS
 62
     7
 10
-42.25745574863674
 20
79.86740455807174
  0
VERTEX
  8
1
  6
CONTINUOUS
 62
     7
 10
-42.23730201210276
 20
79.9048732058707
  0
VERTEX
  8
1
  6
CONTINUOUS
 62
     7
 10
-42.22248264661078
 20
79.93501697197495
  0
VERTEX
  8
1
  6
CONTINUOUS
 62
     7
 10
-42.20826480673415
 20
79.96638407780843
  0
VERTEX
  8
1
  6
CONTINUOUS
 62
     7
 10
-42.19471010572108
 20
79.99893357775996
  0
VERTEX
  8
1
  6
CONTINUOUS
 62
     7
 10
-42.1818801568198
 20
80.03262452621837
  0
VERTEX
  8
1
  6
CONTINUOUS
 62
     7
 10
-42.16899586260721
 20
80.06996409847125
  0
VERTEX
  8
1
  6
CONTINUOUS
 62
     7
 10
-42.15705437289225
 20
80.10857390425909
  0
VERTEX
  8
1
  6
CONTINUOUS
 62
     7
 10
-42.14957322641653
 20
80.13528449696672
  0
VERTEX
  8
1
  6
CONTINUOUS
 62
     7
 10
-42.14256934671726
 20
80.16253496073975
  0
VERTEX
  8
1
  6
CONTINUOUS
 62
     7
 10
-42.13606796296285
 20
80.1902826203888
  0
SEQEND
  8
1
  6
CONTINUOUS
 62
     7
  0
LINE
  8
1
  6
CONTINUOUS
 62
     7
 10
-42.54097091519512
 20
79.56250547248226
 11
-42.54576591468321
 21
79.56431758656545
  0
LINE
  8
1
  6
CONTINUOUS
 62
     7
 10
-42.47147087253588
 20
79.58021431986326
 11
-42.52062030021847
 21
79.56564639030668
  0
LINE
  8
1
  6
CONTINUOUS
 62
     7
 10
-42.5206207827955
 20
79.56564622773406
 11
-42.52396493951765
 21
79.56491173609217
  0
LINE
  8
1
  6
CONTINUOUS
 62
     7
 10
-42.52396493951765
 20
79.56491173609217
 11
-42.5409709151979
 21
79.56250547248095
  0
POLYLINE
  8
1
  6
CONTINUOUS
 62
     7
 66
     1
  0
VERTEX
  8
1
  6
CONTINUOUS
 62
     7
 10
-41.80416097693131
 20
80.19028262037374
  0
VERTEX
  8
1
  6
CONTINUOUS
 62
     7
 10
-41.85431634673564
 20
80.08144998152459
  0
VERTEX
  8
1
  6
CONTINUOUS
 62
     7
 10
-41.91827166513219
 20
79.97968751954456
  0
VERTEX
  8
1
  6
CONTINUOUS
 62
     7
 10
-41.9988588191791
 20
79.88164959135968
  0
VERTEX
  8
1
  6
CONTINUOUS
 62
     7
 10
-42.10072209403525
 20
79.78610892655222
  0
SEQEND
  8
1
  6
CONTINUOUS
 62
     7
  0
ARC
  8
1
  6
CONTINUOUS
 62
     7
 10
-42.87052188348985
 20
80.73552043306138
 40
1.222282260583189
 50
289.0552792783763
 51
309.035755982763
  0
LINE
  8
1
  6
CONTINUOUS
 62
     7
 10
-41.73294028990331
 20
80.50000000579965
 11
-41.80416097693131
 21
80.19028262037374
  0
LINE
  8
1
  6
CONTINUOUS
 62
     7
 10
-41.75898059333441
 20
80.19028262038874
 11
-41.72986593480805
 21
80.42203611725803
  0
POLYLINE
  8
1
  6
CONTINUOUS
 62
     7
 66
     1
  0
VERTEX
  8
1
  6
CONTINUOUS
 62
     7
 10
-42.21350526041757
 20
79.58021431986658
  0
VERTEX
  8
1
  6
CONTINUOUS
 62
     7
 10
-42.1677486238308
 20
79.60583585071565
  0
VERTEX
  8
1
  6
CONTINUOUS
 62
     7
 10
-42.12274269178395
 20
79.63533558441131
  0
VERTEX
  8
1
  6
CONTINUOUS
 62
     7
 10
-42.078702258197
 20
79.66880452756817
  0
VERTEX
  8
1
  6
CONTINUOUS
 62
     7
 10
-42.04552444525081
 20
79.69739452944812
  0
VERTEX
  8
1
  6
CONTINUOUS
 62
     7
 10
-42.01306787210794
 20
79.7285251309261
  0
VERTEX
  8
1
  6
CONTINUOUS
 62
     7
 10
-41.98147787415887
 20
79.76221895271568
  0
VERTEX
  8
1
  6
CONTINUOUS
 62
     7
 10
-41.95089978679408
 20
79.79849861553043
  0
VERTEX
  8
1
  6
CONTINUOUS
 62
     7
 10
-41.92541444857239
 20
79.83193178068365
  0
VERTEX
  8
1
  6
CONTINUOUS
 62
     7
 10
-41.90083227530504
 20
79.86739376043262
  0
VERTEX
  8
1
  6
CONTINUOUS
 62
     7
 10
-41.87728201667185
 20
79.90486149680567
  0
VERTEX
  8
1
  6
CONTINUOUS
 62
     7
 10
-41.85996511228996
 20
79.93500450742269
  0
VERTEX
  8
1
  6
CONTINUOUS
 62
     7
 10
-41.843351070326
 20
79.96637083626295
  0
VERTEX
  8
1
  6
CONTINUOUS
 62
     7
 10
-41.82751188409489
 20
79.99891954310941
  0
VERTEX
  8
1
  6
CONTINUOUS
 62
     7
 10
-41.81251954691155
 20
80.03260968774495
  0
VERTEX
  8
1
  6
CONTINUOUS
 62
     7
 10
-41.79746206373191
 20
80.06995251759359
  0
VERTEX
  8
1
  6
CONTINUOUS
 62
     7
 10
-41.78350646572792
 20
80.10856584818782
  0
VERTEX
  8
1
  6
CONTINUOUS
 62
     7
 10
-41.77476353920131
 20
80.13527901544929
  0
VERTEX
  8
1
  6
CONTINUOUS
 62
     7
 10
-41.76657841842686
 20
80.16253216867813
  0
VERTEX
  8
1
  6
CONTINUOUS
 62
     7
 10
-41.75898059333441
 20
80.19028262038877
  0
SEQEND
  8
1
  6
CONTINUOUS
 62
     7
  0
LINE
  8
1
  6
CONTINUOUS
 62
     7
 10
-42.24088816057843
 20
79.56250547248226
 11
-42.24261991901768
 21
79.56315672758038
  0
LINE
  8
1
  6
CONTINUOUS
 62
     7
 10
-42.18115526104371
 20
79.58021431986276
 11
-42.24088816057844
 21
79.56250547248227
  0
POLYLINE
  8
1
  6
CONTINUOUS
 62
     7
 66
     1
  0
VERTEX
  8
1
  6
CONTINUOUS
 62
     7
 10
-41.55854914434081
 20
80.19028262037072
  0
VERTEX
  8
1
  6
CONTINUOUS
 62
     7
 10
-41.5727323948262
 20
80.15308986192915
  0
VERTEX
  8
1
  6
CONTINUOUS
 62
     7
 10
-41.58836119146306
 20
80.11678731100452
  0
VERTEX
  8
1
  6
CONTINUOUS
 62
     7
 10
-41.60533653480093
 20
80.08146581198908
  0
VERTEX
  8
1
  6
CONTINUOUS
 62
     7
 10
-41.62355942538935
 20
80.04721620927505
  0
VERTEX
  8
1
  6
CONTINUOUS
 62
     7
 10
-41.64367489983708
 20
80.01289648564813
  0
VERTEX
  8
1
  6
CONTINUOUS
 62
     7
 10
-41.66499556530258
 20
79.97971710791555
  0
VERTEX
  8
1
  6
CONTINUOUS
 62
     7
 10
-41.6874198279691
 20
79.94772398381544
  0
VERTEX
  8
1
  6
CONTINUOUS
 62
     7
 10
-41.71084609401985
 20
79.91696302108603
  0
VERTEX
  8
1
  6
CONTINUOUS
 62
     7
 10
-41.74017174521025
 20
79.8816866054376
  0
VERTEX
  8
1
  6
CONTINUOUS
 62
     7
 10
-41.77076563904674
 20
79.84811270749871
  0
VERTEX
  8
1
  6
CONTINUOUS
 62
     7
 10
-41.80248893829346
 20
79.81625937384796
  0
VERTEX
  8
1
  6
CONTINUOUS
 62
     7
 10
-41.83520280571454
 20
79.78614465106392
  0
VERTEX
  8
1
  6
CONTINUOUS
 62
     7
 10
-41.88154881896651
 20
79.74758953533355
  0
VERTEX
  8
1
  6
CONTINUOUS
 62
     7
 10
-41.92944289829018
 20
79.71211236918157
  0
VERTEX
  8
1
  6
CONTINUOUS
 62
     7
 10
-41.97862501254327
 20
79.6796834946789
  0
VERTEX
  8
1
  6
CONTINUOUS
 62
     7
 10
-42.02778353224389
 20
79.65084754976495
  0
VERTEX
  8
1
  6
CONTINUOUS
 62
     7
 10
-42.07788519170084
 20
79.62475212834867
  0
VERTEX
  8
1
  6
CONTINUOUS
 62
     7
 10
-42.12916704388183
 20
79.60116628198426
  0
VERTEX
  8
1
  6
CONTINUOUS
 62
     7
 10
-42.18115526104371
 20
79.58021431986276
  0
SEQEND
  8
1
  6
CONTINUOUS
 62
     7
  0
LINE
  8
1
  6
CONTINUOUS
 62
     7
 10
-41.49785493011616
 20
80.50000000579965
 11
-41.55854914434081
 21
80.19028262037072
  0
LINE
  8
1
  6
CONTINUOUS
 62
     7
 10
-41.53584964826081
 20
80.1902826203887
 11
-41.49708448638152
 21
80.46094782514614
  0
POLYLINE
  8
1
  6
CONTINUOUS
 62
     7
 66
     1
  0
VERTEX
  8
1
  6
CONTINUOUS
 62
     7
 10
-42.05154836233672
 20
79.58021431986658
  0
VERTEX
  8
1
  6
CONTINUOUS
 62
     7
 10
-41.999635396867
 20
79.6058347741624
  0
VERTEX
  8
1
  6
CONTINUOUS
 62
     7
 10
-41.94857410041487
 20
79.63533312225398
  0
VERTEX
  8
1
  6
CONTINUOUS
 62
     7
 10
-41.8986081453954
 20
79.66880036032265
  0
VERTEX
  8
1
  6
CONTINUOUS
 62
     7
 10
-41.86096638949351
 20
79.69738874264328
  0
VERTEX
  8
1
  6
CONTINUOUS
 62
     7
 10
-41.82414285661121
 20
79.72851749857774
  0
VERTEX
  8
1
  6
CONTINUOUS
 62
     7
 10
-41.788302418097
 20
79.7622092485169
  0
VERTEX
  8
1
  6
CONTINUOUS
 62
     7
 10
-41.7536099452994
 20
79.79848661285158
  0
VERTEX
  8
1
  6
CONTINUOUS
 62
     7
 10
-41.72469449675999
 20
79.83191867166344
  0
VERTEX
  8
1
  6
CONTINUOUS
 62
     7
 10
-41.6968037061632
 20
79.8673794926485
  0
VERTEX
  8
1
  6
CONTINUOUS
 62
     7
 10
-41.67008364231499
 20
79.90484602462487
  0
VERTEX
  8
1
  6
CONTINUOUS
 62
     7
 10
-41.65043589381708
 20
79.93498803690953
  0
VERTEX
  8
1
  6
CONTINUOUS
 62
     7
 10
-41.6315855532305
 20
79.96635333899509
  0
VERTEX
  8
1
  6
CONTINUOUS
 62
     7
 10
-41.61361429851075
 20
79.99890099779174
  0
VERTEX
  8
1
  6
CONTINUOUS
 62
     7
 10
-41.59660380761328
 20
80.03259008020959
  0
VERTEX
  8
1
  6
CONTINUOUS
 62
     7
 10
-41.57951694053719
 20
80.069937214548
  0
VERTEX
  8
1
  6
CONTINUOUS
 62
     7
 10
-41.56368055332675
 20
80.10855520277389
  0
VERTEX
  8
1
  6
CONTINUOUS
 62
     7
 10
-41.55375938518234
 20
80.13527177206959
  0
VERTEX
  8
1
  6
CONTINUOUS
 62
     7
 10
-41.54447125932474
 20
80.16252847918702
  0
VERTEX
  8
1
  6
CONTINUOUS
 62
     7
 10
-41.53584964826081
 20
80.19028262038871
  0
SEQEND
  8
1
  6
CONTINUOUS
 62
     7
  0
LINE
  8
1
  6
CONTINUOUS
 62
     7
 10
-42.09012079720654
 20
79.56250547248227
 11
-42.0903135242137
 21
79.56257776472205
  0
LINE
  8
1
  6
CONTINUOUS
 62
     7
 10
-42.04073030127252
 20
79.58021431986204
 11
-42.04963624974312
 21
79.57663069275148
  0
LINE
  8
1
  6
CONTINUOUS
 62
     7
 10
-42.04963624974312
 20
79.57663069275148
 11
-42.09012079720654
 21
79.56250547248227
  0
POLYLINE
  8
1
  6
CONTINUOUS
 62
     7
 66
     1
  0
VERTEX
  8
1
  6
CONTINUOUS
 62
     7
 10
-41.46882400072652
 20
80.1902826203654
  0
VERTEX
  8
1
  6
CONTINUOUS
 62
     7
 10
-41.48184953932287
 20
80.15309722371252
  0
VERTEX
  8
1
  6
CONTINUOUS
 62
     7
 10
-41.49620239007129
 20
80.11680167307136
  0
VERTEX
  8
1
  6
CONTINUOUS
 62
     7
 10
-41.51179166992147
 20
80.08148676387314
  0
VERTEX
  8
1
  6
CONTINUOUS
 62
     7
 10
-41.5285264958231
 20
80.0472432915492
  0
VERTEX
  8
1
  6
CONTINUOUS
 62
     7
 10
-41.54699900116991
 20
80.0129298607156
  0
VERTEX
  8
1
  6
CONTINUOUS
 62
     7
 10
-41.56657815842721
 20
79.97975626911021
  0
VERTEX
  8
1
  6
CONTINUOUS
 62
     7
 10
-41.58717070184426
 20
79.9477684081865
  0
VERTEX
  8
1
  6
CONTINUOUS
 62
     7
 10
-41.60868336567022
 20
79.9170121693979
  0
VERTEX
  8
1
  6
CONTINUOUS
 62
     7
 10
-41.63561759913755
 20
79.88173559568163
  0
VERTEX
  8
1
  6
CONTINUOUS
 62
     7
 10
-41.66371680528671
 20
79.84816132548056
  0
VERTEX
  8
1
  6
CONTINUOUS
 62
     7
 10
-41.69285346311481
 20
79.81630741869236
  0
VERTEX
  8
1
  6
CONTINUOUS
 62
     7
 10
-41.72290005161892
 20
79.78619193521475
  0
VERTEX
  8
1
  6
CONTINUOUS
 62
     7
 10
-41.76546751381066
 20
79.74763548523256
  0
VERTEX
  8
1
  6
CONTINUOUS
 62
     7
 10
-41.80945704032271
 20
79.71215667649966
  0
VERTEX
  8
1
  6
CONTINUOUS
 62
     7
 10
-41.85462978678061
 20
79.67972587507602
  0
VERTEX
  8
1
  6
CONTINUOUS
 62
     7
 10
-41.89979974417155
 20
79.650876524886
  0
VERTEX
  8
1
  6
CONTINUOUS
 62
     7
 10
-41.94583677519009
 20
79.62476967479928
  0
VERTEX
  8
1
  6
CONTINUOUS
 62
     7
 10
-41.99295886882259
 20
79.60117411570525
  0
VERTEX
  8
1
  6
CONTINUOUS
 62
     7
 10
-42.0407303012725
 20
79.58021431986205
  0
SEQEND
  8
1
  6
CONTINUOUS
 62
     7
  0
LINE
  8
1
  6
CONTINUOUS
 62
     7
 10
-41.41924077776645
 20
80.50000000579965
 11
-41.44816998131102
 21
80.26226126656249
  0
LINE
  8
1
  6
CONTINUOUS
 62
     7
 10
-41.44816998131102
 20
80.26226126656249
 11
-41.46882400072652
 21
80.1902826203654
  0
LINE
  8
1
  6
CONTINUOUS
 62
     7
 10
-74.02165755481403
 20
80.19028262038871
 11
-74.04189651255363
 21
80.26058535692368
  0
LINE
  8
1
  6
CONTINUOUS
 62
     7
 10
-74.04189651255363
 20
80.26058535692368
 11
-74.07124077776646
 21
80.50000000579965
  0
POLYLINE
  8
1
  6
CONTINUOUS
 62
     7
 66
     1
  0
VERTEX
  8
1
  6
CONTINUOUS
 62
     7
 10
-73.4497512542715
 20
79.58021431986658
  0
VERTEX
  8
1
  6
CONTINUOUS
 62
     7
 10
-73.50732094995796
 20
79.60583408804855
  0
VERTEX
  8
1
  6
CONTINUOUS
 62
     7
 10
-73.56394620159084
 20
79.6353315530664
  0
VERTEX
  8
1
  6
CONTINUOUS
 62
     7
 10
-73.61935679964684
 20
79.66879770445239
  0
VERTEX
  8
1
  6
CONTINUOUS
 62
     7
 10
-73.66110023706338
 20
79.69738505460889
  0
VERTEX
  8
1
  6
CONTINUOUS
 62
     7
 10
-73.7019363328516
 20
79.72851263436017
  0
VERTEX
  8
1
  6
CONTINUOUS
 62
     7
 10
-73.7416822632105
 20
79.76220306389116
  0
VERTEX
  8
1
  6
CONTINUOUS
 62
     7
 10
-73.78015520433908
 20
79.79847896338666
  0
VERTEX
  8
1
  6
CONTINUOUS
 62
     7
 10
-73.8122222806444
 20
79.83191031708131
  0
VERTEX
  8
1
  6
CONTINUOUS
 62
     7
 10
-73.84315306301278
 20
79.86737039953546
  0
VERTEX
  8
1
  6
CONTINUOUS
 62
     7
 10
-73.87278556863343
 20
79.9048361638941
  0
VERTEX
  8
1
  6
CONTINUOUS
 62
     7
 10
-73.89457491153681
 20
79.93497753989553
  0
VERTEX
  8
1
  6
CONTINUOUS
 62
     7
 10
-73.91547997141403
 20
79.96634218758095
  0
VERTEX
  8
1
  6
CONTINUOUS
 62
     7
 10
-73.93541017142199
 20
79.99888917840254
  0
VERTEX
  8
1
  6
CONTINUOUS
 62
     7
 10
-73.95427493471765
 20
80.03257758381251
  0
VERTEX
  8
1
  6
CONTINUOUS
 62
     7
 10
-73.97322613908754
 20
80.06992746146058
  0
VERTEX
  8
1
  6
CONTINUOUS
 62
     7
 10
-73.99079036284367
 20
80.1085484180925
  0
VERTEX
  8
1
  6
CONTINUOUS
 62
     7
 10
-74.00179395763179
 20
80.13526715560745
  0
VERTEX
  8
1
  6
CONTINUOUS
 62
     7
 10
-74.01209539840895
 20
80.16252612773869
  0
VERTEX
  8
1
  6
CONTINUOUS
 62
     7
 10
-74.02165755481403
 20
80.19028262038871
  0
SEQEND
  8
1
  6
CONTINUOUS
 62
     7
  0
LINE
  8
1
  6
CONTINUOUS
 62
     7
 10
-73.40036075832636
 20
79.56250547248227
 11
-73.4497512542715
 21
79.58021431986658
  0
LINE
  8
1
  6
CONTINUOUS
 62
     7
 10
-73.43893319318705
 20
79.58021431986242
 11
-73.40016803131928
 21
79.5625777693437
  0
POLYLINE
  8
1
  6
CONTINUOUS
 62
     7
 66
     1
  0
VERTEX
  8
1
  6
CONTINUOUS
 62
     7
 10
-73.95463190726628
 20
80.19028262036906
  0
VERTEX
  8
1
  6
CONTINUOUS
 62
     7
 10
-73.94288516776217
 20
80.15309316597971
  0
VERTEX
  8
1
  6
CONTINUOUS
 62
     7
 10
-73.92994130695611
 20
80.11679375685021
  0
VERTEX
  8
1
  6
CONTINUOUS
 62
     7
 10
-73.91588230300353
 20
80.08147521539664
  0
VERTEX
  8
1
  6
CONTINUOUS
 62
     7
 10
-73.9007901340599
 20
80.0472283640351
  0
VERTEX
  8
1
  6
CONTINUOUS
 62
     7
 10
-73.8841306749779
 20
80.01291146466104
  0
VERTEX
  8
1
  6
CONTINUOUS
 62
     7
 10
-73.86647312892588
 20
79.9797346837675
  0
VERTEX
  8
1
  6
CONTINUOUS
 62
     7
 10
-73.84790162278544
 20
79.94774392178405
  0
VERTEX
  8
1
  6
CONTINUOUS
 62
     7
 10
-73.82850028343819
 20
79.9169850791402
  0
VERTEX
  8
1
  6
CONTINUOUS
 62
     7
 10
-73.80421149503724
 20
79.88170859252021
  0
VERTEX
  8
1
  6
CONTINUOUS
 62
     7
 10
-73.77887223128329
 20
79.84813452747605
  0
VERTEX
  8
1
  6
CONTINUOUS
 62
     7
 10
-73.75259748548913
 20
79.81628093656421
  0
VERTEX
  8
1
  6
CONTINUOUS
 62
     7
 10
-73.72550225096758
 20
79.78616587234117
  0
VERTEX
  8
1
  6
CONTINUOUS
 62
     7
 10
-73.68711611936295
 20
79.74761015773987
  0
VERTEX
  8
1
  6
CONTINUOUS
 62
     7
 10
-73.64744771519726
 20
79.71213225433407
  0
VERTEX
  8
1
  6
CONTINUOUS
 62
     7
 10
-73.60671241492592
 20
79.6797025149611
  0
VERTEX
  8
1
  6
CONTINUOUS
 62
     7
 10
-73.56598901516251
 20
79.6508605538511
  0
VERTEX
  8
1
  6
CONTINUOUS
 62
     7
 10
-73.52448412420874
 20
79.62476000327686
  0
VERTEX
  8
1
  6
CONTINUOUS
 62
     7
 10
-73.48200129639436
 20
79.60116979782812
  0
VERTEX
  8
1
  6
CONTINUOUS
 62
     7
 10
-73.43893319318707
 20
79.58021431986245
  0
SEQEND
  8
1
  6
CONTINUOUS
 62
     7
  0
LINE
  8
1
  6
CONTINUOUS
 62
     7
 10
-73.93193241119853
 20
80.19028262038874
 11
-73.99262662541675
 21
80.50000000579965
  0
POLYLINE
  8
1
  6
CONTINUOUS
 62
     7
 66
     1
  0
VERTEX
  8
1
  6
CONTINUOUS
 62
     7
 10
-73.30932629449937
 20
79.58021431986658
  0
VERTEX
  8
1
  6
CONTINUOUS
 62
     7
 10
-73.37200238744596
 20
79.6058353328832
  0
VERTEX
  8
1
  6
CONTINUOUS
 62
     7
 10
-73.43365021013466
 20
79.63533440008862
  0
VERTEX
  8
1
  6
CONTINUOUS
 62
     7
 10
-73.49397555635534
 20
79.66880252307887
  0
VERTEX
  8
1
  6
CONTINUOUS
 62
     7
 10
-73.53942156609075
 20
79.69739174593026
  0
VERTEX
  8
1
  6
CONTINUOUS
 62
     7
 10
-73.58387967532698
 20
79.72852145967765
  0
VERTEX
  8
1
  6
CONTINUOUS
 62
     7
 10
-73.62715081849642
 20
79.7622142848794
  0
VERTEX
  8
1
  6
CONTINUOUS
 62
     7
 10
-73.66903593003148
 20
79.79849284209395
  0
VERTEX
  8
1
  6
CONTINUOUS
 62
     7
 10
-73.70394568334348
 20
79.83192547509066
  0
VERTEX
  8
1
  6
CONTINUOUS
 62
     7
 10
-73.7376183214853
 20
79.86738689746821
  0
VERTEX
  8
1
  6
CONTINUOUS
 62
     7
 10
-73.76987748897399
 20
79.90485405452097
  0
VERTEX
  8
1
  6
CONTINUOUS
 62
     7
 10
-73.79359822060236
 20
79.93499658493552
  0
VERTEX
  8
1
  6
CONTINUOUS
 62
     7
 10
-73.81635620428567
 20
79.96636241990254
  0
VERTEX
  8
1
  6
CONTINUOUS
 62
     7
 10
-73.83805282669107
 20
79.99891062263328
  0
VERTEX
  8
1
  6
CONTINUOUS
 62
     7
 10
-73.85858947448565
 20
80.032600256339
  0
VERTEX
  8
1
  6
CONTINUOUS
 62
     7
 10
-73.87921678886542
 20
80.06994515670016
  0
VERTEX
  8
1
  6
CONTINUOUS
 62
     7
 10
-73.89833457507888
 20
80.10856072766425
  0
VERTEX
  8
1
  6
CONTINUOUS
 62
     7
 10
-73.9103114956818
 20
80.13527553133243
  0
VERTEX
  8
1
  6
CONTINUOUS
 62
     7
 10
-73.92152424207572
 20
80.16253039400804
  0
VERTEX
  8
1
  6
CONTINUOUS
 62
     7
 10
-73.93193241119853
 20
80.19028262038874
  0
SEQEND
  8
1
  6
CONTINUOUS
 62
     7
  0
LINE
  8
1
  6
CONTINUOUS
 62
     7
 10
-73.24959339495446
 20
79.56250547248227
 11
-73.30932629449937
 21
79.58021431986658
  0
LINE
  8
1
  6
CONTINUOUS
 62
     7
 10
-73.27697629510844
 20
79.58021431986303
 11
-73.247861636551
 21
79.56315673500495
  0
POLYLINE
  8
1
  6
CONTINUOUS
 62
     7
 66
     1
  0
VERTEX
  8
1
  6
CONTINUOUS
 62
     7
 10
-73.73150096219427
 20
80.19028262037253
  0
VERTEX
  8
1
  6
CONTINUOUS
 62
     7
 10
-73.72114577547951
 20
80.15308679989158
  0
VERTEX
  8
1
  6
CONTINUOUS
 62
     7
 10
-73.70973511632565
 20
80.11678133731361
  0
VERTEX
  8
1
  6
CONTINUOUS
 62
     7
 10
-73.69734127595423
 20
80.08145709740022
  0
VERTEX
  8
1
  6
CONTINUOUS
 62
     7
 10
-73.68403654558684
 20
80.0472049449128
  0
VERTEX
  8
1
  6
CONTINUOUS
 62
     7
 10
-73.66934990088438
 20
80.01288260393444
  0
VERTEX
  8
1
  6
CONTINUOUS
 62
     7
 10
-73.6537832920286
 20
79.97970081963068
  0
VERTEX
  8
1
  6
CONTINUOUS
 62
     7
 10
-73.63741090435376
 20
79.94770550651276
  0
VERTEX
  8
1
  6
CONTINUOUS
 62
     7
 10
-73.62030692319412
 20
79.91694257909198
  0
VERTEX
  8
1
  6
CONTINUOUS
 62
     7
 10
-73.59889703379473
 20
79.8816662292588
  0
VERTEX
  8
1
  6
CONTINUOUS
 62
     7
 10
-73.5765612837172
 20
79.84809248622857
  0
VERTEX
  8
1
  6
CONTINUOUS
 62
     7
 10
-73.55340103256336
 20
79.81623939103974
  0
VERTEX
  8
1
  6
CONTINUOUS
 62
     7
 10
-73.52951763993501
 20
79.78612498473079
  0
VERTEX
  8
1
  6
CONTINUOUS
 62
     7
 10
-73.49568190313208
 20
79.74757042406955
  0
VERTEX
  8
1
  6
CONTINUOUS
 62
     7
 10
-73.4607160426491
 20
79.71209394123547
  0
VERTEX
  8
1
  6
CONTINUOUS
 62
     7
 10
-73.42480989446392
 20
79.67966586832173
  0
VERTEX
  8
1
  6
CONTINUOUS
 62
     7
 10
-73.3889272140352
 20
79.65083549858426
  0
VERTEX
  8
1
  6
CONTINUOUS
 62
     7
 10
-73.35235625091475
 20
79.62474483040226
  0
VERTEX
  8
1
  6
CONTINUOUS
 62
     7
 10
-73.31492402715276
 20
79.60116302369103
  0
VERTEX
  8
1
  6
CONTINUOUS
 62
     7
 10
-73.27697629510845
 20
79.58021431986303
  0
SEQEND
  8
1
  6
CONTINUOUS
 62
     7
  0
LINE
  8
1
  6
CONTINUOUS
 62
     7
 10
-73.75754126562958
 20
80.50000000579965
 11
-73.7606156207854
 21
80.42203229436666
  0
LINE
  8
1
  6
CONTINUOUS
 62
     7
 10
-73.68632057860736
 20
80.19028262038877
 11
-73.75754126562961
 21
80.50000000579965
  0
ARC
  8
1
  6
CONTINUOUS
 62
     7
 10
-72.64325680312888
 20
80.68914982410634
 40
1.170866743402754
 50
222.0539836468875
 51
251.2814631927956
  0
POLYLINE
  8
1
  6
CONTINUOUS
 62
     7
 66
     1
  0
VERTEX
  8
1
  6
CONTINUOUS
 62
     7
 10
-73.5126418060496
 20
79.90486757420959
  0
VERTEX
  8
1
  6
CONTINUOUS
 62
     7
 10
-73.58571141827606
 20
79.99892682758319
  0
VERTEX
  8
1
  6
CONTINUOUS
 62
     7
 10
-73.6503150390216
 20
80.10857002958329
  0
VERTEX
  8
1
  6
CONTINUOUS
 62
     7
 10
-73.68632057860736
 20
80.19028262038877
  0
SEQEND
  8
1
  6
CONTINUOUS
 62
     7
  0
LINE
  8
1
  6
CONTINUOUS
 62
     7
 10
-72.94951064033776
 20
79.56250547248229
 11
-72.96771050226631
 21
79.56516810887574
  0
LINE
  8
1
  6
CONTINUOUS
 62
     7
 10
-72.96771050226631
 20
79.56516810887574
 11
-73.01901068300651
 21
79.58021431986658
  0
LINE
  8
1
  6
CONTINUOUS
 62
     7
 10
-72.96544029348692
 20
79.58021431986344
 11
-72.94471564084908
 21
79.56431756157325
  0
POLYLINE
  8
1
  6
CONTINUOUS
 62
     7
 66
     1
  0
VERTEX
  8
1
  6
CONTINUOUS
 62
     7
 10
-73.3544135925641
 20
80.1902826203621
  0
VERTEX
  8
1
  6
CONTINUOUS
 62
     7
 10
-73.34555060421981
 20
80.15308198277471
  0
VERTEX
  8
1
  6
CONTINUOUS
 62
     7
 10
-73.335784131399
 20
80.11677193970019
  0
VERTEX
  8
1
  6
CONTINUOUS
 62
     7
 10
-73.32517606387465
 20
80.08144338794972
  0
VERTEX
  8
1
  6
CONTINUOUS
 62
     7
 10
-73.31378829141975
 20
80.04718722433456
  0
VERTEX
  8
1
  6
CONTINUOUS
 62
     7
 10
-73.30121755283476
 20
80.01286076588279
  0
VERTEX
  8
1
  6
CONTINUOUS
 62
     7
 10
-73.28789358081383
 20
79.97967519574524
  0
VERTEX
  8
1
  6
CONTINUOUS
 62
     7
 10
-73.2738798862531
 20
79.94767643908801
  0
VERTEX
  8
1
  6
CONTINUOUS
 62
     7
 10
-73.25923998004869
 20
79.91691042107723
  0
VERTEX
  8
1
  6
CONTINUOUS
 62
     7
 10
-73.2409163108726
 20
79.88163417486463
  0
VERTEX
  8
1
  6
CONTINUOUS
 62
     7
 10
-73.22180031054177
 20
79.84806067561657
  0
VERTEX
  8
1
  6
CONTINUOUS
 62
     7
 10
-73.20197872528593
 20
79.81620795565563
  0
VERTEX
  8
1
  6
CONTINUOUS
 62
     7
 10
-73.18153830133494
 20
79.78609404730446
  0
VERTEX
  8
1
  6
CONTINUOUS
 62
     7
 10
-73.15258032914127
 20
79.74754035998563
  0
VERTEX
  8
1
  6
CONTINUOUS
 62
     7
 10
-73.12265524585798
 20
79.71206495225502
  0
VERTEX
  8
1
  6
CONTINUOUS
 62
     7
 10
-73.09192551473956
 20
79.67963814050944
  0
VERTEX
  8
1
  6
CONTINUOUS
 62
     7
 10
-73.06122427201417
 20
79.6508165407914
  0
VERTEX
  8
1
  6
CONTINUOUS
 62
     7
 10
-73.02993433746136
 20
79.62473334981307
  0
VERTEX
  8
1
  6
CONTINUOUS
 62
     7
 10
-72.99790778648608
 20
79.60115789788999
  0
VERTEX
  8
1
  6
CONTINUOUS
 62
     7
 10
-72.96544029348694
 20
79.58021431986344
  0
SEQEND
  8
1
  6
CONTINUOUS
 62
     7
  0
LINE
  8
1
  6
CONTINUOUS
 62
     7
 10
-73.36824869893049
 20
80.50000000579965
 11
-73.37513824518571
 21
80.38338676720483
  0
LINE
  8
1
  6
CONTINUOUS
 62
     7
 10
-73.28718743325344
 20
80.1902826203888
 11
-73.3682486989305
 21
80.50000000579965
  0
ARC
  8
1
  6
CONTINUOUS
 62
     7
 10
-72.2041160421915
 20
80.7689897959849
 40
1.24726962240641
 50
223.8523939946219
 51
252.3832523960981
  0
POLYLINE
  8
1
  6
CONTINUOUS
 62
     7
 66
     1
  0
VERTEX
  8
1
  6
CONTINUOUS
 62
     7
 10
-73.10355584028238
 20
79.90487778901586
  0
VERTEX
  8
1
  6
CONTINUOUS
 62
     7
 10
-73.18081613215614
 20
79.9989390711571
  0
VERTEX
  8
1
  6
CONTINUOUS
 62
     7
 10
-73.24912031849885
 20
80.10857705751162
  0
VERTEX
  8
1
  6
CONTINUOUS
 62
     7
 10
-73.28718743325344
 20
80.1902826203888
  0
SEQEND
  8
1
  6
CONTINUOUS
 62
     7
  0
LINE
  8
1
  6
CONTINUOUS
 62
     7
 10
-72.50300245544514
 20
79.56250547248227
 11
-72.58160031783426
 21
79.58021431986658
  0
LINE
  8
1
  6
CONTINUOUS
 62
     7
 10
-72.5073254503201
 20
79.58021431986292
 11
-72.49364950588189
 21
79.56606625023518
  0
ARC
  8
1
  6
CONTINUOUS
 62
     7
 10
-71.57974682174851
 20
80.40164295243758
 40
1.265036387977603
 50
189.6179978001425
 51
209.1176356207805
  0
POLYLINE
  8
1
  6
CONTINUOUS
 62
     7
 66
     1
  0
VERTEX
  8
1
  6
CONTINUOUS
 62
     7
 10
-72.68491105815578
 20
79.78607080112323
  0
VERTEX
  8
1
  6
CONTINUOUS
 62
     7
 10
-72.61125952923773
 20
79.6796173064096
  0
VERTEX
  8
1
  6
CONTINUOUS
 62
     7
 10
-72.53400411938046
 20
79.60115404629323
  0
VERTEX
  8
1
  6
CONTINUOUS
 62
     7
 10
-72.50732545032011
 20
79.58021431986295
  0
SEQEND
  8
1
  6
CONTINUOUS
 62
     7
  0
LINE
  8
1
  6
CONTINUOUS
 62
     7
 10
-72.82849802554571
 20
80.50000000579965
 11
-72.84067730030912
 21
80.34514299732173
  0
LINE
  8
1
  6
CONTINUOUS
 62
     7
 10
-72.73837684551492
 20
80.19028262038883
 11
-72.82849802554573
 21
80.50000000579965
  0
ARC
  8
1
  6
CONTINUOUS
 62
     7
 10
-71.62165088886908
 20
80.837991295221
 40
1.313827315100035
 50
225.2527847572922
 51
253.2036925206455
  0
POLYLINE
  8
1
  6
CONTINUOUS
 62
     7
 66
     1
  0
VERTEX
  8
1
  6
CONTINUOUS
 62
     7
 10
-72.54655931326704
 20
79.90488539534645
  0
VERTEX
  8
1
  6
CONTINUOUS
 62
     7
 10
-72.62726633145334
 20
79.99894818813837
  0
VERTEX
  8
1
  6
CONTINUOUS
 62
     7
 10
-72.69861413805883
 20
80.10858229069395
  0
VERTEX
  8
1
  6
CONTINUOUS
 62
     7
 10
-72.73837684551492
 20
80.19028262038883
  0
SEQEND
  8
1
  6
CONTINUOUS
 62
     7
  0
LINE
  8
1
  6
CONTINUOUS
 62
     7
 10
-71.91436895818332
 20
79.56250547248227
 11
-72.001307699912
 21
79.58021431986658
  0
LINE
  8
1
  6
CONTINUOUS
 62
     7
 10
-71.90704366197663
 20
79.5802143198587
 11
-71.89900724508321
 21
79.56841007583961
  0
ARC
  8
1
  6
CONTINUOUS
 62
     7
 10
-70.64302691265209
 20
80.38421628781447
 40
1.523708684746937
 50
187.3122913825443
 51
203.1145158072239
  0
POLYLINE
  8
1
  6
CONTINUOUS
 62
     7
 66
     1
  0
VERTEX
  8
1
  6
CONTINUOUS
 62
     7
 10
-72.04441541785668
 20
79.78605375684677
  0
VERTEX
  8
1
  6
CONTINUOUS
 62
     7
 10
-71.98743683818532
 20
79.67960203090665
  0
VERTEX
  8
1
  6
CONTINUOUS
 62
     7
 10
-71.90704366197663
 20
79.5802143198587
  0
SEQEND
  8
1
  6
CONTINUOUS
 62
     7
  0
LINE
  8
1
  6
CONTINUOUS
 62
     7
 10
-72.14348733951768
 20
80.50000000579965
 11
-72.16237993709964
 21
80.30743782549784
  0
LINE
  8
1
  6
CONTINUOUS
 62
     7
 10
-72.04517416136208
 20
80.19028262038883
 11
-72.1434873395177
 21
80.50000000579965
  0
ARC
  8
1
  6
CONTINUOUS
 62
     7
 10
-70.90197452546172
 20
80.89350349918551
 40
1.367647292810945
 50
226.2908192675641
 51
253.7919112416048
  0
POLYLINE
  8
1
  6
CONTINUOUS
 62
     7
 66
     1
  0
VERTEX
  8
1
  6
CONTINUOUS
 62
     7
 10
-71.84701640612012
 20
79.90489085444808
  0
VERTEX
  8
1
  6
CONTINUOUS
 62
     7
 10
-71.93039300346862
 20
79.99895473141738
  0
VERTEX
  8
1
  6
CONTINUOUS
 62
     7
 10
-72.0040981732061
 20
80.10858604653396
  0
VERTEX
  8
1
  6
CONTINUOUS
 62
     7
 10
-72.04517416136208
 20
80.19028262038883
  0
SEQEND
  8
1
  6
CONTINUOUS
 62
     7
  0
LINE
  8
1
  6
CONTINUOUS
 62
     7
 10
-71.18927901091071
 20
79.56250547248229
 11
-71.28372136437059
 21
79.58021431986658
  0
LINE
  8
1
  6
CONTINUOUS
 62
     7
 10
-71.17037597023536
 20
79.58021431985912
 11
-71.16651558852911
 21
79.57135923052766
  0
LINE
  8
1
  6
CONTINUOUS
 62
     7
 10
-71.34291814851734
 20
80.19028262036903
 11
-71.17037597023536
 21
79.58021431985912
  0
LINE
  8
1
  6
CONTINUOUS
 62
     7
 10
-71.31981366821779
 20
80.50000000579965
 11
-71.34677852989876
 21
80.27039399843785
  0
LINE
  8
1
  6
CONTINUOUS
 62
     7
 10
-71.21425530158645
 20
80.19028262038883
 11
-71.3198136682178
 21
80.50000000579965
  0
ARC
  8
1
  6
CONTINUOUS
 62
     7
 10
-70.05235227689894
 20
80.93339372084175
 40
1.406445834301508
 50
226.9934228868008
 51
254.1808471008096
  0
POLYLINE
  8
1
  6
CONTINUOUS
 62
     7
 66
     1
  0
VERTEX
  8
1
  6
CONTINUOUS
 62
     7
 10
-71.01166409950436
 20
79.90489446861376
  0
VERTEX
  8
1
  6
CONTINUOUS
 62
     7
 10
-71.09690741938546
 20
79.99895906334473
  0
VERTEX
  8
1
  6
CONTINUOUS
 62
     7
 10
-71.17226099237871
 20
80.1085885330462
  0
VERTEX
  8
1
  6
CONTINUOUS
 62
     7
 10
-71.21425530158645
 20
80.19028262038883
  0
SEQEND
  8
1
  6
CONTINUOUS
 62
     7
  0
LINE
  8
1
  6
CONTINUOUS
 62
     7
 10
-70.33471562619407
 20
79.56250547248229
 11
-70.43575205989387
 21
79.58021431986658
  0
LINE
  8
1
  6
CONTINUOUS
 62
     7
 10
-70.30441688766487
 20
79.58021431985937
 11
-70.30322883122979
 21
79.574921932631
  0
LINE
  8
1
  6
CONTINUOUS
 62
     7
 10
-70.40053971039067
 20
80.19028262037148
 11
-70.30441688766487
 21
79.58021431985937
  0
LINE
  8
1
  6
CONTINUOUS
 62
     7
 10
-70.36540943936649
 20
80.50000000579965
 11
-70.40172776541534
 21
80.2341387177873
  0
LINE
  8
1
  6
CONTINUOUS
 62
     7
 10
-70.25362246903416
 20
80.19028262038886
 11
-70.3654094393665
 21
80.50000000579965
  0
ARC
  8
1
  6
CONTINUOUS
 62
     7
 10
-69.08117587245391
 20
80.956129407465
 40
1.42860010076672
 50
227.3789466111541
 51
254.3911954517182
  0
POLYLINE
  8
1
  6
CONTINUOUS
 62
     7
 66
     1
  0
VERTEX
  8
1
  6
CONTINUOUS
 62
     7
 10
-70.04854729281006
 20
79.90489642520615
  0
VERTEX
  8
1
  6
CONTINUOUS
 62
     7
 10
-70.13483650105415
 20
79.99896140850637
  0
VERTEX
  8
1
  6
CONTINUOUS
 62
     7
 10
-70.21111364237565
 20
80.1085898791572
  0
VERTEX
  8
1
  6
CONTINUOUS
 62
     7
 10
-70.25362246903416
 20
80.19028262038886
  0
SEQEND
  8
1
  6
CONTINUOUS
 62
     7
  0
LINE
  8
1
  6
CONTINUOUS
 62
     7
 10
-69.35890871658005
 20
79.56250547248227
 11
-69.46556619443113
 21
79.58021431986658
  0
LINE
  8
1
  6
CONTINUOUS
 62
     7
 10
-69.31750607361184
 20
79.58021431985946
 11
-69.31746089666436
 21
79.57910772560281
  0
LINE
  8
1
  6
CONTINUOUS
 62
     7
 10
-69.33628382545245
 20
80.19028262036869
 11
-69.31750607361184
 21
79.58021431985948
  0
LINE
  8
1
  6
CONTINUOUS
 62
     7
 10
-69.28946608741803
 20
80.50000000579965
 11
-69.33628382545245
 21
80.19028262036869
  0
LINE
  8
1
  6
CONTINUOUS
 62
     7
 10
-69.17252708301797
 20
80.19028262038883
 11
-69.28946608741803
 21
80.50000000579965
  0
ARC
  8
1
  6
CONTINUOUS
 62
     7
 10
-67.99790773594928
 20
80.96083705896861
 40
1.433190806004501
 50
227.4574787817603
 51
254.4337821690491
  0
POLYLINE
  8
1
  6
CONTINUOUS
 62
     7
 66
     1
  0
VERTEX
  8
1
  6
CONTINUOUS
 62
     7
 10
-68.96694132739646
 20
79.9048968215201
  0
VERTEX
  8
1
  6
CONTINUOUS
 62
     7
 10
-69.05344551736641
 20
79.99896188352595
  0
VERTEX
  8
1
  6
CONTINUOUS
 62
     7
 10
-69.12991249760519
 20
80.10859015181569
  0
VERTEX
  8
1
  6
CONTINUOUS
 62
     7
 10
-69.17252708301797
 20
80.19028262038883
  0
SEQEND
  8
1
  6
CONTINUOUS
 62
     7
  0
LINE
  8
1
  6
CONTINUOUS
 62
     7
 10
-68.27125583603858
 20
79.56250547248227
 11
-68.38250718822431
 21
79.58021431986658
  0
LINE
  8
1
  6
CONTINUOUS
 62
     7
 10
-68.21914801871608
 20
79.58021431985944
 11
-68.27125583603858
 21
79.56250547248227
  0
LINE
  8
1
  6
CONTINUOUS
 62
     7
 10
-68.16039985965638
 20
80.19028262037259
 11
-68.21914801871608
 21
79.58021431985944
  0
LINE
  8
1
  6
CONTINUOUS
 62
     7
 10
-68.10234553502214
 20
80.50000000579965
 11
-68.16039985965638
 21
80.19028262037259
  0
LINE
  8
1
  6
CONTINUOUS
 62
     7
 10
-67.98138068309208
 20
80.19028262038883
 11
-68.10234553502214
 21
80.50000000579965
  0
ARC
  8
1
  6
CONTINUOUS
 62
     7
 10
-66.81300217476269
 20
80.94733580741658
 40
1.420028066284226
 50
227.2310749525185
 51
254.3107673810613
  0
POLYLINE
  8
1
  6
CONTINUOUS
 62
     7
 66
     1
  0
VERTEX
  8
1
  6
CONTINUOUS
 62
     7
 10
-67.7772626599798
 20
79.90489567691327
  0
VERTEX
  8
1
  6
CONTINUOUS
 62
     7
 10
-67.86314885464881
 20
79.99896051160667
  0
VERTEX
  8
1
  6
CONTINUOUS
 62
     7
 10
-67.93907011613828
 20
80.10858936434163
  0
VERTEX
  8
1
  6
CONTINUOUS
 62
     7
 10
-67.98138068309208
 20
80.19028262038883
  0
SEQEND
  8
1
  6
CONTINUOUS
 62
     7
  0
LINE
  8
1
  6
CONTINUOUS
 62
     7
 10
-67.0822316763808
 20
79.56250547248227
 11
-67.19700549156346
 21
79.58021431986658
  0
LINE
  8
1
  6
CONTINUOUS
 62
     7
 10
-67.01992051146999
 20
79.58021431985925
 11
-67.0822316763808
 21
79.56250547248227
  0
LINE
  8
1
  6
CONTINUOUS
 62
     7
 10
-66.88421221839663
 20
80.19028262037145
 11
-67.01992051146999
 21
79.58021431985925
  0
LINE
  8
1
  6
CONTINUOUS
 62
     7
 10
-66.81548040204449
 20
80.50000000579965
 11
-66.88421221839663
 21
80.19028262037145
  0
LINE
  8
1
  6
CONTINUOUS
 62
     7
 10
-66.69165466023463
 20
80.19028262038883
 11
-66.81548040204449
 21
80.50000000579965
  0
ARC
  8
1
  6
CONTINUOUS
 62
     7
 10
-65.53780708998029
 20
80.91614436988867
 40
1.389656873608463
 50
226.6938093604473
 51
254.015882268403
  0
POLYLINE
  8
1
  6
CONTINUOUS
 62
     7
 66
     1
  0
VERTEX
  8
1
  6
CONTINUOUS
 62
     7
 10
-66.49096854646336
 20
79.90489293515925
  0
VERTEX
  8
1
  6
CONTINUOUS
 62
     7
 10
-66.57540972043158
 20
79.99895722535202
  0
VERTEX
  8
1
  6
CONTINUOUS
 62
     7
 10
-66.65005496108327
 20
80.10858747804552
  0
VERTEX
  8
1
  6
CONTINUOUS
 62
     7
 10
-66.69165466023463
 20
80.19028262038883
  0
SEQEND
  8
1
  6
CONTINUOUS
 62
     7
  0
LINE
  8
1
  6
CONTINUOUS
 62
     7
 10
-65.80328719025097
 20
79.56250547248229
 11
-65.92047813384858
 21
79.58021431986658
  0
LINE
  8
1
  6
CONTINUOUS
 62
     7
 10
-65.73137276833289
 20
79.58021431985892
 11
-65.80328719025097
 21
79.56250547248229
  0
LINE
  8
1
  6
CONTINUOUS
 62
     7
 10
-65.52001128629384
 20
80.19028262036973
 11
-65.73137276833289
 21
79.58021431985892
  0
LINE
  8
1
  6
CONTINUOUS
 62
     7
 10
-65.44126390318769
 20
80.50000000579965
 11
-65.52001128629384
 21
80.19028262036973
  0
LINE
  8
1
  6
CONTINUOUS
 62
     7
 10
-65.31576978108174
 20
80.19028262038883
 11
-65.44126390318769
 21
80.50000000579965
  0
ARC
  8
1
  6
CONTINUOUS
 62
     7
 10
-64.18444769015156
 20
80.86846110800036
 40
1.343341506623706
 50
225.8316307218885
 51
253.5337386995176
  0
POLYLINE
  8
1
  6
CONTINUOUS
 62
     7
 66
     1
  0
VERTEX
  8
1
  6
CONTINUOUS
 62
     7
 10
-65.1204467022948
 20
79.90488845755573
  0
VERTEX
  8
1
  6
CONTINUOUS
 62
     7
 10
-65.20262974648877
 20
79.99895185850461
  0
VERTEX
  8
1
  6
CONTINUOUS
 62
     7
 10
-65.27528095301474
 20
80.10858439748574
  0
VERTEX
  8
1
  6
CONTINUOUS
 62
     7
 10
-65.31576978108174
 20
80.19028262038883
  0
SEQEND
  8
1
  6
CONTINUOUS
 62
     7
  0
LINE
  8
1
  6
CONTINUOUS
 62
     7
 10
-64.44673931219266
 20
79.56250547248229
 11
-64.56521877135529
 21
79.58021431986658
  0
LINE
  8
1
  6
CONTINUOUS
 62
     7
 10
-64.36591420845758
 20
79.58021431986309
 11
-64.44673931219266
 21
79.56250547248229
  0
ARC
  8
1
  6
CONTINUOUS
 62
     7
 10
-65.43525166990119
 20
80.39273367320578
 40
1.36936477887351
 50
333.7025322133511
 51
351.4980517586036
  0
POLYLINE
  8
1
  6
CONTINUOUS
 62
     7
 66
     1
  0
VERTEX
  8
1
  6
CONTINUOUS
 62
     7
 10
-64.20760791405644
 20
79.78606184564603
  0
VERTEX
  8
1
  6
CONTINUOUS
 62
     7
 10
-64.27326676668923
 20
79.67960928026608
  0
VERTEX
  8
1
  6
CONTINUOUS
 62
     7
 10
-64.34213274656112
 20
79.6011525624613
  0
VERTEX
  8
1
  6
CONTINUOUS
 62
     7
 10
-64.36591420845758
 20
79.58021431986309
  0
SEQEND
  8
1
  6
CONTINUOUS
 62
     7
  0
LINE
  8
1
  6
CONTINUOUS
 62
     7
 10
-63.99293049455891
 20
80.50000000579965
 11
-64.08093506407236
 21
80.19028262036687
  0
LINE
  8
1
  6
CONTINUOUS
 62
     7
 10
-63.86697656915477
 20
80.1902826203888
 11
-63.99293049455891
 21
80.50000000579965
  0
ARC
  8
1
  6
CONTINUOUS
 62
     7
 10
-62.76569174113125
 20
80.80611795891502
 40
1.283030890650234
 50
224.6220743256829
 51
252.8380955787372
  0
POLYLINE
  8
1
  6
CONTINUOUS
 62
     7
 66
     1
  0
VERTEX
  8
1
  6
CONTINUOUS
 62
     7
 10
-63.67889600199605
 20
79.90488200518199
  0
VERTEX
  8
1
  6
CONTINUOUS
 62
     7
 10
-63.75802955434384
 20
79.9989441246771
  0
VERTEX
  8
1
  6
CONTINUOUS
 62
     7
 10
-63.8279879171319
 20
80.10857995825698
  0
VERTEX
  8
1
  6
CONTINUOUS
 62
     7
 10
-63.86697656915477
 20
80.1902826203888
  0
SEQEND
  8
1
  6
CONTINUOUS
 62
     7
  0
LINE
  8
1
  6
CONTINUOUS
 62
     7
 10
-63.02565233983606
 20
79.56250547248227
 11
-63.14427929260452
 21
79.58021431986658
  0
LINE
  8
1
  6
CONTINUOUS
 62
     7
 10
-62.9366949442207
 20
79.58021431986276
 11
-63.02565233983606
 21
79.56250547248227
  0
POLYLINE
  8
1
  6
CONTINUOUS
 62
     7
 66
     1
  0
VERTEX
  8
1
  6
CONTINUOUS
 62
     7
 10
-62.58084264243089
 20
80.1902826203654
  0
VERTEX
  8
1
  6
CONTINUOUS
 62
     7
 10
-62.58895138687993
 20
80.15308009742053
  0
VERTEX
  8
1
  6
CONTINUOUS
 62
     7
 10
-62.597886767312
 20
80.11676826160374
  0
VERTEX
  8
1
  6
CONTINUOUS
 62
     7
 10
-62.60759215513067
 20
80.08143802227191
  0
VERTEX
  8
1
  6
CONTINUOUS
 62
     7
 10
-62.61801092173955
 20
80.047180288782
  0
VERTEX
  8
1
  6
CONTINUOUS
 62
     7
 10
-62.62951205082562
 20
80.01285221882173
  0
VERTEX
  8
1
  6
CONTINUOUS
 62
     7
 10
-62.64170233918564
 20
79.97966516699093
  0
VERTEX
  8
1
  6
CONTINUOUS
 62
     7
 10
-62.65452367507454
 20
79.94766506262573
  0
VERTEX
  8
1
  6
CONTINUOUS
 62
     7
 10
-62.66791794674717
 20
79.91689783506233
  0
VERTEX
  8
1
  6
CONTINUOUS
 62
     7
 10
-62.684681898317
 20
79.88162162943286
  0
VERTEX
  8
1
  6
CONTINUOUS
 62
     7
 10
-62.70217071339443
 20
79.84804822562629
  0
VERTEX
  8
1
  6
CONTINUOUS
 62
     7
 10
-62.72030503050142
 20
79.81619565255384
  0
VERTEX
  8
1
  6
CONTINUOUS
 62
     7
 10
-62.73900548816002
 20
79.78608193912679
  0
VERTEX
  8
1
  6
CONTINUOUS
 62
     7
 10
-62.76549841533853
 20
79.74752859366488
  0
VERTEX
  8
1
  6
CONTINUOUS
 62
     7
 10
-62.79287609476908
 20
79.71205360675934
  0
VERTEX
  8
1
  6
CONTINUOUS
 62
     7
 10
-62.82098989499596
 20
79.67962728866364
  0
VERTEX
  8
1
  6
CONTINUOUS
 62
     7
 10
-62.84907462292717
 20
79.65080912119691
  0
VERTEX
  8
1
  6
CONTINUOUS
 62
     7
 10
-62.87769779863594
 20
79.62472885655727
  0
VERTEX
  8
1
  6
CONTINUOUS
 62
     7
 10
-62.90699471283204
 20
79.60115589172945
  0
VERTEX
  8
1
  6
CONTINUOUS
 62
     7
 10
-62.9366949442207
 20
79.58021431986276
  0
SEQEND
  8
1
  6
CONTINUOUS
 62
     7
  0
LINE
  8
1
  6
CONTINUOUS
 62
     7
 10
-62.48442841862281
 20
80.50000000579965
 11
-62.58084264243089
 21
80.1902826203654
  0
LINE
  8
1
  6
CONTINUOUS
 62
     7
 10
-62.35922769507554
 20
80.19028262038879
 11
-62.48442841862281
 21
80.50000000579965
  0
ARC
  8
1
  6
CONTINUOUS
 62
     7
 10
-61.29479332495443
 20
80.73151000431956
 40
1.211310140075692
 50
223.0339814610293
 51
251.8887886432615
  0
POLYLINE
  8
1
  6
CONTINUOUS
 62
     7
 66
     1
  0
VERTEX
  8
1
  6
CONTINUOUS
 62
     7
 10
-62.18019936677953
 20
79.9048732058707
  0
VERTEX
  8
1
  6
CONTINUOUS
 62
     7
 10
-62.25552143344817
 20
79.99893357775997
  0
VERTEX
  8
1
  6
CONTINUOUS
 62
     7
 10
-62.32211407650041
 20
80.1085739042591
  0
VERTEX
  8
1
  6
CONTINUOUS
 62
     7
 10
-62.35922769507554
 20
80.19028262038879
  0
SEQEND
  8
1
  6
CONTINUOUS
 62
     7
  0
LINE
  8
1
  6
CONTINUOUS
 62
     7
 10
-61.55371211757016
 20
79.56250547248229
 11
-61.67134412154121
 21
79.58021431986658
  0
LINE
  8
1
  6
CONTINUOUS
 62
     7
 10
-61.45747913842205
 20
79.58021431986326
 11
-61.55371211757016
 21
79.56250547248229
  0
POLYLINE
  8
1
  6
CONTINUOUS
 62
     7
 66
     1
  0
VERTEX
  8
1
  6
CONTINUOUS
 62
     7
 10
-61.03418073142493
 20
80.19028262036004
  0
VERTEX
  8
1
  6
CONTINUOUS
 62
     7
 10
-61.04382519791464
 20
80.15308429956936
  0
VERTEX
  8
1
  6
CONTINUOUS
 62
     7
 10
-61.05445275588231
 20
80.11677645948949
  0
VERTEX
  8
1
  6
CONTINUOUS
 62
     7
 10
-61.06599606681885
 20
80.08144998151641
  0
VERTEX
  8
1
  6
CONTINUOUS
 62
     7
 10
-61.07838779221518
 20
80.04719574704616
  0
VERTEX
  8
1
  6
CONTINUOUS
 62
     7
 10
-61.09206669138581
 20
80.01287126889164
  0
VERTEX
  8
1
  6
CONTINUOUS
 62
     7
 10
-61.10656520055092
 20
79.97968751954154
  0
VERTEX
  8
1
  6
CONTINUOUS
 62
     7
 10
-61.12181421711503
 20
79.94769041903754
  0
VERTEX
  8
1
  6
CONTINUOUS
 62
     7
 10
-61.1377446384827
 20
79.91692588742133
  0
VERTEX
  8
1
  6
CONTINUOUS
 62
     7
 10
-61.15768449933027
 20
79.8816495913597
  0
VERTEX
  8
1
  6
CONTINUOUS
 62
     7
 10
-61.17848661210381
 20
79.84807597485127
  0
VERTEX
  8
1
  6
CONTINUOUS
 62
     7
 10
-61.20005657806102
 20
79.81622307441059
  0
VERTEX
  8
1
  6
CONTINUOUS
 62
     7
 10
-61.22229999845964
 20
79.78610892655223
  0
VERTEX
  8
1
  6
CONTINUOUS
 62
     7
 10
-61.25381232568834
 20
79.74755481917886
  0
VERTEX
  8
1
  6
CONTINUOUS
 62
     7
 10
-61.2863771210429
 20
79.71207889435577
  0
VERTEX
  8
1
  6
CONTINUOUS
 62
     7
 10
-61.31981758743073
 20
79.67965147602894
  0
VERTEX
  8
1
  6
CONTINUOUS
 62
     7
 10
-61.35323145072451
 20
79.65082565845863
  0
VERTEX
  8
1
  6
CONTINUOUS
 62
     7
 10
-61.38728612633473
 20
79.62473887137355
  0
VERTEX
  8
1
  6
CONTINUOUS
 62
     7
 10
-61.42214264827983
 20
79.60116036314564
  0
VERTEX
  8
1
  6
CONTINUOUS
 62
     7
 10
-61.45747913842205
 20
79.58021431986326
  0
SEQEND
  8
1
  6
CONTINUOUS
 62
     7
  0
LINE
  8
1
  6
CONTINUOUS
 62
     7
 10
-60.93028537500177
 20
80.50000000579965
 11
-61.03418073142493
 21
80.19028262036004
  0
LINE
  8
1
  6
CONTINUOUS
 62
     7
 10
-60.80704360472082
 20
80.19028262038877
 11
-60.93028537500177
 21
80.50000000579965
  0
POLYLINE
  8
1
  6
CONTINUOUS
 62
     7
 66
     1
  0
VERTEX
  8
1
  6
CONTINUOUS
 62
     7
 10
-60.16059842905094
 20
79.58021431986658
  0
VERTEX
  8
1
  6
CONTINUOUS
 62
     7
 10
-60.22567555053305
 20
79.60583585071565
  0
VERTEX
  8
1
  6
CONTINUOUS
 62
     7
 10
-60.28968498666539
 20
79.6353355844113
  0
VERTEX
  8
1
  6
CONTINUOUS
 62
     7
 10
-60.35232124799171
 20
79.66880452756817
  0
VERTEX
  8
1
  6
CONTINUOUS
 62
     7
 10
-60.39950820762579
 20
79.69739452944812
  0
VERTEX
  8
1
  6
CONTINUOUS
 62
     7
 10
-60.44566938796751
 20
79.7285251309261
  0
VERTEX
  8
1
  6
CONTINUOUS
 62
     7
 10
-60.49059808656739
 20
79.76221895271568
  0
VERTEX
  8
1
  6
CONTINUOUS
 62
     7
 10
-60.534087600976
 20
79.79849861553043
  0
VERTEX
  8
1
  6
CONTINUOUS
 62
     7
 10
-60.57033398128679
 20
79.83193178068365
  0
VERTEX
  8
1
  6
CONTINUOUS
 62
     7
 10
-60.60529584027266
 20
79.86739376043262
  0
VERTEX
  8
1
  6
CONTINUOUS
 62
     7
 10
-60.63879006441874
 20
79.90486149680567
  0
VERTEX
  8
1
  6
CONTINUOUS
 62
     7
 10
-60.663418935206
 20
79.93500450742269
  0
VERTEX
  8
1
  6
CONTINUOUS
 62
     7
 10
-60.68704816383487
 20
79.96637083626295
  0
VERTEX
  8
1
  6
CONTINUOUS
 62
     7
 10
-60.70957535821433
 20
79.99891954310941
  0
VERTEX
  8
1
  6
CONTINUOUS
 62
     7
 10
-60.73089812625327
 20
80.03260968774495
  0
VERTEX
  8
1
  6
CONTINUOUS
 62
     7
 10
-60.75231354782252
 20
80.06995251759359
  0
VERTEX
  8
1
  6
CONTINUOUS
 62
     7
 10
-60.77216181933911
 20
80.10856584818782
  0
VERTEX
  8
1
  6
CONTINUOUS
 62
     7
 10
-60.78459639788604
 20
80.13527901544929
  0
VERTEX
  8
1
  6
CONTINUOUS
 62
     7
 10
-60.79623764030944
 20
80.16253216867813
  0
VERTEX
  8
1
  6
CONTINUOUS
 62
     7
 10
-60.80704360472082
 20
80.19028262038877
  0
SEQEND
  8
1
  6
CONTINUOUS
 62
     7
  0
LINE
  8
1
  6
CONTINUOUS
 62
     7
 10
-60.04509423437974
 20
79.56250547248227
 11
-60.16059842905094
 21
79.58021431986658
  0
LINE
  8
1
  6
CONTINUOUS
 62
     7
 10
-59.94251244789616
 20
79.58021431986276
 11
-60.04509423437974
 21
79.56250547248227
  0
POLYLINE
  8
1
  6
CONTINUOUS
 62
     7
 66
     1
  0
VERTEX
  8
1
  6
CONTINUOUS
 62
     7
 10
-59.45584453074368
 20
80.1902826203707
  0
VERTEX
  8
1
  6
CONTINUOUS
 62
     7
 10
-59.46693104722176
 20
80.15308986192912
  0
VERTEX
  8
1
  6
CONTINUOUS
 62
     7
 10
-59.47914749306578
 20
80.11678731100449
  0
VERTEX
  8
1
  6
CONTINUOUS
 62
     7
 10
-59.49241648410772
 20
80.08146581198905
  0
VERTEX
  8
1
  6
CONTINUOUS
 62
     7
 10
-59.50666063617954
 20
80.04721620927504
  0
VERTEX
  8
1
  6
CONTINUOUS
 62
     7
 10
-59.52238415027519
 20
80.01289648564813
  0
VERTEX
  8
1
  6
CONTINUOUS
 62
     7
 10
-59.5390497171176
 20
79.97971710791555
  0
VERTEX
  8
1
  6
CONTINUOUS
 62
     7
 10
-59.55657792461962
 20
79.94772398381544
  0
VERTEX
  8
1
  6
CONTINUOUS
 62
     7
 10
-59.57488936069408
 20
79.91696302108603
  0
VERTEX
  8
1
  6
CONTINUOUS
 62
     7
 10
-59.59781212550653
 20
79.88168660543761
  0
VERTEX
  8
1
  6
CONTINUOUS
 62
     7
 10
-59.62172622816558
 20
79.84811270749871
  0
VERTEX
  8
1
  6
CONTINUOUS
 62
     7
 10
-59.64652314479622
 20
79.81625937384796
  0
VERTEX
  8
1
  6
CONTINUOUS
 62
     7
 10
-59.6720943515234
 20
79.78614465106392
  0
VERTEX
  8
1
  6
CONTINUOUS
 62
     7
 10
-59.70832129683049
 20
79.74758953533355
  0
VERTEX
  8
1
  6
CONTINUOUS
 62
     7
 10
-59.74575830749114
 20
79.71211236918157
  0
VERTEX
  8
1
  6
CONTINUOUS
 62
     7
 10
-59.78420212688608
 20
79.67968349467891
  0
VERTEX
  8
1
  6
CONTINUOUS
 62
     7
 10
-59.82262750330173
 20
79.65084754976495
  0
VERTEX
  8
1
  6
CONTINUOUS
 62
     7
 10
-59.86179009679329
 20
79.62475212834867
  0
VERTEX
  8
1
  6
CONTINUOUS
 62
     7
 10
-59.9018752028003
 20
79.60116628198426
  0
VERTEX
  8
1
  6
CONTINUOUS
 62
     7
 10
-59.94251244789616
 20
79.58021431986276
  0
SEQEND
  8
1
  6
CONTINUOUS
 62
     7
  0
LINE
  8
1
  6
CONTINUOUS
 62
     7
 10
-59.34546861078686
 20
80.50000000579965
 11
-59.45584453074368
 21
80.1902826203707
  0
LINE
  8
1
  6
CONTINUOUS
 62
     7
 10
-59.22537267939083
 20
80.19028262038871
 11
-59.34546861078686
 21
80.50000000579965
  0
POLYLINE
  8
1
  6
CONTINUOUS
 62
     7
 66
     1
  0
VERTEX
  8
1
  6
CONTINUOUS
 62
     7
 10
-58.62659152201
 20
79.58021431986658
  0
VERTEX
  8
1
  6
CONTINUOUS
 62
     7
 10
-58.68686800651264
 20
79.6058347741624
  0
VERTEX
  8
1
  6
CONTINUOUS
 62
     7
 10
-58.74615561253618
 20
79.63533312225398
  0
VERTEX
  8
1
  6
CONTINUOUS
 62
     7
 10
-58.80417141044214
 20
79.66880036032265
  0
VERTEX
  8
1
  6
CONTINUOUS
 62
     7
 10
-58.84787749996609
 20
79.69738874264328
  0
VERTEX
  8
1
  6
CONTINUOUS
 62
     7
 10
-58.89063354537842
 20
79.72851749857774
  0
VERTEX
  8
1
  6
CONTINUOUS
 62
     7
 10
-58.93224811347566
 20
79.7622092485169
  0
VERTEX
  8
1
  6
CONTINUOUS
 62
     7
 10
-58.9725297710543
 20
79.79848661285158
  0
VERTEX
  8
1
  6
CONTINUOUS
 62
     7
 10
-59.00610368789767
 20
79.83191867166344
  0
VERTEX
  8
1
  6
CONTINUOUS
 62
     7
 10
-59.0384878676871
 20
79.8673794926485
  0
VERTEX
  8
1
  6
CONTINUOUS
 62
     7
 10
-59.06951270897449
 20
79.90484602462487
  0
VERTEX
  8
1
  6
CONTINUOUS
 62
     7
 10
-59.09232583854879
 20
79.93498803690953
  0
VERTEX
  8
1
  6
CONTINUOUS
 62
     7
 10
-59.11421309257012
 20
79.96635333899509
  0
VERTEX
  8
1
  6
CONTINUOUS
 62
     7
 10
-59.13507963422898
 20
79.99890099779174
  0
VERTEX
  8
1
  6
CONTINUOUS
 62
     7
 10
-59.15483062671584
 20
80.03259008020959
  0
VERTEX
  8
1
  6
CONTINUOUS
 62
     7
 10
-59.17467030008437
 20
80.06993721454799
  0
VERTEX
  8
1
  6
CONTINUOUS
 62
     7
 10
-59.19305803308382
 20
80.10855520277387
  0
VERTEX
  8
1
  6
CONTINUOUS
 62
     7
 10
-59.20457756645075
 20
80.13527177206957
  0
VERTEX
  8
1
  6
CONTINUOUS
 62
     7
 10
-59.2153620702688
 20
80.162528479187
  0
VERTEX
  8
1
  6
CONTINUOUS
 62
     7
 10
-59.22537267939083
 20
80.19028262038871
  0
SEQEND
  8
1
  6
CONTINUOUS
 62
     7
  0
LINE
  8
1
  6
CONTINUOUS
 62
     7
 10
-58.51432750517435
 20
79.56250547248227
 11
-58.62659152201
 21
79.58021431986658
  0
LINE
  8
1
  6
CONTINUOUS
 62
     7
 10
-58.40638483003682
 20
79.58021431986204
 11
-58.51432750517435
 21
79.56250547248227
  0
POLYLINE
  8
1
  6
CONTINUOUS
 62
     7
 66
     1
  0
VERTEX
  8
1
  6
CONTINUOUS
 62
     7
 10
-57.86103428081434
 20
80.19028262036554
  0
VERTEX
  8
1
  6
CONTINUOUS
 62
     7
 10
-57.87345342830854
 20
80.1531016264983
  0
VERTEX
  8
1
  6
CONTINUOUS
 62
     7
 10
-57.88713795888896
 20
80.11681026247813
  0
VERTEX
  8
1
  6
CONTINUOUS
 62
     7
 10
-57.90200124073949
 20
80.08149929446212
  0
VERTEX
  8
1
  6
CONTINUOUS
 62
     7
 10
-57.91795664204403
 20
80.0472594886074
  0
VERTEX
  8
1
  6
CONTINUOUS
 62
     7
 10
-57.93556858638945
 20
80.01294982132343
  0
VERTEX
  8
1
  6
CONTINUOUS
 62
     7
 10
-57.95423556943798
 20
79.97977969031486
  0
VERTEX
  8
1
  6
CONTINUOUS
 62
     7
 10
-57.97386868754063
 20
79.94779497729539
  0
VERTEX
  8
1
  6
CONTINUOUS
 62
     7
 10
-57.99437903704843
 20
79.91704156397871
  0
VERTEX
  8
1
  6
CONTINUOUS
 62
     7
 10
-58.02006068405132
 20
79.88176489584045
  0
VERTEX
  8
1
  6
CONTINUOUS
 62
     7
 10
-58.04685321257984
 20
79.84819040311986
  0
VERTEX
  8
1
  6
CONTINUOUS
 62
     7
 10
-58.07463502889366
 20
79.81633615367984
  0
VERTEX
  8
1
  6
CONTINUOUS
 62
     7
 10
-58.10328453925242
 20
79.7862202153834
  0
VERTEX
  8
1
  6
CONTINUOUS
 62
     7
 10
-58.1438728566857
 20
79.74766296760919
  0
VERTEX
  8
1
  6
CONTINUOUS
 62
     7
 10
-58.18581724074016
 20
79.71218317669064
  0
VERTEX
  8
1
  6
CONTINUOUS
 62
     7
 10
-58.22888994433206
 20
79.67975122303481
  0
VERTEX
  8
1
  6
CONTINUOUS
 62
     7
 10
-58.27197075698766
 20
79.65089385476648
  0
VERTEX
  8
1
  6
CONTINUOUS
 62
     7
 10
-58.3158788012782
 20
79.62478016905489
  0
VERTEX
  8
1
  6
CONTINUOUS
 62
     7
 10
-58.36082208088015
 20
79.60117880080055
  0
VERTEX
  8
1
  6
CONTINUOUS
 62
     7
 10
-58.40638483003682
 20
79.58021431986204
  0
SEQEND
  8
1
  6
CONTINUOUS
 62
     7
  0
LINE
  8
1
  6
CONTINUOUS
 62
     7
 10
-57.74524077776645
 20
80.50000000579965
 11
-57.86103428081434
 21
80.19028262036554
  0
LINE
  8
1
  6
CONTINUOUS
 62
     7
 10
-57.62944727472581
 20
80.19028262038869
 11
-57.74524077776645
 21
80.50000000579965
  0
POLYLINE
  8
1
  6
CONTINUOUS
 62
     7
 66
     1
  0
VERTEX
  8
1
  6
CONTINUOUS
 62
     7
 10
-57.08409672550667
 20
79.58021431986658
  0
VERTEX
  8
1
  6
CONTINUOUS
 62
     7
 10
-57.1389917721277
 20
79.60583334366011
  0
VERTEX
  8
1
  6
CONTINUOUS
 62
     7
 10
-57.1929862815155
 20
79.63532985060604
  0
VERTEX
  8
1
  6
CONTINUOUS
 62
     7
 10
-57.24582261322497
 20
79.66879482302322
  0
VERTEX
  8
1
  6
CONTINUOUS
 62
     7
 10
-57.28562670258694
 20
79.69738105336774
  0
VERTEX
  8
1
  6
CONTINUOUS
 62
     7
 10
-57.32456564576156
 20
79.72850735706143
  0
VERTEX
  8
1
  6
CONTINUOUS
 62
     7
 10
-57.36246512612291
 20
79.76219635406535
  0
VERTEX
  8
1
  6
CONTINUOUS
 62
     7
 10
-57.39915082704502
 20
79.7984706643406
  0
VERTEX
  8
1
  6
CONTINUOUS
 62
     7
 10
-57.42972935470882
 20
79.8319017115563
  0
VERTEX
  8
1
  6
CONTINUOUS
 62
     7
 10
-57.45922436676847
 20
79.86736150581636
  0
VERTEX
  8
1
  6
CONTINUOUS
 62
     7
 10
-57.4874814021713
 20
79.9048270037076
  0
VERTEX
  8
1
  6
CONTINUOUS
 62
     7
 10
-57.50825935707944
 20
79.93496818323739
  0
VERTEX
  8
1
  6
CONTINUOUS
 62
     7
 10
-57.52819409989116
 20
79.96633264935373
  0
VERTEX
  8
1
  6
CONTINUOUS
 62
     7
 10
-57.54719925921911
 20
79.99887947587501
  0
VERTEX
  8
1
  6
CONTINUOUS
 62
     7
 10
-57.56518846367593
 20
80.03256773661965
  0
VERTEX
  8
1
  6
CONTINUOUS
 62
     7
 10
-57.58326118590008
 20
80.06991977597269
  0
VERTEX
  8
1
  6
CONTINUOUS
 62
     7
 10
-57.60001117458256
 20
80.10854307170251
  0
VERTEX
  8
1
  6
CONTINUOUS
 62
     7
 10
-57.61050464886592
 20
80.13526351778724
  0
VERTEX
  8
1
  6
CONTINUOUS
 62
     7
 10
-57.6203284867341
 20
80.16252427477009
  0
VERTEX
  8
1
  6
CONTINUOUS
 62
     7
 10
-57.62944727472581
 20
80.19028262038869
  0
SEQEND
  8
1
  6
CONTINUOUS
 62
     7
  0
LINE
  8
1
  6
CONTINUOUS
 62
     7
 10
-56.97615405035845
 20
79.56250547248227
 11
-57.08409672550667
 21
79.58021431986658
  0
LINE
  8
1
  6
CONTINUOUS
 62
     7
 10
-56.86389003353349
 20
79.58021431986245
 11
-56.97615405035845
 21
79.56250547248227
  0
POLYLINE
  8
1
  6
CONTINUOUS
 62
     7
 66
     1
  0
VERTEX
  8
1
  6
CONTINUOUS
 62
     7
 10
-56.26510887614926
 20
80.19028262036781
  0
VERTEX
  8
1
  6
CONTINUOUS
 62
     7
 10
-56.27874809238877
 20
80.15309316597863
  0
VERTEX
  8
1
  6
CONTINUOUS
 62
     7
 10
-56.29377729401925
 20
80.11679375684929
  0
VERTEX
  8
1
  6
CONTINUOUS
 62
     7
 10
-56.31010129566702
 20
80.08147521539588
  0
VERTEX
  8
1
  6
CONTINUOUS
 62
     7
 10
-56.3276249119584
 20
80.04722836403451
  0
VERTEX
  8
1
  6
CONTINUOUS
 62
     7
 10
-56.34696831910323
 20
80.01291146466062
  0
VERTEX
  8
1
  6
CONTINUOUS
 62
     7
 10
-56.36747061157149
 20
79.97973468376723
  0
VERTEX
  8
1
  6
CONTINUOUS
 62
     7
 10
-56.38903410908953
 20
79.9477439217839
  0
VERTEX
  8
1
  6
CONTINUOUS
 62
     7
 10
-56.41156113138364
 20
79.91698507914019
  0
VERTEX
  8
1
  6
CONTINUOUS
 62
     7
 10
-56.43976300281192
 20
79.8817085925202
  0
VERTEX
  8
1
  6
CONTINUOUS
 62
     7
 10
-56.46918458805857
 20
79.84813452747605
  0
VERTEX
  8
1
  6
CONTINUOUS
 62
     7
 10
-56.49969236763429
 20
79.81628093656421
  0
VERTEX
  8
1
  6
CONTINUOUS
 62
     7
 10
-56.5311528220498
 20
79.78616587234116
  0
VERTEX
  8
1
  6
CONTINUOUS
 62
     7
 10
-56.57572321108166
 20
79.74761015773986
  0
VERTEX
  8
1
  6
CONTINUOUS
 62
     7
 10
-56.62178245518962
 20
79.71213225433405
  0
VERTEX
  8
1
  6
CONTINUOUS
 62
     7
 10
-56.66908047935949
 20
79.6797025149611
  0
VERTEX
  8
1
  6
CONTINUOUS
 62
     7
 10
-56.71636468577156
 20
79.6508605538511
  0
VERTEX
  8
1
  6
CONTINUOUS
 62
     7
 10
-56.76455628672755
 20
79.62476000327686
  0
VERTEX
  8
1
  6
CONTINUOUS
 62
     7
 10
-56.81388337658291
 20
79.60116979782812
  0
VERTEX
  8
1
  6
CONTINUOUS
 62
     7
 10
-56.86389003353349
 20
79.58021431986245
  0
SEQEND
  8
1
  6
CONTINUOUS
 62
     7
  0
LINE
  8
1
  6
CONTINUOUS
 62
     7
 10
-56.14501294474605
 20
80.50000000579965
 11
-56.26510887614926
 21
80.19028262036781
  0
LINE
  8
1
  6
CONTINUOUS
 62
     7
 10
-56.03463702479426
 20
80.19028262038874
 11
-56.14501294474605
 21
80.50000000579965
  0
POLYLINE
  8
1
  6
CONTINUOUS
 62
     7
 66
     1
  0
VERTEX
  8
1
  6
CONTINUOUS
 62
     7
 10
-55.5479691076447
 20
79.58021431986658
  0
VERTEX
  8
1
  6
CONTINUOUS
 62
     7
 10
-55.59696066553542
 20
79.6058353328832
  0
VERTEX
  8
1
  6
CONTINUOUS
 62
     7
 10
-55.64514846302089
 20
79.63533440008862
  0
VERTEX
  8
1
  6
CONTINUOUS
 62
     7
 10
-55.69230253010939
 20
79.66880252307887
  0
VERTEX
  8
1
  6
CONTINUOUS
 62
     7
 10
-55.727825976326
 20
79.69739174593026
  0
VERTEX
  8
1
  6
CONTINUOUS
 62
     7
 10
-55.76257721766797
 20
79.72852145967765
  0
VERTEX
  8
1
  6
CONTINUOUS
 62
     7
 10
-55.7964006520258
 20
79.7622142848794
  0
VERTEX
  8
1
  6
CONTINUOUS
 62
     7
 10
-55.82914067728996
 20
79.79849284209395
  0
VERTEX
  8
1
  6
CONTINUOUS
 62
     7
 10
-55.85642832589613
 20
79.83192547509067
  0
VERTEX
  8
1
  6
CONTINUOUS
 62
     7
 10
-55.88274896783954
 20
79.86738689746821
  0
VERTEX
  8
1
  6
CONTINUOUS
 62
     7
 10
-55.90796475263448
 20
79.90485405452098
  0
VERTEX
  8
1
  6
CONTINUOUS
 62
     7
 10
-55.92650636143853
 20
79.93499658493552
  0
VERTEX
  8
1
  6
CONTINUOUS
 62
     7
 10
-55.94429542617886
 20
79.96636241990254
  0
VERTEX
  8
1
  6
CONTINUOUS
 62
     7
 10
-55.96125486450109
 20
79.99891062263329
  0
VERTEX
  8
1
  6
CONTINUOUS
 62
     7
 10
-55.97730759405091
 20
80.032600256339
  0
VERTEX
  8
1
  6
CONTINUOUS
 62
     7
 10
-55.99343119427959
 20
80.06994515670016
  0
VERTEX
  8
1
  6
CONTINUOUS
 62
     7
 10
-56.00837485279414
 20
80.10856072766425
  0
VERTEX
  8
1
  6
CONTINUOUS
 62
     7
 10
-56.01773676371558
 20
80.13527553133243
  0
VERTEX
  8
1
  6
CONTINUOUS
 62
     7
 10
-56.02650134823651
 20
80.16253039400806
  0
VERTEX
  8
1
  6
CONTINUOUS
 62
     7
 10
-56.03463702479426
 20
80.19028262038874
  0
SEQEND
  8
1
  6
CONTINUOUS
 62
     7
  0
LINE
  8
1
  6
CONTINUOUS
 62
     7
 10
-55.44538732115305
 20
79.56250547248227
 11
-55.5479691076447
 21
79.58021431986658
  0
LINE
  8
1
  6
CONTINUOUS
 62
     7
 10
-55.32988312649176
 20
79.58021431986303
 11
-55.44538732115305
 21
79.56250547248227
  0
POLYLINE
  8
1
  6
CONTINUOUS
 62
     7
 66
     1
  0
VERTEX
  8
1
  6
CONTINUOUS
 62
     7
 10
-54.683437950818
 20
80.19028262037283
  0
VERTEX
  8
1
  6
CONTINUOUS
 62
     7
 10
-54.69816555743586
 20
80.1530867998918
  0
VERTEX
  8
1
  6
CONTINUOUS
 62
     7
 10
-54.71439430385037
 20
80.11678133731381
  0
VERTEX
  8
1
  6
CONTINUOUS
 62
     7
 10
-54.73202137427438
 20
80.08145709740037
  0
VERTEX
  8
1
  6
CONTINUOUS
 62
     7
 10
-54.75094395292077
 20
80.04720494491293
  0
VERTEX
  8
1
  6
CONTINUOUS
 62
     7
 10
-54.77183195153172
 20
80.01288260393451
  0
VERTEX
  8
1
  6
CONTINUOUS
 62
     7
 10
-54.79397147425764
 20
79.97970081963072
  0
VERTEX
  8
1
  6
CONTINUOUS
 62
     7
 10
-54.81725701142009
 20
79.94770550651278
  0
VERTEX
  8
1
  6
CONTINUOUS
 62
     7
 10
-54.84158305334067
 20
79.91694257909195
  0
VERTEX
  8
1
  6
CONTINUOUS
 62
     7
 10
-54.87203314926766
 20
79.88166622925877
  0
VERTEX
  8
1
  6
CONTINUOUS
 62
     7
 10
-54.90380004538629
 20
79.84809248622852
  0
VERTEX
  8
1
  6
CONTINUOUS
 62
     7
 10
-54.93673958356754
 20
79.81623939103972
  0
VERTEX
  8
1
  6
CONTINUOUS
 62
     7
 10
-54.97070760568239
 20
79.78612498473076
  0
VERTEX
  8
1
  6
CONTINUOUS
 62
     7
 10
-55.01883029385652
 20
79.74757042406952
  0
VERTEX
  8
1
  6
CONTINUOUS
 62
     7
 10
-55.06856029413886
 20
79.71209394123544
  0
VERTEX
  8
1
  6
CONTINUOUS
 62
     7
 10
-55.11962761336741
 20
79.6796658683217
  0
VERTEX
  8
1
  6
CONTINUOUS
 62
     7
 10
-55.17066155571008
 20
79.65083549858426
  0
VERTEX
  8
1
  6
CONTINUOUS
 62
     7
 10
-55.22267440427677
 20
79.62474483040226
  0
VERTEX
  8
1
  6
CONTINUOUS
 62
     7
 10
-55.27591217599292
 20
79.60116302369103
  0
VERTEX
  8
1
  6
CONTINUOUS
 62
     7
 10
-55.32988312649176
 20
79.58021431986303
  0
SEQEND
  8
1
  6
CONTINUOUS
 62
     7
  0
LINE
  8
1
  6
CONTINUOUS
 62
     7
 10
-54.56019618053114
 20
80.50000000579965
 11
-54.683437950818
 21
80.19028262037283
  0
LINE
  8
1
  6
CONTINUOUS
 62
     7
 10
-54.45630082411495
 20
80.19028262038877
 11
-54.56019618053114
 21
80.50000000579965
  0
POLYLINE
  8
1
  6
CONTINUOUS
 62
     7
 66
     1
  0
VERTEX
  8
1
  6
CONTINUOUS
 62
     7
 10
-54.03300241711686
 20
79.58021431986658
  0
VERTEX
  8
1
  6
CONTINUOUS
 62
     7
 10
-54.11753078958566
 20
79.63533655153277
  0
VERTEX
  8
1
  6
CONTINUOUS
 62
     7
 10
-54.21967233412292
 20
79.72852812889435
  0
VERTEX
  8
1
  6
CONTINUOUS
 62
     7
 10
-54.30130461449625
 20
79.83193692987899
  0
SEQEND
  8
1
  6
CONTINUOUS
 62
     7
  0
ARC
  8
1
  6
CONTINUOUS
 62
     7
 10
-53.37315742059681
 20
80.4460841968968
 40
1.112939386996816
 50
193.2878418510557
 51
213.4922744042627
  0
LINE
  8
1
  6
CONTINUOUS
 62
     7
 10
-53.93676943796262
 20
79.56250547248227
 11
-54.03300241711686
 21
79.58021431986658
  0
LINE
  8
1
  6
CONTINUOUS
 62
     7
 10
-53.8191374340009
 20
79.58021431986344
 11
-53.93676943796262
 21
79.56250547248227
  0
POLYLINE
  8
1
  6
CONTINUOUS
 62
     7
 66
     1
  0
VERTEX
  8
1
  6
CONTINUOUS
 62
     7
 10
-53.13125386046854
 20
80.19028262036046
  0
VERTEX
  8
1
  6
CONTINUOUS
 62
     7
 10
-53.18295924940875
 20
80.08144338794874
  0
VERTEX
  8
1
  6
CONTINUOUS
 62
     7
 10
-53.24889181531697
 20
79.97967519574489
  0
VERTEX
  8
1
  6
CONTINUOUS
 62
     7
 10
-53.33196922036907
 20
79.88163417486463
  0
VERTEX
  8
1
  6
CONTINUOUS
 62
     7
 10
-53.43697683268323
 20
79.78609404730446
  0
SEQEND
  8
1
  6
CONTINUOUS
 62
     7
  0
ARC
  8
1
  6
CONTINUOUS
 62
     7
 10
-54.22269583404109
 20
80.7869417504827
 40
1.272419142441652
 50
288.4911627978422
 51
308.1338105404385
  0
LINE
  8
1
  6
CONTINUOUS
 62
     7
 10
-53.0060531369101
 20
80.50000000579965
 11
-53.13125386046854
 21
80.19028262036046
  0
LINE
  8
1
  6
CONTINUOUS
 62
     7
 10
-52.90963891310678
 20
80.1902826203888
 11
-53.0060531369101
 21
80.50000000579965
  0
POLYLINE
  8
1
  6
CONTINUOUS
 62
     7
 66
     1
  0
VERTEX
  8
1
  6
CONTINUOUS
 62
     7
 10
-52.55378661131802
 20
79.58021431986658
  0
VERTEX
  8
1
  6
CONTINUOUS
 62
     7
 10
-52.58961144259436
 20
79.60583698431607
  0
VERTEX
  8
1
  6
CONTINUOUS
 62
     7
 10
-52.62484848670826
 20
79.63533817705174
  0
VERTEX
  8
1
  6
CONTINUOUS
 62
     7
 10
-52.65932955706268
 20
79.6688089156751
  0
VERTEX
  8
1
  6
CONTINUOUS
 62
     7
 10
-52.68530586473722
 20
79.69740062297886
  0
VERTEX
  8
1
  6
CONTINUOUS
 62
     7
 10
-52.71071744215214
 20
79.72853316785286
  0
VERTEX
  8
1
  6
CONTINUOUS
 62
     7
 10
-52.73545048677745
 20
79.76222917134982
  0
VERTEX
  8
1
  6
CONTINUOUS
 62
     7
 10
-52.75939119608317
 20
79.79851125452254
  0
VERTEX
  8
1
  6
CONTINUOUS
 62
     7
 10
-52.77934389879478
 20
79.83194558460532
  0
VERTEX
  8
1
  6
CONTINUOUS
 62
     7
 10
-52.79858945797529
 20
79.86740878447715
  0
VERTEX
  8
1
  6
CONTINUOUS
 62
     7
 10
-52.81702706743685
 20
79.90487778901584
  0
VERTEX
  8
1
  6
CONTINUOUS
 62
     7
 10
-52.83058453052089
 20
79.93502185082421
  0
VERTEX
  8
1
  6
CONTINUOUS
 62
     7
 10
-52.84359167712464
 20
79.96638926077884
  0
VERTEX
  8
1
  6
CONTINUOUS
 62
     7
 10
-52.85599213935971
 20
79.9989390711571
  0
VERTEX
  8
1
  6
CONTINUOUS
 62
     7
 10
-52.86772954933772
 20
80.03263033423639
  0
VERTEX
  8
1
  6
CONTINUOUS
 62
     7
 10
-52.87951617391952
 20
80.06996863139737
  0
VERTEX
  8
1
  6
CONTINUOUS
 62
     7
 10
-52.89044033349577
 20
80.10857705751162
  0
VERTEX
  8
1
  6
CONTINUOUS
 62
     7
 10
-52.89728414725082
 20
80.13528664250137
  0
VERTEX
  8
1
  6
CONTINUOUS
 62
     7
 10
-52.9036913665013
 20
80.16253605358611
  0
VERTEX
  8
1
  6
CONTINUOUS
 62
     7
 10
-52.90963891310678
 20
80.1902826203888
  0
SEQEND
  8
1
  6
CONTINUOUS
 62
     7
  0
LINE
  8
1
  6
CONTINUOUS
 62
     7
 10
-52.46482921569672
 20
79.56250547248227
 11
-52.55378661131802
 21
79.58021431986658
  0
LINE
  8
1
  6
CONTINUOUS
 62
     7
 10
-52.34620226293964
 20
79.58021431986295
 11
-52.46482921569672
 21
79.56250547248227
  0
POLYLINE
  8
1
  6
CONTINUOUS
 62
     7
 66
     1
  0
VERTEX
  8
1
  6
CONTINUOUS
 62
     7
 10
-51.62350498638869
 20
80.19028262036338
  0
VERTEX
  8
1
  6
CONTINUOUS
 62
     7
 10
-51.67783323647431
 20
80.08143308645568
  0
VERTEX
  8
1
  6
CONTINUOUS
 62
     7
 10
-51.74711159711861
 20
79.97965594170896
  0
VERTEX
  8
1
  6
CONTINUOUS
 62
     7
 10
-51.83440287458987
 20
79.88161008916114
  0
VERTEX
  8
1
  6
CONTINUOUS
 62
     7
 10
-51.94473117018002
 20
79.78607080112323
  0
SEQEND
  8
1
  6
CONTINUOUS
 62
     7
  0
ARC
  8
1
  6
CONTINUOUS
 62
     7
 10
-52.75788774010137
 20
80.87751514495064
 40
1.361056340817327
 50
287.6063164253788
 51
306.6871414532391
  0
LINE
  8
1
  6
CONTINUOUS
 62
     7
 10
-51.497551060974
 20
80.50000000579965
 11
-51.62350498638869
 21
80.19028262036338
  0
LINE
  8
1
  6
CONTINUOUS
 62
     7
 10
-51.40954649146415
 20
80.19028262038881
 11
-51.497551060974
 21
80.50000000579965
  0
POLYLINE
  8
1
  6
CONTINUOUS
 62
     7
 66
     1
  0
VERTEX
  8
1
  6
CONTINUOUS
 62
     7
 10
-51.1245673470796
 20
79.58021431986658
  0
VERTEX
  8
1
  6
CONTINUOUS
 62
     7
 10
-51.20909145547181
 20
79.66881096434572
  0
VERTEX
  8
1
  6
CONTINUOUS
 62
     7
 10
-51.27005288108
 20
79.76223394215398
  0
SEQEND
  8
1
  6
CONTINUOUS
 62
     7
  0
ARC
  8
1
  6
CONTINUOUS
 62
     7
 10
-50.08693777356827
 20
80.38454416183184
 40
1.336798925470086
 50
188.3557200772507
 51
207.7440543069201
  0
LINE
  8
1
  6
CONTINUOUS
 62
     7
 10
-51.04374224334013
 20
79.56250547248227
 11
-51.1245673470796
 21
79.58021431986658
  0
LINE
  8
1
  6
CONTINUOUS
 62
     7
 10
-50.9252627842029
 20
79.5802143198587
 11
-51.04374224334013
 21
79.56250547248227
  0
POLYLINE
  8
1
  6
CONTINUOUS
 62
     7
 66
     1
  0
VERTEX
  8
1
  6
CONTINUOUS
 62
     7
 10
-50.17471177446086
 20
80.19028262036635
  0
VERTEX
  8
1
  6
CONTINUOUS
 62
     7
 10
-50.23113852199994
 20
80.08142553315565
  0
VERTEX
  8
1
  6
CONTINUOUS
 62
     7
 10
-50.30309378454704
 20
79.97964182427641
  0
VERTEX
  8
1
  6
CONTINUOUS
 62
     7
 10
-50.39375649513315
 20
79.88159242920976
  0
VERTEX
  8
1
  6
CONTINUOUS
 62
     7
 10
-50.50834176056061
 20
79.78605375684677
  0
SEQEND
  8
1
  6
CONTINUOUS
 62
     7
  0
ARC
  8
1
  6
CONTINUOUS
 62
     7
 10
-51.3438528325143
 20
80.95320436710651
 40
1.43538123799459
 50
286.9551420634207
 51
305.5971862112951
  0
LINE
  8
1
  6
CONTINUOUS
 62
     7
 10
-50.04921765234521
 20
80.50000000579965
 11
-50.17471177446086
 21
80.19028262036635
  0
LINE
  8
1
  6
CONTINUOUS
 62
     7
 10
-49.97047026924139
 20
80.19028262038883
 11
-50.04921765234521
 21
80.50000000579965
  0
LINE
  8
1
  6
CONTINUOUS
 62
     7
 10
-49.75910878720692
 20
79.58021431986658
 11
-49.97047026924139
 21
80.19028262038883
  0
LINE
  8
1
  6
CONTINUOUS
 62
     7
 10
-49.6871943652818
 20
79.56250547248229
 11
-49.75910878720692
 21
79.58021431986658
  0
LINE
  8
1
  6
CONTINUOUS
 62
     7
 10
-49.57000342170894
 20
79.58021431985912
 11
-49.6871943652818
 21
79.56250547248229
  0
POLYLINE
  8
1
  6
CONTINUOUS
 62
     7
 66
     1
  0
VERTEX
  8
1
  6
CONTINUOUS
 62
     7
 10
-48.79882689530693
 20
80.19028262036926
  0
VERTEX
  8
1
  6
CONTINUOUS
 62
     7
 10
-48.85680756708595
 20
80.08142029186538
  0
VERTEX
  8
1
  6
CONTINUOUS
 62
     7
 10
-48.9307450588004
 20
79.97963202812835
  0
SEQEND
  8
1
  6
CONTINUOUS
 62
     7
  0
ARC
  8
1
  6
CONTINUOUS
 62
     7
 10
-49.92058225114656
 20
80.8525748541294
 40
1.319775300882089
 50
285.4047022993337
 51
318.5907531050889
  0
LINE
  8
1
  6
CONTINUOUS
 62
     7
 10
-48.67500115348842
 20
80.50000000579965
 11
-48.79882689530693
 21
80.19028262036926
  0
LINE
  8
1
  6
CONTINUOUS
 62
     7
 10
-48.60626933713763
 20
80.19028262038883
 11
-48.67500115348842
 21
80.50000000579965
  0
LINE
  8
1
  6
CONTINUOUS
 62
     7
 10
-48.47056104406717
 20
79.58021431986658
 11
-48.60626933713763
 21
80.19028262038883
  0
LINE
  8
1
  6
CONTINUOUS
 62
     7
 10
-48.40824987915197
 20
79.56250547248227
 11
-48.47056104406717
 21
79.58021431986658
  0
LINE
  8
1
  6
CONTINUOUS
 62
     7
 10
-48.29347606399364
 20
79.58021431985937
 11
-48.40824987915197
 21
79.56250547248227
  0
POLYLINE
  8
1
  6
CONTINUOUS
 62
     7
 66
     1
  0
VERTEX
  8
1
  6
CONTINUOUS
 62
     7
 10
-47.50910087244822
 20
80.19028262037241
  0
VERTEX
  8
1
  6
CONTINUOUS
 62
     7
 10
-47.56807593021637
 20
80.0814170826059
  0
VERTEX
  8
1
  6
CONTINUOUS
 62
     7
 10
-47.64328188849625
 20
79.97962602993027
  0
SEQEND
  8
1
  6
CONTINUOUS
 62
     7
  0
ARC
  8
1
  6
CONTINUOUS
 62
     7
 10
-48.64367438425279
 20
80.87921979470036
 40
1.345382505899049
 50
285.0876544872818
 51
318.0368286260511
  0
LINE
  8
1
  6
CONTINUOUS
 62
     7
 10
-47.38813602051078
 20
80.50000000579965
 11
-47.50910087244822
 21
80.19028262037241
  0
LINE
  8
1
  6
CONTINUOUS
 62
     7
 10
-47.33008169587708
 20
80.19028262038884
 11
-47.38813602051078
 21
80.50000000579965
  0
LINE
  8
1
  6
CONTINUOUS
 62
     7
 10
-47.27133353681863
 20
79.58021431986658
 11
-47.33008169587708
 21
80.19028262038884
  0
LINE
  8
1
  6
CONTINUOUS
 62
     7
 10
-47.21922571949418
 20
79.56250547248227
 11
-47.27133353681863
 21
79.58021431986658
  0
LINE
  8
1
  6
CONTINUOUS
 62
     7
 10
-47.10797436733262
 20
79.58021431985948
 11
-47.21922571949418
 21
79.56250547248227
  0
POLYLINE
  8
1
  6
CONTINUOUS
 62
     7
 66
     1
  0
VERTEX
  8
1
  6
CONTINUOUS
 62
     7
 10
-46.31795447252276
 20
80.19028262037159
  0
VERTEX
  8
1
  6
CONTINUOUS
 62
     7
 10
-46.37735480160767
 20
80.08141574285472
  0
VERTEX
  8
1
  6
CONTINUOUS
 62
     7
 10
-46.45310324787192
 20
79.97962352590271
  0
SEQEND
  8
1
  6
CONTINUOUS
 62
     7
  0
ARC
  8
1
  6
CONTINUOUS
 62
     7
 10
-47.45804231726156
 20
80.89075331301558
 40
1.356488120902669
 50
284.9555324641744
 51
317.8029199273478
  0
LINE
  8
1
  6
CONTINUOUS
 62
     7
 10
-46.20101546811487
 20
80.50000000579965
 11
-46.31795447252276
 21
80.19028262037159
  0
LINE
  8
1
  6
CONTINUOUS
 62
     7
 10
-46.15419773008024
 20
80.19028262038883
 11
-46.20101546811487
 21
80.50000000579965
  0
LINE
  8
1
  6
CONTINUOUS
 62
     7
 10
-46.1729754819205
 20
79.58021431986658
 11
-46.15419773008024
 21
80.19028262038883
  0
LINE
  8
1
  6
CONTINUOUS
 62
     7
 10
-46.13157283895273
 20
79.56250547248224
 11
-46.15915664158545
 21
79.56553267278352
  0
LINE
  8
1
  6
CONTINUOUS
 62
     7
 10
-46.15915664158545
 20
79.56553267278352
 11
-46.17302065888804
 21
79.57910734198656
  0
LINE
  8
1
  6
CONTINUOUS
 62
     7
 10
-46.02491536112584
 20
79.58021431985944
 11
-46.13157283895273
 21
79.56250547248227
  0
POLYLINE
  8
1
  6
CONTINUOUS
 62
     7
 66
     1
  0
VERTEX
  8
1
  6
CONTINUOUS
 62
     7
 10
-45.23685908650663
 20
80.19028262037139
  0
VERTEX
  8
1
  6
CONTINUOUS
 62
     7
 10
-45.29611147666522
 20
80.08141620673436
  0
VERTEX
  8
1
  6
CONTINUOUS
 62
     7
 10
-45.37167120789756
 20
79.97962439290527
  0
SEQEND
  8
1
  6
CONTINUOUS
 62
     7
  0
ARC
  8
1
  6
CONTINUOUS
 62
     7
 10
-46.37502651079996
 20
80.88673176097936
 40
1.35261437264162
 50
285.0012625194416
 51
317.8840877786686
  0
LINE
  8
1
  6
CONTINUOUS
 62
     7
 10
-45.12507211616641
 20
80.50000000579965
 11
-45.23685908650663
 21
80.19028262037139
  0
LINE
  8
1
  6
CONTINUOUS
 62
     7
 10
-45.08994184514128
 20
80.19028262038883
 11
-45.0887537905107
 21
80.23414505782894
  0
LINE
  8
1
  6
CONTINUOUS
 62
     7
 10
-45.18606466786509
 20
79.58021431986658
 11
-45.08994184514128
 21
80.19028262038883
  0
LINE
  8
1
  6
CONTINUOUS
 62
     7
 10
-45.15576592933874
 20
79.56250547248226
 11
-45.18725272429726
 21
79.57492183533282
  0
LINE
  8
1
  6
CONTINUOUS
 62
     7
 10
-45.0547294956634
 20
79.58021431985925
 11
-45.15576592933874
 21
79.56250547248227
  0
POLYLINE
  8
1
  6
CONTINUOUS
 62
     7
 66
     1
  0
VERTEX
  8
1
  6
CONTINUOUS
 62
     7
 10
-44.27622625395419
 20
80.1902826203715
  0
VERTEX
  8
1
  6
CONTINUOUS
 62
     7
 10
-44.33475891966772
 20
80.08141849692521
  0
VERTEX
  8
1
  6
CONTINUOUS
 62
     7
 10
-44.40940055027396
 20
79.97962867333163
  0
SEQEND
  8
1
  6
CONTINUOUS
 62
     7
  0
ARC
  8
1
  6
CONTINUOUS
 62
     7
 10
-45.40508381665727
 20
80.86730983049608
 40
1.333927660610031
 50
285.2272828574434
 51
318.2820495035057
  0
LINE
  8
1
  6
CONTINUOUS
 62
     7
 10
-44.17066788731509
 20
80.50000000579965
 11
-44.27622625395419
 21
80.1902826203715
  0
LINE
  8
1
  6
CONTINUOUS
 62
     7
 10
-44.1475634070136
 20
80.19028262038881
 11
-44.1437030262035
 21
80.27040812010813
  0
LINE
  8
1
  6
CONTINUOUS
 62
     7
 10
-44.32010558529204
 20
79.58021431986658
 11
-44.14756340701361
 21
80.19028262038883
  0
LINE
  8
1
  6
CONTINUOUS
 62
     7
 10
-44.30120254462211
 20
79.56250547248226
 11
-44.32390505613685
 21
79.57047237991007
  0
LINE
  8
1
  6
CONTINUOUS
 62
     7
 10
-44.3239056040023
 20
79.57047219589245
 11
-44.32396596700445
 21
79.571359221498
  0
LINE
  8
1
  6
CONTINUOUS
 62
     7
 10
-44.20676019118722
 20
79.58021431985892
 11
-44.30120254462211
 21
79.56250547248229
  0
POLYLINE
  8
1
  6
CONTINUOUS
 62
     7
 66
     1
  0
VERTEX
  8
1
  6
CONTINUOUS
 62
     7
 10
-43.44530739418005
 20
80.1902826203677
  0
VERTEX
  8
1
  6
CONTINUOUS
 62
     7
 10
-43.50255548122746
 20
80.08142272742384
  0
VERTEX
  8
1
  6
CONTINUOUS
 62
     7
 10
-43.57555846738935
 20
79.97963658026497
  0
VERTEX
  8
1
  6
CONTINUOUS
 62
     7
 10
-43.66754073701472
 20
79.88158586933989
  0
VERTEX
  8
1
  6
CONTINUOUS
 62
     7
 10
-43.78379215533261
 20
79.78604742569937
  0
SEQEND
  8
1
  6
CONTINUOUS
 62
     7
  0
ARC
  8
1
  6
CONTINUOUS
 62
     7
 10
-44.62814059263573
 20
80.98360884658562
 40
1.465290974643378
 50
286.7128038123233
 51
305.1859981421464
  0
LINE
  8
1
  6
CONTINUOUS
 62
     7
 10
-43.3469942160152
 20
80.50000000579965
 11
-43.44530739418005
 21
80.1902826203677
  0
LINE
  8
1
  6
CONTINUOUS
 62
     7
 10
-43.33613803521285
 20
80.19028262038881
 11
-43.32810161880798
 21
80.30745305577865
  0
POLYLINE
  8
1
  6
CONTINUOUS
 62
     7
 66
     1
  0
VERTEX
  8
1
  6
CONTINUOUS
 62
     7
 10
-43.58343789354794
 20
79.58021431986658
  0
VERTEX
  8
1
  6
CONTINUOUS
 62
     7
 10
-43.510088818147
 20
79.66881178911353
  0
VERTEX
  8
1
  6
CONTINUOUS
 62
     7
 10
-43.45718719266223
 20
79.7622358628244
  0
SEQEND
  8
1
  6
CONTINUOUS
 62
     7
  0
ARC
  8
1
  6
CONTINUOUS
 62
     7
 10
-44.80794545533446
 20
80.3753619000309
 40
1.483398605121989
 50
335.5861089403592
 51
352.8326961277361
  0
LINE
  8
1
  6
CONTINUOUS
 62
     7
 10
-43.57611259734954
 20
79.56250547248226
 11
-43.59147431045093
 21
79.56841021424013
  0
LINE
  8
1
  6
CONTINUOUS
 62
     7
 10
-43.48917385563194
 20
79.58021431986309
 11
-43.57495392397387
 21
79.56251378443429
  0
LINE
  8
1
  6
CONTINUOUS
 62
     7
 10
-43.57495392397387
 20
79.56251378443429
 11
-43.57611259735169
 21
79.56250547248096
  0
POLYLINE
  8
1
  6
CONTINUOUS
 62
     7
 66
     1
  0
VERTEX
  8
1
  6
CONTINUOUS
 62
     7
 10
-42.75210471001792
 20
80.19028262036723
  0
VERTEX
  8
1
  6
CONTINUOUS
 62
     7
 10
-42.80751573530056
 20
80.08142911778897
  0
VERTEX
  8
1
  6
CONTINUOUS
 62
     7
 10
-42.87817531418079
 20
79.97964852409201
  0
VERTEX
  8
1
  6
CONTINUOUS
 62
     7
 10
-42.96720617160568
 20
79.88160081020716
  0
VERTEX
  8
1
  6
CONTINUOUS
 62
     7
 10
-43.07973096320623
 20
79.78606184564603
  0
SEQEND
  8
1
  6
CONTINUOUS
 62
     7
  0
ARC
  8
1
  6
CONTINUOUS
 62
     7
 10
-43.90438026082648
 20
80.91621121108133
 40
1.399029682408269
 50
287.2644066032802
 51
306.1175447039996
  0
LINE
  8
1
  6
CONTINUOUS
 62
     7
 10
-42.66198352998718
 20
80.50000000579965
 11
-42.75210471001792
 21
80.19028262036723
  0
LINE
  8
1
  6
CONTINUOUS
 62
     7
 10
-47.33008169587708
 20
80.19028262038884
 11
-47.33008169587709
 21
80.50000000579965
  0
LINE
  8
1
  6
CONTINUOUS
 62
     7
 10
-68.16039985965638
 20
80.19028262037259
 11
-68.16039985965583
 21
80.50000000579965
  0
LINE
  8
1
  6
CONTINUOUS
 62
     7
 10
-69.31747856298861
 20
79.57843309030675
 11
-69.3589087165762
 21
79.56250547248098
  0
LINE
  8
1
  6
CONTINUOUS
 62
     7
 10
-46.17302065888804
 20
79.57910734198656
 11
-46.17297548192322
 21
79.58021431986542
  0
LINE
  8
1
  6
CONTINUOUS
 62
     7
 10
-45.0887537905107
 20
80.23414505782894
 11
-45.12507211616642
 21
80.50000000579965
  0
LINE
  8
1
  6
CONTINUOUS
 62
     7
 10
-70.40172776541534
 20
80.2341387177873
 11
-70.40053971039067
 21
80.19028262037148
  0
LINE
  8
1
  6
CONTINUOUS
 62
     7
 10
-70.30322883122979
 20
79.574921932631
 11
-70.30435894127184
 21
79.57068463901018
  0
LINE
  8
1
  6
CONTINUOUS
 62
     7
 10
-70.30435894127184
 20
79.57068463901018
 11
-70.33471562619017
 21
79.56250547248098
  0
LINE
  8
1
  6
CONTINUOUS
 62
     7
 10
-45.18725272429726
 20
79.57492183533282
 11
-45.18606466786783
 21
79.58021431986545
  0
LINE
  8
1
  6
CONTINUOUS
 62
     7
 10
-71.34677852989876
 20
80.27039399843785
 11
-71.34291814851734
 21
80.19028262036903
  0
LINE
  8
1
  6
CONTINUOUS
 62
     7
 10
-44.1437030262035
 20
80.27040812010813
 11
-44.1706678873151
 21
80.50000000579965
  0
LINE
  8
1
  6
CONTINUOUS
 62
     7
 10
-71.16651558852911
 20
79.57135923052766
 11
-71.1892790109068
 21
79.56250547248098
  0
LINE
  8
1
  6
CONTINUOUS
 62
     7
 10
-44.32396596700445
 20
79.571359221498
 11
-44.32010558529479
 21
79.58021431986545
  0
LINE
  8
1
  6
CONTINUOUS
 62
     7
 10
-72.16237993709964
 20
80.30743782549784
 11
-72.15434352031679
 21
80.19028262036574
  0
LINE
  8
1
  6
CONTINUOUS
 62
     7
 10
-43.32810161880798
 20
80.30745305577865
 11
-43.34699421601523
 21
80.50000000579965
  0
LINE
  8
1
  6
CONTINUOUS
 62
     7
 10
-71.89900724508321
 20
79.56841007583961
 11
-71.9143689581794
 21
79.56250547248096
  0
LINE
  8
1
  6
CONTINUOUS
 62
     7
 10
-43.59147431045093
 20
79.56841021424013
 11
-43.58343789355069
 21
79.58021431986546
  0
LINE
  8
1
  6
CONTINUOUS
 62
     7
 10
-72.84067730030912
 20
80.34514299732173
 11
-72.82700135588848
 21
80.19028262036294
  0
LINE
  8
1
  6
CONTINUOUS
 62
     7
 10
-42.64980425547465
 20
80.34515805068064
 11
-42.6619835299872
 21
80.50000000579965
  0
LINE
  8
1
  6
CONTINUOUS
 62
     7
 10
-72.49364950588189
 20
79.56606625023518
 11
-72.50300245544128
 21
79.56250547248095
  0
LINE
  8
1
  6
CONTINUOUS
 62
     7
 10
-42.99683204965131
 20
79.56606623377144
 11
-42.98315610521051
 21
79.58021431986546
  0
LINE
  8
1
  6
CONTINUOUS
 62
     7
 10
-73.37513824518571
 20
80.38338676720483
 11
-73.3544135925641
 21
80.1902826203621
  0
LINE
  8
1
  6
CONTINUOUS
 62
     7
 10
-42.1153433104492
 20
80.38339526084826
 11
-42.12223285660243
 21
80.50000000579965
  0
LINE
  8
1
  6
CONTINUOUS
 62
     7
 10
-72.94471564084908
 20
79.56431756157325
 11
-72.94951064033397
 21
79.56250547248095
  0
LINE
  8
1
  6
CONTINUOUS
 62
     7
 10
-42.54576591468321
 20
79.56431758656545
 11
-42.52504126204342
 21
79.58021431986548
  0
LINE
  8
1
  6
CONTINUOUS
 62
     7
 10
-73.7606156207854
 20
80.42203229436666
 11
-73.73150096219427
 21
80.19028262037253
  0
LINE
  8
1
  6
CONTINUOUS
 62
     7
 10
-41.72986593480805
 20
80.42203611725803
 11
-41.73294028990333
 21
80.50000000579965
  0
LINE
  8
1
  6
CONTINUOUS
 62
     7
 10
-73.247936159546
 20
79.56291456530892
 11
-73.24959339495078
 21
79.56250547248095
  0
LINE
  8
1
  6
CONTINUOUS
 62
     7
 10
-42.24261991901768
 20
79.56315672758038
 11
-42.21350526042012
 21
79.58021431986548
  0
LINE
  8
1
  6
CONTINUOUS
 62
     7
 10
-73.99339706914795
 20
80.46094724863887
 11
-73.95463190726629
 21
80.19028262036906
  0
LINE
  8
1
  6
CONTINUOUS
 62
     7
 10
-73.40019941834804
 20
79.5625311916559
 11
-73.40036075832282
 21
79.56250547248092
  0
LINE
  8
1
  6
CONTINUOUS
 62
     7
 10
-42.0903135242137
 20
79.56257776472205
 11
-42.05154836233918
 21
79.58021431986548
  0
LINE
  8
1
  6
CONTINUOUS
 62
     7
 10
-74.24523944862223
 20
82.50000000000001
 11
-74.24523944862223
 21
80.50000000000001
  0
LINE
  8
1
  6
CONTINUOUS
 62
     7
 10
-41.24523944862222
 20
80.50000000000001
 11
-41.24523944862222
 21
82.50000000000001
  0
ARC
  8
1
  6
CONTINUOUS
 62
     7
 10
-73.07124077776648
 20
80.50000000579965
 40
1.000000000000001
 50
180.0000000000008
 51
193.8561474198379
  0
ARC
  8
1
  6
CONTINUOUS
 62
     7
 10
-73.07124077776648
 20
80.50000000579965
 40
0.9999999999999937
 50
193.8561474198379
 51
247.5
  0
ARC
  8
1
  6
CONTINUOUS
 62
     7
 10
-73.07124077776648
 20
80.50000000579965
 40
0.999999999999998
 50
247.5
 51
270.0000000000002
  0
ARC
  8
1
  6
CONTINUOUS
 62
     7
 10
-42.41924077776645
 20
80.50000000579965
 40
1.000000000000001
 50
269.9999999999996
 51
280.5791955218613
  0
ARC
  8
1
  6
CONTINUOUS
 62
     7
 10
-42.41924077776645
 20
80.50000000579965
 40
0.9999999999999987
 50
280.5791955218613
 51
289.4942971454968
  0
ARC
  8
1
  6
CONTINUOUS
 62
     7
 10
-42.41924077776645
 20
80.50000000579965
 40
0.9999999999999982
 50
289.4942971454968
 51
292.5000000000001
  0
ARC
  8
1
  6
CONTINUOUS
 62
     7
 10
-42.41924077776645
 20
80.50000000579965
 40
1.000000000000001
 50
292.5000000000001
 51
346.8277193119461
  0
ARC
  8
1
  6
CONTINUOUS
 62
     7
 10
-42.41924077776645
 20
80.50000000579965
 40
0.9999999999999993
 50
346.8277193119461
 51
0.0000000000011937
  0
ARC
  8
1
  6
CONTINUOUS
 62
     7
 10
-57.74524077776645
 20
163.1116618718336
 40
84.99999999999999
 50
259.6302401945226
 51
280.3697598054774
  0
LINE
  8
1
  6
CONTINUOUS
 62
     7
 10
-69.33632900242817
 20
80.50000000579965
 11
-69.33632900242817
 21
80.19028262036869
  0
LINE
  8
1
  6
CONTINUOUS
 62
     7
 10
-46.15415255310474
 20
80.19028262038883
 11
-46.15415255310474
 21
80.50000000579965
  0
LINE
  8
1
  6
CONTINUOUS
 62
     7
 10
-45.08875378870447
 20
80.23415729574307
 11
-45.08875378870447
 21
80.50000000579965
  0
LINE
  8
1
  6
CONTINUOUS
 62
     7
 10
-70.40172776682844
 20
80.50000000579965
 11
-70.40172776682844
 21
80.23414978064177
  0
LINE
  8
1
  6
CONTINUOUS
 62
     7
 10
-71.34677853024938
 20
80.50000000579965
 11
-71.34677853024938
 21
80.27039999998439
  0
LINE
  8
1
  6
CONTINUOUS
 62
     7
 10
-44.14370302528351
 20
80.27041701431747
 11
-44.14370302528351
 21
80.50000000579965
  0
LINE
  8
1
  6
CONTINUOUS
 62
     7
 10
-72.16237993722196
 20
80.50000000579965
 11
-72.16237993722196
 21
80.30744134947956
  0
LINE
  8
1
  6
CONTINUOUS
 62
     7
 10
-43.32810161831096
 20
80.3074597869116
 11
-43.32810161831096
 21
80.50000000579965
  0
LINE
  8
1
  6
CONTINUOUS
 62
     7
 10
-72.84067730034391
 20
80.50000000579965
 11
-72.84067730034391
 21
80.34514501354803
  0
LINE
  8
1
  6
CONTINUOUS
 62
     7
 10
-42.64980425518901
 20
80.34516339538553
 11
-42.64980425518901
 21
80.50000000579965
  0
LINE
  8
1
  6
CONTINUOUS
 62
     7
 10
-73.37513824521334
 20
80.50000000579965
 11
-73.37513824521334
 21
80.38338872307638
  0
LINE
  8
1
  6
CONTINUOUS
 62
     7
 10
-42.11534331031958
 20
80.3833992059728
 11
-42.11534331031958
 21
80.50000000579965
  0
LINE
  8
1
  6
CONTINUOUS
 62
     7
 10
-73.76061562076507
 20
80.50000000579965
 11
-73.76061562076507
 21
80.42203401761552
  0
LINE
  8
1
  6
CONTINUOUS
 62
     7
 10
-41.72986593476785
 20
80.42203888215009
 11
-41.72986593476785
 21
80.50000000579965
  0
LINE
  8
1
  6
CONTINUOUS
 62
     7
 10
-73.99339706914917
 20
80.50000000579965
 11
-73.99339706914917
 21
80.46094859430696
  0
LINE
  8
1
  6
CONTINUOUS
 62
     7
 10
-41.49708448638374
 20
80.46094948196222
 11
-41.49708448638374
 21
80.50000000579965
  0
ENDBLK
  8
0
  0
BLOCK
  8
0
  2
D_FRAME_VIEW_5209
 70
     0
 10
0.0
 20
0.0
  0
LINE
  8
1
  6
CONTINUOUS
 62
     7
 10
-224.8666666666667
 20
217.4214272180445
 11
-224.8666666666667
 21
221.4214272180445
  0
LINE
  8
1
  6
CONTINUOUS
 62
     7
 10
-224.8666666666667
 20
221.4214272180445
 11
-213.6666666666667
 21
221.4214272180445
  0
LINE
  8
1
  6
CONTINUOUS
 62
     7
 10
-213.6666666666667
 20
215.4214272180445
 11
-222.8666666666667
 21
215.4214272180445
  0
ARC
  8
1
  6
CONTINUOUS
 62
     7
 10
-222.8666666666667
 20
217.4214272180445
 40
2.000000000000002
 50
180.0
 51
270.0
  0
LINE
  8
1
  6
CONTINUOUS
 62
     7
 10
-119.6666666666667
 20
215.4214272180445
 11
-213.6666666666667
 21
215.4214272180445
  0
LINE
  8
1
  6
CONTINUOUS
 62
     7
 10
-119.6666666666667
 20
221.4214272180445
 11
-213.6666666666667
 21
221.4214272180445
  0
LINE
  8
1
  6
CONTINUOUS
 62
     7
 10
-108.4666666666667
 20
221.4214272180445
 11
-108.4666666666667
 21
217.4214272180445
  0
LINE
  8
1
  6
CONTINUOUS
 62
     7
 10
-119.6666666666667
 20
221.4214272180445
 11
-108.4666666666667
 21
221.4214272180445
  0
ARC
  8
1
  6
CONTINUOUS
 62
     7
 10
-110.4666666666667
 20
217.4214272180445
 40
2.000000000000002
 50
270.0
 51
0.0
  0
LINE
  8
1
  6
CONTINUOUS
 62
     7
 10
-110.4666666666667
 20
215.4214272180445
 11
-119.6666666666667
 21
215.4214272180445
  0
LINE
  8
1
  6
CONTINUOUS
 62
     7
 10
-111.6666666666667
 20
270.9214272180445
 11
-111.6666666666667
 21
221.4214272180445
  0
LINE
  8
1
  6
CONTINUOUS
 62
     7
 10
-213.6666666666667
 20
271.4214272180445
 11
-179.1666666666667
 21
271.4214272180445
  0
LINE
  8
1
  6
CONTINUOUS
 62
     7
 10
-179.1666666666666
 20
271.4214272180445
 11
-179.2064138919597
 21
270.9214272180445
  0
LINE
  8
1
  6
CONTINUOUS
 62
     7
 10
-221.6666666666667
 20
221.4214272180445
 11
-221.6666666666667
 21
270.9214272180445
  0
LINE
  8
1
  6
CONTINUOUS
 62
     7
 10
-179.1666666666667
 20
271.4214272180445
 11
-166.8246571677733
 21
269.4467056982215
  0
LINE
  8
1
  6
CONTINUOUS
 62
     7
 10
-119.6666666666667
 20
271.4214272180445
 11
-112.1666666666667
 21
271.4214272180445
  0
ARC
  8
1
  6
CONTINUOUS
 62
     7
 10
-112.1666666666667
 20
270.9214272180445
 40
0.5000000000000004
 50
0.0
 51
90.0
  0
LINE
  8
1
  6
CONTINUOUS
 62
     7
 10
-154.1666666666667
 20
271.4214272180445
 11
-154.1269194413737
 21
270.9214272180445
  0
LINE
  8
1
  6
CONTINUOUS
 62
     7
 10
-154.1666666666667
 20
271.4214272180445
 11
-119.6666666666667
 21
271.4214272180445
  0
LINE
  8
1
  6
CONTINUOUS
 62
     7
 10
-221.1666666666667
 20
271.4214272180445
 11
-213.6666666666667
 21
271.4214272180445
  0
ARC
  8
1
  6
CONTINUOUS
 62
     7
 10
-221.1666666666667
 20
270.9214272180445
 40
0.5000000000000004
 50
89.9999999999992
 51
180.0
  0
LINE
  8
1
  6
CONTINUOUS
 62
     7
 10
-166.50867616556
 20
269.4467056982215
 11
-154.1666666666667
 21
271.4214272180445
  0
ARC
  8
1
  6
CONTINUOUS
 62
     7
 10
-166.6666666666667
 20
270.4341463301383
 40
1.000000000000001
 50
270.0
 51
279.0902769208223
  0
ARC
  8
1
  6
CONTINUOUS
 62
     7
 10
-166.6666666666667
 20
270.4341463301383
 40
1.000000000000038
 50
260.9097230791776
 51
269.9999999999999
  0
ARC
  8
1
  6
CONTINUOUS
 62
     7
 10
-119.6666666666667
 20
223.7214272180445
 40
8.484384185077896
 50
276.8708385579016
 51
281.966825767847
  0
LINE
  8
1
  6
CONTINUOUS
 62
     7
 10
-119.1516666666667
 20
215.2979748379333
 11
-118.6516666666667
 21
215.2979748379333
  0
LINE
  8
1
  6
CONTINUOUS
 62
     7
 10
-119.1516666666667
 20
215.4214272180445
 11
-119.1516666666667
 21
215.2979748379333
  0
LINE
  8
1
  6
CONTINUOUS
 62
     7
 10
-120.1816666666667
 20
215.2979748379333
 11
-120.1816666666667
 21
215.4214272180445
  0
LINE
  8
1
  6
CONTINUOUS
 62
     7
 10
-120.6816666666667
 20
215.2979748379333
 11
-120.1816666666667
 21
215.2979748379333
  0
ARC
  8
1
  6
CONTINUOUS
 62
     7
 10
-119.6666666666667
 20
223.7214272180445
 40
8.484384185077905
 50
258.033174232153
 51
263.1291614420983
  0
LINE
  8
1
  6
CONTINUOUS
 62
     7
 10
-214.1816666666667
 20
215.2979748379333
 11
-214.1816666666667
 21
215.4214272180445
  0
LINE
  8
1
  6
CONTINUOUS
 62
     7
 10
-214.6816666666667
 20
215.2979748379333
 11
-214.1816666666667
 21
215.2979748379333
  0
ARC
  8
1
  6
CONTINUOUS
 62
     7
 10
-213.6666666666667
 20
223.7214272180445
 40
8.484384185077905
 50
258.033174232153
 51
263.1291614420983
  0
ARC
  8
1
  6
CONTINUOUS
 62
     7
 10
-213.6666666666667
 20
223.7214272180445
 40
8.484384185077896
 50
276.8708385579016
 51
281.966825767847
  0
LINE
  8
1
  6
CONTINUOUS
 62
     7
 10
-213.1516666666667
 20
215.2979748379333
 11
-212.6516666666667
 21
215.2979748379333
  0
LINE
  8
1
  6
CONTINUOUS
 62
     7
 10
-213.1516666666667
 20
215.4214272180445
 11
-213.1516666666667
 21
215.2979748379333
  0
ENDBLK
  8
0
  0
BLOCK
  8
0
  2
D_FRAME_VIEW_5763
 70
     0
 10
0.0
 20
0.0
  0
LINE
  8
1
  6
CONTINUOUS
 62
     7
 10
-250.4214272180445
 20
90.50000000000003
 11
-250.4214272180445
 21
81.30000000000003
  0
ARC
  8
1
  6
CONTINUOUS
 62
     7
 10
-252.4214272180445
 20
81.30000000000003
 40
2.000000000000002
 50
270.0
 51
0.0
  0
LINE
  8
1
  6
CONTINUOUS
 62
     7
 10
-252.4214272180445
 20
79.30000000000003
 11
-256.4214272180445
 21
79.30000000000003
  0
LINE
  8
1
  6
CONTINUOUS
 62
     7
 10
-256.4214272180445
 20
79.30000000000003
 11
-256.4214272180445
 21
90.50000000000003
  0
LINE
  8
1
  6
CONTINUOUS
 62
     7
 10
-250.4214272180445
 20
193.7
 11
-250.4214272180445
 21
184.5
  0
ARC
  8
1
  6
CONTINUOUS
 62
     7
 10
-252.4214272180445
 20
193.7
 40
2.000000000000002
 50
0.0
 51
90.0
  0
LINE
  8
1
  6
CONTINUOUS
 62
     7
 10
-256.4214272180445
 20
184.5
 11
-256.4214272180445
 21
90.50000000000003
  0
LINE
  8
1
  6
CONTINUOUS
 62
     7
 10
-250.4214272180445
 20
184.5
 11
-250.4214272180445
 21
90.50000000000003
  0
LINE
  8
1
  6
CONTINUOUS
 62
     7
 10
-256.4214272180445
 20
195.7
 11
-252.4214272180445
 21
195.7
  0
LINE
  8
1
  6
CONTINUOUS
 62
     7
 10
-256.4214272180445
 20
184.5
 11
-256.4214272180445
 21
195.7
  0
LINE
  8
1
  6
CONTINUOUS
 62
     7
 10
-306.4214272180445
 20
184.5
 11
-306.4214272180445
 21
192.0
  0
ARC
  8
1
  6
CONTINUOUS
 62
     7
 10
-305.9214272180445
 20
192.0
 40
0.5000000000000004
 50
90.0
 51
180.0
  0
LINE
  8
1
  6
CONTINUOUS
 62
     7
 10
-306.4214272180445
 20
90.50000000000003
 11
-306.4214272180445
 21
184.5
  0
LINE
  8
1
  6
CONTINUOUS
 62
     7
 10
-256.4214272180445
 20
82.50000000000001
 11
-305.9214272180445
 21
82.50000000000001
  0
LINE
  8
1
  6
CONTINUOUS
 62
     7
 10
-306.4214272180445
 20
83.00000000000001
 11
-306.4214272180445
 21
90.50000000000003
  0
ARC
  8
1
  6
CONTINUOUS
 62
     7
 10
-305.9214272180445
 20
83.00000000000001
 40
0.5000000000000004
 50
179.9999999999992
 51
270.0
  0
LINE
  8
1
  6
CONTINUOUS
 62
     7
 10
-305.9214272180445
 20
192.5
 11
-256.4214272180445
 21
192.5
  0
LINE
  8
1
  6
CONTINUOUS
 62
     7
 10
-262.4214272180445
 20
80.50000000000001
 11
-295.4214272180445
 21
80.50000000000001
  0
ARC
  8
1
  6
CONTINUOUS
 62
     7
 10
-258.7214272180445
 20
90.5
 40
8.484384185077928
 50
6.870838557901571
 51
11.96682576784691
  0
LINE
  8
1
  6
CONTINUOUS
 62
     7
 10
-250.2979748379334
 20
91.01500000000001
 11
-250.2979748379334
 21
91.51500000000001
  0
LINE
  8
1
  6
CONTINUOUS
 62
     7
 10
-250.4214272180445
 20
91.01500000000001
 11
-250.2979748379334
 21
91.01500000000001
  0
LINE
  8
1
  6
CONTINUOUS
 62
     7
 10
-250.2979748379334
 20
89.98500000000001
 11
-250.4214272180445
 21
89.98500000000001
  0
LINE
  8
1
  6
CONTINUOUS
 62
     7
 10
-250.2979748379334
 20
89.48500000000001
 11
-250.2979748379334
 21
89.98500000000001
  0
ARC
  8
1
  6
CONTINUOUS
 62
     7
 10
-258.7214272180445
 20
90.5
 40
8.484384185077932
 50
348.033174232153
 51
353.1291614420982
  0
ARC
  8
1
  6
CONTINUOUS
 62
     7
 10
-258.7214272180445
 20
184.5
 40
8.484384185077928
 50
6.870838557901571
 51
11.96682576784691
  0
LINE
  8
1
  6
CONTINUOUS
 62
     7
 10
-250.2979748379334
 20
185.015
 11
-250.2979748379334
 21
185.515
  0
LINE
  8
1
  6
CONTINUOUS
 62
     7
 10
-250.4214272180445
 20
185.015
 11
-250.2979748379334
 21
185.015
  0
LINE
  8
1
  6
CONTINUOUS
 62
     7
 10
-250.2979748379334
 20
183.985
 11
-250.4214272180445
 21
183.985
  0
LINE
  8
1
  6
CONTINUOUS
 62
     7
 10
-250.2979748379334
 20
183.485
 11
-250.2979748379334
 21
183.985
  0
ARC
  8
1
  6
CONTINUOUS
 62
     7
 10
-258.7214272180445
 20
184.5
 40
8.484384185077932
 50
348.033174232153
 51
353.1291614420982
  0
POLYLINE
  8
1
  6
CONTINUOUS
 62
     7
 66
     1
  0
VERTEX
  8
1
  6
CONTINUOUS
 62
     7
 10
-278.2602818366404
 20
79.58021431986658
  0
VERTEX
  8
1
  6
CONTINUOUS
 62
     7
 10
-278.3151768832615
 20
79.60583334366011
  0
VERTEX
  8
1
  6
CONTINUOUS
 62
     7
 10
-278.3691713926493
 20
79.63532985060604
  0
VERTEX
  8
1
  6
CONTINUOUS
 62
     7
 10
-278.4220077243588
 20
79.66879482302323
  0
VERTEX
  8
1
  6
CONTINUOUS
 62
     7
 10
-278.4618118137208
 20
79.69738105336775
  0
VERTEX
  8
1
  6
CONTINUOUS
 62
     7
 10
-278.5007507568954
 20
79.72850735706143
  0
VERTEX
  8
1
  6
CONTINUOUS
 62
     7
 10
-278.5386502372567
 20
79.76219635406537
  0
VERTEX
  8
1
  6
CONTINUOUS
 62
     7
 10
-278.5753359381789
 20
79.79847066434061
  0
VERTEX
  8
1
  6
CONTINUOUS
 62
     7
 10
-278.6059144658427
 20
79.83190171155633
  0
VERTEX
  8
1
  6
CONTINUOUS
 62
     7
 10
-278.6354094779023
 20
79.86736150581638
  0
VERTEX
  8
1
  6
CONTINUOUS
 62
     7
 10
-278.6636665133051
 20
79.9048270037076
  0
VERTEX
  8
1
  6
CONTINUOUS
 62
     7
 10
-278.6844444682133
 20
79.93496818323739
  0
VERTEX
  8
1
  6
CONTINUOUS
 62
     7
 10
-278.704379211025
 20
79.96633264935373
  0
VERTEX
  8
1
  6
CONTINUOUS
 62
     7
 10
-278.7233843703529
 20
79.99887947587501
  0
VERTEX
  8
1
  6
CONTINUOUS
 62
     7
 10
-278.7413735748097
 20
80.03256773661965
  0
VERTEX
  8
1
  6
CONTINUOUS
 62
     7
 10
-278.7594462970338
 20
80.0699197759727
  0
VERTEX
  8
1
  6
CONTINUOUS
 62
     7
 10
-278.7761962857164
 20
80.10854307170251
  0
VERTEX
  8
1
  6
CONTINUOUS
 62
     7
 10
-278.7866897599997
 20
80.13526351778724
  0
VERTEX
  8
1
  6
CONTINUOUS
 62
     7
 10
-278.7965135978679
 20
80.1625242747701
  0
VERTEX
  8
1
  6
CONTINUOUS
 62
     7
 10
-278.8056323858596
 20
80.19028262038869
  0
SEQEND
  8
1
  6
CONTINUOUS
 62
     7
  0
LINE
  8
1
  6
CONTINUOUS
 62
     7
 10
-294.2474258889003
 20
79.50000000579965
 11
-278.9214258889003
 21
79.50000000579965
  0
LINE
  8
1
  6
CONTINUOUS
 62
     7
 10
-278.9214258889003
 20
79.50000000579965
 11
-263.5954258889003
 21
79.50000000579965
  0
LINE
  8
1
  6
CONTINUOUS
 62
     7
 10
-295.1978426659479
 20
80.19028262038869
 11
-295.2474258889003
 21
80.50000000579965
  0
POLYLINE
  8
1
  6
CONTINUOUS
 62
     7
 66
     1
  0
VERTEX
  8
1
  6
CONTINUOUS
 62
     7
 10
-294.6259363654053
 20
79.58021431986658
  0
VERTEX
  8
1
  6
CONTINUOUS
 62
     7
 10
-294.6835060610917
 20
79.60583408804855
  0
VERTEX
  8
1
  6
CONTINUOUS
 62
     7
 10
-294.7401313127247
 20
79.6353315530664
  0
VERTEX
  8
1
  6
CONTINUOUS
 62
     7
 10
-294.7955419107807
 20
79.6687977044524
  0
VERTEX
  8
1
  6
CONTINUOUS
 62
     7
 10
-294.8372853481972
 20
79.69738505460889
  0
VERTEX
  8
1
  6
CONTINUOUS
 62
     7
 10
-294.8781214439854
 20
79.72851263436017
  0
VERTEX
  8
1
  6
CONTINUOUS
 62
     7
 10
-294.9178673743443
 20
79.76220306389116
  0
VERTEX
  8
1
  6
CONTINUOUS
 62
     7
 10
-294.9563403154729
 20
79.79847896338666
  0
VERTEX
  8
1
  6
CONTINUOUS
 62
     7
 10
-294.9884073917782
 20
79.83191031708131
  0
VERTEX
  8
1
  6
CONTINUOUS
 62
     7
 10
-295.0193381741466
 20
79.86737039953546
  0
VERTEX
  8
1
  6
CONTINUOUS
 62
     7
 10
-295.0489706797673
 20
79.9048361638941
  0
VERTEX
  8
1
  6
CONTINUOUS
 62
     7
 10
-295.0707600226706
 20
79.93497753989553
  0
VERTEX
  8
1
  6
CONTINUOUS
 62
     7
 10
-295.0916650825479
 20
79.96634218758095
  0
VERTEX
  8
1
  6
CONTINUOUS
 62
     7
 10
-295.1115952825558
 20
79.99888917840254
  0
VERTEX
  8
1
  6
CONTINUOUS
 62
     7
 10
-295.1304600458515
 20
80.03257758381253
  0
VERTEX
  8
1
  6
CONTINUOUS
 62
     7
 10
-295.1494112502214
 20
80.06992746146058
  0
VERTEX
  8
1
  6
CONTINUOUS
 62
     7
 10
-295.1669754739775
 20
80.10854841809248
  0
VERTEX
  8
1
  6
CONTINUOUS
 62
     7
 10
-295.1779790687656
 20
80.13526715560745
  0
VERTEX
  8
1
  6
CONTINUOUS
 62
     7
 10
-295.1882805095428
 20
80.16252612773867
  0
VERTEX
  8
1
  6
CONTINUOUS
 62
     7
 10
-295.1978426659479
 20
80.19028262038869
  0
SEQEND
  8
1
  6
CONTINUOUS
 62
     7
  0
LINE
  8
1
  6
CONTINUOUS
 62
     7
 10
-294.5765458694602
 20
79.56250547248227
 11
-294.6259363654053
 21
79.58021431986658
  0
LINE
  8
1
  6
CONTINUOUS
 62
     7
 10
-294.6151183043208
 20
79.58021431986242
 11
-294.5763531424531
 21
79.5625777693437
  0
POLYLINE
  8
1
  6
CONTINUOUS
 62
     7
 66
     1
  0
VERTEX
  8
1
  6
CONTINUOUS
 62
     7
 10
-295.1308170183997
 20
80.19028262036775
  0
VERTEX
  8
1
  6
CONTINUOUS
 62
     7
 10
-295.1190702788956
 20
80.15309316597859
  0
VERTEX
  8
1
  6
CONTINUOUS
 62
     7
 10
-295.1061264180895
 20
80.11679375684925
  0
VERTEX
  8
1
  6
CONTINUOUS
 62
     7
 10
-295.092067414137
 20
80.08147521539587
  0
VERTEX
  8
1
  6
CONTINUOUS
 62
     7
 10
-295.0769752451934
 20
80.0472283640345
  0
VERTEX
  8
1
  6
CONTINUOUS
 62
     7
 10
-295.0603157861115
 20
80.0129114646606
  0
VERTEX
  8
1
  6
CONTINUOUS
 62
     7
 10
-295.0426582400596
 20
79.97973468376723
  0
VERTEX
  8
1
  6
CONTINUOUS
 62
     7
 10
-295.0240867339191
 20
79.94774392178391
  0
VERTEX
  8
1
  6
CONTINUOUS
 62
     7
 10
-295.004685394572
 20
79.91698507914022
  0
VERTEX
  8
1
  6
CONTINUOUS
 62
     7
 10
-294.980396606171
 20
79.88170859252023
  0
VERTEX
  8
1
  6
CONTINUOUS
 62
     7
 10
-294.9550573424171
 20
79.84813452747606
  0
VERTEX
  8
1
  6
CONTINUOUS
 62
     7
 10
-294.928782596623
 20
79.81628093656423
  0
VERTEX
  8
1
  6
CONTINUOUS
 62
     7
 10
-294.9016873621014
 20
79.78616587234119
  0
VERTEX
  8
1
  6
CONTINUOUS
 62
     7
 10
-294.8633012304967
 20
79.74761015773989
  0
VERTEX
  8
1
  6
CONTINUOUS
 62
     7
 10
-294.823632826331
 20
79.71213225433407
  0
VERTEX
  8
1
  6
CONTINUOUS
 62
     7
 10
-294.7828975260597
 20
79.67970251496111
  0
VERTEX
  8
1
  6
CONTINUOUS
 62
     7
 10
-294.7421741262963
 20
79.6508605538511
  0
VERTEX
  8
1
  6
CONTINUOUS
 62
     7
 10
-294.7006692353426
 20
79.62476000327686
  0
VERTEX
  8
1
  6
CONTINUOUS
 62
     7
 10
-294.6581864075281
 20
79.60116979782812
  0
VERTEX
  8
1
  6
CONTINUOUS
 62
     7
 10
-294.6151183043208
 20
79.58021431986245
  0
SEQEND
  8
1
  6
CONTINUOUS
 62
     7
  0
LINE
  8
1
  6
CONTINUOUS
 62
     7
 10
-295.1081175223323
 20
80.19028262038874
 11
-295.1688117365506
 21
80.50000000579965
  0
POLYLINE
  8
1
  6
CONTINUOUS
 62
     7
 66
     1
  0
VERTEX
  8
1
  6
CONTINUOUS
 62
     7
 10
-294.4855114056332
 20
79.58021431986658
  0
VERTEX
  8
1
  6
CONTINUOUS
 62
     7
 10
-294.5481874985798
 20
79.6058353328832
  0
VERTEX
  8
1
  6
CONTINUOUS
 62
     7
 10
-294.6098353212685
 20
79.63533440008862
  0
VERTEX
  8
1
  6
CONTINUOUS
 62
     7
 10
-294.6701606674891
 20
79.66880252307887
  0
VERTEX
  8
1
  6
CONTINUOUS
 62
     7
 10
-294.7156066772246
 20
79.69739174593026
  0
VERTEX
  8
1
  6
CONTINUOUS
 62
     7
 10
-294.7600647864608
 20
79.72852145967765
  0
VERTEX
  8
1
  6
CONTINUOUS
 62
     7
 10
-294.8033359296302
 20
79.7622142848794
  0
VERTEX
  8
1
  6
CONTINUOUS
 62
     7
 10
-294.8452210411653
 20
79.79849284209395
  0
VERTEX
  8
1
  6
CONTINUOUS
 62
     7
 10
-294.8801307944773
 20
79.83192547509067
  0
VERTEX
  8
1
  6
CONTINUOUS
 62
     7
 10
-294.9138034326191
 20
79.86738689746821
  0
VERTEX
  8
1
  6
CONTINUOUS
 62
     7
 10
-294.9460626001078
 20
79.90485405452098
  0
VERTEX
  8
1
  6
CONTINUOUS
 62
     7
 10
-294.9697833317362
 20
79.93499658493552
  0
VERTEX
  8
1
  6
CONTINUOUS
 62
     7
 10
-294.9925413154195
 20
79.96636241990254
  0
VERTEX
  8
1
  6
CONTINUOUS
 62
     7
 10
-295.0142379378249
 20
79.99891062263329
  0
VERTEX
  8
1
  6
CONTINUOUS
 62
     7
 10
-295.0347745856195
 20
80.032600256339
  0
VERTEX
  8
1
  6
CONTINUOUS
 62
     7
 10
-295.0554018999993
 20
80.06994515670016
  0
VERTEX
  8
1
  6
CONTINUOUS
 62
     7
 10
-295.0745196862127
 20
80.10856072766425
  0
VERTEX
  8
1
  6
CONTINUOUS
 62
     7
 10
-295.0864966068156
 20
80.13527553133243
  0
VERTEX
  8
1
  6
CONTINUOUS
 62
     7
 10
-295.0977093532096
 20
80.16253039400806
  0
VERTEX
  8
1
  6
CONTINUOUS
 62
     7
 10
-295.1081175223323
 20
80.19028262038874
  0
SEQEND
  8
1
  6
CONTINUOUS
 62
     7
  0
LINE
  8
1
  6
CONTINUOUS
 62
     7
 10
-294.4257785060882
 20
79.56250547248227
 11
-294.4855114056332
 21
79.58021431986658
  0
LINE
  8
1
  6
CONTINUOUS
 62
     7
 10
-294.4531614062423
 20
79.58021431986303
 11
-294.4240467476848
 21
79.56315673500495
  0
POLYLINE
  8
1
  6
CONTINUOUS
 62
     7
 66
     1
  0
VERTEX
  8
1
  6
CONTINUOUS
 62
     7
 10
-294.9076860733282
 20
80.19028262037293
  0
VERTEX
  8
1
  6
CONTINUOUS
 62
     7
 10
-294.8973308866134
 20
80.15308679989188
  0
VERTEX
  8
1
  6
CONTINUOUS
 62
     7
 10
-294.8859202274595
 20
80.1167813373139
  0
VERTEX
  8
1
  6
CONTINUOUS
 62
     7
 10
-294.8735263870881
 20
80.08145709740045
  0
VERTEX
  8
1
  6
CONTINUOUS
 62
     7
 10
-294.8602216567207
 20
80.04720494491299
  0
VERTEX
  8
1
  6
CONTINUOUS
 62
     7
 10
-294.8455350120183
 20
80.01288260393457
  0
VERTEX
  8
1
  6
CONTINUOUS
 62
     7
 10
-294.8299684031625
 20
79.97970081963076
  0
VERTEX
  8
1
  6
CONTINUOUS
 62
     7
 10
-294.8135960154876
 20
79.94770550651279
  0
VERTEX
  8
1
  6
CONTINUOUS
 62
     7
 10
-294.7964920343279
 20
79.91694257909198
  0
VERTEX
  8
1
  6
CONTINUOUS
 62
     7
 10
-294.7750821449285
 20
79.88166622925878
  0
VERTEX
  8
1
  6
CONTINUOUS
 62
     7
 10
-294.752746394851
 20
79.84809248622854
  0
VERTEX
  8
1
  6
CONTINUOUS
 62
     7
 10
-294.7295861436971
 20
79.81623939103972
  0
VERTEX
  8
1
  6
CONTINUOUS
 62
     7
 10
-294.7057027510688
 20
79.78612498473078
  0
VERTEX
  8
1
  6
CONTINUOUS
 62
     7
 10
-294.6718670142658
 20
79.74757042406952
  0
VERTEX
  8
1
  6
CONTINUOUS
 62
     7
 10
-294.6369011537829
 20
79.71209394123545
  0
VERTEX
  8
1
  6
CONTINUOUS
 62
     7
 10
-294.6009950055977
 20
79.67966586832172
  0
VERTEX
  8
1
  6
CONTINUOUS
 62
     7
 10
-294.565112325169
 20
79.65083549858426
  0
VERTEX
  8
1
  6
CONTINUOUS
 62
     7
 10
-294.5285413620485
 20
79.62474483040226
  0
VERTEX
  8
1
  6
CONTINUOUS
 62
     7
 10
-294.4911091382866
 20
79.60116302369103
  0
VERTEX
  8
1
  6
CONTINUOUS
 62
     7
 10
-294.4531614062423
 20
79.58021431986303
  0
SEQEND
  8
1
  6
CONTINUOUS
 62
     7
  0
LINE
  8
1
  6
CONTINUOUS
 62
     7
 10
-294.9337263767634
 20
80.50000000579965
 11
-294.9368007319192
 21
80.42203229436664
  0
LINE
  8
1
  6
CONTINUOUS
 62
     7
 10
-294.8625056897412
 20
80.19028262038879
 11
-294.9337263767634
 21
80.50000000579965
  0
ARC
  8
1
  6
CONTINUOUS
 62
     7
 10
-293.8194419142629
 20
80.68914982410588
 40
1.170866743402236
 50
222.0539836468795
 51
251.2814631928007
  0
POLYLINE
  8
1
  6
CONTINUOUS
 62
     7
 66
     1
  0
VERTEX
  8
1
  6
CONTINUOUS
 62
     7
 10
-294.6888269171834
 20
79.9048675742096
  0
VERTEX
  8
1
  6
CONTINUOUS
 62
     7
 10
-294.7618965294099
 20
79.99892682758319
  0
VERTEX
  8
1
  6
CONTINUOUS
 62
     7
 10
-294.8265001501554
 20
80.10857002958328
  0
VERTEX
  8
1
  6
CONTINUOUS
 62
     7
 10
-294.8625056897412
 20
80.19028262038879
  0
SEQEND
  8
1
  6
CONTINUOUS
 62
     7
  0
LINE
  8
1
  6
CONTINUOUS
 62
     7
 10
-294.1256957514715
 20
79.56250547248227
 11
-294.1438956134002
 21
79.56516810887574
  0
LINE
  8
1
  6
CONTINUOUS
 62
     7
 10
-294.1438956134002
 20
79.56516810887574
 11
-294.1951957941403
 21
79.58021431986658
  0
LINE
  8
1
  6
CONTINUOUS
 62
     7
 10
-294.1416254046208
 20
79.58021431986344
 11
-294.1209007519829
 21
79.56431756157325
  0
POLYLINE
  8
1
  6
CONTINUOUS
 62
     7
 66
     1
  0
VERTEX
  8
1
  6
CONTINUOUS
 62
     7
 10
-294.5305987037005
 20
80.19028262037381
  0
VERTEX
  8
1
  6
CONTINUOUS
 62
     7
 10
-294.5217357153562
 20
80.15308198278478
  0
VERTEX
  8
1
  6
CONTINUOUS
 62
     7
 10
-294.5119692425352
 20
80.11677193970867
  0
VERTEX
  8
1
  6
CONTINUOUS
 62
     7
 10
-294.5013611750107
 20
80.0814433879567
  0
VERTEX
  8
1
  6
CONTINUOUS
 62
     7
 10
-294.4899734025555
 20
80.04718722434009
  0
VERTEX
  8
1
  6
CONTINUOUS
 62
     7
 10
-294.4774026639701
 20
80.0128607658868
  0
VERTEX
  8
1
  6
CONTINUOUS
 62
     7
 10
-294.4640786919487
 20
79.97967519574782
  0
VERTEX
  8
1
  6
CONTINUOUS
 62
     7
 10
-294.4500649973875
 20
79.94767643908926
  0
VERTEX
  8
1
  6
CONTINUOUS
 62
     7
 10
-294.4354250911825
 20
79.91691042107723
  0
VERTEX
  8
1
  6
CONTINUOUS
 62
     7
 10
-294.4171014220065
 20
79.88163417486463
  0
VERTEX
  8
1
  6
CONTINUOUS
 62
     7
 10
-294.3979854216756
 20
79.84806067561657
  0
VERTEX
  8
1
  6
CONTINUOUS
 62
     7
 10
-294.3781638364197
 20
79.81620795565563
  0
VERTEX
  8
1
  6
CONTINUOUS
 62
     7
 10
-294.3577234124687
 20
79.78609404730446
  0
VERTEX
  8
1
  6
CONTINUOUS
 62
     7
 10
-294.3287654402751
 20
79.74754035998563
  0
VERTEX
  8
1
  6
CONTINUOUS
 62
     7
 10
-294.2988403569918
 20
79.71206495225502
  0
VERTEX
  8
1
  6
CONTINUOUS
 62
     7
 10
-294.2681106258734
 20
79.67963814050944
  0
VERTEX
  8
1
  6
CONTINUOUS
 62
     7
 10
-294.237409383148
 20
79.6508165407914
  0
VERTEX
  8
1
  6
CONTINUOUS
 62
     7
 10
-294.2061194485951
 20
79.62473334981307
  0
VERTEX
  8
1
  6
CONTINUOUS
 62
     7
 10
-294.1740928976199
 20
79.60115789788999
  0
VERTEX
  8
1
  6
CONTINUOUS
 62
     7
 10
-294.1416254046208
 20
79.58021431986344
  0
SEQEND
  8
1
  6
CONTINUOUS
 62
     7
  0
LINE
  8
1
  6
CONTINUOUS
 62
     7
 10
-294.5444338100643
 20
80.50000000579965
 11
-294.5513233563195
 21
80.38338676720474
  0
LINE
  8
1
  6
CONTINUOUS
 62
     7
 10
-294.4633725443873
 20
80.1902826203888
 11
-294.5444338100643
 21
80.50000000579965
  0
ARC
  8
1
  6
CONTINUOUS
 62
     7
 10
-293.3803011533251
 20
80.76898979598514
 40
1.247269622406703
 50
223.8523939946258
 51
252.3832523960937
  0
POLYLINE
  8
1
  6
CONTINUOUS
 62
     7
 66
     1
  0
VERTEX
  8
1
  6
CONTINUOUS
 62
     7
 10
-294.2797409514162
 20
79.90487778901584
  0
VERTEX
  8
1
  6
CONTINUOUS
 62
     7
 10
-294.35700124329
 20
79.9989390711571
  0
VERTEX
  8
1
  6
CONTINUOUS
 62
     7
 10
-294.4253054296326
 20
80.10857705751162
  0
VERTEX
  8
1
  6
CONTINUOUS
 62
     7
 10
-294.4633725443873
 20
80.1902826203888
  0
SEQEND
  8
1
  6
CONTINUOUS
 62
     7
  0
LINE
  8
1
  6
CONTINUOUS
 62
     7
 10
-293.6791875665789
 20
79.56250547248227
 11
-293.7577854289681
 21
79.58021431986658
  0
LINE
  8
1
  6
CONTINUOUS
 62
     7
 10
-293.6835105614539
 20
79.58021431986292
 11
-293.6698346170157
 21
79.56606625023518
  0
ARC
  8
1
  6
CONTINUOUS
 62
     7
 10
-292.7559319328843
 20
80.4016429524369
 40
1.265036387975486
 50
189.6179978000849
 51
209.1176356207986
  0
POLYLINE
  8
1
  6
CONTINUOUS
 62
     7
 66
     1
  0
VERTEX
  8
1
  6
CONTINUOUS
 62
     7
 10
-293.8610961692896
 20
79.78607080112323
  0
VERTEX
  8
1
  6
CONTINUOUS
 62
     7
 10
-293.7874446403715
 20
79.6796173064096
  0
VERTEX
  8
1
  6
CONTINUOUS
 62
     7
 10
-293.7101892305143
 20
79.60115404629323
  0
VERTEX
  8
1
  6
CONTINUOUS
 62
     7
 10
-293.6835105614539
 20
79.58021431986295
  0
SEQEND
  8
1
  6
CONTINUOUS
 62
     7
  0
LINE
  8
1
  6
CONTINUOUS
 62
     7
 10
-294.0046831366795
 20
80.50000000579965
 11
-294.0168624114429
 21
80.3451429973217
  0
LINE
  8
1
  6
CONTINUOUS
 62
     7
 10
-293.9145619566487
 20
80.1902826203888
 11
-294.0046831366795
 21
80.50000000579965
  0
ARC
  8
1
  6
CONTINUOUS
 62
     7
 10
-292.7978360000029
 20
80.83799129522092
 40
1.313827315099952
 50
225.252784757291
 51
253.2036925206451
  0
POLYLINE
  8
1
  6
CONTINUOUS
 62
     7
 66
     1
  0
VERTEX
  8
1
  6
CONTINUOUS
 62
     7
 10
-293.7227444244008
 20
79.90488539534645
  0
VERTEX
  8
1
  6
CONTINUOUS
 62
     7
 10
-293.8034514425871
 20
79.99894818813837
  0
VERTEX
  8
1
  6
CONTINUOUS
 62
     7
 10
-293.8747992491926
 20
80.10858229069393
  0
VERTEX
  8
1
  6
CONTINUOUS
 62
     7
 10
-293.9145619566487
 20
80.1902826203888
  0
SEQEND
  8
1
  6
CONTINUOUS
 62
     7
  0
LINE
  8
1
  6
CONTINUOUS
 62
     7
 10
-293.0905540693171
 20
79.56250547248229
 11
-293.1774928110458
 21
79.58021431986658
  0
LINE
  8
1
  6
CONTINUOUS
 62
     7
 10
-293.0832287731104
 20
79.5802143198587
 11
-293.075192356217
 21
79.56841007583962
  0
ARC
  8
1
  6
CONTINUOUS
 62
     7
 10
-291.8192120237845
 20
80.38421628781505
 40
1.523708684748403
 50
187.3122913825189
 51
203.1145158072242
  0
POLYLINE
  8
1
  6
CONTINUOUS
 62
     7
 66
     1
  0
VERTEX
  8
1
  6
CONTINUOUS
 62
     7
 10
-293.2206005289905
 20
79.78605375684677
  0
VERTEX
  8
1
  6
CONTINUOUS
 62
     7
 10
-293.1636219493191
 20
79.67960203090665
  0
VERTEX
  8
1
  6
CONTINUOUS
 62
     7
 10
-293.0832287731104
 20
79.5802143198587
  0
SEQEND
  8
1
  6
CONTINUOUS
 62
     7
  0
LINE
  8
1
  6
CONTINUOUS
 62
     7
 10
-293.3196724506515
 20
80.50000000579965
 11
-293.3385650482335
 21
80.30743782549784
  0
LINE
  8
1
  6
CONTINUOUS
 62
     7
 10
-293.2213592724959
 20
80.19028262038883
 11
-293.3196724506515
 21
80.50000000579965
  0
ARC
  8
1
  6
CONTINUOUS
 62
     7
 10
-292.0781596365957
 20
80.89350349918516
 40
1.367647292810545
 50
226.2908192675598
 51
253.7919112416083
  0
POLYLINE
  8
1
  6
CONTINUOUS
 62
     7
 66
     1
  0
VERTEX
  8
1
  6
CONTINUOUS
 62
     7
 10
-293.0232015172539
 20
79.90489085444808
  0
VERTEX
  8
1
  6
CONTINUOUS
 62
     7
 10
-293.1065781146024
 20
79.99895473141738
  0
VERTEX
  8
1
  6
CONTINUOUS
 62
     7
 10
-293.1802832843399
 20
80.10858604653396
  0
VERTEX
  8
1
  6
CONTINUOUS
 62
     7
 10
-293.2213592724959
 20
80.19028262038883
  0
SEQEND
  8
1
  6
CONTINUOUS
 62
     7
  0
LINE
  8
1
  6
CONTINUOUS
 62
     7
 10
-292.3654641220445
 20
79.56250547248229
 11
-292.4599064755044
 21
79.58021431986658
  0
LINE
  8
1
  6
CONTINUOUS
 62
     7
 10
-292.3465610813692
 20
79.58021431985912
 11
-292.3427006996629
 21
79.57135923052766
  0
LINE
  8
1
  6
CONTINUOUS
 62
     7
 10
-292.5191032596512
 20
80.1902826203702
 11
-292.3465610813692
 21
79.58021431985912
  0
LINE
  8
1
  6
CONTINUOUS
 62
     7
 10
-292.4959987793516
 20
80.50000000579965
 11
-292.5229636410326
 21
80.27039399843785
  0
LINE
  8
1
  6
CONTINUOUS
 62
     7
 10
-292.3904404127203
 20
80.19028262038883
 11
-292.4959987793516
 21
80.50000000579965
  0
ARC
  8
1
  6
CONTINUOUS
 62
     7
 10
-291.2285373880327
 20
80.9333937208418
 40
1.406445834301569
 50
226.993422886801
 51
254.1808471008092
  0
POLYLINE
  8
1
  6
CONTINUOUS
 62
     7
 66
     1
  0
VERTEX
  8
1
  6
CONTINUOUS
 62
     7
 10
-292.1878492106381
 20
79.90489446861378
  0
VERTEX
  8
1
  6
CONTINUOUS
 62
     7
 10
-292.2730925305192
 20
79.99895906334473
  0
VERTEX
  8
1
  6
CONTINUOUS
 62
     7
 10
-292.3484461035125
 20
80.1085885330462
  0
VERTEX
  8
1
  6
CONTINUOUS
 62
     7
 10
-292.3904404127203
 20
80.19028262038883
  0
SEQEND
  8
1
  6
CONTINUOUS
 62
     7
  0
LINE
  8
1
  6
CONTINUOUS
 62
     7
 10
-291.5109007373279
 20
79.56250547248227
 11
-291.6119371710276
 21
79.58021431986658
  0
LINE
  8
1
  6
CONTINUOUS
 62
     7
 10
-291.4806019987986
 20
79.58021431985937
 11
-291.4794139423636
 21
79.574921932631
  0
LINE
  8
1
  6
CONTINUOUS
 62
     7
 10
-291.5767248215245
 20
80.19028262037112
 11
-291.4806019987986
 21
79.58021431985937
  0
LINE
  8
1
  6
CONTINUOUS
 62
     7
 10
-291.5415945505003
 20
80.50000000579965
 11
-291.5779128765491
 21
80.23413871778732
  0
LINE
  8
1
  6
CONTINUOUS
 62
     7
 10
-291.429807580168
 20
80.19028262038884
 11
-291.5415945505003
 21
80.50000000579965
  0
ARC
  8
1
  6
CONTINUOUS
 62
     7
 10
-290.2573609835882
 20
80.95612940746408
 40
1.428600100765692
 50
227.3789466111443
 51
254.3911954517291
  0
POLYLINE
  8
1
  6
CONTINUOUS
 62
     7
 66
     1
  0
VERTEX
  8
1
  6
CONTINUOUS
 62
     7
 10
-291.2247324039438
 20
79.90489642520615
  0
VERTEX
  8
1
  6
CONTINUOUS
 62
     7
 10
-291.311021612188
 20
79.99896140850637
  0
VERTEX
  8
1
  6
CONTINUOUS
 62
     7
 10
-291.3872987535094
 20
80.10858987915721
  0
VERTEX
  8
1
  6
CONTINUOUS
 62
     7
 10
-291.429807580168
 20
80.19028262038884
  0
SEQEND
  8
1
  6
CONTINUOUS
 62
     7
  0
LINE
  8
1
  6
CONTINUOUS
 62
     7
 10
-290.5350938277139
 20
79.56250547248229
 11
-290.6417513055649
 21
79.58021431986658
  0
LINE
  8
1
  6
CONTINUOUS
 62
     7
 10
-290.4936911847457
 20
79.58021431985946
 11
-290.4936460077982
 21
79.57910772560281
  0
LINE
  8
1
  6
CONTINUOUS
 62
     7
 10
-290.5124689365863
 20
80.19028262036964
 11
-290.4936911847457
 21
79.58021431985948
  0
LINE
  8
1
  6
CONTINUOUS
 62
     7
 10
-290.4656511985518
 20
80.50000000579965
 11
-290.5125141096713
 21
80.19878102887456
  0
LINE
  8
1
  6
CONTINUOUS
 62
     7
 10
-290.3487121941517
 20
80.19028262038883
 11
-290.4656511985518
 21
80.50000000579965
  0
ARC
  8
1
  6
CONTINUOUS
 62
     7
 10
-289.1740928470831
 20
80.96083705896847
 40
1.433190806004343
 50
227.4574787817578
 51
254.4337821690491
  0
POLYLINE
  8
1
  6
CONTINUOUS
 62
     7
 66
     1
  0
VERTEX
  8
1
  6
CONTINUOUS
 62
     7
 10
-290.1431264385303
 20
79.9048968215201
  0
VERTEX
  8
1
  6
CONTINUOUS
 62
     7
 10
-290.2296306285002
 20
79.99896188352595
  0
VERTEX
  8
1
  6
CONTINUOUS
 62
     7
 10
-290.306097608739
 20
80.1085901518157
  0
VERTEX
  8
1
  6
CONTINUOUS
 62
     7
 10
-290.3487121941517
 20
80.19028262038883
  0
SEQEND
  8
1
  6
CONTINUOUS
 62
     7
  0
LINE
  8
1
  6
CONTINUOUS
 62
     7
 10
-289.4474409471724
 20
79.56250547248227
 11
-289.5586922993581
 21
79.58021431986658
  0
LINE
  8
1
  6
CONTINUOUS
 62
     7
 10
-289.3953331298499
 20
79.58021431985944
 11
-289.4474409471724
 21
79.56250547248227
  0
LINE
  8
1
  6
CONTINUOUS
 62
     7
 10
-289.3365849707902
 20
80.19028262037058
 11
-289.3953331298499
 21
79.58021431985944
  0
LINE
  8
1
  6
CONTINUOUS
 62
     7
 10
-289.278530646156
 20
80.50000000579965
 11
-289.3365849707902
 21
80.19028262037058
  0
LINE
  8
1
  6
CONTINUOUS
 62
     7
 10
-289.1575657942258
 20
80.19028262038883
 11
-289.278530646156
 21
80.50000000579965
  0
ARC
  8
1
  6
CONTINUOUS
 62
     7
 10
-287.9891872858965
 20
80.94733580741647
 40
1.420028066284091
 50
227.2310749525179
 51
254.3107673810621
  0
POLYLINE
  8
1
  6
CONTINUOUS
 62
     7
 66
     1
  0
VERTEX
  8
1
  6
CONTINUOUS
 62
     7
 10
-288.9534477711136
 20
79.90489567691326
  0
VERTEX
  8
1
  6
CONTINUOUS
 62
     7
 10
-289.0393339657826
 20
79.99896051160667
  0
VERTEX
  8
1
  6
CONTINUOUS
 62
     7
 10
-289.1152552272721
 20
80.10858936434163
  0
VERTEX
  8
1
  6
CONTINUOUS
 62
     7
 10
-289.1575657942258
 20
80.19028262038883
  0
SEQEND
  8
1
  6
CONTINUOUS
 62
     7
  0
LINE
  8
1
  6
CONTINUOUS
 62
     7
 10
-288.2584167875146
 20
79.56250547248227
 11
-288.3731906026973
 21
79.58021431986658
  0
LINE
  8
1
  6
CONTINUOUS
 62
     7
 10
-288.1961056226038
 20
79.58021431985925
 11
-288.2584167875146
 21
79.56250547248227
  0
LINE
  8
1
  6
CONTINUOUS
 62
     7
 10
-288.0603973295304
 20
80.19028262037162
 11
-288.1961056226038
 21
79.58021431985925
  0
LINE
  8
1
  6
CONTINUOUS
 62
     7
 10
-287.9916655131783
 20
80.50000000579965
 11
-288.0603973295304
 21
80.19028262037162
  0
LINE
  8
1
  6
CONTINUOUS
 62
     7
 10
-287.8678397713684
 20
80.19028262038883
 11
-287.9916655131783
 21
80.50000000579965
  0
ARC
  8
1
  6
CONTINUOUS
 62
     7
 10
-286.7139922011145
 20
80.9161443698878
 40
1.389656873607517
 50
226.6938093604371
 51
254.0158822684104
  0
POLYLINE
  8
1
  6
CONTINUOUS
 62
     7
 66
     1
  0
VERTEX
  8
1
  6
CONTINUOUS
 62
     7
 10
-287.6671536575972
 20
79.90489293515925
  0
VERTEX
  8
1
  6
CONTINUOUS
 62
     7
 10
-287.7515948315653
 20
79.99895722535202
  0
VERTEX
  8
1
  6
CONTINUOUS
 62
     7
 10
-287.826240072217
 20
80.10858747804552
  0
VERTEX
  8
1
  6
CONTINUOUS
 62
     7
 10
-287.8678397713684
 20
80.19028262038883
  0
SEQEND
  8
1
  6
CONTINUOUS
 62
     7
  0
LINE
  8
1
  6
CONTINUOUS
 62
     7
 10
-286.9794723013848
 20
79.56250547248229
 11
-287.0966632449824
 21
79.58021431986658
  0
LINE
  8
1
  6
CONTINUOUS
 62
     7
 10
-286.9075578794667
 20
79.58021431985892
 11
-286.9794723013848
 21
79.56250547248229
  0
LINE
  8
1
  6
CONTINUOUS
 62
     7
 10
-286.6961963974277
 20
80.19028262036852
 11
-286.9075578794667
 21
79.58021431985892
  0
LINE
  8
1
  6
CONTINUOUS
 62
     7
 10
-286.6174490143215
 20
80.50000000579965
 11
-286.6961963974277
 21
80.19028262036852
  0
LINE
  8
1
  6
CONTINUOUS
 62
     7
 10
-286.4919548922155
 20
80.19028262038883
 11
-286.6174490143215
 21
80.50000000579965
  0
ARC
  8
1
  6
CONTINUOUS
 62
     7
 10
-285.3606328012856
 20
80.86846110800003
 40
1.343341506623329
 50
225.8316307218857
 51
253.533738699524
  0
POLYLINE
  8
1
  6
CONTINUOUS
 62
     7
 66
     1
  0
VERTEX
  8
1
  6
CONTINUOUS
 62
     7
 10
-286.2966318134286
 20
79.90488845755573
  0
VERTEX
  8
1
  6
CONTINUOUS
 62
     7
 10
-286.3788148576226
 20
79.99895185850461
  0
VERTEX
  8
1
  6
CONTINUOUS
 62
     7
 10
-286.4514660641486
 20
80.10858439748574
  0
VERTEX
  8
1
  6
CONTINUOUS
 62
     7
 10
-286.4919548922155
 20
80.19028262038883
  0
SEQEND
  8
1
  6
CONTINUOUS
 62
     7
  0
LINE
  8
1
  6
CONTINUOUS
 62
     7
 10
-285.6229244233265
 20
79.56250547248229
 11
-285.7414038824891
 21
79.58021431986658
  0
LINE
  8
1
  6
CONTINUOUS
 62
     7
 10
-285.5420993195914
 20
79.58021431986309
 11
-285.6229244233265
 21
79.56250547248229
  0
ARC
  8
1
  6
CONTINUOUS
 62
     7
 10
-286.6114367810368
 20
80.39273367320648
 40
1.369364778875489
 50
333.7025322133589
 51
351.4980517586546
  0
POLYLINE
  8
1
  6
CONTINUOUS
 62
     7
 66
     1
  0
VERTEX
  8
1
  6
CONTINUOUS
 62
     7
 10
-285.3837930251902
 20
79.78606184564602
  0
VERTEX
  8
1
  6
CONTINUOUS
 62
     7
 10
-285.449451877823
 20
79.67960928026608
  0
VERTEX
  8
1
  6
CONTINUOUS
 62
     7
 10
-285.5183178576949
 20
79.60115256246128
  0
VERTEX
  8
1
  6
CONTINUOUS
 62
     7
 10
-285.5420993195914
 20
79.58021431986309
  0
SEQEND
  8
1
  6
CONTINUOUS
 62
     7
  0
LINE
  8
1
  6
CONTINUOUS
 62
     7
 10
-285.1691156056927
 20
80.50000000579965
 11
-285.2571201752059
 21
80.19028262036848
  0
LINE
  8
1
  6
CONTINUOUS
 62
     7
 10
-285.0431616802885
 20
80.1902826203888
 11
-285.1691156056927
 21
80.50000000579965
  0
ARC
  8
1
  6
CONTINUOUS
 62
     7
 10
-283.9418768522651
 20
80.80611795891488
 40
1.283030890650076
 50
224.6220743256806
 51
252.8380955787388
  0
POLYLINE
  8
1
  6
CONTINUOUS
 62
     7
 66
     1
  0
VERTEX
  8
1
  6
CONTINUOUS
 62
     7
 10
-284.8550811131299
 20
79.904882005182
  0
VERTEX
  8
1
  6
CONTINUOUS
 62
     7
 10
-284.9342146654776
 20
79.9989441246771
  0
VERTEX
  8
1
  6
CONTINUOUS
 62
     7
 10
-285.0041730282657
 20
80.108579958257
  0
VERTEX
  8
1
  6
CONTINUOUS
 62
     7
 10
-285.0431616802885
 20
80.1902826203888
  0
SEQEND
  8
1
  6
CONTINUOUS
 62
     7
  0
LINE
  8
1
  6
CONTINUOUS
 62
     7
 10
-284.2018374509699
 20
79.56250547248229
 11
-284.3204644037383
 21
79.58021431986658
  0
LINE
  8
1
  6
CONTINUOUS
 62
     7
 10
-284.1128800553545
 20
79.58021431986276
 11
-284.2018374509699
 21
79.56250547248229
  0
POLYLINE
  8
1
  6
CONTINUOUS
 62
     7
 66
     1
  0
VERTEX
  8
1
  6
CONTINUOUS
 62
     7
 10
-283.757027753565
 20
80.1902826203641
  0
VERTEX
  8
1
  6
CONTINUOUS
 62
     7
 10
-283.765136498014
 20
80.15308009741942
  0
VERTEX
  8
1
  6
CONTINUOUS
 62
     7
 10
-283.774071878446
 20
80.11676826160279
  0
VERTEX
  8
1
  6
CONTINUOUS
 62
     7
 10
-283.7837772662647
 20
80.08143802227114
  0
VERTEX
  8
1
  6
CONTINUOUS
 62
     7
 10
-283.7941960328735
 20
80.04718028878138
  0
VERTEX
  8
1
  6
CONTINUOUS
 62
     7
 10
-283.8056971619596
 20
80.01285221882127
  0
VERTEX
  8
1
  6
CONTINUOUS
 62
     7
 10
-283.8178874503195
 20
79.97966516699061
  0
VERTEX
  8
1
  6
CONTINUOUS
 62
     7
 10
-283.8307087862084
 20
79.94766506262559
  0
VERTEX
  8
1
  6
CONTINUOUS
 62
     7
 10
-283.844103057881
 20
79.91689783506231
  0
VERTEX
  8
1
  6
CONTINUOUS
 62
     7
 10
-283.8608670094508
 20
79.88162162943286
  0
VERTEX
  8
1
  6
CONTINUOUS
 62
     7
 10
-283.8783558245282
 20
79.84804822562627
  0
VERTEX
  8
1
  6
CONTINUOUS
 62
     7
 10
-283.8964901416352
 20
79.81619565255383
  0
VERTEX
  8
1
  6
CONTINUOUS
 62
     7
 10
-283.9151905992938
 20
79.78608193912676
  0
VERTEX
  8
1
  6
CONTINUOUS
 62
     7
 10
-283.9416835264723
 20
79.74752859366487
  0
VERTEX
  8
1
  6
CONTINUOUS
 62
     7
 10
-283.9690612059029
 20
79.71205360675934
  0
VERTEX
  8
1
  6
CONTINUOUS
 62
     7
 10
-283.9971750061297
 20
79.67962728866362
  0
VERTEX
  8
1
  6
CONTINUOUS
 62
     7
 10
-284.025259734061
 20
79.6508091211969
  0
VERTEX
  8
1
  6
CONTINUOUS
 62
     7
 10
-284.0538829097698
 20
79.62472885655727
  0
VERTEX
  8
1
  6
CONTINUOUS
 62
     7
 10
-284.0831798239658
 20
79.60115589172945
  0
VERTEX
  8
1
  6
CONTINUOUS
 62
     7
 10
-284.1128800553545
 20
79.58021431986276
  0
SEQEND
  8
1
  6
CONTINUOUS
 62
     7
  0
LINE
  8
1
  6
CONTINUOUS
 62
     7
 10
-283.6606135297566
 20
80.50000000579965
 11
-283.757027753565
 21
80.1902826203641
  0
LINE
  8
1
  6
CONTINUOUS
 62
     7
 10
-283.5354128062094
 20
80.19028262038879
 11
-283.6606135297566
 21
80.50000000579965
  0
ARC
  8
1
  6
CONTINUOUS
 62
     7
 10
-282.4709784360879
 20
80.73151000432014
 40
1.211310140076362
 50
223.0339814610377
 51
251.8887886432532
  0
POLYLINE
  8
1
  6
CONTINUOUS
 62
     7
 66
     1
  0
VERTEX
  8
1
  6
CONTINUOUS
 62
     7
 10
-283.3563844779133
 20
79.9048732058707
  0
VERTEX
  8
1
  6
CONTINUOUS
 62
     7
 10
-283.431706544582
 20
79.99893357775997
  0
VERTEX
  8
1
  6
CONTINUOUS
 62
     7
 10
-283.4982991876342
 20
80.1085739042591
  0
VERTEX
  8
1
  6
CONTINUOUS
 62
     7
 10
-283.5354128062094
 20
80.19028262038879
  0
SEQEND
  8
1
  6
CONTINUOUS
 62
     7
  0
LINE
  8
1
  6
CONTINUOUS
 62
     7
 10
-282.7298972287039
 20
79.56250547248227
 11
-282.847529232675
 21
79.58021431986658
  0
LINE
  8
1
  6
CONTINUOUS
 62
     7
 10
-282.6336642495559
 20
79.58021431986326
 11
-282.7298972287039
 21
79.56250547248227
  0
POLYLINE
  8
1
  6
CONTINUOUS
 62
     7
 66
     1
  0
VERTEX
  8
1
  6
CONTINUOUS
 62
     7
 10
-282.2103658425588
 20
80.19028262035977
  0
VERTEX
  8
1
  6
CONTINUOUS
 62
     7
 10
-282.2200103090485
 20
80.15308429956913
  0
VERTEX
  8
1
  6
CONTINUOUS
 62
     7
 10
-282.2306378670162
 20
80.11677645948929
  0
VERTEX
  8
1
  6
CONTINUOUS
 62
     7
 10
-282.2421811779527
 20
80.08144998151626
  0
VERTEX
  8
1
  6
CONTINUOUS
 62
     7
 10
-282.254572903349
 20
80.04719574704602
  0
VERTEX
  8
1
  6
CONTINUOUS
 62
     7
 10
-282.2682518025197
 20
80.01287126889154
  0
VERTEX
  8
1
  6
CONTINUOUS
 62
     7
 10
-282.2827503116848
 20
79.97968751954147
  0
VERTEX
  8
1
  6
CONTINUOUS
 62
     7
 10
-282.2979993282488
 20
79.9476904190375
  0
VERTEX
  8
1
  6
CONTINUOUS
 62
     7
 10
-282.3139297496165
 20
79.91692588742133
  0
VERTEX
  8
1
  6
CONTINUOUS
 62
     7
 10
-282.3338696104641
 20
79.8816495913597
  0
VERTEX
  8
1
  6
CONTINUOUS
 62
     7
 10
-282.3546717232376
 20
79.84807597485127
  0
VERTEX
  8
1
  6
CONTINUOUS
 62
     7
 10
-282.3762416891948
 20
79.81622307441057
  0
VERTEX
  8
1
  6
CONTINUOUS
 62
     7
 10
-282.3984851095935
 20
79.78610892655222
  0
VERTEX
  8
1
  6
CONTINUOUS
 62
     7
 10
-282.4299974368222
 20
79.74755481917886
  0
VERTEX
  8
1
  6
CONTINUOUS
 62
     7
 10
-282.4625622321767
 20
79.71207889435577
  0
VERTEX
  8
1
  6
CONTINUOUS
 62
     7
 10
-282.4960026985646
 20
79.67965147602892
  0
VERTEX
  8
1
  6
CONTINUOUS
 62
     7
 10
-282.5294165618583
 20
79.65082565845863
  0
VERTEX
  8
1
  6
CONTINUOUS
 62
     7
 10
-282.5634712374685
 20
79.62473887137355
  0
VERTEX
  8
1
  6
CONTINUOUS
 62
     7
 10
-282.5983277594136
 20
79.60116036314564
  0
VERTEX
  8
1
  6
CONTINUOUS
 62
     7
 10
-282.6336642495559
 20
79.58021431986326
  0
SEQEND
  8
1
  6
CONTINUOUS
 62
     7
  0
LINE
  8
1
  6
CONTINUOUS
 62
     7
 10
-282.1064704861355
 20
80.50000000579965
 11
-282.2103658425588
 21
80.19028262035977
  0
LINE
  8
1
  6
CONTINUOUS
 62
     7
 10
-281.9832287158546
 20
80.19028262038874
 11
-282.1064704861355
 21
80.50000000579965
  0
POLYLINE
  8
1
  6
CONTINUOUS
 62
     7
 66
     1
  0
VERTEX
  8
1
  6
CONTINUOUS
 62
     7
 10
-281.3367835401847
 20
79.58021431986658
  0
VERTEX
  8
1
  6
CONTINUOUS
 62
     7
 10
-281.4018606616669
 20
79.60583585071565
  0
VERTEX
  8
1
  6
CONTINUOUS
 62
     7
 10
-281.4658700977992
 20
79.6353355844113
  0
VERTEX
  8
1
  6
CONTINUOUS
 62
     7
 10
-281.5285063591255
 20
79.66880452756817
  0
VERTEX
  8
1
  6
CONTINUOUS
 62
     7
 10
-281.5756933187596
 20
79.69739452944812
  0
VERTEX
  8
1
  6
CONTINUOUS
 62
     7
 10
-281.6218544991013
 20
79.7285251309261
  0
VERTEX
  8
1
  6
CONTINUOUS
 62
     7
 10
-281.6667831977012
 20
79.76221895271568
  0
VERTEX
  8
1
  6
CONTINUOUS
 62
     7
 10
-281.7102727121098
 20
79.79849861553043
  0
VERTEX
  8
1
  6
CONTINUOUS
 62
     7
 10
-281.7465190924206
 20
79.83193178068365
  0
VERTEX
  8
1
  6
CONTINUOUS
 62
     7
 10
-281.7814809514065
 20
79.86739376043262
  0
VERTEX
  8
1
  6
CONTINUOUS
 62
     7
 10
-281.8149751755525
 20
79.90486149680567
  0
VERTEX
  8
1
  6
CONTINUOUS
 62
     7
 10
-281.8396040463398
 20
79.93500450742269
  0
VERTEX
  8
1
  6
CONTINUOUS
 62
     7
 10
-281.8632332749687
 20
79.96637083626295
  0
VERTEX
  8
1
  6
CONTINUOUS
 62
     7
 10
-281.8857604693482
 20
79.99891954310941
  0
VERTEX
  8
1
  6
CONTINUOUS
 62
     7
 10
-281.9070832373871
 20
80.03260968774495
  0
VERTEX
  8
1
  6
CONTINUOUS
 62
     7
 10
-281.9284986589563
 20
80.06995251759359
  0
VERTEX
  8
1
  6
CONTINUOUS
 62
     7
 10
-281.948346930473
 20
80.10856584818782
  0
VERTEX
  8
1
  6
CONTINUOUS
 62
     7
 10
-281.9607815090199
 20
80.13527901544929
  0
VERTEX
  8
1
  6
CONTINUOUS
 62
     7
 10
-281.9724227514432
 20
80.16253216867811
  0
VERTEX
  8
1
  6
CONTINUOUS
 62
     7
 10
-281.9832287158546
 20
80.19028262038874
  0
SEQEND
  8
1
  6
CONTINUOUS
 62
     7
  0
LINE
  8
1
  6
CONTINUOUS
 62
     7
 10
-281.2212793455136
 20
79.56250547248229
 11
-281.3367835401847
 21
79.58021431986658
  0
LINE
  8
1
  6
CONTINUOUS
 62
     7
 10
-281.11869755903
 20
79.58021431986276
 11
-281.2212793455136
 21
79.56250547248229
  0
POLYLINE
  8
1
  6
CONTINUOUS
 62
     7
 66
     1
  0
VERTEX
  8
1
  6
CONTINUOUS
 62
     7
 10
-280.6320296418772
 20
80.19028262037186
  0
VERTEX
  8
1
  6
CONTINUOUS
 62
     7
 10
-280.6431161583552
 20
80.15308986193011
  0
VERTEX
  8
1
  6
CONTINUOUS
 62
     7
 10
-280.6553326041993
 20
80.11678731100534
  0
VERTEX
  8
1
  6
CONTINUOUS
 62
     7
 10
-280.6686015952413
 20
80.08146581198976
  0
VERTEX
  8
1
  6
CONTINUOUS
 62
     7
 10
-280.6828457473131
 20
80.04721620927559
  0
VERTEX
  8
1
  6
CONTINUOUS
 62
     7
 10
-280.6985692614088
 20
80.01289648564855
  0
VERTEX
  8
1
  6
CONTINUOUS
 62
     7
 10
-280.7152348282513
 20
79.97971710791579
  0
VERTEX
  8
1
  6
CONTINUOUS
 62
     7
 10
-280.7327630357534
 20
79.94772398381556
  0
VERTEX
  8
1
  6
CONTINUOUS
 62
     7
 10
-280.7510744718279
 20
79.91696302108603
  0
VERTEX
  8
1
  6
CONTINUOUS
 62
     7
 10
-280.7739972366403
 20
79.88168660543761
  0
VERTEX
  8
1
  6
CONTINUOUS
 62
     7
 10
-280.7979113392994
 20
79.84811270749871
  0
VERTEX
  8
1
  6
CONTINUOUS
 62
     7
 10
-280.82270825593
 20
79.81625937384796
  0
VERTEX
  8
1
  6
CONTINUOUS
 62
     7
 10
-280.8482794626572
 20
79.78614465106392
  0
VERTEX
  8
1
  6
CONTINUOUS
 62
     7
 10
-280.8845064079643
 20
79.74758953533355
  0
VERTEX
  8
1
  6
CONTINUOUS
 62
     7
 10
-280.9219434186249
 20
79.71211236918157
  0
VERTEX
  8
1
  6
CONTINUOUS
 62
     7
 10
-280.9603872380198
 20
79.67968349467891
  0
VERTEX
  8
1
  6
CONTINUOUS
 62
     7
 10
-280.9988126144356
 20
79.65084754976495
  0
VERTEX
  8
1
  6
CONTINUOUS
 62
     7
 10
-281.0379752079271
 20
79.62475212834867
  0
VERTEX
  8
1
  6
CONTINUOUS
 62
     7
 10
-281.0780603139341
 20
79.60116628198426
  0
VERTEX
  8
1
  6
CONTINUOUS
 62
     7
 10
-281.11869755903
 20
79.58021431986276
  0
SEQEND
  8
1
  6
CONTINUOUS
 62
     7
  0
LINE
  8
1
  6
CONTINUOUS
 62
     7
 10
-280.5216537219206
 20
80.50000000579965
 11
-280.6320296418772
 21
80.19028262037186
  0
LINE
  8
1
  6
CONTINUOUS
 62
     7
 10
-280.4015577905247
 20
80.19028262038871
 11
-280.5216537219206
 21
80.50000000579965
  0
POLYLINE
  8
1
  6
CONTINUOUS
 62
     7
 66
     1
  0
VERTEX
  8
1
  6
CONTINUOUS
 62
     7
 10
-279.8027766331438
 20
79.58021431986658
  0
VERTEX
  8
1
  6
CONTINUOUS
 62
     7
 10
-279.8630531176465
 20
79.6058347741624
  0
VERTEX
  8
1
  6
CONTINUOUS
 62
     7
 10
-279.92234072367
 20
79.63533312225398
  0
VERTEX
  8
1
  6
CONTINUOUS
 62
     7
 10
-279.9803565215759
 20
79.66880036032265
  0
VERTEX
  8
1
  6
CONTINUOUS
 62
     7
 10
-280.0240626110999
 20
79.69738874264328
  0
VERTEX
  8
1
  6
CONTINUOUS
 62
     7
 10
-280.0668186565122
 20
79.72851749857776
  0
VERTEX
  8
1
  6
CONTINUOUS
 62
     7
 10
-280.1084332246095
 20
79.7622092485169
  0
VERTEX
  8
1
  6
CONTINUOUS
 62
     7
 10
-280.1487148821881
 20
79.79848661285158
  0
VERTEX
  8
1
  6
CONTINUOUS
 62
     7
 10
-280.1822887990315
 20
79.83191867166344
  0
VERTEX
  8
1
  6
CONTINUOUS
 62
     7
 10
-280.2146729788209
 20
79.8673794926485
  0
VERTEX
  8
1
  6
CONTINUOUS
 62
     7
 10
-280.2456978201083
 20
79.90484602462487
  0
VERTEX
  8
1
  6
CONTINUOUS
 62
     7
 10
-280.2685109496826
 20
79.93498803690953
  0
VERTEX
  8
1
  6
CONTINUOUS
 62
     7
 10
-280.2903982037039
 20
79.96635333899509
  0
VERTEX
  8
1
  6
CONTINUOUS
 62
     7
 10
-280.3112647453628
 20
79.99890099779174
  0
VERTEX
  8
1
  6
CONTINUOUS
 62
     7
 10
-280.3310157378496
 20
80.03259008020959
  0
VERTEX
  8
1
  6
CONTINUOUS
 62
     7
 10
-280.3508554112182
 20
80.06993721454799
  0
VERTEX
  8
1
  6
CONTINUOUS
 62
     7
 10
-280.3692431442176
 20
80.10855520277387
  0
VERTEX
  8
1
  6
CONTINUOUS
 62
     7
 10
-280.3807626775845
 20
80.13527177206957
  0
VERTEX
  8
1
  6
CONTINUOUS
 62
     7
 10
-280.3915471814026
 20
80.162528479187
  0
VERTEX
  8
1
  6
CONTINUOUS
 62
     7
 10
-280.4015577905247
 20
80.19028262038871
  0
SEQEND
  8
1
  6
CONTINUOUS
 62
     7
  0
LINE
  8
1
  6
CONTINUOUS
 62
     7
 10
-279.6905126163082
 20
79.56250547248227
 11
-279.8027766331438
 21
79.58021431986658
  0
LINE
  8
1
  6
CONTINUOUS
 62
     7
 10
-279.5825699411706
 20
79.58021431986205
 11
-279.6905126163082
 21
79.56250547248227
  0
POLYLINE
  8
1
  6
CONTINUOUS
 62
     7
 66
     1
  0
VERTEX
  8
1
  6
CONTINUOUS
 62
     7
 10
-279.037219391948
 20
80.19028262036583
  0
VERTEX
  8
1
  6
CONTINUOUS
 62
     7
 10
-279.0496385394422
 20
80.1531016264986
  0
VERTEX
  8
1
  6
CONTINUOUS
 62
     7
 10
-279.0633230700227
 20
80.11681026247837
  0
VERTEX
  8
1
  6
CONTINUOUS
 62
     7
 10
-279.0781863518732
 20
80.08149929446232
  0
VERTEX
  8
1
  6
CONTINUOUS
 62
     7
 10
-279.0941417531778
 20
80.04725948860755
  0
VERTEX
  8
1
  6
CONTINUOUS
 62
     7
 10
-279.1117536975232
 20
80.01294982132355
  0
VERTEX
  8
1
  6
CONTINUOUS
 62
     7
 10
-279.1304206805718
 20
79.97977969031494
  0
VERTEX
  8
1
  6
CONTINUOUS
 62
     7
 10
-279.1500537986744
 20
79.94779497729543
  0
VERTEX
  8
1
  6
CONTINUOUS
 62
     7
 10
-279.1705641481822
 20
79.91704156397871
  0
VERTEX
  8
1
  6
CONTINUOUS
 62
     7
 10
-279.1962457951851
 20
79.88176489584045
  0
VERTEX
  8
1
  6
CONTINUOUS
 62
     7
 10
-279.2230383237136
 20
79.84819040311986
  0
VERTEX
  8
1
  6
CONTINUOUS
 62
     7
 10
-279.2508201400274
 20
79.81633615367984
  0
VERTEX
  8
1
  6
CONTINUOUS
 62
     7
 10
-279.2794696503863
 20
79.7862202153834
  0
VERTEX
  8
1
  6
CONTINUOUS
 62
     7
 10
-279.3200579678195
 20
79.74766296760919
  0
VERTEX
  8
1
  6
CONTINUOUS
 62
     7
 10
-279.362002351874
 20
79.71218317669064
  0
VERTEX
  8
1
  6
CONTINUOUS
 62
     7
 10
-279.4050750554658
 20
79.67975122303481
  0
VERTEX
  8
1
  6
CONTINUOUS
 62
     7
 10
-279.4481558681215
 20
79.65089385476648
  0
VERTEX
  8
1
  6
CONTINUOUS
 62
     7
 10
-279.492063912412
 20
79.62478016905489
  0
VERTEX
  8
1
  6
CONTINUOUS
 62
     7
 10
-279.537007192014
 20
79.60117880080055
  0
VERTEX
  8
1
  6
CONTINUOUS
 62
     7
 10
-279.5825699411706
 20
79.58021431986205
  0
SEQEND
  8
1
  6
CONTINUOUS
 62
     7
  0
LINE
  8
1
  6
CONTINUOUS
 62
     7
 10
-278.9214258889002
 20
80.50000000579965
 11
-279.037219391948
 21
80.19028262036583
  0
LINE
  8
1
  6
CONTINUOUS
 62
     7
 10
-278.8056323858596
 20
80.19028262038869
 11
-278.9214258889002
 21
80.50000000579965
  0
LINE
  8
1
  6
CONTINUOUS
 62
     7
 10
-278.1523391614923
 20
79.56250547248227
 11
-278.2602818366404
 21
79.58021431986658
  0
LINE
  8
1
  6
CONTINUOUS
 62
     7
 10
-278.0400751446672
 20
79.58021431986245
 11
-278.1523391614923
 21
79.56250547248227
  0
POLYLINE
  8
1
  6
CONTINUOUS
 62
     7
 66
     1
  0
VERTEX
  8
1
  6
CONTINUOUS
 62
     7
 10
-277.4412939872836
 20
80.19028262036639
  0
VERTEX
  8
1
  6
CONTINUOUS
 62
     7
 10
-277.454933203523
 20
80.1530931659774
  0
VERTEX
  8
1
  6
CONTINUOUS
 62
     7
 10
-277.4699624051535
 20
80.11679375684825
  0
VERTEX
  8
1
  6
CONTINUOUS
 62
     7
 10
-277.4862864068012
 20
80.08147521539505
  0
VERTEX
  8
1
  6
CONTINUOUS
 62
     7
 10
-277.5038100230925
 20
80.04722836403383
  0
VERTEX
  8
1
  6
CONTINUOUS
 62
     7
 10
-277.5231534302373
 20
80.01291146466014
  0
VERTEX
  8
1
  6
CONTINUOUS
 62
     7
 10
-277.5436557227055
 20
79.9797346837669
  0
VERTEX
  8
1
  6
CONTINUOUS
 62
     7
 10
-277.5652192202234
 20
79.94774392178374
  0
VERTEX
  8
1
  6
CONTINUOUS
 62
     7
 10
-277.5877462425175
 20
79.91698507914019
  0
VERTEX
  8
1
  6
CONTINUOUS
 62
     7
 10
-277.6159481139458
 20
79.8817085925202
  0
VERTEX
  8
1
  6
CONTINUOUS
 62
     7
 10
-277.6453696991924
 20
79.84813452747605
  0
VERTEX
  8
1
  6
CONTINUOUS
 62
     7
 10
-277.6758774787681
 20
79.81628093656421
  0
VERTEX
  8
1
  6
CONTINUOUS
 62
     7
 10
-277.7073379331836
 20
79.78616587234116
  0
VERTEX
  8
1
  6
CONTINUOUS
 62
     7
 10
-277.7519083222155
 20
79.74761015773986
  0
VERTEX
  8
1
  6
CONTINUOUS
 62
     7
 10
-277.7979675663234
 20
79.71213225433404
  0
VERTEX
  8
1
  6
CONTINUOUS
 62
     7
 10
-277.8452655904933
 20
79.6797025149611
  0
VERTEX
  8
1
  6
CONTINUOUS
 62
     7
 10
-277.8925497969054
 20
79.65086055385109
  0
VERTEX
  8
1
  6
CONTINUOUS
 62
     7
 10
-277.9407413978614
 20
79.62476000327686
  0
VERTEX
  8
1
  6
CONTINUOUS
 62
     7
 10
-277.9900684877167
 20
79.60116979782812
  0
VERTEX
  8
1
  6
CONTINUOUS
 62
     7
 10
-278.0400751446672
 20
79.58021431986245
  0
SEQEND
  8
1
  6
CONTINUOUS
 62
     7
  0
LINE
  8
1
  6
CONTINUOUS
 62
     7
 10
-277.3211980558798
 20
80.50000000579965
 11
-277.4412939872836
 21
80.19028262036639
  0
LINE
  8
1
  6
CONTINUOUS
 62
     7
 10
-277.2108221359281
 20
80.19028262038874
 11
-277.3211980558798
 21
80.50000000579965
  0
POLYLINE
  8
1
  6
CONTINUOUS
 62
     7
 66
     1
  0
VERTEX
  8
1
  6
CONTINUOUS
 62
     7
 10
-276.7241542187785
 20
79.58021431986658
  0
VERTEX
  8
1
  6
CONTINUOUS
 62
     7
 10
-276.7731457766692
 20
79.6058353328832
  0
VERTEX
  8
1
  6
CONTINUOUS
 62
     7
 10
-276.8213335741547
 20
79.63533440008862
  0
VERTEX
  8
1
  6
CONTINUOUS
 62
     7
 10
-276.8684876412432
 20
79.66880252307887
  0
VERTEX
  8
1
  6
CONTINUOUS
 62
     7
 10
-276.9040110874598
 20
79.69739174593026
  0
VERTEX
  8
1
  6
CONTINUOUS
 62
     7
 10
-276.9387623288018
 20
79.72852145967765
  0
VERTEX
  8
1
  6
CONTINUOUS
 62
     7
 10
-276.9725857631596
 20
79.7622142848794
  0
VERTEX
  8
1
  6
CONTINUOUS
 62
     7
 10
-277.0053257884238
 20
79.79849284209395
  0
VERTEX
  8
1
  6
CONTINUOUS
 62
     7
 10
-277.03261343703
 20
79.83192547509066
  0
VERTEX
  8
1
  6
CONTINUOUS
 62
     7
 10
-277.0589340789734
 20
79.86738689746821
  0
VERTEX
  8
1
  6
CONTINUOUS
 62
     7
 10
-277.0841498637683
 20
79.90485405452098
  0
VERTEX
  8
1
  6
CONTINUOUS
 62
     7
 10
-277.1026914725723
 20
79.93499658493552
  0
VERTEX
  8
1
  6
CONTINUOUS
 62
     7
 10
-277.1204805373126
 20
79.96636241990254
  0
VERTEX
  8
1
  6
CONTINUOUS
 62
     7
 10
-277.1374399756349
 20
79.99891062263329
  0
VERTEX
  8
1
  6
CONTINUOUS
 62
     7
 10
-277.1534927051848
 20
80.032600256339
  0
VERTEX
  8
1
  6
CONTINUOUS
 62
     7
 10
-277.1696163054133
 20
80.06994515670016
  0
VERTEX
  8
1
  6
CONTINUOUS
 62
     7
 10
-277.1845599639279
 20
80.10856072766425
  0
VERTEX
  8
1
  6
CONTINUOUS
 62
     7
 10
-277.1939218748494
 20
80.13527553133243
  0
VERTEX
  8
1
  6
CONTINUOUS
 62
     7
 10
-277.2026864593703
 20
80.16253039400806
  0
VERTEX
  8
1
  6
CONTINUOUS
 62
     7
 10
-277.2108221359281
 20
80.19028262038874
  0
SEQEND
  8
1
  6
CONTINUOUS
 62
     7
  0
LINE
  8
1
  6
CONTINUOUS
 62
     7
 10
-276.6215724322868
 20
79.56250547248227
 11
-276.7241542187785
 21
79.58021431986658
  0
LINE
  8
1
  6
CONTINUOUS
 62
     7
 10
-276.5060682376256
 20
79.58021431986303
 11
-276.6215724322868
 21
79.56250547248227
  0
POLYLINE
  8
1
  6
CONTINUOUS
 62
     7
 66
     1
  0
VERTEX
  8
1
  6
CONTINUOUS
 62
     7
 10
-275.8596230619518
 20
80.19028262037288
  0
VERTEX
  8
1
  6
CONTINUOUS
 62
     7
 10
-275.8743506685696
 20
80.15308679989185
  0
VERTEX
  8
1
  6
CONTINUOUS
 62
     7
 10
-275.8905794149842
 20
80.11678133731387
  0
VERTEX
  8
1
  6
CONTINUOUS
 62
     7
 10
-275.9082064854082
 20
80.08145709740042
  0
VERTEX
  8
1
  6
CONTINUOUS
 62
     7
 10
-275.9271290640546
 20
80.04720494491296
  0
VERTEX
  8
1
  6
CONTINUOUS
 62
     7
 10
-275.9480170626655
 20
80.01288260393456
  0
VERTEX
  8
1
  6
CONTINUOUS
 62
     7
 10
-275.9701565853914
 20
79.97970081963074
  0
VERTEX
  8
1
  6
CONTINUOUS
 62
     7
 10
-275.9934421225539
 20
79.94770550651279
  0
VERTEX
  8
1
  6
CONTINUOUS
 62
     7
 10
-276.0177681644745
 20
79.91694257909198
  0
VERTEX
  8
1
  6
CONTINUOUS
 62
     7
 10
-276.0482182604015
 20
79.88166622925878
  0
VERTEX
  8
1
  6
CONTINUOUS
 62
     7
 10
-276.0799851565201
 20
79.84809248622854
  0
VERTEX
  8
1
  6
CONTINUOUS
 62
     7
 10
-276.1129246947013
 20
79.81623939103972
  0
VERTEX
  8
1
  6
CONTINUOUS
 62
     7
 10
-276.1468927168162
 20
79.78612498473078
  0
VERTEX
  8
1
  6
CONTINUOUS
 62
     7
 10
-276.1950154049903
 20
79.74757042406952
  0
VERTEX
  8
1
  6
CONTINUOUS
 62
     7
 10
-276.2447454052727
 20
79.71209394123545
  0
VERTEX
  8
1
  6
CONTINUOUS
 62
     7
 10
-276.2958127245012
 20
79.67966586832173
  0
VERTEX
  8
1
  6
CONTINUOUS
 62
     7
 10
-276.3468466668439
 20
79.65083549858426
  0
VERTEX
  8
1
  6
CONTINUOUS
 62
     7
 10
-276.3988595154106
 20
79.62474483040226
  0
VERTEX
  8
1
  6
CONTINUOUS
 62
     7
 10
-276.4520972871267
 20
79.60116302369103
  0
VERTEX
  8
1
  6
CONTINUOUS
 62
     7
 10
-276.5060682376256
 20
79.58021431986303
  0
SEQEND
  8
1
  6
CONTINUOUS
 62
     7
  0
LINE
  8
1
  6
CONTINUOUS
 62
     7
 10
-275.7363812916649
 20
80.50000000579965
 11
-275.8596230619518
 21
80.19028262037288
  0
LINE
  8
1
  6
CONTINUOUS
 62
     7
 10
-275.6324859352487
 20
80.19028262038877
 11
-275.7363812916649
 21
80.50000000579965
  0
POLYLINE
  8
1
  6
CONTINUOUS
 62
     7
 66
     1
  0
VERTEX
  8
1
  6
CONTINUOUS
 62
     7
 10
-275.2091875282507
 20
79.58021431986658
  0
VERTEX
  8
1
  6
CONTINUOUS
 62
     7
 10
-275.2937159007195
 20
79.63533655153277
  0
VERTEX
  8
1
  6
CONTINUOUS
 62
     7
 10
-275.3958574452568
 20
79.72852812889435
  0
VERTEX
  8
1
  6
CONTINUOUS
 62
     7
 10
-275.4774897256301
 20
79.83193692987899
  0
SEQEND
  8
1
  6
CONTINUOUS
 62
     7
  0
ARC
  8
1
  6
CONTINUOUS
 62
     7
 10
-274.5493425317306
 20
80.44608419689675
 40
1.112939386996786
 50
193.2878418510531
 51
213.4922744042603
  0
LINE
  8
1
  6
CONTINUOUS
 62
     7
 10
-275.1129545490965
 20
79.56250547248229
 11
-275.2091875282507
 21
79.58021431986658
  0
LINE
  8
1
  6
CONTINUOUS
 62
     7
 10
-274.9953225451347
 20
79.58021431986344
 11
-275.1129545490965
 21
79.56250547248229
  0
POLYLINE
  8
1
  6
CONTINUOUS
 62
     7
 66
     1
  0
VERTEX
  8
1
  6
CONTINUOUS
 62
     7
 10
-274.3074389716026
 20
80.19028262035987
  0
VERTEX
  8
1
  6
CONTINUOUS
 62
     7
 10
-274.3591443605428
 20
80.08144338794837
  0
VERTEX
  8
1
  6
CONTINUOUS
 62
     7
 10
-274.4250769264509
 20
79.97967519574472
  0
VERTEX
  8
1
  6
CONTINUOUS
 62
     7
 10
-274.5081543315029
 20
79.8816341748646
  0
VERTEX
  8
1
  6
CONTINUOUS
 62
     7
 10
-274.6131619438171
 20
79.78609404730445
  0
SEQEND
  8
1
  6
CONTINUOUS
 62
     7
  0
ARC
  8
1
  6
CONTINUOUS
 62
     7
 10
-275.3988809451752
 20
80.7869417504832
 40
1.272419142442201
 50
288.4911627978472
 51
308.1338105404326
  0
LINE
  8
1
  6
CONTINUOUS
 62
     7
 10
-274.1822382480439
 20
80.50000000579965
 11
-274.3074389716026
 21
80.19028262035987
  0
LINE
  8
1
  6
CONTINUOUS
 62
     7
 10
-274.0858240242406
 20
80.19028262038877
 11
-274.1822382480439
 21
80.50000000579965
  0
POLYLINE
  8
1
  6
CONTINUOUS
 62
     7
 66
     1
  0
VERTEX
  8
1
  6
CONTINUOUS
 62
     7
 10
-273.7299717224518
 20
79.58021431986658
  0
VERTEX
  8
1
  6
CONTINUOUS
 62
     7
 10
-273.7657965537282
 20
79.60583698431607
  0
VERTEX
  8
1
  6
CONTINUOUS
 62
     7
 10
-273.8010335978421
 20
79.63533817705174
  0
VERTEX
  8
1
  6
CONTINUOUS
 62
     7
 10
-273.8355146681965
 20
79.6688089156751
  0
VERTEX
  8
1
  6
CONTINUOUS
 62
     7
 10
-273.861490975871
 20
79.69740062297885
  0
VERTEX
  8
1
  6
CONTINUOUS
 62
     7
 10
-273.8869025532859
 20
79.72853316785286
  0
VERTEX
  8
1
  6
CONTINUOUS
 62
     7
 10
-273.9116355979112
 20
79.76222917134982
  0
VERTEX
  8
1
  6
CONTINUOUS
 62
     7
 10
-273.935576307217
 20
79.79851125452254
  0
VERTEX
  8
1
  6
CONTINUOUS
 62
     7
 10
-273.9555290099286
 20
79.83194558460532
  0
VERTEX
  8
1
  6
CONTINUOUS
 62
     7
 10
-273.9747745691091
 20
79.86740878447715
  0
VERTEX
  8
1
  6
CONTINUOUS
 62
     7
 10
-273.9932121785707
 20
79.90487778901584
  0
VERTEX
  8
1
  6
CONTINUOUS
 62
     7
 10
-274.0067696416547
 20
79.93502185082421
  0
VERTEX
  8
1
  6
CONTINUOUS
 62
     7
 10
-274.0197767882585
 20
79.96638926077884
  0
VERTEX
  8
1
  6
CONTINUOUS
 62
     7
 10
-274.0321772504935
 20
79.99893907115708
  0
VERTEX
  8
1
  6
CONTINUOUS
 62
     7
 10
-274.0439146604715
 20
80.03263033423639
  0
VERTEX
  8
1
  6
CONTINUOUS
 62
     7
 10
-274.0557012850534
 20
80.06996863139734
  0
VERTEX
  8
1
  6
CONTINUOUS
 62
     7
 10
-274.0666254446296
 20
80.10857705751162
  0
VERTEX
  8
1
  6
CONTINUOUS
 62
     7
 10
-274.0734692583846
 20
80.13528664250136
  0
VERTEX
  8
1
  6
CONTINUOUS
 62
     7
 10
-274.0798764776351
 20
80.1625360535861
  0
VERTEX
  8
1
  6
CONTINUOUS
 62
     7
 10
-274.0858240242406
 20
80.19028262038877
  0
SEQEND
  8
1
  6
CONTINUOUS
 62
     7
  0
LINE
  8
1
  6
CONTINUOUS
 62
     7
 10
-273.6410143268305
 20
79.56250547248229
 11
-273.7299717224518
 21
79.58021431986658
  0
LINE
  8
1
  6
CONTINUOUS
 62
     7
 10
-273.5223873740734
 20
79.58021431986295
 11
-273.6410143268305
 21
79.56250547248229
  0
POLYLINE
  8
1
  6
CONTINUOUS
 62
     7
 66
     1
  0
VERTEX
  8
1
  6
CONTINUOUS
 62
     7
 10
-272.7996900975226
 20
80.19028262036313
  0
VERTEX
  8
1
  6
CONTINUOUS
 62
     7
 10
-272.8540183476082
 20
80.08143308645552
  0
VERTEX
  8
1
  6
CONTINUOUS
 62
     7
 10
-272.9232967082525
 20
79.97965594170888
  0
VERTEX
  8
1
  6
CONTINUOUS
 62
     7
 10
-273.0105879857236
 20
79.88161008916114
  0
VERTEX
  8
1
  6
CONTINUOUS
 62
     7
 10
-273.1209162813138
 20
79.78607080112323
  0
SEQEND
  8
1
  6
CONTINUOUS
 62
     7
  0
ARC
  8
1
  6
CONTINUOUS
 62
     7
 10
-273.9340728512353
 20
80.87751514495066
 40
1.361056340817399
 50
287.6063164253841
 51
306.6871414532412
  0
LINE
  8
1
  6
CONTINUOUS
 62
     7
 10
-272.6737361721078
 20
80.50000000579965
 11
-272.7996900975226
 21
80.19028262036313
  0
LINE
  8
1
  6
CONTINUOUS
 62
     7
 10
-272.5857316025979
 20
80.1902826203888
 11
-272.6737361721078
 21
80.50000000579965
  0
POLYLINE
  8
1
  6
CONTINUOUS
 62
     7
 66
     1
  0
VERTEX
  8
1
  6
CONTINUOUS
 62
     7
 10
-272.3007524582134
 20
79.58021431986658
  0
VERTEX
  8
1
  6
CONTINUOUS
 62
     7
 10
-272.3852765666056
 20
79.66881096434572
  0
VERTEX
  8
1
  6
CONTINUOUS
 62
     7
 10
-272.4462379922138
 20
79.76223394215398
  0
SEQEND
  8
1
  6
CONTINUOUS
 62
     7
  0
ARC
  8
1
  6
CONTINUOUS
 62
     7
 10
-271.2631228847006
 20
80.38454416183238
 40
1.336798925471578
 50
188.3557200772652
 51
207.7440543069126
  0
LINE
  8
1
  6
CONTINUOUS
 62
     7
 10
-272.2199273544739
 20
79.56250547248229
 11
-272.3007524582134
 21
79.58021431986658
  0
LINE
  8
1
  6
CONTINUOUS
 62
     7
 10
-272.1014478953367
 20
79.5802143198587
 11
-272.2199273544739
 21
79.56250547248229
  0
POLYLINE
  8
1
  6
CONTINUOUS
 62
     7
 66
     1
  0
VERTEX
  8
1
  6
CONTINUOUS
 62
     7
 10
-271.3508968855942
 20
80.1902826203674
  0
VERTEX
  8
1
  6
CONTINUOUS
 62
     7
 10
-271.4073236331333
 20
80.08142553315628
  0
VERTEX
  8
1
  6
CONTINUOUS
 62
     7
 10
-271.4792788956807
 20
79.97964182427665
  0
VERTEX
  8
1
  6
CONTINUOUS
 62
     7
 10
-271.569941606267
 20
79.88159242920975
  0
VERTEX
  8
1
  6
CONTINUOUS
 62
     7
 10
-271.6845268716944
 20
79.78605375684677
  0
SEQEND
  8
1
  6
CONTINUOUS
 62
     7
  0
ARC
  8
1
  6
CONTINUOUS
 62
     7
 10
-272.5200379436474
 20
80.95320436710524
 40
1.435381237993167
 50
286.9551420634081
 51
305.5971862113024
  0
LINE
  8
1
  6
CONTINUOUS
 62
     7
 10
-271.225402763479
 20
80.50000000579965
 11
-271.3508968855942
 21
80.1902826203674
  0
LINE
  8
1
  6
CONTINUOUS
 62
     7
 10
-271.1466553803752
 20
80.19028262038883
 11
-271.225402763479
 21
80.50000000579965
  0
LINE
  8
1
  6
CONTINUOUS
 62
     7
 10
-270.9352938983408
 20
79.58021431986658
 11
-271.1466553803752
 21
80.19028262038883
  0
LINE
  8
1
  6
CONTINUOUS
 62
     7
 10
-270.8633794764156
 20
79.56250547248229
 11
-270.9352938983408
 21
79.58021431986658
  0
LINE
  8
1
  6
CONTINUOUS
 62
     7
 10
-270.7461885328428
 20
79.58021431985912
 11
-270.8633794764156
 21
79.56250547248229
  0
POLYLINE
  8
1
  6
CONTINUOUS
 62
     7
 66
     1
  0
VERTEX
  8
1
  6
CONTINUOUS
 62
     7
 10
-269.9750120064402
 20
80.19028262037052
  0
VERTEX
  8
1
  6
CONTINUOUS
 62
     7
 10
-270.0329926782193
 20
80.08142029186614
  0
VERTEX
  8
1
  6
CONTINUOUS
 62
     7
 10
-270.1069301699339
 20
79.97963202812863
  0
SEQEND
  8
1
  6
CONTINUOUS
 62
     7
  0
ARC
  8
1
  6
CONTINUOUS
 62
     7
 10
-271.0967673622806
 20
80.85257485412967
 40
1.319775300882398
 50
285.4047022993377
 51
318.5907531051014
  0
LINE
  8
1
  6
CONTINUOUS
 62
     7
 10
-269.8511862646222
 20
80.50000000579965
 11
-269.9750120064402
 21
80.19028262037052
  0
LINE
  8
1
  6
CONTINUOUS
 62
     7
 10
-269.7824544482714
 20
80.19028262038883
 11
-269.8511862646222
 21
80.50000000579965
  0
LINE
  8
1
  6
CONTINUOUS
 62
     7
 10
-269.646746155201
 20
79.58021431986658
 11
-269.7824544482714
 21
80.19028262038883
  0
LINE
  8
1
  6
CONTINUOUS
 62
     7
 10
-269.5844349902858
 20
79.56250547248227
 11
-269.646746155201
 21
79.58021431986658
  0
LINE
  8
1
  6
CONTINUOUS
 62
     7
 10
-269.4696611751274
 20
79.58021431985937
 11
-269.5844349902858
 21
79.56250547248227
  0
POLYLINE
  8
1
  6
CONTINUOUS
 62
     7
 66
     1
  0
VERTEX
  8
1
  6
CONTINUOUS
 62
     7
 10
-268.685285983583
 20
80.19028262037025
  0
VERTEX
  8
1
  6
CONTINUOUS
 62
     7
 10
-268.744261041351
 20
80.08141708260459
  0
VERTEX
  8
1
  6
CONTINUOUS
 62
     7
 10
-268.8194669996305
 20
79.97962602992979
  0
SEQEND
  8
1
  6
CONTINUOUS
 62
     7
  0
ARC
  8
1
  6
CONTINUOUS
 62
     7
 10
-269.8198594953868
 20
80.87921979470075
 40
1.345382505899489
 50
285.0876544872876
 51
318.036828626018
  0
LINE
  8
1
  6
CONTINUOUS
 62
     7
 10
-268.5643211316446
 20
80.50000000579965
 11
-268.685285983583
 21
80.19028262037025
  0
LINE
  8
1
  6
CONTINUOUS
 62
     7
 10
-268.5062668070109
 20
80.19028262038884
 11
-268.5643211316446
 21
80.50000000579965
  0
LINE
  8
1
  6
CONTINUOUS
 62
     7
 10
-268.4475186479524
 20
79.58021431986658
 11
-268.5062668070109
 21
80.19028262038884
  0
LINE
  8
1
  6
CONTINUOUS
 62
     7
 10
-268.395410830628
 20
79.56250547248229
 11
-268.4475186479524
 21
79.58021431986658
  0
LINE
  8
1
  6
CONTINUOUS
 62
     7
 10
-268.2841594784664
 20
79.58021431985948
 11
-268.395410830628
 21
79.56250547248229
  0
POLYLINE
  8
1
  6
CONTINUOUS
 62
     7
 66
     1
  0
VERTEX
  8
1
  6
CONTINUOUS
 62
     7
 10
-267.4941395836574
 20
80.19028262036962
  0
VERTEX
  8
1
  6
CONTINUOUS
 62
     7
 10
-267.5535399127422
 20
80.08141574285352
  0
VERTEX
  8
1
  6
CONTINUOUS
 62
     7
 10
-267.6292883590061
 20
79.97962352590226
  0
SEQEND
  8
1
  6
CONTINUOUS
 62
     7
  0
ARC
  8
1
  6
CONTINUOUS
 62
     7
 10
-268.6342274283956
 20
80.89075331301596
 40
1.35648812090312
 50
284.9555324641808
 51
317.8029199273168
  0
LINE
  8
1
  6
CONTINUOUS
 62
     7
 10
-267.3772005792487
 20
80.50000000579965
 11
-267.4941395836574
 21
80.19028262036962
  0
LINE
  8
1
  6
CONTINUOUS
 62
     7
 10
-267.330382841214
 20
80.19028262038884
 11
-267.3303376678686
 21
80.19877835767313
  0
LINE
  8
1
  6
CONTINUOUS
 62
     7
 10
-267.3491605930543
 20
79.58021431986658
 11
-267.330382841214
 21
80.19028262038886
  0
LINE
  8
1
  6
CONTINUOUS
 62
     7
 10
-267.3077579500865
 20
79.56250547248224
 11
-267.3353417527193
 21
79.56553267278352
  0
LINE
  8
1
  6
CONTINUOUS
 62
     7
 10
-267.3353417527193
 20
79.56553267278352
 11
-267.3492057700219
 21
79.57910734198656
  0
LINE
  8
1
  6
CONTINUOUS
 62
     7
 10
-267.2011004722596
 20
79.58021431985944
 11
-267.3077579500865
 21
79.56250547248229
  0
POLYLINE
  8
1
  6
CONTINUOUS
 62
     7
 66
     1
  0
VERTEX
  8
1
  6
CONTINUOUS
 62
     7
 10
-266.4130441976412
 20
80.19028262036984
  0
VERTEX
  8
1
  6
CONTINUOUS
 62
     7
 10
-266.4722965877996
 20
80.08141620673345
  0
VERTEX
  8
1
  6
CONTINUOUS
 62
     7
 10
-266.5478563190317
 20
79.97962439290491
  0
SEQEND
  8
1
  6
CONTINUOUS
 62
     7
  0
ARC
  8
1
  6
CONTINUOUS
 62
     7
 10
-267.5512116219339
 20
80.88673176097964
 40
1.352614372641926
 50
285.0012625194445
 51
317.8840877786447
  0
LINE
  8
1
  6
CONTINUOUS
 62
     7
 10
-266.3012572273002
 20
80.50000000579965
 11
-266.4130441976412
 21
80.19028262036984
  0
LINE
  8
1
  6
CONTINUOUS
 62
     7
 10
-266.2661269562751
 20
80.19028262038881
 11
-266.2649389016445
 21
80.23414505782894
  0
LINE
  8
1
  6
CONTINUOUS
 62
     7
 10
-266.3622497789989
 20
79.58021431986658
 11
-266.2661269562751
 21
80.19028262038883
  0
LINE
  8
1
  6
CONTINUOUS
 62
     7
 10
-266.3319510404725
 20
79.56250547248226
 11
-266.3634378354311
 21
79.57492183533282
  0
LINE
  8
1
  6
CONTINUOUS
 62
     7
 10
-266.2309146067972
 20
79.58021431985925
 11
-266.3319510404726
 21
79.56250547248227
  0
POLYLINE
  8
1
  6
CONTINUOUS
 62
     7
 66
     1
  0
VERTEX
  8
1
  6
CONTINUOUS
 62
     7
 10
-265.4524113650888
 20
80.1902826203697
  0
VERTEX
  8
1
  6
CONTINUOUS
 62
     7
 10
-265.5109440308022
 20
80.08141849692414
  0
VERTEX
  8
1
  6
CONTINUOUS
 62
     7
 10
-265.5855856614081
 20
79.97962867333123
  0
SEQEND
  8
1
  6
CONTINUOUS
 62
     7
  0
ARC
  8
1
  6
CONTINUOUS
 62
     7
 10
-266.5812689277913
 20
80.86730983049648
 40
1.333927660610458
 50
285.2272828574468
 51
318.2820495034757
  0
LINE
  8
1
  6
CONTINUOUS
 62
     7
 10
-265.3468529984489
 20
80.50000000579965
 11
-265.4524113650888
 21
80.1902826203697
  0
LINE
  8
1
  6
CONTINUOUS
 62
     7
 10
-265.3237485181475
 20
80.19028262038883
 11
-265.3198881373373
 21
80.2704081201081
  0
LINE
  8
1
  6
CONTINUOUS
 62
     7
 10
-265.4962906964258
 20
79.58021431986658
 11
-265.3237485181475
 21
80.19028262038883
  0
LINE
  8
1
  6
CONTINUOUS
 62
     7
 10
-265.4773876557559
 20
79.56250547248226
 11
-265.5000901672707
 21
79.57047237991007
  0
LINE
  8
1
  6
CONTINUOUS
 62
     7
 10
-265.5000907151361
 20
79.57047219589245
 11
-265.5001510781382
 21
79.571359221498
  0
LINE
  8
1
  6
CONTINUOUS
 62
     7
 10
-265.382945302321
 20
79.58021431985892
 11
-265.4773876557559
 21
79.56250547248229
  0
POLYLINE
  8
1
  6
CONTINUOUS
 62
     7
 66
     1
  0
VERTEX
  8
1
  6
CONTINUOUS
 62
     7
 10
-264.6214925053143
 20
80.19028262036665
  0
VERTEX
  8
1
  6
CONTINUOUS
 62
     7
 10
-264.6787405923617
 20
80.0814227274232
  0
VERTEX
  8
1
  6
CONTINUOUS
 62
     7
 10
-264.7517435785234
 20
79.97963658026471
  0
VERTEX
  8
1
  6
CONTINUOUS
 62
     7
 10
-264.8437258481485
 20
79.88158586933989
  0
VERTEX
  8
1
  6
CONTINUOUS
 62
     7
 10
-264.9599772664664
 20
79.78604742569937
  0
SEQEND
  8
1
  6
CONTINUOUS
 62
     7
  0
ARC
  8
1
  6
CONTINUOUS
 62
     7
 10
-265.8043257037697
 20
80.98360884658582
 40
1.465290974643616
 50
286.7128038123255
 51
305.1859981421455
  0
LINE
  8
1
  6
CONTINUOUS
 62
     7
 10
-264.523179327149
 20
80.50000000579965
 11
-264.6214925053143
 21
80.19028262036665
  0
LINE
  8
1
  6
CONTINUOUS
 62
     7
 10
-264.5123231463467
 20
80.1902826203888
 11
-264.5042867299418
 21
80.30745305577868
  0
POLYLINE
  8
1
  6
CONTINUOUS
 62
     7
 66
     1
  0
VERTEX
  8
1
  6
CONTINUOUS
 62
     7
 10
-264.7596230046818
 20
79.58021431986658
  0
VERTEX
  8
1
  6
CONTINUOUS
 62
     7
 10
-264.6862739292808
 20
79.66881178911353
  0
VERTEX
  8
1
  6
CONTINUOUS
 62
     7
 10
-264.633372303796
 20
79.7622358628244
  0
SEQEND
  8
1
  6
CONTINUOUS
 62
     7
  0
ARC
  8
1
  6
CONTINUOUS
 62
     7
 10
-265.9841305664698
 20
80.37536190003134
 40
1.483398605123626
 50
335.5861089403697
 51
352.8326961277268
  0
LINE
  8
1
  6
CONTINUOUS
 62
     7
 10
-264.7522977084834
 20
79.56250547248226
 11
-264.7676594215848
 21
79.56841021424013
  0
LINE
  8
1
  6
CONTINUOUS
 62
     7
 10
-264.6653589667657
 20
79.58021431986309
 11
-264.7511390351077
 21
79.56251378443429
  0
LINE
  8
1
  6
CONTINUOUS
 62
     7
 10
-264.7511390351077
 20
79.56251378443429
 11
-264.7522977084855
 21
79.56250547248096
  0
POLYLINE
  8
1
  6
CONTINUOUS
 62
     7
 66
     1
  0
VERTEX
  8
1
  6
CONTINUOUS
 62
     7
 10
-263.9282898211607
 20
80.19028262036777
  0
VERTEX
  8
1
  6
CONTINUOUS
 62
     7
 10
-263.9837008464368
 20
80.0814291177876
  0
VERTEX
  8
1
  6
CONTINUOUS
 62
     7
 10
-264.0543604253152
 20
79.97964852409133
  0
VERTEX
  8
1
  6
CONTINUOUS
 62
     7
 10
-264.1433912827395
 20
79.88160081020716
  0
VERTEX
  8
1
  6
CONTINUOUS
 62
     7
 10
-264.25591607434
 20
79.78606184564602
  0
SEQEND
  8
1
  6
CONTINUOUS
 62
     7
  0
ARC
  8
1
  6
CONTINUOUS
 62
     7
 10
-265.0805653719606
 20
80.91621121108204
 40
1.399029682409032
 50
287.2644066032829
 51
306.1175447039923
  0
LINE
  8
1
  6
CONTINUOUS
 62
     7
 10
-263.8381686411209
 20
80.50000000579965
 11
-263.9282898211607
 21
80.19028262036777
  0
LINE
  8
1
  6
CONTINUOUS
 62
     7
 10
-263.8396653107735
 20
80.19028262038879
 11
-263.8259893666084
 21
80.3451580506806
  0
POLYLINE
  8
1
  6
CONTINUOUS
 62
     7
 66
     1
  0
VERTEX
  8
1
  6
CONTINUOUS
 62
     7
 10
-264.1593412163417
 20
79.58021431986658
  0
VERTEX
  8
1
  6
CONTINUOUS
 62
     7
 10
-264.0645269215264
 20
79.66881005124718
  0
VERTEX
  8
1
  6
CONTINUOUS
 62
     7
 10
-263.9961438672302
 20
79.76223181578924
  0
SEQEND
  8
1
  6
CONTINUOUS
 62
     7
  0
ARC
  8
1
  6
CONTINUOUS
 62
     7
 10
-265.0610587323035
 20
80.39414945945192
 40
1.23829058715083
 50
329.315219202682
 51
350.5239277310456
  0
LINE
  8
1
  6
CONTINUOUS
 62
     7
 10
-264.1636642112215
 20
79.56250547248226
 11
-264.1674213346586
 21
79.56268972080561
  0
LINE
  8
1
  6
CONTINUOUS
 62
     7
 10
-264.1674213346586
 20
79.56268972080561
 11
-264.1730171607851
 21
79.56606623377144
  0
LINE
  8
1
  6
CONTINUOUS
 62
     7
 10
-264.085066348844
 20
79.58021431986276
 11
-264.158375318778
 21
79.56273540256973
  0
LINE
  8
1
  6
CONTINUOUS
 62
     7
 10
-264.158375318778
 20
79.56273540256973
 11
-264.163664211224
 21
79.56250547248095
  0
POLYLINE
  8
1
  6
CONTINUOUS
 62
     7
 66
     1
  0
VERTEX
  8
1
  6
CONTINUOUS
 62
     7
 10
-263.3794792334243
 20
80.19028262036169
  0
VERTEX
  8
1
  6
CONTINUOUS
 62
     7
 10
-263.4325184056025
 20
80.0814380222697
  0
VERTEX
  8
1
  6
CONTINUOUS
 62
     7
 10
-263.5001523825434
 20
79.97966516699006
  0
VERTEX
  8
1
  6
CONTINUOUS
 62
     7
 10
-263.5853726354316
 20
79.88162162943283
  0
VERTEX
  8
1
  6
CONTINUOUS
 62
     7
 10
-263.6930859335159
 20
79.78608193912673
  0
SEQEND
  8
1
  6
CONTINUOUS
 62
     7
  0
ARC
  8
1
  6
CONTINUOUS
 62
     7
 10
-264.4926832847395
 20
80.83244095987499
 40
1.31689905626256
 50
288.0307789587837
 51
307.3860181260663
  0
LINE
  8
1
  6
CONTINUOUS
 62
     7
 10
-263.2984179677362
 20
80.50000000579965
 11
-263.3794792334243
 21
80.19028262036169
  0
LINE
  8
1
  6
CONTINUOUS
 62
     7
 10
-263.3122530740966
 20
80.19028262038877
 11
-263.2915284215831
 21
80.38339526084818
  0
POLYLINE
  8
1
  6
CONTINUOUS
 62
     7
 66
     1
  0
VERTEX
  8
1
  6
CONTINUOUS
 62
     7
 10
-263.7012263731746
 20
79.58021431986658
  0
VERTEX
  8
1
  6
CONTINUOUS
 62
     7
 10
-263.662067591185
 20
79.60583666542517
  0
VERTEX
  8
1
  6
CONTINUOUS
 62
     7
 10
-263.6235512886024
 20
79.63533744771992
  0
VERTEX
  8
1
  6
CONTINUOUS
 62
     7
 10
-263.5858612992158
 20
79.66880768126158
  0
VERTEX
  8
1
  6
CONTINUOUS
 62
     7
 10
-263.5574675624397
 20
79.69739890881145
  0
VERTEX
  8
1
  6
CONTINUOUS
 62
     7
 10
-263.5296910986504
 20
79.72853090698673
  0
VERTEX
  8
1
  6
CONTINUOUS
 62
     7
 10
-263.5026562970666
 20
79.76222629674481
  0
VERTEX
  8
1
  6
CONTINUOUS
 62
     7
 10
-263.4764875469066
 20
79.79850769904309
  0
VERTEX
  8
1
  6
CONTINUOUS
 62
     7
 10
-263.4546777298896
 20
79.83194170142566
  0
VERTEX
  8
1
  6
CONTINUOUS
 62
     7
 10
-263.4336408597705
 20
79.86740455807174
  0
VERTEX
  8
1
  6
CONTINUOUS
 62
     7
 10
-263.4134871232366
 20
79.9048732058707
  0
VERTEX
  8
1
  6
CONTINUOUS
 62
     7
 10
-263.3986677577445
 20
79.93501697197495
  0
VERTEX
  8
1
  6
CONTINUOUS
 62
     7
 10
-263.384449917868
 20
79.96638407780843
  0
VERTEX
  8
1
  6
CONTINUOUS
 62
     7
 10
-263.3708952168549
 20
79.99893357775997
  0
VERTEX
  8
1
  6
CONTINUOUS
 62
     7
 10
-263.3580652679536
 20
80.03262452621837
  0
VERTEX
  8
1
  6
CONTINUOUS
 62
     7
 10
-263.345180973741
 20
80.06996409847125
  0
VERTEX
  8
1
  6
CONTINUOUS
 62
     7
 10
-263.333239484026
 20
80.1085739042591
  0
VERTEX
  8
1
  6
CONTINUOUS
 62
     7
 10
-263.3257583375503
 20
80.13528449696672
  0
VERTEX
  8
1
  6
CONTINUOUS
 62
     7
 10
-263.3187544578511
 20
80.16253496073973
  0
VERTEX
  8
1
  6
CONTINUOUS
 62
     7
 10
-263.3122530740966
 20
80.19028262038879
  0
SEQEND
  8
1
  6
CONTINUOUS
 62
     7
  0
LINE
  8
1
  6
CONTINUOUS
 62
     7
 10
-263.717156026329
 20
79.56250547248226
 11
-263.721951025817
 21
79.56431758656545
  0
LINE
  8
1
  6
CONTINUOUS
 62
     7
 10
-263.6476559836697
 20
79.58021431986326
 11
-263.6968054113523
 21
79.56564639030668
  0
LINE
  8
1
  6
CONTINUOUS
 62
     7
 10
-263.6968058939293
 20
79.56564622773406
 11
-263.717156026329
 21
79.56250547248227
  0
POLYLINE
  8
1
  6
CONTINUOUS
 62
     7
 66
     1
  0
VERTEX
  8
1
  6
CONTINUOUS
 62
     7
 10
-262.9803460880706
 20
80.19028262035943
  0
VERTEX
  8
1
  6
CONTINUOUS
 62
     7
 10
-263.0305014578741
 20
80.08144998151606
  0
VERTEX
  8
1
  6
CONTINUOUS
 62
     7
 10
-263.0944567762683
 20
79.9796875195414
  0
VERTEX
  8
1
  6
CONTINUOUS
 62
     7
 10
-263.1750439303129
 20
79.8816495913597
  0
VERTEX
  8
1
  6
CONTINUOUS
 62
     7
 10
-263.276907205169
 20
79.78610892655223
  0
SEQEND
  8
1
  6
CONTINUOUS
 62
     7
  0
ARC
  8
1
  6
CONTINUOUS
 62
     7
 10
-264.0467069946235
 20
80.7355204330611
 40
1.222282260582875
 50
289.0552792783741
 51
309.0357559827665
  0
LINE
  8
1
  6
CONTINUOUS
 62
     7
 10
-262.9091254010371
 20
80.50000000579965
 11
-262.9803460880706
 21
80.19028262035943
  0
LINE
  8
1
  6
CONTINUOUS
 62
     7
 10
-262.9351657044682
 20
80.19028262038874
 11
-262.9060510459418
 21
80.42203611725793
  0
POLYLINE
  8
1
  6
CONTINUOUS
 62
     7
 66
     1
  0
VERTEX
  8
1
  6
CONTINUOUS
 62
     7
 10
-263.3896903715514
 20
79.58021431986658
  0
VERTEX
  8
1
  6
CONTINUOUS
 62
     7
 10
-263.3439337349646
 20
79.60583585071565
  0
VERTEX
  8
1
  6
CONTINUOUS
 62
     7
 10
-263.2989278029177
 20
79.63533558441131
  0
VERTEX
  8
1
  6
CONTINUOUS
 62
     7
 10
-263.2548873693308
 20
79.66880452756817
  0
VERTEX
  8
1
  6
CONTINUOUS
 62
     7
 10
-263.2217095563846
 20
79.69739452944812
  0
VERTEX
  8
1
  6
CONTINUOUS
 62
     7
 10
-263.1892529832418
 20
79.7285251309261
  0
VERTEX
  8
1
  6
CONTINUOUS
 62
     7
 10
-263.1576629852927
 20
79.76221895271568
  0
VERTEX
  8
1
  6
CONTINUOUS
 62
     7
 10
-263.1270848979279
 20
79.79849861553043
  0
VERTEX
  8
1
  6
CONTINUOUS
 62
     7
 10
-263.1015995597062
 20
79.83193178068365
  0
VERTEX
  8
1
  6
CONTINUOUS
 62
     7
 10
-263.0770173864389
 20
79.86739376043262
  0
VERTEX
  8
1
  6
CONTINUOUS
 62
     7
 10
-263.0534671278056
 20
79.90486149680567
  0
VERTEX
  8
1
  6
CONTINUOUS
 62
     7
 10
-263.0361502234238
 20
79.93500450742269
  0
VERTEX
  8
1
  6
CONTINUOUS
 62
     7
 10
-263.0195361814598
 20
79.96637083626295
  0
VERTEX
  8
1
  6
CONTINUOUS
 62
     7
 10
-263.0036969952287
 20
79.99891954310942
  0
VERTEX
  8
1
  6
CONTINUOUS
 62
     7
 10
-262.9887046580454
 20
80.03260968774495
  0
VERTEX
  8
1
  6
CONTINUOUS
 62
     7
 10
-262.9736471748657
 20
80.06995251759359
  0
VERTEX
  8
1
  6
CONTINUOUS
 62
     7
 10
-262.9596915768617
 20
80.10856584818782
  0
VERTEX
  8
1
  6
CONTINUOUS
 62
     7
 10
-262.9509486503351
 20
80.13527901544929
  0
VERTEX
  8
1
  6
CONTINUOUS
 62
     7
 10
-262.9427635295607
 20
80.16253216867813
  0
VERTEX
  8
1
  6
CONTINUOUS
 62
     7
 10
-262.9351657044682
 20
80.19028262038876
  0
SEQEND
  8
1
  6
CONTINUOUS
 62
     7
  0
LINE
  8
1
  6
CONTINUOUS
 62
     7
 10
-263.4170732717122
 20
79.56250547248226
 11
-263.4187339012549
 21
79.56292043817491
  0
LINE
  8
1
  6
CONTINUOUS
 62
     7
 10
-263.3573403721775
 20
79.58021431986276
 11
-263.3880197249645
 21
79.56958779566652
  0
LINE
  8
1
  6
CONTINUOUS
 62
     7
 10
-263.3880197249645
 20
79.56958779566652
 11
-263.3917469973543
 21
79.56843829005334
  0
LINE
  8
1
  6
CONTINUOUS
 62
     7
 10
-263.3917469973543
 20
79.56843829005334
 11
-263.3984245609735
 21
79.56648123015802
  0
LINE
  8
1
  6
CONTINUOUS
 62
     7
 10
-263.3984245609735
 20
79.56648123015802
 11
-263.4170732717153
 21
79.56250547248094
  0
POLYLINE
  8
1
  6
CONTINUOUS
 62
     7
 66
     1
  0
VERTEX
  8
1
  6
CONTINUOUS
 62
     7
 10
-262.7347342554747
 20
80.19028262037047
  0
VERTEX
  8
1
  6
CONTINUOUS
 62
     7
 10
-262.7489175059601
 20
80.15308986192892
  0
VERTEX
  8
1
  6
CONTINUOUS
 62
     7
 10
-262.764546302597
 20
80.11678731100433
  0
VERTEX
  8
1
  6
CONTINUOUS
 62
     7
 10
-262.7815216459348
 20
80.08146581198892
  0
VERTEX
  8
1
  6
CONTINUOUS
 62
     7
 10
-262.7997445365232
 20
80.04721620927494
  0
VERTEX
  8
1
  6
CONTINUOUS
 62
     7
 10
-262.819860010971
 20
80.01289648564804
  0
VERTEX
  8
1
  6
CONTINUOUS
 62
     7
 10
-262.8411806764364
 20
79.97971710791549
  0
VERTEX
  8
1
  6
CONTINUOUS
 62
     7
 10
-262.8636049391029
 20
79.94772398381541
  0
VERTEX
  8
1
  6
CONTINUOUS
 62
     7
 10
-262.8870312051537
 20
79.91696302108603
  0
VERTEX
  8
1
  6
CONTINUOUS
 62
     7
 10
-262.9163568563441
 20
79.88168660543761
  0
VERTEX
  8
1
  6
CONTINUOUS
 62
     7
 10
-262.9469507501805
 20
79.84811270749871
  0
VERTEX
  8
1
  6
CONTINUOUS
 62
     7
 10
-262.9786740494272
 20
79.81625937384796
  0
VERTEX
  8
1
  6
CONTINUOUS
 62
     7
 10
-263.0113879168484
 20
79.78614465106392
  0
VERTEX
  8
1
  6
CONTINUOUS
 62
     7
 10
-263.0577339301003
 20
79.74758953533355
  0
VERTEX
  8
1
  6
CONTINUOUS
 62
     7
 10
-263.105628009424
 20
79.71211236918157
  0
VERTEX
  8
1
  6
CONTINUOUS
 62
     7
 10
-263.1548101236771
 20
79.6796834946789
  0
VERTEX
  8
1
  6
CONTINUOUS
 62
     7
 10
-263.2039686433777
 20
79.65084754976495
  0
VERTEX
  8
1
  6
CONTINUOUS
 62
     7
 10
-263.2540703028346
 20
79.62475212834867
  0
VERTEX
  8
1
  6
CONTINUOUS
 62
     7
 10
-263.3053521550157
 20
79.60116628198426
  0
VERTEX
  8
1
  6
CONTINUOUS
 62
     7
 10
-263.3573403721775
 20
79.58021431986276
  0
SEQEND
  8
1
  6
CONTINUOUS
 62
     7
  0
LINE
  8
1
  6
CONTINUOUS
 62
     7
 10
-262.67404004125
 20
80.50000000579965
 11
-262.7347342554747
 21
80.19028262037047
  0
LINE
  8
1
  6
CONTINUOUS
 62
     7
 10
-262.7120347593946
 20
80.19028262038869
 11
-262.6732695975153
 21
80.46094782514605
  0
POLYLINE
  8
1
  6
CONTINUOUS
 62
     7
 66
     1
  0
VERTEX
  8
1
  6
CONTINUOUS
 62
     7
 10
-263.2277334734705
 20
79.58021431986658
  0
VERTEX
  8
1
  6
CONTINUOUS
 62
     7
 10
-263.1758205080008
 20
79.6058347741624
  0
VERTEX
  8
1
  6
CONTINUOUS
 62
     7
 10
-263.1247592115486
 20
79.63533312225398
  0
VERTEX
  8
1
  6
CONTINUOUS
 62
     7
 10
-263.0747932565292
 20
79.66880036032265
  0
VERTEX
  8
1
  6
CONTINUOUS
 62
     7
 10
-263.0371515006273
 20
79.69738874264328
  0
VERTEX
  8
1
  6
CONTINUOUS
 62
     7
 10
-263.000327967745
 20
79.72851749857776
  0
VERTEX
  8
1
  6
CONTINUOUS
 62
     7
 10
-262.9644875292308
 20
79.7622092485169
  0
VERTEX
  8
1
  6
CONTINUOUS
 62
     7
 10
-262.9297950564332
 20
79.79848661285158
  0
VERTEX
  8
1
  6
CONTINUOUS
 62
     7
 10
-262.9008796078938
 20
79.83191867166344
  0
VERTEX
  8
1
  6
CONTINUOUS
 62
     7
 10
-262.872988817297
 20
79.86737949264851
  0
VERTEX
  8
1
  6
CONTINUOUS
 62
     7
 10
-262.8462687534488
 20
79.90484602462489
  0
VERTEX
  8
1
  6
CONTINUOUS
 62
     7
 10
-262.8266210049509
 20
79.93498803690954
  0
VERTEX
  8
1
  6
CONTINUOUS
 62
     7
 10
-262.8077706643643
 20
79.96635333899509
  0
VERTEX
  8
1
  6
CONTINUOUS
 62
     7
 10
-262.7897994096445
 20
79.99890099779174
  0
VERTEX
  8
1
  6
CONTINUOUS
 62
     7
 10
-262.7727889187471
 20
80.03259008020959
  0
VERTEX
  8
1
  6
CONTINUOUS
 62
     7
 10
-262.755702051671
 20
80.069937214548
  0
VERTEX
  8
1
  6
CONTINUOUS
 62
     7
 10
-262.7398656644606
 20
80.10855520277389
  0
VERTEX
  8
1
  6
CONTINUOUS
 62
     7
 10
-262.7299444963161
 20
80.13527177206959
  0
VERTEX
  8
1
  6
CONTINUOUS
 62
     7
 10
-262.7206563704585
 20
80.16252847918702
  0
VERTEX
  8
1
  6
CONTINUOUS
 62
     7
 10
-262.7120347593946
 20
80.19028262038871
  0
SEQEND
  8
1
  6
CONTINUOUS
 62
     7
  0
LINE
  8
1
  6
CONTINUOUS
 62
     7
 10
-263.2663059083403
 20
79.56250547248227
 11
-263.2664986353475
 21
79.56257776472205
  0
LINE
  8
1
  6
CONTINUOUS
 62
     7
 10
-263.2169154124063
 20
79.58021431986205
 11
-263.2663059083404
 21
79.56250547248227
  0
POLYLINE
  8
1
  6
CONTINUOUS
 62
     7
 66
     1
  0
VERTEX
  8
1
  6
CONTINUOUS
 62
     7
 10
-262.6450091118603
 20
80.19028262036554
  0
VERTEX
  8
1
  6
CONTINUOUS
 62
     7
 10
-262.6580346504566
 20
80.15309722371263
  0
VERTEX
  8
1
  6
CONTINUOUS
 62
     7
 10
-262.672387501205
 20
80.11680167307145
  0
VERTEX
  8
1
  6
CONTINUOUS
 62
     7
 10
-262.6879767810553
 20
80.08148676387323
  0
VERTEX
  8
1
  6
CONTINUOUS
 62
     7
 10
-262.7047116069568
 20
80.04724329154926
  0
VERTEX
  8
1
  6
CONTINUOUS
 62
     7
 10
-262.7231841123037
 20
80.01292986071564
  0
VERTEX
  8
1
  6
CONTINUOUS
 62
     7
 10
-262.742763269561
 20
79.97975626911024
  0
VERTEX
  8
1
  6
CONTINUOUS
 62
     7
 10
-262.763355812978
 20
79.94776840818652
  0
VERTEX
  8
1
  6
CONTINUOUS
 62
     7
 10
-262.784868476804
 20
79.9170121693979
  0
VERTEX
  8
1
  6
CONTINUOUS
 62
     7
 10
-262.8118027102714
 20
79.88173559568163
  0
VERTEX
  8
1
  6
CONTINUOUS
 62
     7
 10
-262.8399019164206
 20
79.84816132548056
  0
VERTEX
  8
1
  6
CONTINUOUS
 62
     7
 10
-262.8690385742486
 20
79.81630741869236
  0
VERTEX
  8
1
  6
CONTINUOUS
 62
     7
 10
-262.8990851627527
 20
79.78619193521475
  0
VERTEX
  8
1
  6
CONTINUOUS
 62
     7
 10
-262.9416526249444
 20
79.74763548523256
  0
VERTEX
  8
1
  6
CONTINUOUS
 62
     7
 10
-262.9856421514565
 20
79.71215667649966
  0
VERTEX
  8
1
  6
CONTINUOUS
 62
     7
 10
-263.0308148979144
 20
79.67972587507602
  0
VERTEX
  8
1
  6
CONTINUOUS
 62
     7
 10
-263.0759848553054
 20
79.650876524886
  0
VERTEX
  8
1
  6
CONTINUOUS
 62
     7
 10
-263.1220218863239
 20
79.62476967479928
  0
VERTEX
  8
1
  6
CONTINUOUS
 62
     7
 10
-263.1691439799564
 20
79.60117411570525
  0
VERTEX
  8
1
  6
CONTINUOUS
 62
     7
 10
-263.2169154124063
 20
79.58021431986205
  0
SEQEND
  8
1
  6
CONTINUOUS
 62
     7
  0
LINE
  8
1
  6
CONTINUOUS
 62
     7
 10
-262.5954258889003
 20
80.50000000579965
 11
-262.6450091118603
 21
80.19028262036554
  0
LINE
  8
1
  6
CONTINUOUS
 62
     7
 10
-289.3365849707902
 20
80.19028262037058
 11
-289.3365849707896
 21
80.50000000579965
  0
LINE
  8
1
  6
CONTINUOUS
 62
     7
 10
-268.5062668070109
 20
80.19028262038884
 11
-268.5062668070109
 21
80.50000000579965
  0
LINE
  8
1
  6
CONTINUOUS
 62
     7
 10
-290.5125141096713
 20
80.19878102887456
 11
-290.5124689365863
 21
80.19028262036964
  0
LINE
  8
1
  6
CONTINUOUS
 62
     7
 10
-267.3303376678686
 20
80.19877835767313
 11
-267.3772005792487
 21
80.50000000579965
  0
LINE
  8
1
  6
CONTINUOUS
 62
     7
 10
-290.4936636741224
 20
79.57843309030676
 11
-290.53509382771
 21
79.56250547248098
  0
LINE
  8
1
  6
CONTINUOUS
 62
     7
 10
-267.3492057700219
 20
79.57910734198656
 11
-267.349160593057
 21
79.58021431986542
  0
LINE
  8
1
  6
CONTINUOUS
 62
     7
 10
-291.5779128765491
 20
80.23413871778732
 11
-291.5767248215245
 21
80.19028262037112
  0
LINE
  8
1
  6
CONTINUOUS
 62
     7
 10
-266.2649389016445
 20
80.23414505782894
 11
-266.3012572273003
 21
80.50000000579965
  0
LINE
  8
1
  6
CONTINUOUS
 62
     7
 10
-291.4794139423636
 20
79.574921932631
 11
-291.4805440524057
 21
79.57068463901018
  0
LINE
  8
1
  6
CONTINUOUS
 62
     7
 10
-291.4805440524057
 20
79.57068463901018
 11
-291.510900737324
 21
79.56250547248098
  0
LINE
  8
1
  6
CONTINUOUS
 62
     7
 10
-266.3634378354311
 20
79.57492183533282
 11
-266.3622497790016
 21
79.58021431986545
  0
LINE
  8
1
  6
CONTINUOUS
 62
     7
 10
-292.5229636410326
 20
80.27039399843785
 11
-292.5191032596512
 21
80.1902826203702
  0
LINE
  8
1
  6
CONTINUOUS
 62
     7
 10
-265.3198881373373
 20
80.2704081201081
 11
-265.3468529984489
 21
80.50000000579965
  0
LINE
  8
1
  6
CONTINUOUS
 62
     7
 10
-265.5001510781382
 20
79.571359221498
 11
-265.4962906964286
 21
79.58021431986545
  0
LINE
  8
1
  6
CONTINUOUS
 62
     7
 10
-292.3427006996629
 20
79.57135923052766
 11
-292.3654641220406
 21
79.56250547248098
  0
LINE
  8
1
  6
CONTINUOUS
 62
     7
 10
-293.3385650482335
 20
80.30743782549784
 11
-293.3305286314508
 21
80.1902826203668
  0
LINE
  8
1
  6
CONTINUOUS
 62
     7
 10
-264.5042867299418
 20
80.30745305577868
 11
-264.523179327149
 21
80.50000000579965
  0
LINE
  8
1
  6
CONTINUOUS
 62
     7
 10
-293.075192356217
 20
79.56841007583962
 11
-293.0905540693132
 21
79.56250547248096
  0
LINE
  8
1
  6
CONTINUOUS
 62
     7
 10
-264.7676594215848
 20
79.56841021424013
 11
-264.7596230046844
 21
79.58021431986546
  0
LINE
  8
1
  6
CONTINUOUS
 62
     7
 10
-263.8259893666084
 20
80.3451580506806
 11
-263.838168641121
 21
80.50000000579965
  0
LINE
  8
1
  6
CONTINUOUS
 62
     7
 10
-294.0168624114429
 20
80.3451429973217
 11
-294.0031864670224
 21
80.19028262036387
  0
LINE
  8
1
  6
CONTINUOUS
 62
     7
 10
-264.1730171607851
 20
79.56606623377144
 11
-264.1593412163443
 21
79.58021431986546
  0
LINE
  8
1
  6
CONTINUOUS
 62
     7
 10
-293.6698346170157
 20
79.56606625023518
 11
-293.6791875665751
 21
79.56250547248095
  0
LINE
  8
1
  6
CONTINUOUS
 62
     7
 10
-294.5513233563195
 20
80.38338676720474
 11
-294.5305987037005
 21
80.19028262037381
  0
LINE
  8
1
  6
CONTINUOUS
 62
     7
 10
-263.2915284215831
 20
80.38339526084818
 11
-263.2984179677362
 21
80.50000000579965
  0
LINE
  8
1
  6
CONTINUOUS
 62
     7
 10
-294.1209007519829
 20
79.56431756157325
 11
-294.1256957514678
 21
79.56250547248095
  0
LINE
  8
1
  6
CONTINUOUS
 62
     7
 10
-263.721951025817
 20
79.56431758656545
 11
-263.7012263731772
 21
79.58021431986548
  0
LINE
  8
1
  6
CONTINUOUS
 62
     7
 10
-294.9368007319192
 20
80.42203229436664
 11
-294.9076860733282
 21
80.19028262037293
  0
LINE
  8
1
  6
CONTINUOUS
 62
     7
 10
-262.9060510459418
 20
80.42203611725793
 11
-262.9091254010371
 21
80.50000000579965
  0
LINE
  8
1
  6
CONTINUOUS
 62
     7
 10
-294.4241212706798
 20
79.56291456530892
 11
-294.4257785060846
 21
79.56250547248095
  0
LINE
  8
1
  6
CONTINUOUS
 62
     7
 10
-263.4188050301515
 20
79.56315672758038
 11
-263.3896903715539
 21
79.58021431986548
  0
LINE
  8
1
  6
CONTINUOUS
 62
     7
 10
-295.1695821802818
 20
80.46094724863892
 11
-295.1308170183997
 21
80.19028262036775
  0
LINE
  8
1
  6
CONTINUOUS
 62
     7
 10
-294.5763845294819
 20
79.5625311916559
 11
-294.5765458694567
 21
79.56250547248092
  0
LINE
  8
1
  6
CONTINUOUS
 62
     7
 10
-263.2664986353475
 20
79.56257776472205
 11
-263.227733473473
 21
79.58021431986548
  0
LINE
  8
1
  6
CONTINUOUS
 62
     7
 10
-295.4214272180445
 20
82.50000000000001
 11
-295.4214272180445
 21
80.50000000000001
  0
LINE
  8
1
  6
CONTINUOUS
 62
     7
 10
-262.4214272180445
 20
80.50000000000001
 11
-262.4214272180445
 21
82.50000000000001
  0
ARC
  8
1
  6
CONTINUOUS
 62
     7
 10
-294.2474258889003
 20
80.50000000579965
 40
0.99999999999998
 50
193.85600948736
 51
247.4999999999999
  0
ARC
  8
1
  6
CONTINUOUS
 62
     7
 10
-294.2474258889003
 20
80.50000000579965
 40
0.999999999999998
 50
247.5
 51
270.0000000000004
  0
ARC
  8
1
  6
CONTINUOUS
 62
     7
 10
-263.5954258889003
 20
80.50000000579965
 40
1.000000000000001
 50
269.9999999999998
 51
280.5791955218614
  0
ARC
  8
1
  6
CONTINUOUS
 62
     7
 10
-263.5954258889003
 20
80.50000000579965
 40
1.000000000000001
 50
280.5791955218615
 51
289.4942971454842
  0
ARC
  8
1
  6
CONTINUOUS
 62
     7
 10
-263.5954258889003
 20
80.50000000579965
 40
1.000000000000021
 50
289.4942971454842
 51
292.5000000000002
  0
ARC
  8
1
  6
CONTINUOUS
 62
     7
 10
-263.5954258889003
 20
80.50000000579965
 40
1.000000000000019
 50
292.5000000000001
 51
346.242392409246
  0
ARC
  8
1
  6
CONTINUOUS
 62
     7
 10
-278.9214258889003
 20
163.1116618718336
 40
84.99999999999999
 50
259.6302401945226
 51
280.3697598054774
  0
LINE
  8
1
  6
CONTINUOUS
 62
     7
 10
-290.512514113562
 20
80.50000000579965
 11
-290.512514113562
 21
80.19879897016003
  0
LINE
  8
1
  6
CONTINUOUS
 62
     7
 10
-267.3303376642385
 20
80.19879557306596
 11
-267.3303376642385
 21
80.50000000579965
  0
LINE
  8
1
  6
CONTINUOUS
 62
     7
 10
-291.5779128779623
 20
80.50000000579965
 11
-291.5779128779623
 21
80.2341497806418
  0
LINE
  8
1
  6
CONTINUOUS
 62
     7
 10
-266.2649388998383
 20
80.23415729574307
 11
-266.2649388998383
 21
80.50000000579965
  0
LINE
  8
1
  6
CONTINUOUS
 62
     7
 10
-292.5229636413832
 20
80.50000000579965
 11
-292.5229636413832
 21
80.27039999998439
  0
LINE
  8
1
  6
CONTINUOUS
 62
     7
 10
-265.3198881364173
 20
80.27041701431743
 11
-265.3198881364173
 21
80.50000000579965
  0
LINE
  8
1
  6
CONTINUOUS
 62
     7
 10
-293.3385650483557
 20
80.50000000579965
 11
-293.3385650483557
 21
80.30744134947956
  0
LINE
  8
1
  6
CONTINUOUS
 62
     7
 10
-264.5042867294447
 20
80.30745978691162
 11
-264.5042867294447
 21
80.50000000579965
  0
LINE
  8
1
  6
CONTINUOUS
 62
     7
 10
-263.8259893663229
 20
80.3451633953855
 11
-263.8259893663229
 21
80.50000000579965
  0
LINE
  8
1
  6
CONTINUOUS
 62
     7
 10
-294.0168624114777
 20
80.50000000579965
 11
-294.0168624114777
 21
80.345145013548
  0
LINE
  8
1
  6
CONTINUOUS
 62
     7
 10
-294.5513233563472
 20
80.50000000579965
 11
-294.5513233563472
 21
80.38338872307628
  0
LINE
  8
1
  6
CONTINUOUS
 62
     7
 10
-263.2915284214534
 20
80.38339920597271
 11
-263.2915284214534
 21
80.50000000579965
  0
LINE
  8
1
  6
CONTINUOUS
 62
     7
 10
-294.9368007318989
 20
80.50000000579965
 11
-294.9368007318989
 21
80.4220340176155
  0
LINE
  8
1
  6
CONTINUOUS
 62
     7
 10
-262.9060510459016
 20
80.42203888214996
 11
-262.9060510459016
 21
80.50000000579965
  0
LINE
  8
1
  6
CONTINUOUS
 62
     7
 10
-295.169582180283
 20
80.50000000579965
 11
-295.169582180283
 21
80.46094859430697
  0
LINE
  8
1
  6
CONTINUOUS
 62
     7
 10
-262.6732695975176
 20
80.46094948196215
 11
-262.6732695975176
 21
80.50000000579965
  0
ENDBLK
  8
0
  0
BLOCK
  8
0
  2
D_FRAME_VIEW_6190
 70
     0
 10
0.0
 20
0.0
  0
LINE
  8
1
  6
CONTINUOUS
 62
     7
 10
-108.4666666666667
 20
52.57857278195556
 11
-108.4666666666667
 21
48.57857278195556
  0
LINE
  8
1
  6
CONTINUOUS
 62
     7
 10
-108.4666666666667
 20
48.57857278195556
 11
-119.6666666666667
 21
48.57857278195556
  0
LINE
  8
1
  6
CONTINUOUS
 62
     7
 10
-119.6666666666667
 20
54.57857278195556
 11
-110.4666666666667
 21
54.57857278195556
  0
ARC
  8
1
  6
CONTINUOUS
 62
     7
 10
-110.4666666666667
 20
52.57857278195556
 40
2.000000000000002
 50
0.0
 51
90.0
  0
LINE
  8
1
  6
CONTINUOUS
 62
     7
 10
-213.6666666666667
 20
48.57857278195556
 11
-119.6666666666667
 21
48.57857278195556
  0
LINE
  8
1
  6
CONTINUOUS
 62
     7
 10
-213.6666666666667
 20
54.57857278195556
 11
-119.6666666666667
 21
54.57857278195556
  0
LINE
  8
1
  6
CONTINUOUS
 62
     7
 10
-224.8666666666667
 20
48.57857278195556
 11
-224.8666666666667
 21
52.57857278195556
  0
LINE
  8
1
  6
CONTINUOUS
 62
     7
 10
-213.6666666666667
 20
48.57857278195556
 11
-224.8666666666667
 21
48.57857278195556
  0
LINE
  8
1
  6
CONTINUOUS
 62
     7
 10
-222.8666666666667
 20
54.57857278195556
 11
-213.6666666666667
 21
54.57857278195556
  0
ARC
  8
1
  6
CONTINUOUS
 62
     7
 10
-222.8666666666667
 20
52.57857278195556
 40
2.000000000000002
 50
90.0
 51
180.0
  0
CIRCLE
  8
1
  6
CONTINUOUS
 62
     7
 10
-125.6666666666667
 20
7.578572781955548
 40
3.000000000000003
  0
ARC
  8
1
  6
CONTINUOUS
 62
     7
 10
-112.1666666666667
 20
-0.9214272180444529
 40
0.5000000000000004
 50
269.9999999999992
 51
0.0
  0
LINE
  8
1
  6
CONTINUOUS
 62
     7
 10
-112.1666666666667
 20
-1.421427218044453
 11
-119.6666666666667
 21
-1.421427218044453
  0
LINE
  8
1
  6
CONTINUOUS
 62
     7
 10
-119.6666666666667
 20
-1.421427218044453
 11
-154.1666666666667
 21
-1.42142721804446
  0
LINE
  8
1
  6
CONTINUOUS
 62
     7
 10
-154.1269194413737
 20
-0.921427218044446
 11
-154.1666666666668
 21
-1.421427218044446
  0
LINE
  8
1
  6
CONTINUOUS
 62
     7
 10
-154.1666666666667
 20
-1.42142721804446
 11
-166.50867616556
 21
0.553294301778473
  0
LINE
  8
1
  6
CONTINUOUS
 62
     7
 10
-111.6666666666667
 20
48.57857278195556
 11
-111.6666666666667
 21
-0.9214272180444529
  0
LINE
  8
1
  6
CONTINUOUS
 62
     7
 10
-166.8246571677734
 20
0.553294301778473
 11
-179.1666666666667
 21
-1.42142721804446
  0
LINE
  8
1
  6
CONTINUOUS
 62
     7
 10
-179.2064138919596
 20
-0.9214272180444529
 11
-179.1666666666666
 21
-1.421427218044446
  0
ARC
  8
1
  6
CONTINUOUS
 62
     7
 10
-166.6666666666667
 20
-0.4341463301382326
 40
1.000000000000002
 50
80.90972307917765
 51
99.09027692082229
  0
LINE
  8
1
  6
CONTINUOUS
 62
     7
 10
-213.6666666666667
 20
-1.421427218044453
 11
-221.1666666666667
 21
-1.421427218044453
  0
ARC
  8
1
  6
CONTINUOUS
 62
     7
 10
-221.1666666666667
 20
-0.9214272180444529
 40
0.5000000000000004
 50
180.0
 51
270.0
  0
LINE
  8
1
  6
CONTINUOUS
 62
     7
 10
-221.6666666666667
 20
-0.9214272180444529
 11
-221.6666666666667
 21
48.57857278195556
  0
LINE
  8
1
  6
CONTINUOUS
 62
     7
 10
-179.1666666666667
 20
-1.42142721804446
 11
-213.6666666666667
 21
-1.421427218044453
  0
CIRCLE
  8
1
  6
CONTINUOUS
 62
     7
 10
-125.6666666666667
 20
7.578572781955555
 40
1.589637028918123
  0
CIRCLE
  8
1
  6
CONTINUOUS
 62
     7
 10
-125.6666666666667
 20
7.578572781955555
 40
2.599999999999991
  0
CIRCLE
  8
1
  6
CONTINUOUS
 62
     7
 10
-125.6666666666667
 20
7.578572781955548
 40
0.7500000000000007
  0
CIRCLE
  8
1
  6
CONTINUOUS
 62
     7
 10
-166.6666666666667
 20
26.07857278195556
 40
16.49999999999999
  0
ARC
  8
1
  6
CONTINUOUS
 62
     7
 10
-119.6666666666667
 20
46.27857278195555
 40
8.484384185077921
 50
96.87083855790164
 51
101.966825767847
  0
LINE
  8
1
  6
CONTINUOUS
 62
     7
 10
-120.1816666666667
 20
54.7020251620667
 11
-120.6816666666667
 21
54.7020251620667
  0
LINE
  8
1
  6
CONTINUOUS
 62
     7
 10
-120.1816666666667
 20
54.57857278195555
 11
-120.1816666666667
 21
54.70202516206669
  0
LINE
  8
1
  6
CONTINUOUS
 62
     7
 10
-119.1516666666667
 20
54.7020251620667
 11
-119.1516666666667
 21
54.57857278195556
  0
LINE
  8
1
  6
CONTINUOUS
 62
     7
 10
-118.6516666666667
 20
54.7020251620667
 11
-119.1516666666667
 21
54.7020251620667
  0
ARC
  8
1
  6
CONTINUOUS
 62
     7
 10
-119.6666666666667
 20
46.27857278195555
 40
8.48438418507792
 50
78.03317423215297
 51
83.12916144209832
  0
LINE
  8
1
  6
CONTINUOUS
 62
     7
 10
-213.1516666666667
 20
54.7020251620667
 11
-213.1516666666667
 21
54.57857278195556
  0
LINE
  8
1
  6
CONTINUOUS
 62
     7
 10
-212.6516666666667
 20
54.7020251620667
 11
-213.1516666666667
 21
54.7020251620667
  0
ARC
  8
1
  6
CONTINUOUS
 62
     7
 10
-213.6666666666667
 20
46.27857278195555
 40
8.48438418507792
 50
78.03317423215297
 51
83.12916144209832
  0
ARC
  8
1
  6
CONTINUOUS
 62
     7
 10
-213.6666666666667
 20
46.27857278195555
 40
8.484384185077921
 50
96.87083855790164
 51
101.966825767847
  0
LINE
  8
1
  6
CONTINUOUS
 62
     7
 10
-214.1816666666667
 20
54.7020251620667
 11
-214.6816666666667
 21
54.7020251620667
  0
LINE
  8
1
  6
CONTINUOUS
 62
     7
 10
-214.1816666666667
 20
54.57857278195555
 11
-214.1816666666667
 21
54.70202516206669
  0
CIRCLE
  8
1
  6
CONTINUOUS
 62
     7
 10
-166.6668189715099
 20
26.07857411109979
 40
15.30000000000001
  0
LINE
  8
1
  6
CONTINUOUS
 62
     7
 10
-160.5450831801216
 20
10.99681353297303
 11
-160.4191292547174
 21
10.99531686332052
  0
LINE
  8
1
  6
CONTINUOUS
 62
     7
 10
-161.2677804566718
 20
11.31648943854115
 11
-160.5450831801216
 21
10.99681353297303
  0
LINE
  8
1
  6
CONTINUOUS
 62
     7
 10
-161.3864074094403
 20
11.32081243342106
 11
-161.2677804566718
 21
11.31648943854115
  0
LINE
  8
1
  6
CONTINUOUS
 62
     7
 10
-161.4753648050556
 20
11.24221457104352
 11
-161.3864074094403
 21
11.32081243342106
  0
LINE
  8
1
  6
CONTINUOUS
 62
     7
 10
-161.8312171068451
 20
10.53662745562288
 11
-161.4753648050556
 21
11.24221457104352
  0
LINE
  8
1
  6
CONTINUOUS
 62
     7
 10
-161.9276313306535
 20
10.45556618993573
 11
-161.8312171068451
 21
10.53662745562288
  0
LINE
  8
1
  6
CONTINUOUS
 62
     7
 10
-162.0528320542008
 20
10.46940129629619
 11
-161.9276313306535
 21
10.45556618993573
  0
LINE
  8
1
  6
CONTINUOUS
 62
     7
 10
-162.7407156277351
 20
10.85837459537411
 11
-162.0528320542008
 21
10.46940129629619
  0
LINE
  8
1
  6
CONTINUOUS
 62
     7
 10
-162.8583476317062
 20
10.87430424852845
 11
-162.7407156277351
 21
10.85837459537411
  0
LINE
  8
1
  6
CONTINUOUS
 62
     7
 10
-162.9545806108543
 20
10.80480420586921
 11
-162.8583476317062
 21
10.87430424852845
  0
LINE
  8
1
  6
CONTINUOUS
 62
     7
 10
-163.3778790178547
 20
10.13749431026464
 11
-162.9545806108543
 21
10.80480420586921
  0
LINE
  8
1
  6
CONTINUOUS
 62
     7
 10
-163.4817743742746
 20
10.06627362323664
 11
-163.3778790178547
 21
10.13749431026464
  0
LINE
  8
1
  6
CONTINUOUS
 62
     7
 10
-163.6050161445555
 20
10.09231392666775
 11
-163.4817743742746
 21
10.06627362323664
  0
LINE
  8
1
  6
CONTINUOUS
 62
     7
 10
-164.2514613202254
 20
10.5468385937509
 11
-163.6050161445555
 21
10.09231392666775
  0
LINE
  8
1
  6
CONTINUOUS
 62
     7
 10
-164.3669655148966
 20
10.57422149391177
 11
-164.2514613202254
 21
10.5468385937509
  0
LINE
  8
1
  6
CONTINUOUS
 62
     7
 10
-164.4695473013802
 20
10.51448859437704
 11
-164.3669655148966
 21
10.57422149391177
  0
LINE
  8
1
  6
CONTINUOUS
 62
     7
 10
-164.9562152185327
 20
9.891882477674141
 11
-164.4695473013802
 21
10.51448859437704
  0
LINE
  8
1
  6
CONTINUOUS
 62
     7
 10
-165.0665911384895
 20
9.831188263449489
 11
-164.9562152185327
 21
9.891882477674141
  0
LINE
  8
1
  6
CONTINUOUS
 62
     7
 10
-165.1866870698855
 20
9.869182981594143
 11
-165.0665911384895
 21
9.831188263449489
  0
LINE
  8
1
  6
CONTINUOUS
 62
     7
 10
-165.7854682272663
 20
10.38488169567005
 11
-165.1866870698855
 21
9.869182981594143
  0
LINE
  8
1
  6
CONTINUOUS
 62
     7
 10
-165.897732244102
 20
10.42345413053987
 11
-165.7854682272663
 21
10.38488169567005
  0
LINE
  8
1
  6
CONTINUOUS
 62
     7
 10
-166.0056749192395
 20
10.37406363460583
 11
-165.897732244102
 21
10.42345413053987
  0
LINE
  8
1
  6
CONTINUOUS
 62
     7
 10
-166.5510254684619
 20
9.802157334059855
 11
-166.0056749192395
 21
10.37406363460583
  0
LINE
  8
1
  6
CONTINUOUS
 62
     7
 10
-166.6668189715099
 20
9.752574111099783
 11
-166.5510254684619
 21
9.802157334059855
  0
LINE
  8
1
  6
CONTINUOUS
 62
     7
 10
-166.7826124745505
 20
9.802157334052222
 11
-166.6668189715099
 21
9.752574111099783
  0
LINE
  8
1
  6
CONTINUOUS
 62
     7
 10
-167.3279630237697
 20
10.37406363459474
 11
-166.7826124745505
 21
9.802157334052222
  0
LINE
  8
1
  6
CONTINUOUS
 62
     7
 10
-167.4359056989179
 20
10.42345413053988
 11
-167.3279630237697
 21
10.37406363459474
  0
LINE
  8
1
  6
CONTINUOUS
 62
     7
 10
-167.5481697157428
 20
10.38488169567917
 11
-167.4359056989179
 21
10.42345413053988
  0
LINE
  8
1
  6
CONTINUOUS
 62
     7
 10
-168.146950873127
 20
9.869182981600346
 11
-167.5481697157428
 21
10.38488169567917
  0
LINE
  8
1
  6
CONTINUOUS
 62
     7
 10
-168.2670468045303
 20
9.831188263449489
 11
-168.146950873127
 21
9.869182981600346
  0
LINE
  8
1
  6
CONTINUOUS
 62
     7
 10
-168.377422724482
 20
9.891882477667702
 11
-168.2670468045303
 21
9.831188263449489
  0
LINE
  8
1
  6
CONTINUOUS
 62
     7
 10
-168.8640906416316
 20
10.51448859436686
 11
-168.377422724482
 21
9.891882477667702
  0
LINE
  8
1
  6
CONTINUOUS
 62
     7
 10
-168.9666724281233
 20
10.57422149391178
 11
-168.8640906416316
 21
10.51448859436686
  0
LINE
  8
1
  6
CONTINUOUS
 62
     7
 10
-169.0821766227846
 20
10.54683859375779
 11
-168.9666724281233
 21
10.57422149391178
  0
LINE
  8
1
  6
CONTINUOUS
 62
     7
 10
-169.7286217984583
 20
10.09231392667188
 11
-169.0821766227846
 21
10.54683859375779
  0
LINE
  8
1
  6
CONTINUOUS
 62
     7
 10
-169.8518635687452
 20
10.06627362323664
 11
-169.7286217984583
 21
10.09231392667188
  0
LINE
  8
1
  6
CONTINUOUS
 62
     7
 10
-169.9557589251614
 20
10.13749431025889
 11
-169.8518635687452
 21
10.06627362323664
  0
LINE
  8
1
  6
CONTINUOUS
 62
     7
 10
-170.3790573321595
 20
10.80480420585972
 11
-169.9557589251614
 21
10.13749431025889
  0
LINE
  8
1
  6
CONTINUOUS
 62
     7
 10
-170.4752903113137
 20
10.87430424852848
 11
-170.3790573321595
 21
10.80480420585972
  0
LINE
  8
1
  6
CONTINUOUS
 62
     7
 10
-170.5929223152754
 20
10.85837459537932
 11
-170.4752903113137
 21
10.87430424852848
  0
LINE
  8
1
  6
CONTINUOUS
 62
     7
 10
-171.2808058888131
 20
10.46940129629953
 11
-170.5929223152754
 21
10.85837459537932
  0
LINE
  8
1
  6
CONTINUOUS
 62
     7
 10
-171.4060066123662
 20
10.45556618993575
 11
-171.2808058888131
 21
10.46940129629953
  0
LINE
  8
1
  6
CONTINUOUS
 62
     7
 10
-171.5024208361695
 20
10.5366274556128
 11
-171.4060066123662
 21
10.45556618993575
  0
LINE
  8
1
  6
CONTINUOUS
 62
     7
 10
-171.8582731379583
 20
11.242214571032
 11
-171.5024208361695
 21
10.5366274556128
  0
LINE
  8
1
  6
CONTINUOUS
 62
     7
 10
-171.9472305335796
 20
11.32081243342111
 11
-171.8582731379583
 21
11.242214571032
  0
LINE
  8
1
  6
CONTINUOUS
 62
     7
 10
-172.0658574863367
 20
11.31648943854614
 11
-171.9472305335796
 21
11.32081243342111
  0
LINE
  8
1
  6
CONTINUOUS
 62
     7
 10
-172.7885547628879
 20
10.99681353297759
 11
-172.0658574863367
 21
11.31648943854614
  0
LINE
  8
1
  6
CONTINUOUS
 62
     7
 10
-172.9145086883023
 20
10.99531686332052
 11
-172.7885547628879
 21
10.99681353297759
  0
LINE
  8
1
  6
CONTINUOUS
 62
     7
 10
-173.0025132578122
 20
11.08543804335134
 11
-172.9145086883023
 21
10.99531686332052
  0
LINE
  8
1
  6
CONTINUOUS
 62
     7
 10
-173.2874924021967
 20
11.82250718895424
 11
-173.0025132578122
 21
11.08543804335134
  0
LINE
  8
1
  6
CONTINUOUS
 62
     7
 10
-173.3683175059362
 20
11.90944593068294
 11
-173.2874924021967
 21
11.82250718895424
  0
LINE
  8
1
  6
CONTINUOUS
 62
     7
 10
-173.4867969650734
 20
11.91677122688962
 11
-173.3683175059362
 21
11.90944593068294
  0
LINE
  8
1
  6
CONTINUOUS
 62
     7
 10
-174.2373479748157
 20
11.66947136854932
 11
-173.4867969650734
 21
11.91677122688962
  0
LINE
  8
1
  6
CONTINUOUS
 62
     7
 10
-174.3628420969311
 20
11.68032754934854
 11
-174.2373479748157
 21
11.66947136854932
  0
LINE
  8
1
  6
CONTINUOUS
 62
     7
 10
-174.4415894800349
 20
11.77864072750418
 11
-174.3628420969311
 21
11.68032754934854
  0
LINE
  8
1
  6
CONTINUOUS
 62
     7
 10
-174.6529509620694
 20
12.54009352449565
 11
-174.4415894800349
 21
11.77864072750418
  0
LINE
  8
1
  6
CONTINUOUS
 62
     7
 10
-174.7248653839945
 20
12.63453587795553
 11
-174.6529509620694
 21
12.54009352449565
  0
LINE
  8
1
  6
CONTINUOUS
 62
     7
 10
-174.8420563275674
 20
12.65343891863088
 11
-174.7248653839945
 21
12.63453587795553
  0
LINE
  8
1
  6
CONTINUOUS
 62
     7
 10
-175.6132328539698
 20
12.48089674034879
 11
-174.8420563275674
 21
12.65343891863088
  0
LINE
  8
1
  6
CONTINUOUS
 62
     7
 10
-175.7370585957879
 20
12.50400122064843
 11
-175.6132328539698
 21
12.48089674034879
  0
LINE
  8
1
  6
CONTINUOUS
 62
     7
 10
-175.8057904121387
 20
12.60955958727979
 11
-175.7370585957879
 21
12.50400122064843
  0
LINE
  8
1
  6
CONTINUOUS
 62
     7
 10
-175.9414987052091
 20
13.38806282897237
 11
-175.8057904121387
 21
12.60955958727979
  0
LINE
  8
1
  6
CONTINUOUS
 62
     7
 10
-176.0038098701244
 20
13.48909926267218
 11
-175.9414987052091
 21
13.38806282897237
  0
LINE
  8
1
  6
CONTINUOUS
 62
     7
 10
-176.1185836852827
 20
13.51939800120139
 11
-176.0038098701244
 21
13.48909926267218
  0
LINE
  8
1
  6
CONTINUOUS
 62
     7
 10
-176.9029588768275
 20
13.42327517847559
 11
-176.1185836852827
 21
13.51939800120139
  0
LINE
  8
1
  6
CONTINUOUS
 62
     7
 10
-177.0239237287655
 20
13.45840544949974
 11
-176.9029588768275
 21
13.42327517847559
  0
LINE
  8
1
  6
CONTINUOUS
 62
     7
 10
-177.0819780533993
 20
13.57019241983209
 11
-177.0239237287655
 21
13.45840544949974
  0
LINE
  8
1
  6
CONTINUOUS
 62
     7
 10
-177.1407262124577
 20
14.35824869443512
 11
-177.0819780533993
 21
13.57019241983209
  0
LINE
  8
1
  6
CONTINUOUS
 62
     7
 10
-177.1928340297821
 20
14.4649061722862
 11
-177.1407262124577
 21
14.35824869443512
  0
LINE
  8
1
  6
CONTINUOUS
 62
     7
 10
-177.3040853819437
 20
14.50630881525441
 11
-177.1928340297821
 21
14.4649061722862
  0
LINE
  8
1
  6
CONTINUOUS
 62
     7
 10
-178.0941052767527
 20
14.48753106341378
 11
-177.3040853819437
 21
14.50630881525441
  0
LINE
  8
1
  6
CONTINUOUS
 62
     7
 10
-178.2110442811614
 20
14.53434880144822
 11
-178.0941052767527
 21
14.48753106341378
  0
LINE
  8
1
  6
CONTINUOUS
 62
     7
 10
-178.2578620191961
 20
14.65128780584829
 11
-178.2110442811614
 21
14.53434880144822
  0
LINE
  8
1
  6
CONTINUOUS
 62
     7
 10
-178.2390842673558
 20
15.44130770064194
 11
-178.2578620191961
 21
14.65128780584829
  0
LINE
  8
1
  6
CONTINUOUS
 62
     7
 10
-178.2804869103236
 20
15.55255905282768
 11
-178.2390842673558
 21
15.44130770064194
  0
LINE
  8
1
  6
CONTINUOUS
 62
     7
 10
-178.3871443881505
 20
15.60466687015016
 11
-178.2804869103236
 21
15.55255905282768
  0
LINE
  8
1
  6
CONTINUOUS
 62
     7
 10
-179.1752006627693
 20
15.66341502920981
 11
-178.3871443881505
 21
15.60466687015016
  0
LINE
  8
1
  6
CONTINUOUS
 62
     7
 10
-179.2869876331099
 20
15.72146935384411
 11
-179.1752006627693
 21
15.66341502920981
  0
LINE
  8
1
  6
CONTINUOUS
 62
     7
 10
-179.322117904135
 20
15.84243420577418
 11
-179.2869876331099
 21
15.72146935384411
  0
LINE
  8
1
  6
CONTINUOUS
 62
     7
 10
-179.2259950814112
 20
16.62680939730279
 11
-179.322117904135
 21
15.84243420577418
  0
LINE
  8
1
  6
CONTINUOUS
 62
     7
 10
-179.2562938199376
 20
16.74158321248543
 11
-179.2259950814112
 21
16.62680939730279
  0
LINE
  8
1
  6
CONTINUOUS
 62
     7
 10
-179.3573302536129
 20
16.80389437739626
 11
-179.2562938199376
 21
16.74158321248543
  0
LINE
  8
1
  6
CONTINUOUS
 62
     7
 10
-180.1358334953222
 20
16.93960267046962
 11
-179.3573302536129
 21
16.80389437739626
  0
LINE
  8
1
  6
CONTINUOUS
 62
     7
 10
-180.2413918619612
 20
17.00833448682176
 11
-180.1358334953222
 21
16.93960267046962
  0
LINE
  8
1
  6
CONTINUOUS
 62
     7
 10
-180.2644963422627
 20
17.1321602286316
 11
-180.2413918619612
 21
17.00833448682176
  0
LINE
  8
1
  6
CONTINUOUS
 62
     7
 10
-180.0919541639843
 20
17.90333675501767
 11
-180.2644963422627
 21
17.1321602286316
  0
LINE
  8
1
  6
CONTINUOUS
 62
     7
 10
-180.1108572046542
 20
18.02052769861527
 11
-180.0919541639843
 21
17.90333675501767
  0
LINE
  8
1
  6
CONTINUOUS
 62
     7
 10
-180.2052995580891
 20
18.09244212053335
 11
-180.1108572046542
 21
18.02052769861527
  0
LINE
  8
1
  6
CONTINUOUS
 62
     7
 10
-180.9667523550966
 20
18.30380360257227
 11
-180.2052995580891
 21
18.09244212053335
  0
LINE
  8
1
  6
CONTINUOUS
 62
     7
 10
-181.0650655332611
 20
18.38255098567855
 11
-180.9667523550966
 21
18.30380360257227
  0
LINE
  8
1
  6
CONTINUOUS
 62
     7
 10
-181.0759217140635
 20
18.50804510778452
 11
-181.0650655332611
 21
18.38255098567855
  0
LINE
  8
1
  6
CONTINUOUS
 62
     7
 10
-180.8286218557284
 20
19.25859611751096
 11
-181.0759217140635
 21
18.50804510778452
  0
LINE
  8
1
  6
CONTINUOUS
 62
     7
 10
-180.8359471519268
 20
19.3770755766736
 11
-180.8286218557284
 21
19.25859611751096
  0
LINE
  8
1
  6
CONTINUOUS
 62
     7
 10
-180.9228858936444
 20
19.45790068040867
 11
-180.8359471519268
 21
19.3770755766736
  0
LINE
  8
1
  6
CONTINUOUS
 62
     7
 10
-181.6599550392497
 20
19.74287982479416
 11
-180.9228858936444
 21
19.45790068040867
  0
LINE
  8
1
  6
CONTINUOUS
 62
     7
 10
-181.7500762192892
 20
19.83088439430734
 11
-181.6599550392497
 21
19.74287982479416
  0
LINE
  8
1
  6
CONTINUOUS
 62
     7
 10
-181.7485795496366
 20
19.95683831971149
 11
-181.7500762192892
 21
19.83088439430734
  0
LINE
  8
1
  6
CONTINUOUS
 62
     7
 10
-181.4289036440685
 20
20.67953559626172
 11
-181.7485795496366
 21
19.95683831971149
  0
LINE
  8
1
  6
CONTINUOUS
 62
     7
 10
-181.4245806491886
 20
20.79816254903018
 11
-181.4289036440685
 21
20.67953559626172
  0
LINE
  8
1
  6
CONTINUOUS
 62
     7
 10
-181.5031785115661
 20
20.88711994464555
 11
-181.4245806491886
 21
20.79816254903018
  0
LINE
  8
1
  6
CONTINUOUS
 62
     7
 10
-182.2087656269869
 20
21.24297224643509
 11
-181.5031785115661
 21
20.88711994464555
  0
LINE
  8
1
  6
CONTINUOUS
 62
     7
 10
-182.2898268926739
 20
21.33938647024344
 11
-182.2087656269869
 21
21.24297224643509
  0
LINE
  8
1
  6
CONTINUOUS
 62
     7
 10
-182.2759917863135
 20
21.46458719379071
 11
-182.2898268926739
 21
21.33938647024344
  0
LINE
  8
1
  6
CONTINUOUS
 62
     7
 10
-181.8870184872355
 20
22.15247076732504
 11
-182.2759917863135
 21
21.46458719379071
  0
LINE
  8
1
  6
CONTINUOUS
 62
     7
 10
-181.8710888340812
 20
22.27010277129609
 11
-181.8870184872355
 21
22.15247076732504
  0
LINE
  8
1
  6
CONTINUOUS
 62
     7
 10
-181.9405888767404
 20
22.36633575044419
 11
-181.8710888340812
 21
22.27010277129609
  0
LINE
  8
1
  6
CONTINUOUS
 62
     7
 10
-182.6078987723397
 20
22.78963415744126
 11
-181.9405888767404
 21
22.36633575044419
  0
LINE
  8
1
  6
CONTINUOUS
 62
     7
 10
-182.679119459373
 20
22.89352951386448
 11
-182.6078987723397
 21
22.78963415744126
  0
LINE
  8
1
  6
CONTINUOUS
 62
     7
 10
-182.6530791559419
 20
23.01677128414543
 11
-182.679119459373
 21
22.89352951386448
  0
LINE
  8
1
  6
CONTINUOUS
 62
     7
 10
-182.1985544888587
 20
23.66321645981531
 11
-182.6530791559419
 21
23.01677128414543
  0
LINE
  8
1
  6
CONTINUOUS
 62
     7
 10
-182.1711715886979
 20
23.77872065448651
 11
-182.1985544888587
 21
23.66321645981531
  0
LINE
  8
1
  6
CONTINUOUS
 62
     7
 10
-182.2309044882326
 20
23.88130244097008
 11
-182.1711715886979
 21
23.77872065448651
  0
LINE
  8
1
  6
CONTINUOUS
 62
     7
 10
-182.8535106049359
 20
24.36797035812289
 11
-182.2309044882326
 21
23.88130244097008
  0
LINE
  8
1
  6
CONTINUOUS
 62
     7
 10
-182.9142048191601
 20
24.47834627807939
 11
-182.8535106049359
 21
24.36797035812289
  0
LINE
  8
1
  6
CONTINUOUS
 62
     7
 10
-182.8762101010155
 20
24.59844220947542
 11
-182.9142048191601
 21
24.47834627807939
  0
LINE
  8
1
  6
CONTINUOUS
 62
     7
 10
-182.3605113869396
 20
25.19722336685625
 11
-182.8762101010155
 21
24.59844220947542
  0
LINE
  8
1
  6
CONTINUOUS
 62
     7
 10
-182.3219389520698
 20
25.30948738369191
 11
-182.3605113869396
 21
25.19722336685625
  0
LINE
  8
1
  6
CONTINUOUS
 62
     7
 10
-182.3713294480038
 20
25.41743005882943
 11
-182.3219389520698
 21
25.30948738369191
  0
LINE
  8
1
  6
CONTINUOUS
 62
     7
 10
-182.9432357485499
 20
25.96278060805201
 11
-182.3713294480038
 21
25.41743005882943
  0
LINE
  8
1
  6
CONTINUOUS
 62
     7
 10
-182.9928189715099
 20
26.0785741110998
 11
-182.9432357485499
 21
25.96278060805201
  0
LINE
  8
1
  6
CONTINUOUS
 62
     7
 10
-182.9432357485574
 20
26.19436761414044
 11
-182.9928189715099
 21
26.0785741110998
  0
LINE
  8
1
  6
CONTINUOUS
 62
     7
 10
-182.3713294480149
 20
26.73971816335959
 11
-182.9432357485574
 21
26.19436761414044
  0
LINE
  8
1
  6
CONTINUOUS
 62
     7
 10
-182.3219389520698
 20
26.84766083850781
 11
-182.3713294480149
 21
26.73971816335959
  0
LINE
  8
1
  6
CONTINUOUS
 62
     7
 10
-182.3605113869305
 20
26.95992485533276
 11
-182.3219389520698
 21
26.84766083850781
  0
LINE
  8
1
  6
CONTINUOUS
 62
     7
 10
-182.8762101010089
 20
27.55870601271651
 11
-182.3605113869305
 21
26.95992485533276
  0
LINE
  8
1
  6
CONTINUOUS
 62
     7
 10
-182.9142048191601
 20
27.67880194412021
 11
-182.8762101010089
 21
27.55870601271651
  0
LINE
  8
1
  6
CONTINUOUS
 62
     7
 10
-182.853510604942
 20
27.78917786407199
 11
-182.9142048191601
 21
27.67880194412021
  0
LINE
  8
1
  6
CONTINUOUS
 62
     7
 10
-182.2309044882428
 20
28.27584578122156
 11
-182.853510604942
 21
27.78917786407199
  0
LINE
  8
1
  6
CONTINUOUS
 62
     7
 10
-182.1711715886979
 20
28.37842756771319
 11
-182.2309044882428
 21
28.27584578122156
  0
LINE
  8
1
  6
CONTINUOUS
 62
     7
 10
-182.1985544888519
 20
28.49393176237448
 11
-182.1711715886979
 21
28.37842756771319
  0
LINE
  8
1
  6
CONTINUOUS
 62
     7
 10
-182.6530791559377
 20
29.14037693804827
 11
-182.1985544888519
 21
28.49393176237448
  0
LINE
  8
1
  6
CONTINUOUS
 62
     7
 10
-182.679119459373
 20
29.26361870833511
 11
-182.6530791559377
 21
29.14037693804827
  0
LINE
  8
1
  6
CONTINUOUS
 62
     7
 10
-182.6078987723508
 20
29.36751406475129
 11
-182.679119459373
 21
29.26361870833511
  0
LINE
  8
1
  6
CONTINUOUS
 62
     7
 10
-181.9405888767499
 20
29.79081247174937
 11
-182.6078987723508
 21
29.36751406475129
  0
LINE
  8
1
  6
CONTINUOUS
 62
     7
 10
-181.8710888340812
 20
29.88704545090362
 11
-181.9405888767499
 21
29.79081247174937
  0
LINE
  8
1
  6
CONTINUOUS
 62
     7
 10
-181.8870184872303
 20
30.00467745486535
 11
-181.8710888340812
 21
29.88704545090362
  0
LINE
  8
1
  6
CONTINUOUS
 62
     7
 10
-182.275991786307
 20
30.69256102839748
 11
-181.8870184872303
 21
30.00467745486535
  0
LINE
  8
1
  6
CONTINUOUS
 62
     7
 10
-182.2898268926739
 20
30.81776175195615
 11
-182.275991786307
 21
30.69256102839748
  0
LINE
  8
1
  6
CONTINUOUS
 62
     7
 10
-182.2087656269968
 20
30.91417597575946
 11
-182.2898268926739
 21
30.81776175195615
  0
LINE
  8
1
  6
CONTINUOUS
 62
     7
 10
-181.5031785115777
 20
31.27002827754822
 11
-182.2087656269968
 21
30.91417597575946
  0
LINE
  8
1
  6
CONTINUOUS
 62
     7
 10
-181.4245806491885
 20
31.35898567316952
 11
-181.5031785115777
 21
31.27002827754822
  0
LINE
  8
1
  6
CONTINUOUS
 62
     7
 10
-181.4289036440635
 20
31.47761262592662
 11
-181.4245806491885
 21
31.35898567316952
  0
LINE
  8
1
  6
CONTINUOUS
 62
     7
 10
-181.7485795496319
 20
32.20030990247746
 11
-181.4289036440635
 21
31.47761262592662
  0
LINE
  8
1
  6
CONTINUOUS
 62
     7
 10
-181.7500762192892
 20
32.32626382789225
 11
-181.7485795496319
 21
32.20030990247746
  0
LINE
  8
1
  6
CONTINUOUS
 62
     7
 10
-181.6599550392583
 20
32.4142683974021
 11
-181.7500762192892
 21
32.32626382789225
  0
LINE
  8
1
  6
CONTINUOUS
 62
     7
 10
-180.9228858936554
 20
32.69924754178665
 11
-181.6599550392583
 21
32.4142683974021
  0
LINE
  8
1
  6
CONTINUOUS
 62
     7
 10
-180.8359471519267
 20
32.78007264552613
 11
-180.9228858936554
 21
32.69924754178665
  0
LINE
  8
1
  6
CONTINUOUS
 62
     7
 10
-180.82862185572
 20
32.89855210466335
 11
-180.8359471519267
 21
32.78007264552613
  0
LINE
  8
1
  6
CONTINUOUS
 62
     7
 10
-181.0759217140604
 20
33.64910311440585
 11
-180.82862185572
 21
32.89855210466335
  0
LINE
  8
1
  6
CONTINUOUS
 62
     7
 10
-181.0650655332611
 20
33.77459723652104
 11
-181.0759217140604
 21
33.64910311440585
  0
LINE
  8
1
  6
CONTINUOUS
 62
     7
 10
-180.9667523551055
 20
33.85334461962486
 11
-181.0650655332611
 21
33.77459723652104
  0
LINE
  8
1
  6
CONTINUOUS
 62
     7
 10
-180.205299558114
 20
34.06470610165932
 11
-180.9667523551055
 21
33.85334461962486
  0
LINE
  8
1
  6
CONTINUOUS
 62
     7
 10
-180.1108572046541
 20
34.13662052358444
 11
-180.205299558114
 21
34.06470610165932
  0
LINE
  8
1
  6
CONTINUOUS
 62
     7
 10
-180.0919541639788
 20
34.25381146715731
 11
-180.1108572046541
 21
34.13662052358444
  0
LINE
  8
1
  6
CONTINUOUS
 62
     7
 10
-180.2644963422609
 20
35.02498799355988
 11
-180.0919541639788
 21
34.25381146715731
  0
LINE
  8
1
  6
CONTINUOUS
 62
     7
 10
-180.2413918619612
 20
35.14881373537781
 11
-180.2644963422609
 21
35.02498799355988
  0
LINE
  8
1
  6
CONTINUOUS
 62
     7
 10
-180.1358334953298
 20
35.21754555172863
 11
-180.2413918619612
 21
35.14881373537781
  0
LINE
  8
1
  6
CONTINUOUS
 62
     7
 10
-179.3573302536373
 20
35.35325384479908
 11
-180.1358334953298
 21
35.21754555172863
  0
LINE
  8
1
  6
CONTINUOUS
 62
     7
 10
-179.2562938199375
 20
35.41556500971428
 11
-179.3573302536373
 21
35.35325384479908
  0
LINE
  8
1
  6
CONTINUOUS
 62
     7
 10
-179.2259950814083
 20
35.53033882487262
 11
-179.2562938199375
 21
35.41556500971428
  0
LINE
  8
1
  6
CONTINUOUS
 62
     7
 10
-179.322117904134
 20
36.31471401641706
 11
-179.2259950814083
 21
35.53033882487262
  0
LINE
  8
1
  6
CONTINUOUS
 62
     7
 10
-179.2869876331099
 20
36.43567886835547
 11
-179.322117904134
 21
36.31471401641706
  0
LINE
  8
1
  6
CONTINUOUS
 62
     7
 10
-179.1752006627776
 20
36.49373319298917
 11
-179.2869876331099
 21
36.43567886835547
  0
LINE
  8
1
  6
CONTINUOUS
 62
     7
 10
-178.3871443881745
 20
36.55248135204762
 11
-179.1752006627776
 21
36.49373319298917
  0
LINE
  8
1
  6
CONTINUOUS
 62
     7
 10
-178.2804869103234
 20
36.60458916937206
 11
-178.3871443881745
 21
36.55248135204762
  0
LINE
  8
1
  6
CONTINUOUS
 62
     7
 10
-178.2390842673552
 20
36.71584052153365
 11
-178.2804869103234
 21
36.60458916937206
  0
LINE
  8
1
  6
CONTINUOUS
 62
     7
 10
-178.2578620191959
 20
37.5058604163426
 11
-178.2390842673552
 21
36.71584052153365
  0
LINE
  8
1
  6
CONTINUOUS
 62
     7
 10
-178.2110442811614
 20
37.62279942075138
 11
-178.2578620191959
 21
37.5058604163426
  0
LINE
  8
1
  6
CONTINUOUS
 62
     7
 10
-178.0941052767614
 20
37.66961715878601
 11
-178.2110442811614
 21
37.62279942075138
  0
LINE
  8
1
  6
CONTINUOUS
 62
     7
 10
-177.3040853819677
 20
37.65083940694574
 11
-178.0941052767614
 21
37.66961715878601
  0
LINE
  8
1
  6
CONTINUOUS
 62
     7
 10
-177.192834029782
 20
37.69224204991352
 11
-177.3040853819677
 21
37.65083940694574
  0
LINE
  8
1
  6
CONTINUOUS
 62
     7
 10
-177.1407262124595
 20
37.7988995277404
 11
-177.192834029782
 21
37.69224204991352
  0
LINE
  8
1
  6
CONTINUOUS
 62
     7
 10
-177.0819780533999
 20
38.58695580235891
 11
-177.1407262124595
 21
37.7988995277404
  0
LINE
  8
1
  6
CONTINUOUS
 62
     7
 10
-177.0239237287655
 20
38.69874277269984
 11
-177.0819780533999
 21
38.58695580235891
  0
LINE
  8
1
  6
CONTINUOUS
 62
     7
 10
-176.9029588768355
 20
38.73387304372497
 11
-177.0239237287655
 21
38.69874277269984
  0
LINE
  8
1
  6
CONTINUOUS
 62
     7
 10
-176.1185836853068
 20
38.63775022100117
 11
-176.9029588768355
 21
38.73387304372497
  0
LINE
  8
1
  6
CONTINUOUS
 62
     7
 10
-176.0038098701242
 20
38.6680489595275
 11
-176.1185836853068
 21
38.63775022100117
  0
LINE
  8
1
  6
CONTINUOUS
 62
     7
 10
-175.9414987052134
 20
38.76908539320284
 11
-176.0038098701242
 21
38.6680489595275
  0
LINE
  8
1
  6
CONTINUOUS
 62
     7
 10
-175.8057904121402
 20
39.54758863491126
 11
-175.9414987052134
 21
38.76908539320284
  0
LINE
  8
1
  6
CONTINUOUS
 62
     7
 10
-175.7370585957879
 20
39.65314700155115
 11
-175.8057904121402
 21
39.54758863491126
  0
LINE
  8
1
  6
CONTINUOUS
 62
     7
 10
-175.613232853978
 20
39.67625148185264
 11
-175.7370585957879
 21
39.65314700155115
  0
LINE
  8
1
  6
CONTINUOUS
 62
     7
 10
-174.842056327592
 20
39.50370930357421
 11
-175.613232853978
 21
39.67625148185264
  0
LINE
  8
1
  6
CONTINUOUS
 62
     7
 10
-174.7248653839944
 20
39.52261234424414
 11
-174.842056327592
 21
39.50370930357421
  0
LINE
  8
1
  6
CONTINUOUS
 62
     7
 10
-174.6529509620763
 20
39.61705469767902
 11
-174.7248653839944
 21
39.52261234424414
  0
LINE
  8
1
  6
CONTINUOUS
 62
     7
 10
-174.4415894800376
 20
40.37850749468573
 11
-174.6529509620763
 21
39.61705469767902
  0
LINE
  8
1
  6
CONTINUOUS
 62
     7
 10
-174.3628420969311
 20
40.47682067285105
 11
-174.4415894800376
 21
40.37850749468573
  0
LINE
  8
1
  6
CONTINUOUS
 62
     7
 10
-174.2373479748252
 20
40.48767685365339
 11
-174.3628420969311
 21
40.47682067285105
  0
LINE
  8
1
  6
CONTINUOUS
 62
     7
 10
-173.4867969650987
 20
40.24037699531831
 11
-174.2373479748252
 21
40.48767685365339
  0
LINE
  8
1
  6
CONTINUOUS
 62
     7
 10
-173.3683175059361
 20
40.24770229151671
 11
-173.4867969650987
 21
40.24037699531831
  0
LINE
  8
1
  6
CONTINUOUS
 62
     7
 10
-173.287492402201
 20
40.3346410332343
 11
-173.3683175059361
 21
40.24770229151671
  0
LINE
  8
1
  6
CONTINUOUS
 62
     7
 10
-173.0025132578156
 20
41.07171017883935
 11
-173.287492402201
 21
40.3346410332343
  0
LINE
  8
1
  6
CONTINUOUS
 62
     7
 10
-172.9145086883023
 20
41.16183135887907
 11
-173.0025132578156
 21
41.07171017883935
  0
LINE
  8
1
  6
CONTINUOUS
 62
     7
 10
-172.7885547628982
 20
41.16033468922656
 11
-172.9145086883023
 21
41.16183135887907
  0
LINE
  8
1
  6
CONTINUOUS
 62
     7
 10
-172.0658574863479
 20
40.84065878365842
 11
-172.7885547628982
 21
41.16033468922656
  0
LINE
  8
1
  6
CONTINUOUS
 62
     7
 10
-171.9472305335795
 20
40.83633578877852
 11
-172.0658574863479
 21
40.84065878365842
  0
LINE
  8
1
  6
CONTINUOUS
 62
     7
 10
-171.8582731379641
 20
40.91493365115606
 11
-171.9472305335795
 21
40.83633578877852
  0
LINE
  8
1
  6
CONTINUOUS
 62
     7
 10
-171.502420836175
 20
41.62052076657582
 11
-171.8582731379641
 21
40.91493365115606
  0
LINE
  8
1
  6
CONTINUOUS
 62
     7
 10
-171.4060066123662
 20
41.70158203226384
 11
-171.502420836175
 21
41.62052076657582
  0
LINE
  8
1
  6
CONTINUOUS
 62
     7
 10
-171.2808058888189
 20
41.68774692590339
 11
-171.4060066123662
 21
41.70158203226384
  0
LINE
  8
1
  6
CONTINUOUS
 62
     7
 10
-170.5929223152846
 20
41.29877362682547
 11
-171.2808058888189
 21
41.68774692590339
  0
LINE
  8
1
  6
CONTINUOUS
 62
     7
 10
-170.4752903113136
 20
41.28284397367113
 11
-170.5929223152846
 21
41.29877362682547
  0
LINE
  8
1
  6
CONTINUOUS
 62
     7
 10
-170.3790573321654
 20
41.35234401633037
 11
-170.4752903113136
 21
41.28284397367113
  0
LINE
  8
1
  6
CONTINUOUS
 62
     7
 10
-169.9557589251685
 20
42.01965391192947
 11
-170.3790573321654
 21
41.35234401633037
  0
LINE
  8
1
  6
CONTINUOUS
 62
     7
 10
-169.8518635687452
 20
42.09087459896294
 11
-169.9557589251685
 21
42.01965391192947
  0
LINE
  8
1
  6
CONTINUOUS
 62
     7
 10
-169.7286217984642
 20
42.06483429553183
 11
-169.8518635687452
 21
42.09087459896294
  0
LINE
  8
1
  6
CONTINUOUS
 62
     7
 10
-169.0821766227943
 20
41.61030962844868
 11
-169.7286217984642
 21
42.06483429553183
  0
LINE
  8
1
  6
CONTINUOUS
 62
     7
 10
-168.9666724281232
 20
41.58292672828781
 11
-169.0821766227943
 21
41.61030962844868
  0
LINE
  8
1
  6
CONTINUOUS
 62
     7
 10
-168.8640906416396
 20
41.64265962782254
 11
-168.9666724281232
 21
41.58292672828781
  0
LINE
  8
1
  6
CONTINUOUS
 62
     7
 10
-168.3774227244872
 20
42.26526574452534
 11
-168.8640906416396
 21
41.64265962782254
  0
LINE
  8
1
  6
CONTINUOUS
 62
     7
 10
-168.2670468045303
 20
42.32595995875008
 11
-168.3774227244872
 21
42.26526574452534
  0
LINE
  8
1
  6
CONTINUOUS
 62
     7
 10
-168.1469508731342
 20
42.28796524060544
 11
-168.2670468045303
 21
42.32595995875008
  0
LINE
  8
1
  6
CONTINUOUS
 62
     7
 10
-167.5481697157534
 20
41.77226652652953
 11
-168.1469508731342
 21
42.28796524060544
  0
LINE
  8
1
  6
CONTINUOUS
 62
     7
 10
-167.4359056989177
 20
41.7336940916597
 11
-167.5481697157534
 21
41.77226652652953
  0
LINE
  8
1
  6
CONTINUOUS
 62
     7
 10
-167.3279630237802
 20
41.78308458759376
 11
-167.4359056989177
 21
41.7336940916597
  0
LINE
  8
1
  6
CONTINUOUS
 62
     7
 10
-166.7826124745577
 20
42.35499088813977
 11
-167.3279630237802
 21
41.78308458759376
  0
LINE
  8
1
  6
CONTINUOUS
 62
     7
 10
-166.6668189715099
 20
42.4045741110998
 11
-166.7826124745577
 21
42.35499088813977
  0
LINE
  8
1
  6
CONTINUOUS
 62
     7
 10
-166.5510254684692
 20
42.35499088814737
 11
-166.6668189715099
 21
42.4045741110998
  0
LINE
  8
1
  6
CONTINUOUS
 62
     7
 10
-166.0056749192501
 20
41.78308458760484
 11
-166.5510254684692
 21
42.35499088814737
  0
LINE
  8
1
  6
CONTINUOUS
 62
     7
 10
-165.8977322441018
 20
41.73369409165969
 11
-166.0056749192501
 21
41.78308458760484
  0
LINE
  8
1
  6
CONTINUOUS
 62
     7
 10
-165.7854682272769
 20
41.7722665265204
 11
-165.8977322441018
 21
41.73369409165969
  0
LINE
  8
1
  6
CONTINUOUS
 62
     7
 10
-165.1866870698922
 20
42.28796524059962
 11
-165.7854682272769
 21
41.7722665265204
  0
LINE
  8
1
  6
CONTINUOUS
 62
     7
 10
-165.0665911384895
 20
42.32595995875008
 11
-165.1866870698922
 21
42.28796524059962
  0
LINE
  8
1
  6
CONTINUOUS
 62
     7
 10
-164.9562152185377
 20
42.26526574453187
 11
-165.0665911384895
 21
42.32595995875008
  0
LINE
  8
1
  6
CONTINUOUS
 62
     7
 10
-164.4695473013881
 20
41.64265962783271
 11
-164.9562152185377
 21
42.26526574453187
  0
LINE
  8
1
  6
CONTINUOUS
 62
     7
 10
-164.3669655148965
 20
41.5829267282878
 11
-164.4695473013881
 21
41.64265962783271
  0
LINE
  8
1
  6
CONTINUOUS
 62
     7
 10
-164.2514613202352
 20
41.6103096284418
 11
-164.3669655148965
 21
41.5829267282878
  0
LINE
  8
1
  6
CONTINUOUS
 62
     7
 10
-163.6050161445615
 20
42.0648342955276
 11
-164.2514613202352
 21
41.6103096284418
  0
LINE
  8
1
  6
CONTINUOUS
 62
     7
 10
-163.4817743742746
 20
42.09087459896294
 11
-163.6050161445615
 21
42.0648342955276
  0
LINE
  8
1
  6
CONTINUOUS
 62
     7
 10
-163.3778790178584
 20
42.0196539119407
 11
-163.4817743742746
 21
42.09087459896294
  0
LINE
  8
1
  6
CONTINUOUS
 62
     7
 10
-162.9545806108603
 20
41.35234401633986
 11
-163.3778790178584
 21
42.0196539119407
  0
LINE
  8
1
  6
CONTINUOUS
 62
     7
 10
-162.858347631706
 20
41.2828439736711
 11
-162.9545806108603
 21
41.35234401633986
  0
LINE
  8
1
  6
CONTINUOUS
 62
     7
 10
-162.7407156277443
 20
41.29877362682026
 11
-162.858347631706
 21
41.2828439736711
  0
LINE
  8
1
  6
CONTINUOUS
 62
     7
 10
-162.0528320542113
 20
41.68774692589744
 11
-162.7407156277443
 21
41.29877362682026
  0
LINE
  8
1
  6
CONTINUOUS
 62
     7
 10
-161.9276313306535
 20
41.70158203226384
 11
-162.0528320542113
 21
41.68774692589744
  0
LINE
  8
1
  6
CONTINUOUS
 62
     7
 10
-161.8312171068502
 20
41.62052076658677
 11
-161.9276313306535
 21
41.70158203226384
  0
LINE
  8
1
  6
CONTINUOUS
 62
     7
 10
-161.4753648050614
 20
40.91493365116759
 11
-161.8312171068502
 21
41.62052076658677
  0
LINE
  8
1
  6
CONTINUOUS
 62
     7
 10
-161.3864074094401
 20
40.83633578877847
 11
-161.4753648050614
 21
40.91493365116759
  0
LINE
  8
1
  6
CONTINUOUS
 62
     7
 10
-161.2677804566831
 20
40.84065878365344
 11
-161.3864074094401
 21
40.83633578877847
  0
LINE
  8
1
  6
CONTINUOUS
 62
     7
 10
-160.5450831801323
 20
41.16033468922182
 11
-161.2677804566831
 21
40.84065878365344
  0
LINE
  8
1
  6
CONTINUOUS
 62
     7
 10
-160.4191292547174
 20
41.16183135887906
 11
-160.5450831801323
 21
41.16033468922182
  0
LINE
  8
1
  6
CONTINUOUS
 62
     7
 10
-160.3311246852076
 20
41.07171017884824
 11
-160.4191292547174
 21
41.16183135887906
  0
LINE
  8
1
  6
CONTINUOUS
 62
     7
 10
-160.046145540823
 20
40.33464103324534
 11
-160.3311246852076
 21
41.07171017884824
  0
LINE
  8
1
  6
CONTINUOUS
 62
     7
 10
-159.9653204370836
 20
40.24770229151665
 11
-160.046145540823
 21
40.33464103324534
  0
LINE
  8
1
  6
CONTINUOUS
 62
     7
 10
-159.8468409779463
 20
40.24037699530997
 11
-159.9653204370836
 21
40.24770229151665
  0
LINE
  8
1
  6
CONTINUOUS
 62
     7
 10
-159.0962899682045
 20
40.48767685365012
 11
-159.8468409779463
 21
40.24037699530997
  0
LINE
  8
1
  6
CONTINUOUS
 62
     7
 10
-158.9707958460886
 20
40.47682067285104
 11
-159.0962899682045
 21
40.48767685365012
  0
LINE
  8
1
  6
CONTINUOUS
 62
     7
 10
-158.8920484629848
 20
40.37850749469541
 11
-158.9707958460886
 21
40.47682067285104
  0
LINE
  8
1
  6
CONTINUOUS
 62
     7
 10
-158.6806869809503
 20
39.61705469770393
 11
-158.8920484629848
 21
40.37850749469541
  0
LINE
  8
1
  6
CONTINUOUS
 62
     7
 10
-158.6087725590252
 20
39.52261234424405
 11
-158.6806869809503
 21
39.61705469770393
  0
LINE
  8
1
  6
CONTINUOUS
 62
     7
 10
-158.4915816154523
 20
39.5037093035687
 11
-158.6087725590252
 21
39.52261234424405
  0
LINE
  8
1
  6
CONTINUOUS
 62
     7
 10
-157.7204050890504
 20
39.67625148185068
 11
-158.4915816154523
 21
39.5037093035687
  0
LINE
  8
1
  6
CONTINUOUS
 62
     7
 10
-157.5965793472318
 20
39.65314700155115
 11
-157.7204050890504
 21
39.67625148185068
  0
LINE
  8
1
  6
CONTINUOUS
 62
     7
 10
-157.527847530881
 20
39.54758863491979
 11
-157.5965793472318
 21
39.65314700155115
  0
LINE
  8
1
  6
CONTINUOUS
 62
     7
 10
-157.3921392378106
 20
38.76908539322721
 11
-157.527847530881
 21
39.54758863491979
  0
LINE
  8
1
  6
CONTINUOUS
 62
     7
 10
-157.3298280728954
 20
38.6680489595274
 11
-157.3921392378106
 21
38.76908539322721
  0
LINE
  8
1
  6
CONTINUOUS
 62
     7
 10
-157.2150542577371
 20
38.63775022099819
 11
-157.3298280728954
 21
38.6680489595274
  0
LINE
  8
1
  6
CONTINUOUS
 62
     7
 10
-156.430679066192
 20
38.73387304372401
 11
-157.2150542577371
 21
38.63775022099819
  0
LINE
  8
1
  6
CONTINUOUS
 62
     7
 10
-156.3097142142542
 20
38.69874277269984
 11
-156.430679066192
 21
38.73387304372401
  0
LINE
  8
1
  6
CONTINUOUS
 62
     7
 10
-156.2516598896205
 20
38.58695580236748
 11
-156.3097142142542
 21
38.69874277269984
  0
LINE
  8
1
  6
CONTINUOUS
 62
     7
 10
-156.192911730562
 20
37.79889952776447
 11
-156.2516598896205
 21
38.58695580236748
  0
LINE
  8
1
  6
CONTINUOUS
 62
     7
 10
-156.1408039132376
 20
37.69224204991338
 11
-156.192911730562
 21
37.79889952776447
  0
LINE
  8
1
  6
CONTINUOUS
 62
     7
 10
-156.029552561076
 20
37.65083940694517
 11
-156.1408039132376
 21
37.69224204991338
  0
LINE
  8
1
  6
CONTINUOUS
 62
     7
 10
-155.2395326662675
 20
37.66961715878578
 11
-156.029552561076
 21
37.65083940694517
  0
LINE
  8
1
  6
CONTINUOUS
 62
     7
 10
-155.1225936618583
 20
37.62279942075137
 11
-155.2395326662675
 21
37.66961715878578
  0
LINE
  8
1
  6
CONTINUOUS
 62
     7
 10
-155.0757759238236
 20
37.50586041635129
 11
-155.1225936618583
 21
37.62279942075137
  0
LINE
  8
1
  6
CONTINUOUS
 62
     7
 10
-155.0945536756639
 20
36.71584052155765
 11
-155.0757759238236
 21
37.50586041635129
  0
LINE
  8
1
  6
CONTINUOUS
 62
     7
 10
-155.0531510326961
 20
36.60458916937191
 11
-155.0945536756639
 21
36.71584052155765
  0
LINE
  8
1
  6
CONTINUOUS
 62
     7
 10
-154.9464935548693
 20
36.55248135204942
 11
-155.0531510326961
 21
36.60458916937191
  0
LINE
  8
1
  6
CONTINUOUS
 62
     7
 10
-154.1584372802495
 20
36.49373319298971
 11
-154.9464935548693
 21
36.55248135204942
  0
LINE
  8
1
  6
CONTINUOUS
 62
     7
 10
-154.0466503099098
 20
36.43567886835547
 11
-154.1584372802495
 21
36.49373319298971
  0
LINE
  8
1
  6
CONTINUOUS
 62
     7
 10
-154.0115200388847
 20
36.31471401642541
 11
-154.0466503099098
 21
36.43567886835547
  0
LINE
  8
1
  6
CONTINUOUS
 62
     7
 10
-154.1076428616085
 20
35.53033882489679
 11
-154.0115200388847
 21
36.31471401642541
  0
LINE
  8
1
  6
CONTINUOUS
 62
     7
 10
-154.0773441230822
 20
35.41556500971414
 11
-154.1076428616085
 21
35.53033882489679
  0
LINE
  8
1
  6
CONTINUOUS
 62
     7
 10
-153.9763076894068
 20
35.35325384480332
 11
-154.0773441230822
 21
35.41556500971414
  0
LINE
  8
1
  6
CONTINUOUS
 62
     7
 10
-153.1978044476976
 20
35.21754555172997
 11
-153.9763076894068
 21
35.35325384480332
  0
LINE
  8
1
  6
CONTINUOUS
 62
     7
 10
-153.0922460810585
 20
35.14881373537781
 11
-153.1978044476976
 21
35.21754555172997
  0
LINE
  8
1
  6
CONTINUOUS
 62
     7
 10
-153.069141600757
 20
35.02498799356797
 11
-153.0922460810585
 21
35.14881373537781
  0
LINE
  8
1
  6
CONTINUOUS
 62
     7
 10
-153.2416837790354
 20
34.25381146718191
 11
-153.069141600757
 21
35.02498799356797
  0
LINE
  8
1
  6
CONTINUOUS
 62
     7
 10
-153.2227807383655
 20
34.13662052358431
 11
-153.2416837790354
 21
34.25381146718191
  0
LINE
  8
1
  6
CONTINUOUS
 62
     7
 10
-153.1283383849306
 20
34.06470610166623
 11
-153.2227807383655
 21
34.13662052358431
  0
LINE
  8
1
  6
CONTINUOUS
 62
     7
 10
-152.3668855879226
 20
33.85334461962716
 11
-153.1283383849306
 21
34.06470610166623
  0
LINE
  8
1
  6
CONTINUOUS
 62
     7
 10
-152.2685724097586
 20
33.77459723652102
 11
-152.3668855879226
 21
33.85334461962716
  0
LINE
  8
1
  6
CONTINUOUS
 62
     7
 10
-152.2577162289562
 20
33.64910311441507
 11
-152.2685724097586
 21
33.77459723652102
  0
LINE
  8
1
  6
CONTINUOUS
 62
     7
 10
-152.5050160872914
 20
32.89855210468862
 11
-152.2577162289562
 21
33.64910311441507
  0
LINE
  8
1
  6
CONTINUOUS
 62
     7
 10
-152.4976907910929
 20
32.78007264552598
 11
-152.5050160872914
 21
32.89855210468862
  0
LINE
  8
1
  6
CONTINUOUS
 62
     7
 10
-152.4107520493753
 20
32.69924754179092
 11
-152.4976907910929
 21
32.78007264552598
  0
LINE
  8
1
  6
CONTINUOUS
 62
     7
 10
-151.6736829037707
 20
32.41426839740569
 11
-152.4107520493753
 21
32.69924754179092
  0
LINE
  8
1
  6
CONTINUOUS
 62
     7
 10
-151.5835617237306
 20
32.32626382789225
 11
-151.6736829037707
 21
32.41426839740569
  0
LINE
  8
1
  6
CONTINUOUS
 62
     7
 10
-151.5850583933831
 20
32.20030990248809
 11
-151.5835617237306
 21
32.32626382789225
  0
LINE
  8
1
  6
CONTINUOUS
 62
     7
 10
-151.9047342989512
 20
31.47761262593786
 11
-151.5850583933831
 21
32.20030990248809
  0
LINE
  8
1
  6
CONTINUOUS
 62
     7
 10
-151.9090572938311
 20
31.3589856731694
 11
-151.9047342989512
 21
31.47761262593786
  0
LINE
  8
1
  6
CONTINUOUS
 62
     7
 10
-151.8304594314536
 20
31.27002827755404
 11
-151.9090572938311
 21
31.3589856731694
  0
LINE
  8
1
  6
CONTINUOUS
 62
     7
 10
-151.1248723160323
 20
30.91417597576423
 11
-151.8304594314536
 21
31.27002827755404
  0
LINE
  8
1
  6
CONTINUOUS
 62
     7
 10
-151.0438110503458
 20
30.81776175195614
 11
-151.1248723160323
 21
30.91417597576423
  0
LINE
  8
1
  6
CONTINUOUS
 62
     7
 10
-151.0576461567063
 20
30.69256102840887
 11
-151.0438110503458
 21
30.81776175195614
  0
LINE
  8
1
  6
CONTINUOUS
 62
     7
 10
-151.4466194557842
 20
30.00467745487454
 11
-151.0576461567063
 21
30.69256102840887
  0
LINE
  8
1
  6
CONTINUOUS
 62
     7
 10
-151.4625491089385
 20
29.8870454509035
 11
-151.4466194557842
 21
30.00467745487454
  0
LINE
  8
1
  6
CONTINUOUS
 62
     7
 10
-151.3930490662793
 20
29.79081247175539
 11
-151.4625491089385
 21
29.8870454509035
  0
LINE
  8
1
  6
CONTINUOUS
 62
     7
 10
-150.72573917068
 20
29.36751406475826
 11
-151.3930490662793
 21
29.79081247175539
  0
LINE
  8
1
  6
CONTINUOUS
 62
     7
 10
-150.6545184836467
 20
29.2636187083351
 11
-150.72573917068
 21
29.36751406475826
  0
LINE
  8
1
  6
CONTINUOUS
 62
     7
 10
-150.6805587870778
 20
29.14037693805415
 11
-150.6545184836467
 21
29.2636187083351
  0
LINE
  8
1
  6
CONTINUOUS
 62
     7
 10
-151.135083454161
 20
28.49393176238427
 11
-150.6805587870778
 21
29.14037693805415
  0
LINE
  8
1
  6
CONTINUOUS
 62
     7
 10
-151.1624663543219
 20
28.37842756771307
 11
-151.135083454161
 21
28.49393176238427
  0
LINE
  8
1
  6
CONTINUOUS
 62
     7
 10
-151.1027334547871
 20
28.2758457812295
 11
-151.1624663543219
 21
28.37842756771307
  0
LINE
  8
1
  6
CONTINUOUS
 62
     7
 10
-150.4801273380842
 20
27.78917786407701
 11
-151.1027334547871
 21
28.2758457812295
  0
LINE
  8
1
  6
CONTINUOUS
 62
     7
 10
-150.4194331238596
 20
27.6788019441202
 11
-150.4801273380842
 21
27.78917786407701
  0
LINE
  8
1
  6
CONTINUOUS
 62
     7
 10
-150.4574278420042
 20
27.55870601272417
 11
-150.4194331238596
 21
27.6788019441202
  0
LINE
  8
1
  6
CONTINUOUS
 62
     7
 10
-150.9731265560801
 20
26.95992485534333
 11
-150.4574278420042
 21
27.55870601272417
  0
LINE
  8
1
  6
CONTINUOUS
 62
     7
 10
-151.01169899095
 20
26.84766083850768
 11
-150.9731265560801
 21
26.95992485534333
  0
LINE
  8
1
  6
CONTINUOUS
 62
     7
 10
-150.9623084950159
 20
26.73971816337016
 11
-151.01169899095
 21
26.84766083850768
  0
LINE
  8
1
  6
CONTINUOUS
 62
     7
 10
-150.3904021944699
 20
26.19436761414768
 11
-150.9623084950159
 21
26.73971816337016
  0
LINE
  8
1
  6
CONTINUOUS
 62
     7
 10
-150.3408189715099
 20
26.07857411109979
 11
-150.3904021944699
 21
26.19436761414768
  0
LINE
  8
1
  6
CONTINUOUS
 62
     7
 10
-150.3904021944623
 20
25.96278060805914
 11
-150.3408189715099
 21
26.07857411109979
  0
LINE
  8
1
  6
CONTINUOUS
 62
     7
 10
-150.9623084950048
 20
25.41743005884
 11
-150.3904021944623
 21
25.96278060805914
  0
LINE
  8
1
  6
CONTINUOUS
 62
     7
 10
-151.01169899095
 20
25.30948738369178
 11
-150.9623084950048
 21
25.41743005884
  0
LINE
  8
1
  6
CONTINUOUS
 62
     7
 10
-150.9731265560892
 20
25.19722336686683
 11
-151.01169899095
 21
25.30948738369178
  0
LINE
  8
1
  6
CONTINUOUS
 62
     7
 10
-150.4574278420104
 20
24.5984422094826
 11
-150.9731265560892
 21
25.19722336686683
  0
LINE
  8
1
  6
CONTINUOUS
 62
     7
 10
-150.4194331238596
 20
24.47834627807939
 11
-150.4574278420104
 21
24.5984422094826
  0
LINE
  8
1
  6
CONTINUOUS
 62
     7
 10
-150.4801273380778
 20
24.3679703581276
 11
-150.4194331238596
 21
24.47834627807939
  0
LINE
  8
1
  6
CONTINUOUS
 62
     7
 10
-151.1027334547769
 20
23.88130244097804
 11
-150.4801273380778
 21
24.3679703581276
  0
LINE
  8
1
  6
CONTINUOUS
 62
     7
 10
-151.1624663543219
 20
23.77872065448638
 11
-151.1027334547769
 21
23.88130244097804
  0
LINE
  8
1
  6
CONTINUOUS
 62
     7
 10
-151.1350834541679
 20
23.66321645982509
 11
-151.1624663543219
 21
23.77872065448638
  0
LINE
  8
1
  6
CONTINUOUS
 62
     7
 10
-150.680558787082
 20
23.01677128415133
 11
-151.1350834541679
 21
23.66321645982509
  0
LINE
  8
1
  6
CONTINUOUS
 62
     7
 10
-150.6545184836467
 20
22.89352951386447
 11
-150.680558787082
 21
23.01677128415133
  0
LINE
  8
1
  6
CONTINUOUS
 62
     7
 10
-150.725739170669
 20
22.78963415744828
 11
-150.6545184836467
 21
22.89352951386447
  0
LINE
  8
1
  6
CONTINUOUS
 62
     7
 10
-151.3930490662698
 20
22.3663357504502
 11
-150.725739170669
 21
22.78963415744828
  0
LINE
  8
1
  6
CONTINUOUS
 62
     7
 10
-151.4625491089386
 20
22.27010277129596
 11
-151.3930490662698
 21
22.3663357504502
  0
LINE
  8
1
  6
CONTINUOUS
 62
     7
 10
-151.4466194557894
 20
22.15247076733423
 11
-151.4625491089386
 21
22.27010277129596
  0
LINE
  8
1
  6
CONTINUOUS
 62
     7
 10
-151.0576461567126
 20
21.46458719380187
 11
-151.4466194557894
 21
22.15247076733423
  0
LINE
  8
1
  6
CONTINUOUS
 62
     7
 10
-151.0438110503458
 20
21.33938647024343
 11
-151.0576461567126
 21
21.46458719380187
  0
LINE
  8
1
  6
CONTINUOUS
 62
     7
 10
-151.1248723160229
 20
21.24297224644011
 11
-151.0438110503458
 21
21.33938647024343
  0
LINE
  8
1
  6
CONTINUOUS
 62
     7
 10
-151.8304594314421
 20
20.88711994465135
 11
-151.1248723160229
 21
21.24297224644011
  0
LINE
  8
1
  6
CONTINUOUS
 62
     7
 10
-151.9090572938312
 20
20.79816254903006
 11
-151.8304594314421
 21
20.88711994465135
  0
LINE
  8
1
  6
CONTINUOUS
 62
     7
 10
-151.9047342989562
 20
20.67953559627297
 11
-151.9090572938312
 21
20.79816254903006
  0
LINE
  8
1
  6
CONTINUOUS
 62
     7
 10
-151.5850583933878
 20
19.95683831972202
 11
-151.9047342989562
 21
20.67953559627297
  0
LINE
  8
1
  6
CONTINUOUS
 62
     7
 10
-151.5835617237306
 20
19.83088439430733
 11
-151.5850583933878
 21
19.95683831972202
  0
LINE
  8
1
  6
CONTINUOUS
 62
     7
 10
-151.6736829037614
 20
19.74287982479748
 11
-151.5835617237306
 21
19.83088439430733
  0
LINE
  8
1
  6
CONTINUOUS
 62
     7
 10
-152.4107520493643
 20
19.45790068041293
 11
-151.6736829037614
 21
19.74287982479748
  0
LINE
  8
1
  6
CONTINUOUS
 62
     7
 10
-152.497690791093
 20
19.37707557667346
 11
-152.4107520493643
 21
19.45790068041293
  0
LINE
  8
1
  6
CONTINUOUS
 62
     7
 10
-152.5050160872997
 20
19.25859611753623
 11
-152.497690791093
 21
19.37707557667346
  0
LINE
  8
1
  6
CONTINUOUS
 62
     7
 10
-152.2577162289595
 20
18.50804510779419
 11
-152.5050160872997
 21
19.25859611753623
  0
LINE
  8
1
  6
CONTINUOUS
 62
     7
 10
-152.2685724097586
 20
18.38255098567854
 11
-152.2577162289595
 21
18.50804510779419
  0
LINE
  8
1
  6
CONTINUOUS
 62
     7
 10
-152.3668855879143
 20
18.30380360257472
 11
-152.2685724097586
 21
18.38255098567854
  0
LINE
  8
1
  6
CONTINUOUS
 62
     7
 10
-153.1283383849057
 20
18.09244212054025
 11
-152.3668855879143
 21
18.30380360257472
  0
LINE
  8
1
  6
CONTINUOUS
 62
     7
 10
-153.2227807383656
 20
18.02052769861514
 11
-153.1283383849057
 21
18.09244212054025
  0
LINE
  8
1
  6
CONTINUOUS
 62
     7
 10
-153.241683779041
 20
17.90333675504227
 11
-153.2227807383656
 21
18.02052769861514
  0
LINE
  8
1
  6
CONTINUOUS
 62
     7
 10
-153.069141600759
 20
17.13216022864026
 11
-153.241683779041
 21
17.90333675504227
  0
LINE
  8
1
  6
CONTINUOUS
 62
     7
 10
-153.0922460810585
 20
17.00833448682176
 11
-153.069141600759
 21
17.13216022864026
  0
LINE
  8
1
  6
CONTINUOUS
 62
     7
 10
-153.1978044476899
 20
16.93960267047095
 11
-153.0922460810585
 21
17.00833448682176
  0
LINE
  8
1
  6
CONTINUOUS
 62
     7
 10
-153.9763076893825
 20
16.80389437740051
 11
-153.1978044476899
 21
16.93960267047095
  0
LINE
  8
1
  6
CONTINUOUS
 62
     7
 10
-154.0773441230822
 20
16.7415832124853
 11
-153.9763076893825
 21
16.80389437740051
  0
LINE
  8
1
  6
CONTINUOUS
 62
     7
 10
-154.1076428616115
 20
16.62680939732697
 11
-154.0773441230822
 21
16.7415832124853
  0
LINE
  8
1
  6
CONTINUOUS
 62
     7
 10
-154.0115200388856
 20
15.84243420578155
 11
-154.1076428616115
 21
16.62680939732697
  0
LINE
  8
1
  6
CONTINUOUS
 62
     7
 10
-154.0466503099098
 20
15.72146935384411
 11
-154.0115200388856
 21
15.84243420578155
  0
LINE
  8
1
  6
CONTINUOUS
 62
     7
 10
-154.1584372802422
 20
15.66341502921042
 11
-154.0466503099098
 21
15.72146935384411
  0
LINE
  8
1
  6
CONTINUOUS
 62
     7
 10
-154.9464935548452
 20
15.60466687015196
 11
-154.1584372802422
 21
15.66341502921042
  0
LINE
  8
1
  6
CONTINUOUS
 62
     7
 10
-155.0531510326963
 20
15.55255905282751
 11
-154.9464935548452
 21
15.60466687015196
  0
LINE
  8
1
  6
CONTINUOUS
 62
     7
 10
-155.0945536756645
 20
15.44130770066595
 11
-155.0531510326963
 21
15.55255905282751
  0
LINE
  8
1
  6
CONTINUOUS
 62
     7
 10
-155.0757759238238
 20
14.65128780585609
 11
-155.0945536756645
 21
15.44130770066595
  0
LINE
  8
1
  6
CONTINUOUS
 62
     7
 10
-155.1225936618583
 20
14.5343488014482
 11
-155.0757759238238
 21
14.65128780585609
  0
LINE
  8
1
  6
CONTINUOUS
 62
     7
 10
-155.2395326662584
 20
14.48753106341357
 11
-155.1225936618583
 21
14.5343488014482
  0
LINE
  8
1
  6
CONTINUOUS
 62
     7
 10
-156.029552561052
 20
14.50630881525383
 11
-155.2395326662584
 21
14.48753106341357
  0
LINE
  8
1
  6
CONTINUOUS
 62
     7
 10
-156.1408039132378
 20
14.46490617228606
 11
-156.029552561052
 21
14.50630881525383
  0
LINE
  8
1
  6
CONTINUOUS
 62
     7
 10
-156.1929117305602
 20
14.35824869445917
 11
-156.1408039132378
 21
14.46490617228606
  0
LINE
  8
1
  6
CONTINUOUS
 62
     7
 10
-156.2516598896199
 20
13.57019241983996
 11
-156.1929117305602
 21
14.35824869445917
  0
LINE
  8
1
  6
CONTINUOUS
 62
     7
 10
-156.3097142142542
 20
13.45840544949974
 11
-156.2516598896199
 21
13.57019241983996
  0
LINE
  8
1
  6
CONTINUOUS
 62
     7
 10
-156.4306790661842
 20
13.42327517847461
 11
-156.3097142142542
 21
13.45840544949974
  0
LINE
  8
1
  6
CONTINUOUS
 62
     7
 10
-157.2150542577129
 20
13.51939800119842
 11
-156.4306790661842
 21
13.42327517847461
  0
LINE
  8
1
  6
CONTINUOUS
 62
     7
 10
-157.3298280728955
 20
13.48909926267208
 11
-157.2150542577129
 21
13.51939800119842
  0
LINE
  8
1
  6
CONTINUOUS
 62
     7
 10
-157.3921392378063
 20
13.38806282899673
 11
-157.3298280728955
 21
13.48909926267208
  0
LINE
  8
1
  6
CONTINUOUS
 62
     7
 10
-157.5278475308797
 20
12.60955958728752
 11
-157.3921392378063
 21
13.38806282899673
  0
LINE
  8
1
  6
CONTINUOUS
 62
     7
 10
-157.5965793472318
 20
12.50400122064842
 11
-157.5278475308797
 21
12.60955958728752
  0
LINE
  8
1
  6
CONTINUOUS
 62
     7
 10
-157.7204050890417
 20
12.48089674034694
 11
-157.5965793472318
 21
12.50400122064842
  0
LINE
  8
1
  6
CONTINUOUS
 62
     7
 10
-158.4915816154277
 20
12.65343891862537
 11
-157.7204050890417
 21
12.48089674034694
  0
LINE
  8
1
  6
CONTINUOUS
 62
     7
 10
-158.6087725590254
 20
12.63453587795544
 11
-158.4915816154277
 21
12.65343891862537
  0
LINE
  8
1
  6
CONTINUOUS
 62
     7
 10
-158.6806869809434
 20
12.54009352452055
 11
-158.6087725590254
 21
12.63453587795544
  0
LINE
  8
1
  6
CONTINUOUS
 62
     7
 10
-158.8920484629822
 20
11.77864072751338
 11
-158.6806869809434
 21
12.54009352452055
  0
LINE
  8
1
  6
CONTINUOUS
 62
     7
 10
-158.9707958460886
 20
11.68032754934854
 11
-158.8920484629822
 21
11.77864072751338
  0
LINE
  8
1
  6
CONTINUOUS
 62
     7
 10
-159.0962899681946
 20
11.66947136854618
 11
-158.9707958460886
 21
11.68032754934854
  0
LINE
  8
1
  6
CONTINUOUS
 62
     7
 10
-159.846840977921
 20
11.91677122688128
 11
-159.0962899681946
 21
11.66947136854618
  0
LINE
  8
1
  6
CONTINUOUS
 62
     7
 10
-159.9653204370837
 20
11.90944593068287
 11
-159.846840977921
 21
11.91677122688128
  0
LINE
  8
1
  6
CONTINUOUS
 62
     7
 10
-160.0461455408187
 20
11.82250718896527
 11
-159.9653204370837
 21
11.90944593068287
  0
LINE
  8
1
  6
CONTINUOUS
 62
     7
 10
-160.3311246852076
 20
11.08543804335126
 11
-160.0461455408187
 21
11.82250718896527
  0
LINE
  8
1
  6
CONTINUOUS
 62
     7
 10
-160.4191292547174
 20
10.99531686332052
 11
-160.3311246852076
 21
11.08543804335126
  0
ENDBLK
  8
0
  0
BLOCK
  8
0
  2
D_FRAME_VIEW_1491
 70
     0
 10
0.0
 20
0.0
  0
LINE
  8
1
  6
CONTINUOUS
 62
     7
 10
-119.6666666666667
 20
79.30000000000001
 11
-213.6666666666667
 21
79.30000000000003
  0
ARC
  8
1
  6
CONTINUOUS
 62
     7
 10
-119.6666666666667
 20
184.5
 40
11.19999999999999
 50
0.0
 51
90.0
  0
ARC
  8
1
  6
CONTINUOUS
 62
     7
 10
-119.6666666666667
 20
90.50000000000003
 40
11.2
 50
270.0
 51
0.0
  0
ARC
  8
1
  6
CONTINUOUS
 62
     7
 10
-213.6666666666667
 20
184.5
 40
11.20000000000002
 50
90.0
 51
180.0
  0
ARC
  8
1
  6
CONTINUOUS
 62
     7
 10
-213.6666666666667
 20
90.50000000000003
 40
11.2
 50
180.0
 51
270.0
  0
CIRCLE
  8
1
  6
CONTINUOUS
 62
     7
 10
-119.6666666666667
 20
184.5
 40
4.000000000000004
  0
CIRCLE
  8
1
  6
CONTINUOUS
 62
     7
 10
-119.6666666666667
 20
90.50000000000003
 40
4.000000000000004
  0
CIRCLE
  8
1
  6
CONTINUOUS
 62
     7
 10
-213.6666666666667
 20
90.50000000000003
 40
4.000000000000004
  0
CIRCLE
  8
1
  6
CONTINUOUS
 62
     7
 10
-213.6666666666667
 20
184.5
 40
4.000000000000004
  0
LINE
  8
1
  6
CONTINUOUS
 62
     7
 10
-213.6666666666667
 20
195.7
 11
-119.6666666666667
 21
195.7
  0
LINE
  8
1
  6
CONTINUOUS
 62
     7
 10
-108.4666666666667
 20
184.5
 11
-108.4666666666667
 21
90.50000000000003
  0
LINE
  8
1
  6
CONTINUOUS
 62
     7
 10
-224.8666666666667
 20
90.50000000000003
 11
-224.8666666666667
 21
184.5
  0
LINE
  8
1
  6
CONTINUOUS
 62
     7
 10
-119.1516666666667
 20
183.485
 11
-119.1516666666667
 21
180.5332916668855
  0
POLYLINE
  8
1
  6
CONTINUOUS
 62
     7
 66
     1
  0
VERTEX
  8
1
  6
CONTINUOUS
 62
     7
 10
-118.6516666666667
 20
183.985
  0
VERTEX
  8
1
  6
CONTINUOUS
 62
     7
 10
-118.6754500453568
 20
183.9844221215961
  0
VERTEX
  8
1
  6
CONTINUOUS
 62
     7
 10
-118.6992629920573
 20
183.9826961849543
  0
VERTEX
  8
1
  6
CONTINUOUS
 62
     7
 10
-118.7230241266163
 20
183.9798337379301
  0
VERTEX
  8
1
  6
CONTINUOUS
 62
     7
 10
-118.7466520688821
 20
183.9758463283784
  0
VERTEX
  8
1
  6
CONTINUOUS
 62
     7
 10
-118.7700654387028
 20
183.9707455041546
  0
VERTEX
  8
1
  6
CONTINUOUS
 62
     7
 10
-118.7931828559265
 20
183.9645428131139
  0
VERTEX
  8
1
  6
CONTINUOUS
 62
     7
 10
-118.8159229404016
 20
183.9572498031114
  0
VERTEX
  8
1
  6
CONTINUOUS
 62
     7
 10
-118.8383019505075
 20
183.9488478565184
  0
VERTEX
  8
1
  6
CONTINUOUS
 62
     7
 10
-118.8603247850614
 20
183.9393425749154
  0
VERTEX
  8
1
  6
CONTINUOUS
 62
     7
 10
-118.8819168919331
 20
183.9287735335083
  0
VERTEX
  8
1
  6
CONTINUOUS
 62
     7
 10
-118.9030037189922
 20
183.9171803075032
  0
VERTEX
  8
1
  6
CONTINUOUS
 62
     7
 10
-118.9235107141081
 20
183.9046024721058
  0
VERTEX
  8
1
  6
CONTINUOUS
 62
     7
 10
-118.9433633251507
 20
183.8910796025222
  0
VERTEX
  8
1
  6
CONTINUOUS
 62
     7
 10
-118.9624869999895
 20
183.8766512739582
  0
VERTEX
  8
1
  6
CONTINUOUS
 62
     7
 10
-118.9807439567412
 20
183.8614252161913
  0
VERTEX
  8
1
  6
CONTINUOUS
 62
     7
 10
-118.9983013907088
 20
183.8452921282392
  0
VERTEX
  8
1
  6
CONTINUOUS
 62
     7
 10
-119.0151039076463
 20
183.8283138868966
  0
VERTEX
  8
1
  6
CONTINUOUS
 62
     7
 10
-119.0310961133074
 20
183.8105523689584
  0
VERTEX
  8
1
  6
CONTINUOUS
 62
     7
 10
-119.0462226134462
 20
183.7920694512193
  0
VERTEX
  8
1
  6
CONTINUOUS
 62
     7
 10
-119.0604280138166
 20
183.7729270104743
  0
VERTEX
  8
1
  6
CONTINUOUS
 62
     7
 10
-119.0736569201726
 20
183.753186923518
  0
VERTEX
  8
1
  6
CONTINUOUS
 62
     7
 10
-119.0858680402242
 20
183.7329060932439
  0
VERTEX
  8
1
  6
CONTINUOUS
 62
     7
 10
-119.0971241398235
 20
183.712013109486
  0
VERTEX
  8
1
  6
CONTINUOUS
 62
     7
 10
-119.1073950804072
 20
183.6905832419505
  0
VERTEX
  8
1
  6
CONTINUOUS
 62
     7
 10
-119.1166507234115
 20
183.6686917603436
  0
VERTEX
  8
1
  6
CONTINUOUS
 62
     7
 10
-119.124860930273
 20
183.6464139343713
  0
VERTEX
  8
1
  6
CONTINUOUS
 62
     7
 10
-119.1319955624281
 20
183.62382503374
  0
VERTEX
  8
1
  6
CONTINUOUS
 62
     7
 10
-119.1380244813132
 20
183.6010003281558
  0
VERTEX
  8
1
  6
CONTINUOUS
 62
     7
 10
-119.1429172514616
 20
183.5781021813185
  0
VERTEX
  8
1
  6
CONTINUOUS
 62
     7
 10
-119.1467347612882
 20
183.5549761213572
  0
VERTEX
  8
1
  6
CONTINUOUS
 62
     7
 10
-119.149470104576
 20
183.5316991019989
  0
VERTEX
  8
1
  6
CONTINUOUS
 62
     7
 10
-119.1511163751078
 20
183.5083480769708
  0
VERTEX
  8
1
  6
CONTINUOUS
 62
     7
 10
-119.1516666666667
 20
183.485
  0
SEQEND
  8
1
  6
CONTINUOUS
 62
     7
  0
LINE
  8
1
  6
CONTINUOUS
 62
     7
 10
-117.4763984182551
 20
183.985
 11
-118.6516666666667
 21
183.985
  0
ARC
  8
1
  6
CONTINUOUS
 62
     7
 10
-119.6666666666667
 20
184.5
 40
2.25
 50
346.7683351757007
 51
13.23166482429912
  0
LINE
  8
1
  6
CONTINUOUS
 62
     7
 10
-118.6516666666667
 20
185.015
 11
-117.4763984182551
 21
185.015
  0
POLYLINE
  8
1
  6
CONTINUOUS
 62
     7
 66
     1
  0
VERTEX
  8
1
  6
CONTINUOUS
 62
     7
 10
-119.1516666666667
 20
185.515
  0
VERTEX
  8
1
  6
CONTINUOUS
 62
     7
 10
-119.1510887882628
 20
185.4912166213099
  0
VERTEX
  8
1
  6
CONTINUOUS
 62
     7
 10
-119.149362851621
 20
185.4674036746094
  0
VERTEX
  8
1
  6
CONTINUOUS
 62
     7
 10
-119.1465004045968
 20
185.4436425400504
  0
VERTEX
  8
1
  6
CONTINUOUS
 62
     7
 10
-119.1425129950451
 20
185.4200145977846
  0
VERTEX
  8
1
  6
CONTINUOUS
 62
     7
 10
-119.1374121708213
 20
185.3966012279639
  0
VERTEX
  8
1
  6
CONTINUOUS
 62
     7
 10
-119.1312094797806
 20
185.3734838107401
  0
VERTEX
  8
1
  6
CONTINUOUS
 62
     7
 10
-119.1239164697781
 20
185.3507437262651
  0
VERTEX
  8
1
  6
CONTINUOUS
 62
     7
 10
-119.1155145231851
 20
185.3283647161593
  0
VERTEX
  8
1
  6
CONTINUOUS
 62
     7
 10
-119.1060092415821
 20
185.3063418816053
  0
VERTEX
  8
1
  6
CONTINUOUS
 62
     7
 10
-119.095440200175
 20
185.2847497747336
  0
VERTEX
  8
1
  6
CONTINUOUS
 62
     7
 10
-119.0838469741699
 20
185.2636629476746
  0
VERTEX
  8
1
  6
CONTINUOUS
 62
     7
 10
-119.0712691387725
 20
185.2431559525586
  0
VERTEX
  8
1
  6
CONTINUOUS
 62
     7
 10
-119.0577462691889
 20
185.223303341516
  0
VERTEX
  8
1
  6
CONTINUOUS
 62
     7
 10
-119.0433179406249
 20
185.2041796666772
  0
VERTEX
  8
1
  6
CONTINUOUS
 62
     7
 10
-119.028091882858
 20
185.1859227099255
  0
VERTEX
  8
1
  6
CONTINUOUS
 62
     7
 10
-119.0119587949059
 20
185.1683652759579
  0
VERTEX
  8
1
  6
CONTINUOUS
 62
     7
 10
-118.9949805535633
 20
185.1515627590204
  0
VERTEX
  8
1
  6
CONTINUOUS
 62
     7
 10
-118.9772190356251
 20
185.1355705533593
  0
VERTEX
  8
1
  6
CONTINUOUS
 62
     7
 10
-118.9587361178861
 20
185.1204440532205
  0
VERTEX
  8
1
  6
CONTINUOUS
 62
     7
 10
-118.939593677141
 20
185.1062386528501
  0
VERTEX
  8
1
  6
CONTINUOUS
 62
     7
 10
-118.9198535901847
 20
185.0930097464941
  0
VERTEX
  8
1
  6
CONTINUOUS
 62
     7
 10
-118.8995727599106
 20
185.0807986264425
  0
VERTEX
  8
1
  6
CONTINUOUS
 62
     7
 10
-118.8786797761527
 20
185.0695425268432
  0
VERTEX
  8
1
  6
CONTINUOUS
 62
     7
 10
-118.8572499086172
 20
185.0592715862595
  0
VERTEX
  8
1
  6
CONTINUOUS
 62
     7
 10
-118.8353584270103
 20
185.0500159432552
  0
VERTEX
  8
1
  6
CONTINUOUS
 62
     7
 10
-118.813080601038
 20
185.0418057363937
  0
VERTEX
  8
1
  6
CONTINUOUS
 62
     7
 10
-118.7904917004067
 20
185.0346711042386
  0
VERTEX
  8
1
  6
CONTINUOUS
 62
     7
 10
-118.7676669948225
 20
185.0286421853535
  0
VERTEX
  8
1
  6
CONTINUOUS
 62
     7
 10
-118.7447688479852
 20
185.0237494152051
  0
VERTEX
  8
1
  6
CONTINUOUS
 62
     7
 10
-118.7216427880239
 20
185.0199319053785
  0
VERTEX
  8
1
  6
CONTINUOUS
 62
     7
 10
-118.6983657686656
 20
185.0171965620908
  0
VERTEX
  8
1
  6
CONTINUOUS
 62
     7
 10
-118.6750147436375
 20
185.0155502915589
  0
VERTEX
  8
1
  6
CONTINUOUS
 62
     7
 10
-118.6516666666667
 20
185.015
  0
SEQEND
  8
1
  6
CONTINUOUS
 62
     7
  0
LINE
  8
1
  6
CONTINUOUS
 62
     7
 10
-119.1516666666667
 20
188.4667083331145
 11
-119.1516666666667
 21
185.515
  0
LINE
  8
1
  6
CONTINUOUS
 62
     7
 10
-120.1816666666667
 20
185.515
 11
-120.1816666666667
 21
188.4667083331145
  0
LINE
  8
1
  6
CONTINUOUS
 62
     7
 10
-121.8569349150783
 20
185.015
 11
-120.6816666666667
 21
185.015
  0
ARC
  8
1
  6
CONTINUOUS
 62
     7
 10
-119.6666666666667
 20
184.5
 40
2.250000000000007
 50
166.768335175701
 51
193.2316648242993
  0
LINE
  8
1
  6
CONTINUOUS
 62
     7
 10
-120.6816666666667
 20
183.985
 11
-121.8569349150783
 21
183.985
  0
LINE
  8
1
  6
CONTINUOUS
 62
     7
 10
-120.1816666666667
 20
180.5332916668855
 11
-120.1816666666667
 21
183.485
  0
POLYLINE
  8
1
  6
CONTINUOUS
 62
     7
 66
     1
  0
VERTEX
  8
1
  6
CONTINUOUS
 62
     7
 10
-120.6816666666667
 20
185.015
  0
VERTEX
  8
1
  6
CONTINUOUS
 62
     7
 10
-120.6578832879766
 20
185.0155778784039
  0
VERTEX
  8
1
  6
CONTINUOUS
 62
     7
 10
-120.6340703412761
 20
185.0173038150457
  0
VERTEX
  8
1
  6
CONTINUOUS
 62
     7
 10
-120.6103092067171
 20
185.0201662620699
  0
VERTEX
  8
1
  6
CONTINUOUS
 62
     7
 10
-120.5866812644513
 20
185.0241536716216
  0
VERTEX
  8
1
  6
CONTINUOUS
 62
     7
 10
-120.5632678946306
 20
185.0292544958454
  0
VERTEX
  8
1
  6
CONTINUOUS
 62
     7
 10
-120.5401504774069
 20
185.0354571868861
  0
VERTEX
  8
1
  6
CONTINUOUS
 62
     7
 10
-120.5174103929318
 20
185.0427501968886
  0
VERTEX
  8
1
  6
CONTINUOUS
 62
     7
 10
-120.495031382826
 20
185.0511521434817
  0
VERTEX
  8
1
  6
CONTINUOUS
 62
     7
 10
-120.473008548272
 20
185.0606574250846
  0
VERTEX
  8
1
  6
CONTINUOUS
 62
     7
 10
-120.4514164414003
 20
185.0712264664917
  0
VERTEX
  8
1
  6
CONTINUOUS
 62
     7
 10
-120.4303296143413
 20
185.0828196924968
  0
VERTEX
  8
1
  6
CONTINUOUS
 62
     7
 10
-120.4098226192253
 20
185.0953975278942
  0
VERTEX
  8
1
  6
CONTINUOUS
 62
     7
 10
-120.3899700081827
 20
185.1089203974778
  0
VERTEX
  8
1
  6
CONTINUOUS
 62
     7
 10
-120.3708463333439
 20
185.1233487260417
  0
VERTEX
  8
1
  6
CONTINUOUS
 62
     7
 10
-120.3525893765922
 20
185.1385747838087
  0
VERTEX
  8
1
  6
CONTINUOUS
 62
     7
 10
-120.3350319426246
 20
185.1547078717608
  0
VERTEX
  8
1
  6
CONTINUOUS
 62
     7
 10
-120.3182294256872
 20
185.1716861131034
  0
VERTEX
  8
1
  6
CONTINUOUS
 62
     7
 10
-120.302237220026
 20
185.1894476310416
  0
VERTEX
  8
1
  6
CONTINUOUS
 62
     7
 10
-120.2871107198872
 20
185.2079305487806
  0
VERTEX
  8
1
  6
CONTINUOUS
 62
     7
 10
-120.2729053195168
 20
185.2270729895257
  0
VERTEX
  8
1
  6
CONTINUOUS
 62
     7
 10
-120.2596764131608
 20
185.246813076482
  0
VERTEX
  8
1
  6
CONTINUOUS
 62
     7
 10
-120.2474652931092
 20
185.2670939067561
  0
VERTEX
  8
1
  6
CONTINUOUS
 62
     7
 10
-120.2362091935099
 20
185.287986890514
  0
VERTEX
  8
1
  6
CONTINUOUS
 62
     7
 10
-120.2259382529262
 20
185.3094167580495
  0
VERTEX
  8
1
  6
CONTINUOUS
 62
     7
 10
-120.2166826099219
 20
185.3313082396564
  0
VERTEX
  8
1
  6
CONTINUOUS
 62
     7
 10
-120.2084724030604
 20
185.3535860656287
  0
VERTEX
  8
1
  6
CONTINUOUS
 62
     7
 10
-120.2013377709054
 20
185.37617496626
  0
VERTEX
  8
1
  6
CONTINUOUS
 62
     7
 10
-120.1953088520202
 20
185.3989996718442
  0
VERTEX
  8
1
  6
CONTINUOUS
 62
     7
 10
-120.1904160818718
 20
185.4218978186815
  0
VERTEX
  8
1
  6
CONTINUOUS
 62
     7
 10
-120.1865985720452
 20
185.4450238786428
  0
VERTEX
  8
1
  6
CONTINUOUS
 62
     7
 10
-120.1838632287575
 20
185.4683008980011
  0
VERTEX
  8
1
  6
CONTINUOUS
 62
     7
 10
-120.1822169582256
 20
185.4916519230293
  0
VERTEX
  8
1
  6
CONTINUOUS
 62
     7
 10
-120.1816666666667
 20
185.515
  0
SEQEND
  8
1
  6
CONTINUOUS
 62
     7
  0
POLYLINE
  8
1
  6
CONTINUOUS
 62
     7
 66
     1
  0
VERTEX
  8
1
  6
CONTINUOUS
 62
     7
 10
-120.1816666666667
 20
183.485
  0
VERTEX
  8
1
  6
CONTINUOUS
 62
     7
 10
-120.1822445450707
 20
183.5087833786901
  0
VERTEX
  8
1
  6
CONTINUOUS
 62
     7
 10
-120.1839704817124
 20
183.5325963253906
  0
VERTEX
  8
1
  6
CONTINUOUS
 62
     7
 10
-120.1868329287366
 20
183.5563574599496
  0
VERTEX
  8
1
  6
CONTINUOUS
 62
     7
 10
-120.1908203382883
 20
183.5799854022154
  0
VERTEX
  8
1
  6
CONTINUOUS
 62
     7
 10
-120.1959211625121
 20
183.6033987720361
  0
VERTEX
  8
1
  6
CONTINUOUS
 62
     7
 10
-120.2021238535528
 20
183.6265161892598
  0
VERTEX
  8
1
  6
CONTINUOUS
 62
     7
 10
-120.2094168635553
 20
183.6492562737349
  0
VERTEX
  8
1
  6
CONTINUOUS
 62
     7
 10
-120.2178188101484
 20
183.6716352838407
  0
VERTEX
  8
1
  6
CONTINUOUS
 62
     7
 10
-120.2273240917513
 20
183.6936581183947
  0
VERTEX
  8
1
  6
CONTINUOUS
 62
     7
 10
-120.2378931331584
 20
183.7152502252664
  0
VERTEX
  8
1
  6
CONTINUOUS
 62
     7
 10
-120.2494863591635
 20
183.7363370523254
  0
VERTEX
  8
1
  6
CONTINUOUS
 62
     7
 10
-120.2620641945609
 20
183.7568440474414
  0
VERTEX
  8
1
  6
CONTINUOUS
 62
     7
 10
-120.2755870641445
 20
183.776696658484
  0
VERTEX
  8
1
  6
CONTINUOUS
 62
     7
 10
-120.2900153927084
 20
183.7958203333228
  0
VERTEX
  8
1
  6
CONTINUOUS
 62
     7
 10
-120.3052414504754
 20
183.8140772900746
  0
VERTEX
  8
1
  6
CONTINUOUS
 62
     7
 10
-120.3213745384275
 20
183.8316347240421
  0
VERTEX
  8
1
  6
CONTINUOUS
 62
     7
 10
-120.3383527797701
 20
183.8484372409795
  0
VERTEX
  8
1
  6
CONTINUOUS
 62
     7
 10
-120.3561142977083
 20
183.8644294466407
  0
VERTEX
  8
1
  6
CONTINUOUS
 62
     7
 10
-120.3745972154474
 20
183.8795559467795
  0
VERTEX
  8
1
  6
CONTINUOUS
 62
     7
 10
-120.3937396561924
 20
183.8937613471499
  0
VERTEX
  8
1
  6
CONTINUOUS
 62
     7
 10
-120.4134797431487
 20
183.9069902535059
  0
VERTEX
  8
1
  6
CONTINUOUS
 62
     7
 10
-120.4337605734228
 20
183.9192013735575
  0
VERTEX
  8
1
  6
CONTINUOUS
 62
     7
 10
-120.4546535571806
 20
183.9304574731568
  0
VERTEX
  8
1
  6
CONTINUOUS
 62
     7
 10
-120.4760834247162
 20
183.9407284137405
  0
VERTEX
  8
1
  6
CONTINUOUS
 62
     7
 10
-120.4979749063231
 20
183.9499840567448
  0
VERTEX
  8
1
  6
CONTINUOUS
 62
     7
 10
-120.5202527322954
 20
183.9581942636063
  0
VERTEX
  8
1
  6
CONTINUOUS
 62
     7
 10
-120.5428416329267
 20
183.9653288957614
  0
VERTEX
  8
1
  6
CONTINUOUS
 62
     7
 10
-120.5656663385109
 20
183.9713578146465
  0
VERTEX
  8
1
  6
CONTINUOUS
 62
     7
 10
-120.5885644853482
 20
183.9762505847949
  0
VERTEX
  8
1
  6
CONTINUOUS
 62
     7
 10
-120.6116905453095
 20
183.9800680946215
  0
VERTEX
  8
1
  6
CONTINUOUS
 62
     7
 10
-120.6349675646678
 20
183.9828034379093
  0
VERTEX
  8
1
  6
CONTINUOUS
 62
     7
 10
-120.6583185896959
 20
183.9844497084411
  0
VERTEX
  8
1
  6
CONTINUOUS
 62
     7
 10
-120.6816666666667
 20
183.985
  0
SEQEND
  8
1
  6
CONTINUOUS
 62
     7
  0
ARC
  8
1
  6
CONTINUOUS
 62
     7
 10
-119.6666666666667
 20
184.5
 40
2.25
 50
256.7683351757007
 51
283.2316648242992
  0
ARC
  8
1
  6
CONTINUOUS
 62
     7
 10
-119.6666666666667
 20
184.5
 40
1.030668528585364
 50
58.86156432434737
 51
121.1384356756526
  0
ARC
  8
1
  6
CONTINUOUS
 62
     7
 10
-119.6666666666667
 20
184.5
 40
2.25000000000002
 50
76.7683351757007
 51
103.2316648242993
  0
ARC
  8
1
  6
CONTINUOUS
 62
     7
 10
-119.6666666666667
 20
184.5
 40
1.030668528585352
 50
148.8615643243474
 51
211.1384356756527
  0
ARC
  8
1
  6
CONTINUOUS
 62
     7
 10
-119.6666666666667
 20
184.5
 40
1.030668528585348
 50
238.8615643243473
 51
301.1384356756526
  0
ARC
  8
1
  6
CONTINUOUS
 62
     7
 10
-119.6666666666667
 20
184.5
 40
1.030668528585341
 50
328.8615643243474
 51
31.13843567565266
  0
LINE
  8
1
  6
CONTINUOUS
 62
     7
 10
-119.1516666666667
 20
89.48500000000001
 11
-119.1516666666667
 21
86.5332916668855
  0
POLYLINE
  8
1
  6
CONTINUOUS
 62
     7
 66
     1
  0
VERTEX
  8
1
  6
CONTINUOUS
 62
     7
 10
-118.6516666666667
 20
89.98500000000001
  0
VERTEX
  8
1
  6
CONTINUOUS
 62
     7
 10
-118.6754500453568
 20
89.98442212159605
  0
VERTEX
  8
1
  6
CONTINUOUS
 62
     7
 10
-118.6992629920573
 20
89.98269618495434
  0
VERTEX
  8
1
  6
CONTINUOUS
 62
     7
 10
-118.7230241266163
 20
89.97983373793005
  0
VERTEX
  8
1
  6
CONTINUOUS
 62
     7
 10
-118.7466520688821
 20
89.97584632837842
  0
VERTEX
  8
1
  6
CONTINUOUS
 62
     7
 10
-118.7700654387028
 20
89.97074550415462
  0
VERTEX
  8
1
  6
CONTINUOUS
 62
     7
 10
-118.7931828559265
 20
89.96454281311387
  0
VERTEX
  8
1
  6
CONTINUOUS
 62
     7
 10
-118.8159229404016
 20
89.95724980311137
  0
VERTEX
  8
1
  6
CONTINUOUS
 62
     7
 10
-118.8383019505075
 20
89.94884785651837
  0
VERTEX
  8
1
  6
CONTINUOUS
 62
     7
 10
-118.8603247850614
 20
89.93934257491537
  0
VERTEX
  8
1
  6
CONTINUOUS
 62
     7
 10
-118.8819168919331
 20
89.92877353350833
  0
VERTEX
  8
1
  6
CONTINUOUS
 62
     7
 10
-118.9030037189922
 20
89.9171803075032
  0
VERTEX
  8
1
  6
CONTINUOUS
 62
     7
 10
-118.9235107141081
 20
89.90460247210584
  0
VERTEX
  8
1
  6
CONTINUOUS
 62
     7
 10
-118.9433633251507
 20
89.89107960252223
  0
VERTEX
  8
1
  6
CONTINUOUS
 62
     7
 10
-118.9624869999895
 20
89.87665127395825
  0
VERTEX
  8
1
  6
CONTINUOUS
 62
     7
 10
-118.9807439567412
 20
89.86142521619134
  0
VERTEX
  8
1
  6
CONTINUOUS
 62
     7
 10
-118.9983013907088
 20
89.84529212823917
  0
VERTEX
  8
1
  6
CONTINUOUS
 62
     7
 10
-119.0151039076463
 20
89.82831388689658
  0
VERTEX
  8
1
  6
CONTINUOUS
 62
     7
 10
-119.0310961133074
 20
89.81055236895838
  0
VERTEX
  8
1
  6
CONTINUOUS
 62
     7
 10
-119.0462226134462
 20
89.79206945121933
  0
VERTEX
  8
1
  6
CONTINUOUS
 62
     7
 10
-119.0604280138166
 20
89.77292701047429
  0
VERTEX
  8
1
  6
CONTINUOUS
 62
     7
 10
-119.0736569201726
 20
89.753186923518
  0
VERTEX
  8
1
  6
CONTINUOUS
 62
     7
 10
-119.0858680402242
 20
89.73290609324394
  0
VERTEX
  8
1
  6
CONTINUOUS
 62
     7
 10
-119.0971241398235
 20
89.71201310948604
  0
VERTEX
  8
1
  6
CONTINUOUS
 62
     7
 10
-119.1073950804072
 20
89.69058324195052
  0
VERTEX
  8
1
  6
CONTINUOUS
 62
     7
 10
-119.1166507234115
 20
89.66869176034356
  0
VERTEX
  8
1
  6
CONTINUOUS
 62
     7
 10
-119.124860930273
 20
89.64641393437134
  0
VERTEX
  8
1
  6
CONTINUOUS
 62
     7
 10
-119.1319955624281
 20
89.62382503374003
  0
VERTEX
  8
1
  6
CONTINUOUS
 62
     7
 10
-119.1380244813132
 20
89.6010003281558
  0
VERTEX
  8
1
  6
CONTINUOUS
 62
     7
 10
-119.1429172514616
 20
89.57810218131853
  0
VERTEX
  8
1
  6
CONTINUOUS
 62
     7
 10
-119.1467347612882
 20
89.55497612135719
  0
VERTEX
  8
1
  6
CONTINUOUS
 62
     7
 10
-119.149470104576
 20
89.53169910199888
  0
VERTEX
  8
1
  6
CONTINUOUS
 62
     7
 10
-119.1511163751078
 20
89.50834807697078
  0
VERTEX
  8
1
  6
CONTINUOUS
 62
     7
 10
-119.1516666666667
 20
89.48500000000001
  0
SEQEND
  8
1
  6
CONTINUOUS
 62
     7
  0
LINE
  8
1
  6
CONTINUOUS
 62
     7
 10
-117.4763984182551
 20
89.98500000000001
 11
-118.6516666666667
 21
89.98500000000001
  0
ARC
  8
1
  6
CONTINUOUS
 62
     7
 10
-119.6666666666667
 20
90.50000000000001
 40
2.249999999999997
 50
346.7683351757007
 51
13.23166482429912
  0
LINE
  8
1
  6
CONTINUOUS
 62
     7
 10
-118.6516666666667
 20
91.01500000000001
 11
-117.4763984182551
 21
91.01500000000001
  0
POLYLINE
  8
1
  6
CONTINUOUS
 62
     7
 66
     1
  0
VERTEX
  8
1
  6
CONTINUOUS
 62
     7
 10
-119.1516666666667
 20
91.51500000000001
  0
VERTEX
  8
1
  6
CONTINUOUS
 62
     7
 10
-119.1510887882628
 20
91.4912166213099
  0
VERTEX
  8
1
  6
CONTINUOUS
 62
     7
 10
-119.149362851621
 20
91.46740367460943
  0
VERTEX
  8
1
  6
CONTINUOUS
 62
     7
 10
-119.1465004045968
 20
91.44364254005039
  0
VERTEX
  8
1
  6
CONTINUOUS
 62
     7
 10
-119.1425129950451
 20
91.42001459778463
  0
VERTEX
  8
1
  6
CONTINUOUS
 62
     7
 10
-119.1374121708213
 20
91.39660122796394
  0
VERTEX
  8
1
  6
CONTINUOUS
 62
     7
 10
-119.1312094797806
 20
91.37348381074015
  0
VERTEX
  8
1
  6
CONTINUOUS
 62
     7
 10
-119.1239164697781
 20
91.35074372626508
  0
VERTEX
  8
1
  6
CONTINUOUS
 62
     7
 10
-119.1155145231851
 20
91.32836471615927
  0
VERTEX
  8
1
  6
CONTINUOUS
 62
     7
 10
-119.1060092415821
 20
91.3063418816053
  0
VERTEX
  8
1
  6
CONTINUOUS
 62
     7
 10
-119.095440200175
 20
91.28474977473361
  0
VERTEX
  8
1
  6
CONTINUOUS
 62
     7
 10
-119.0838469741699
 20
91.26366294767458
  0
VERTEX
  8
1
  6
CONTINUOUS
 62
     7
 10
-119.0712691387725
 20
91.24315595255857
  0
VERTEX
  8
1
  6
CONTINUOUS
 62
     7
 10
-119.0577462691889
 20
91.22330334151599
  0
VERTEX
  8
1
  6
CONTINUOUS
 62
     7
 10
-119.0433179406249
 20
91.20417966667723
  0
VERTEX
  8
1
  6
CONTINUOUS
 62
     7
 10
-119.028091882858
 20
91.18592270992548
  0
VERTEX
  8
1
  6
CONTINUOUS
 62
     7
 10
-119.0119587949059
 20
91.16836527595785
  0
VERTEX
  8
1
  6
CONTINUOUS
 62
     7
 10
-118.9949805535633
 20
91.15156275902045
  0
VERTEX
  8
1
  6
CONTINUOUS
 62
     7
 10
-118.9772190356251
 20
91.1355705533593
  0
VERTEX
  8
1
  6
CONTINUOUS
 62
     7
 10
-118.9587361178861
 20
91.12044405322048
  0
VERTEX
  8
1
  6
CONTINUOUS
 62
     7
 10
-118.939593677141
 20
91.10623865285007
  0
VERTEX
  8
1
  6
CONTINUOUS
 62
     7
 10
-118.9198535901847
 20
91.09300974649413
  0
VERTEX
  8
1
  6
CONTINUOUS
 62
     7
 10
-118.8995727599106
 20
91.08079862644254
  0
VERTEX
  8
1
  6
CONTINUOUS
 62
     7
 10
-118.8786797761527
 20
91.06954252684315
  0
VERTEX
  8
1
  6
CONTINUOUS
 62
     7
 10
-118.8572499086172
 20
91.05927158625953
  0
VERTEX
  8
1
  6
CONTINUOUS
 62
     7
 10
-118.8353584270103
 20
91.05001594325522
  0
VERTEX
  8
1
  6
CONTINUOUS
 62
     7
 10
-118.813080601038
 20
91.04180573639374
  0
VERTEX
  8
1
  6
CONTINUOUS
 62
     7
 10
-118.7904917004067
 20
91.03467110423865
  0
VERTEX
  8
1
  6
CONTINUOUS
 62
     7
 10
-118.7676669948225
 20
91.02864218535348
  0
VERTEX
  8
1
  6
CONTINUOUS
 62
     7
 10
-118.7447688479852
 20
91.02374941520513
  0
VERTEX
  8
1
  6
CONTINUOUS
 62
     7
 10
-118.7216427880239
 20
91.01993190537851
  0
VERTEX
  8
1
  6
CONTINUOUS
 62
     7
 10
-118.6983657686656
 20
91.01719656209075
  0
VERTEX
  8
1
  6
CONTINUOUS
 62
     7
 10
-118.6750147436375
 20
91.01555029155887
  0
VERTEX
  8
1
  6
CONTINUOUS
 62
     7
 10
-118.6516666666667
 20
91.01500000000001
  0
SEQEND
  8
1
  6
CONTINUOUS
 62
     7
  0
LINE
  8
1
  6
CONTINUOUS
 62
     7
 10
-119.1516666666667
 20
94.4667083331145
 11
-119.1516666666667
 21
91.51500000000001
  0
LINE
  8
1
  6
CONTINUOUS
 62
     7
 10
-120.1816666666667
 20
91.51500000000001
 11
-120.1816666666667
 21
94.4667083331145
  0
LINE
  8
1
  6
CONTINUOUS
 62
     7
 10
-121.8569349150783
 20
91.01500000000001
 11
-120.6816666666667
 21
91.01500000000001
  0
ARC
  8
1
  6
CONTINUOUS
 62
     7
 10
-119.6666666666667
 20
90.50000000000001
 40
2.25000000000001
 50
166.768335175701
 51
193.2316648242993
  0
LINE
  8
1
  6
CONTINUOUS
 62
     7
 10
-120.6816666666667
 20
89.98500000000001
 11
-121.8569349150783
 21
89.98500000000001
  0
LINE
  8
1
  6
CONTINUOUS
 62
     7
 10
-120.1816666666667
 20
86.5332916668855
 11
-120.1816666666667
 21
89.485
  0
POLYLINE
  8
1
  6
CONTINUOUS
 62
     7
 66
     1
  0
VERTEX
  8
1
  6
CONTINUOUS
 62
     7
 10
-120.6816666666667
 20
91.01500000000001
  0
VERTEX
  8
1
  6
CONTINUOUS
 62
     7
 10
-120.6578832879766
 20
91.01557787840396
  0
VERTEX
  8
1
  6
CONTINUOUS
 62
     7
 10
-120.6340703412761
 20
91.01730381504566
  0
VERTEX
  8
1
  6
CONTINUOUS
 62
     7
 10
-120.6103092067171
 20
91.02016626206994
  0
VERTEX
  8
1
  6
CONTINUOUS
 62
     7
 10
-120.5866812644513
 20
91.02415367162159
  0
VERTEX
  8
1
  6
CONTINUOUS
 62
     7
 10
-120.5632678946306
 20
91.0292544958454
  0
VERTEX
  8
1
  6
CONTINUOUS
 62
     7
 10
-120.5401504774069
 20
91.03545718688613
  0
VERTEX
  8
1
  6
CONTINUOUS
 62
     7
 10
-120.5174103929318
 20
91.04275019688865
  0
VERTEX
  8
1
  6
CONTINUOUS
 62
     7
 10
-120.495031382826
 20
91.05115214348166
  0
VERTEX
  8
1
  6
CONTINUOUS
 62
     7
 10
-120.473008548272
 20
91.06065742508463
  0
VERTEX
  8
1
  6
CONTINUOUS
 62
     7
 10
-120.4514164414003
 20
91.07122646649165
  0
VERTEX
  8
1
  6
CONTINUOUS
 62
     7
 10
-120.4303296143413
 20
91.08281969249681
  0
VERTEX
  8
1
  6
CONTINUOUS
 62
     7
 10
-120.4098226192253
 20
91.09539752789416
  0
VERTEX
  8
1
  6
CONTINUOUS
 62
     7
 10
-120.3899700081827
 20
91.10892039747777
  0
VERTEX
  8
1
  6
CONTINUOUS
 62
     7
 10
-120.3708463333439
 20
91.12334872604174
  0
VERTEX
  8
1
  6
CONTINUOUS
 62
     7
 10
-120.3525893765922
 20
91.13857478380868
  0
VERTEX
  8
1
  6
CONTINUOUS
 62
     7
 10
-120.3350319426246
 20
91.15470787176083
  0
VERTEX
  8
1
  6
CONTINUOUS
 62
     7
 10
-120.3182294256872
 20
91.17168611310342
  0
VERTEX
  8
1
  6
CONTINUOUS
 62
     7
 10
-120.302237220026
 20
91.18944763104163
  0
VERTEX
  8
1
  6
CONTINUOUS
 62
     7
 10
-120.2871107198872
 20
91.20793054878065
  0
VERTEX
  8
1
  6
CONTINUOUS
 62
     7
 10
-120.2729053195168
 20
91.22707298952571
  0
VERTEX
  8
1
  6
CONTINUOUS
 62
     7
 10
-120.2596764131608
 20
91.246813076482
  0
VERTEX
  8
1
  6
CONTINUOUS
 62
     7
 10
-120.2474652931092
 20
91.26709390675607
  0
VERTEX
  8
1
  6
CONTINUOUS
 62
     7
 10
-120.2362091935099
 20
91.28798689051395
  0
VERTEX
  8
1
  6
CONTINUOUS
 62
     7
 10
-120.2259382529262
 20
91.30941675804948
  0
VERTEX
  8
1
  6
CONTINUOUS
 62
     7
 10
-120.2166826099219
 20
91.33130823965645
  0
VERTEX
  8
1
  6
CONTINUOUS
 62
     7
 10
-120.2084724030604
 20
91.35358606562866
  0
VERTEX
  8
1
  6
CONTINUOUS
 62
     7
 10
-120.2013377709054
 20
91.37617496625998
  0
VERTEX
  8
1
  6
CONTINUOUS
 62
     7
 10
-120.1953088520202
 20
91.3989996718442
  0
VERTEX
  8
1
  6
CONTINUOUS
 62
     7
 10
-120.1904160818718
 20
91.4218978186815
  0
VERTEX
  8
1
  6
CONTINUOUS
 62
     7
 10
-120.1865985720452
 20
91.44502387864284
  0
VERTEX
  8
1
  6
CONTINUOUS
 62
     7
 10
-120.1838632287575
 20
91.46830089800112
  0
VERTEX
  8
1
  6
CONTINUOUS
 62
     7
 10
-120.1822169582256
 20
91.49165192302922
  0
VERTEX
  8
1
  6
CONTINUOUS
 62
     7
 10
-120.1816666666667
 20
91.51500000000001
  0
SEQEND
  8
1
  6
CONTINUOUS
 62
     7
  0
POLYLINE
  8
1
  6
CONTINUOUS
 62
     7
 66
     1
  0
VERTEX
  8
1
  6
CONTINUOUS
 62
     7
 10
-120.1816666666667
 20
89.48500000000001
  0
VERTEX
  8
1
  6
CONTINUOUS
 62
     7
 10
-120.1822445450707
 20
89.50878337869011
  0
VERTEX
  8
1
  6
CONTINUOUS
 62
     7
 10
-120.1839704817124
 20
89.53259632539057
  0
VERTEX
  8
1
  6
CONTINUOUS
 62
     7
 10
-120.1868329287366
 20
89.55635745994961
  0
VERTEX
  8
1
  6
CONTINUOUS
 62
     7
 10
-120.1908203382883
 20
89.57998540221537
  0
VERTEX
  8
1
  6
CONTINUOUS
 62
     7
 10
-120.1959211625121
 20
89.60339877203606
  0
VERTEX
  8
1
  6
CONTINUOUS
 62
     7
 10
-120.2021238535528
 20
89.62651618925985
  0
VERTEX
  8
1
  6
CONTINUOUS
 62
     7
 10
-120.2094168635553
 20
89.64925627373492
  0
VERTEX
  8
1
  6
CONTINUOUS
 62
     7
 10
-120.2178188101484
 20
89.67163528384076
  0
VERTEX
  8
1
  6
CONTINUOUS
 62
     7
 10
-120.2273240917513
 20
89.69365811839471
  0
VERTEX
  8
1
  6
CONTINUOUS
 62
     7
 10
-120.2378931331584
 20
89.71525022526639
  0
VERTEX
  8
1
  6
CONTINUOUS
 62
     7
 10
-120.2494863591635
 20
89.73633705232544
  0
VERTEX
  8
1
  6
CONTINUOUS
 62
     7
 10
-120.2620641945609
 20
89.75684404744143
  0
VERTEX
  8
1
  6
CONTINUOUS
 62
     7
 10
-120.2755870641445
 20
89.776696658484
  0
VERTEX
  8
1
  6
CONTINUOUS
 62
     7
 10
-120.2900153927084
 20
89.79582033332278
  0
VERTEX
  8
1
  6
CONTINUOUS
 62
     7
 10
-120.3052414504754
 20
89.81407729007454
  0
VERTEX
  8
1
  6
CONTINUOUS
 62
     7
 10
-120.3213745384275
 20
89.83163472404215
  0
VERTEX
  8
1
  6
CONTINUOUS
 62
     7
 10
-120.3383527797701
 20
89.84843724097956
  0
VERTEX
  8
1
  6
CONTINUOUS
 62
     7
 10
-120.3561142977083
 20
89.86442944664071
  0
VERTEX
  8
1
  6
CONTINUOUS
 62
     7
 10
-120.3745972154474
 20
89.87955594677953
  0
VERTEX
  8
1
  6
CONTINUOUS
 62
     7
 10
-120.3937396561924
 20
89.89376134714993
  0
VERTEX
  8
1
  6
CONTINUOUS
 62
     7
 10
-120.4134797431487
 20
89.90699025350587
  0
VERTEX
  8
1
  6
CONTINUOUS
 62
     7
 10
-120.4337605734228
 20
89.9192013735575
  0
VERTEX
  8
1
  6
CONTINUOUS
 62
     7
 10
-120.4546535571806
 20
89.93045747315685
  0
VERTEX
  8
1
  6
CONTINUOUS
 62
     7
 10
-120.4760834247162
 20
89.94072841374046
  0
VERTEX
  8
1
  6
CONTINUOUS
 62
     7
 10
-120.4979749063231
 20
89.94998405674478
  0
VERTEX
  8
1
  6
CONTINUOUS
 62
     7
 10
-120.5202527322954
 20
89.95819426360626
  0
VERTEX
  8
1
  6
CONTINUOUS
 62
     7
 10
-120.5428416329267
 20
89.96532889576136
  0
VERTEX
  8
1
  6
CONTINUOUS
 62
     7
 10
-120.5656663385109
 20
89.97135781464652
  0
VERTEX
  8
1
  6
CONTINUOUS
 62
     7
 10
-120.5885644853482
 20
89.97625058479488
  0
VERTEX
  8
1
  6
CONTINUOUS
 62
     7
 10
-120.6116905453095
 20
89.98006809462147
  0
VERTEX
  8
1
  6
CONTINUOUS
 62
     7
 10
-120.6349675646678
 20
89.98280343790927
  0
VERTEX
  8
1
  6
CONTINUOUS
 62
     7
 10
-120.6583185896959
 20
89.98444970844113
  0
VERTEX
  8
1
  6
CONTINUOUS
 62
     7
 10
-120.6816666666667
 20
89.98500000000001
  0
SEQEND
  8
1
  6
CONTINUOUS
 62
     7
  0
ARC
  8
1
  6
CONTINUOUS
 62
     7
 10
-119.6666666666667
 20
90.5
 40
2.25
 50
256.7683351757007
 51
283.2316648242992
  0
ARC
  8
1
  6
CONTINUOUS
 62
     7
 10
-119.6666666666667
 20
90.5
 40
1.030668528585352
 50
58.86156432434737
 51
121.1384356756526
  0
ARC
  8
1
  6
CONTINUOUS
 62
     7
 10
-119.6666666666667
 20
90.5
 40
2.250000000000007
 50
76.7683351757007
 51
103.2316648242993
  0
ARC
  8
1
  6
CONTINUOUS
 62
     7
 10
-119.6666666666667
 20
90.5
 40
1.030668528585341
 50
328.8615643243474
 51
31.13843567565266
  0
ARC
  8
1
  6
CONTINUOUS
 62
     7
 10
-119.6666666666667
 20
90.5
 40
1.030668528585348
 50
238.8615643243473
 51
301.1384356756526
  0
ARC
  8
1
  6
CONTINUOUS
 62
     7
 10
-119.6666666666667
 20
90.5
 40
1.030668528585359
 50
148.8615643243474
 51
211.1384356756527
  0
LINE
  8
1
  6
CONTINUOUS
 62
     7
 10
-214.1816666666667
 20
91.51500000000001
 11
-214.1816666666667
 21
94.4667083331145
  0
LINE
  8
1
  6
CONTINUOUS
 62
     7
 10
-215.8569349150783
 20
91.01500000000001
 11
-214.6816666666667
 21
91.01500000000001
  0
ARC
  8
1
  6
CONTINUOUS
 62
     7
 10
-213.6666666666667
 20
90.50000000000001
 40
2.249999999999997
 50
166.768335175701
 51
193.2316648242993
  0
LINE
  8
1
  6
CONTINUOUS
 62
     7
 10
-214.6816666666667
 20
89.98500000000001
 11
-215.8569349150783
 21
89.98500000000001
  0
LINE
  8
1
  6
CONTINUOUS
 62
     7
 10
-214.1816666666667
 20
86.5332916668855
 11
-214.1816666666667
 21
89.485
  0
POLYLINE
  8
1
  6
CONTINUOUS
 62
     7
 66
     1
  0
VERTEX
  8
1
  6
CONTINUOUS
 62
     7
 10
-214.6816666666667
 20
91.01500000000001
  0
VERTEX
  8
1
  6
CONTINUOUS
 62
     7
 10
-214.6578832879766
 20
91.01557787840396
  0
VERTEX
  8
1
  6
CONTINUOUS
 62
     7
 10
-214.6340703412761
 20
91.01730381504566
  0
VERTEX
  8
1
  6
CONTINUOUS
 62
     7
 10
-214.6103092067171
 20
91.02016626206994
  0
VERTEX
  8
1
  6
CONTINUOUS
 62
     7
 10
-214.5866812644514
 20
91.02415367162159
  0
VERTEX
  8
1
  6
CONTINUOUS
 62
     7
 10
-214.5632678946307
 20
91.0292544958454
  0
VERTEX
  8
1
  6
CONTINUOUS
 62
     7
 10
-214.5401504774069
 20
91.03545718688613
  0
VERTEX
  8
1
  6
CONTINUOUS
 62
     7
 10
-214.5174103929318
 20
91.04275019688865
  0
VERTEX
  8
1
  6
CONTINUOUS
 62
     7
 10
-214.495031382826
 20
91.05115214348166
  0
VERTEX
  8
1
  6
CONTINUOUS
 62
     7
 10
-214.473008548272
 20
91.06065742508463
  0
VERTEX
  8
1
  6
CONTINUOUS
 62
     7
 10
-214.4514164414003
 20
91.07122646649165
  0
VERTEX
  8
1
  6
CONTINUOUS
 62
     7
 10
-214.4303296143413
 20
91.08281969249681
  0
VERTEX
  8
1
  6
CONTINUOUS
 62
     7
 10
-214.4098226192253
 20
91.09539752789416
  0
VERTEX
  8
1
  6
CONTINUOUS
 62
     7
 10
-214.3899700081827
 20
91.10892039747777
  0
VERTEX
  8
1
  6
CONTINUOUS
 62
     7
 10
-214.3708463333439
 20
91.12334872604174
  0
VERTEX
  8
1
  6
CONTINUOUS
 62
     7
 10
-214.3525893765922
 20
91.13857478380868
  0
VERTEX
  8
1
  6
CONTINUOUS
 62
     7
 10
-214.3350319426245
 20
91.15470787176083
  0
VERTEX
  8
1
  6
CONTINUOUS
 62
     7
 10
-214.3182294256872
 20
91.17168611310342
  0
VERTEX
  8
1
  6
CONTINUOUS
 62
     7
 10
-214.302237220026
 20
91.18944763104163
  0
VERTEX
  8
1
  6
CONTINUOUS
 62
     7
 10
-214.2871107198872
 20
91.20793054878065
  0
VERTEX
  8
1
  6
CONTINUOUS
 62
     7
 10
-214.2729053195168
 20
91.22707298952571
  0
VERTEX
  8
1
  6
CONTINUOUS
 62
     7
 10
-214.2596764131608
 20
91.246813076482
  0
VERTEX
  8
1
  6
CONTINUOUS
 62
     7
 10
-214.2474652931092
 20
91.26709390675607
  0
VERTEX
  8
1
  6
CONTINUOUS
 62
     7
 10
-214.2362091935099
 20
91.28798689051395
  0
VERTEX
  8
1
  6
CONTINUOUS
 62
     7
 10
-214.2259382529262
 20
91.30941675804948
  0
VERTEX
  8
1
  6
CONTINUOUS
 62
     7
 10
-214.2166826099219
 20
91.33130823965645
  0
VERTEX
  8
1
  6
CONTINUOUS
 62
     7
 10
-214.2084724030605
 20
91.35358606562866
  0
VERTEX
  8
1
  6
CONTINUOUS
 62
     7
 10
-214.2013377709054
 20
91.37617496625998
  0
VERTEX
  8
1
  6
CONTINUOUS
 62
     7
 10
-214.1953088520202
 20
91.3989996718442
  0
VERTEX
  8
1
  6
CONTINUOUS
 62
     7
 10
-214.1904160818718
 20
91.4218978186815
  0
VERTEX
  8
1
  6
CONTINUOUS
 62
     7
 10
-214.1865985720452
 20
91.44502387864284
  0
VERTEX
  8
1
  6
CONTINUOUS
 62
     7
 10
-214.1838632287574
 20
91.46830089800112
  0
VERTEX
  8
1
  6
CONTINUOUS
 62
     7
 10
-214.1822169582256
 20
91.49165192302922
  0
VERTEX
  8
1
  6
CONTINUOUS
 62
     7
 10
-214.1816666666667
 20
91.51500000000001
  0
SEQEND
  8
1
  6
CONTINUOUS
 62
     7
  0
POLYLINE
  8
1
  6
CONTINUOUS
 62
     7
 66
     1
  0
VERTEX
  8
1
  6
CONTINUOUS
 62
     7
 10
-214.1816666666667
 20
89.48500000000001
  0
VERTEX
  8
1
  6
CONTINUOUS
 62
     7
 10
-214.1822445450707
 20
89.50878337869011
  0
VERTEX
  8
1
  6
CONTINUOUS
 62
     7
 10
-214.1839704817124
 20
89.53259632539057
  0
VERTEX
  8
1
  6
CONTINUOUS
 62
     7
 10
-214.1868329287366
 20
89.55635745994961
  0
VERTEX
  8
1
  6
CONTINUOUS
 62
     7
 10
-214.1908203382883
 20
89.57998540221537
  0
VERTEX
  8
1
  6
CONTINUOUS
 62
     7
 10
-214.1959211625121
 20
89.60339877203606
  0
VERTEX
  8
1
  6
CONTINUOUS
 62
     7
 10
-214.2021238535528
 20
89.62651618925985
  0
VERTEX
  8
1
  6
CONTINUOUS
 62
     7
 10
-214.2094168635554
 20
89.64925627373492
  0
VERTEX
  8
1
  6
CONTINUOUS
 62
     7
 10
-214.2178188101484
 20
89.67163528384076
  0
VERTEX
  8
1
  6
CONTINUOUS
 62
     7
 10
-214.2273240917513
 20
89.69365811839471
  0
VERTEX
  8
1
  6
CONTINUOUS
 62
     7
 10
-214.2378931331584
 20
89.71525022526639
  0
VERTEX
  8
1
  6
CONTINUOUS
 62
     7
 10
-214.2494863591635
 20
89.73633705232544
  0
VERTEX
  8
1
  6
CONTINUOUS
 62
     7
 10
-214.2620641945609
 20
89.75684404744143
  0
VERTEX
  8
1
  6
CONTINUOUS
 62
     7
 10
-214.2755870641445
 20
89.776696658484
  0
VERTEX
  8
1
  6
CONTINUOUS
 62
     7
 10
-214.2900153927085
 20
89.79582033332278
  0
VERTEX
  8
1
  6
CONTINUOUS
 62
     7
 10
-214.3052414504754
 20
89.81407729007454
  0
VERTEX
  8
1
  6
CONTINUOUS
 62
     7
 10
-214.3213745384275
 20
89.83163472404215
  0
VERTEX
  8
1
  6
CONTINUOUS
 62
     7
 10
-214.3383527797701
 20
89.84843724097956
  0
VERTEX
  8
1
  6
CONTINUOUS
 62
     7
 10
-214.3561142977083
 20
89.86442944664071
  0
VERTEX
  8
1
  6
CONTINUOUS
 62
     7
 10
-214.3745972154474
 20
89.87955594677953
  0
VERTEX
  8
1
  6
CONTINUOUS
 62
     7
 10
-214.3937396561924
 20
89.89376134714993
  0
VERTEX
  8
1
  6
CONTINUOUS
 62
     7
 10
-214.4134797431487
 20
89.90699025350587
  0
VERTEX
  8
1
  6
CONTINUOUS
 62
     7
 10
-214.4337605734228
 20
89.9192013735575
  0
VERTEX
  8
1
  6
CONTINUOUS
 62
     7
 10
-214.4546535571806
 20
89.93045747315685
  0
VERTEX
  8
1
  6
CONTINUOUS
 62
     7
 10
-214.4760834247162
 20
89.94072841374046
  0
VERTEX
  8
1
  6
CONTINUOUS
 62
     7
 10
-214.4979749063231
 20
89.94998405674478
  0
VERTEX
  8
1
  6
CONTINUOUS
 62
     7
 10
-214.5202527322953
 20
89.95819426360626
  0
VERTEX
  8
1
  6
CONTINUOUS
 62
     7
 10
-214.5428416329267
 20
89.96532889576136
  0
VERTEX
  8
1
  6
CONTINUOUS
 62
     7
 10
-214.5656663385109
 20
89.97135781464652
  0
VERTEX
  8
1
  6
CONTINUOUS
 62
     7
 10
-214.5885644853482
 20
89.97625058479488
  0
VERTEX
  8
1
  6
CONTINUOUS
 62
     7
 10
-214.6116905453095
 20
89.98006809462147
  0
VERTEX
  8
1
  6
CONTINUOUS
 62
     7
 10
-214.6349675646678
 20
89.98280343790927
  0
VERTEX
  8
1
  6
CONTINUOUS
 62
     7
 10
-214.6583185896959
 20
89.98444970844113
  0
VERTEX
  8
1
  6
CONTINUOUS
 62
     7
 10
-214.6816666666667
 20
89.98500000000001
  0
SEQEND
  8
1
  6
CONTINUOUS
 62
     7
  0
LINE
  8
1
  6
CONTINUOUS
 62
     7
 10
-213.1516666666667
 20
89.48500000000001
 11
-213.1516666666667
 21
86.5332916668855
  0
POLYLINE
  8
1
  6
CONTINUOUS
 62
     7
 66
     1
  0
VERTEX
  8
1
  6
CONTINUOUS
 62
     7
 10
-212.6516666666667
 20
89.98500000000001
  0
VERTEX
  8
1
  6
CONTINUOUS
 62
     7
 10
-212.6754500453568
 20
89.98442212159605
  0
VERTEX
  8
1
  6
CONTINUOUS
 62
     7
 10
-212.6992629920573
 20
89.98269618495434
  0
VERTEX
  8
1
  6
CONTINUOUS
 62
     7
 10
-212.7230241266163
 20
89.97983373793005
  0
VERTEX
  8
1
  6
CONTINUOUS
 62
     7
 10
-212.7466520688821
 20
89.97584632837842
  0
VERTEX
  8
1
  6
CONTINUOUS
 62
     7
 10
-212.7700654387027
 20
89.97074550415462
  0
VERTEX
  8
1
  6
CONTINUOUS
 62
     7
 10
-212.7931828559265
 20
89.96454281311387
  0
VERTEX
  8
1
  6
CONTINUOUS
 62
     7
 10
-212.8159229404016
 20
89.95724980311137
  0
VERTEX
  8
1
  6
CONTINUOUS
 62
     7
 10
-212.8383019505075
 20
89.94884785651837
  0
VERTEX
  8
1
  6
CONTINUOUS
 62
     7
 10
-212.8603247850614
 20
89.93934257491537
  0
VERTEX
  8
1
  6
CONTINUOUS
 62
     7
 10
-212.8819168919331
 20
89.92877353350833
  0
VERTEX
  8
1
  6
CONTINUOUS
 62
     7
 10
-212.9030037189922
 20
89.9171803075032
  0
VERTEX
  8
1
  6
CONTINUOUS
 62
     7
 10
-212.9235107141081
 20
89.90460247210584
  0
VERTEX
  8
1
  6
CONTINUOUS
 62
     7
 10
-212.9433633251507
 20
89.89107960252223
  0
VERTEX
  8
1
  6
CONTINUOUS
 62
     7
 10
-212.9624869999895
 20
89.87665127395825
  0
VERTEX
  8
1
  6
CONTINUOUS
 62
     7
 10
-212.9807439567412
 20
89.86142521619134
  0
VERTEX
  8
1
  6
CONTINUOUS
 62
     7
 10
-212.9983013907089
 20
89.84529212823917
  0
VERTEX
  8
1
  6
CONTINUOUS
 62
     7
 10
-213.0151039076463
 20
89.82831388689658
  0
VERTEX
  8
1
  6
CONTINUOUS
 62
     7
 10
-213.0310961133074
 20
89.81055236895838
  0
VERTEX
  8
1
  6
CONTINUOUS
 62
     7
 10
-213.0462226134462
 20
89.79206945121933
  0
VERTEX
  8
1
  6
CONTINUOUS
 62
     7
 10
-213.0604280138166
 20
89.77292701047429
  0
VERTEX
  8
1
  6
CONTINUOUS
 62
     7
 10
-213.0736569201726
 20
89.753186923518
  0
VERTEX
  8
1
  6
CONTINUOUS
 62
     7
 10
-213.0858680402242
 20
89.73290609324394
  0
VERTEX
  8
1
  6
CONTINUOUS
 62
     7
 10
-213.0971241398236
 20
89.71201310948604
  0
VERTEX
  8
1
  6
CONTINUOUS
 62
     7
 10
-213.1073950804071
 20
89.69058324195052
  0
VERTEX
  8
1
  6
CONTINUOUS
 62
     7
 10
-213.1166507234115
 20
89.66869176034356
  0
VERTEX
  8
1
  6
CONTINUOUS
 62
     7
 10
-213.124860930273
 20
89.64641393437134
  0
VERTEX
  8
1
  6
CONTINUOUS
 62
     7
 10
-213.1319955624281
 20
89.62382503374003
  0
VERTEX
  8
1
  6
CONTINUOUS
 62
     7
 10
-213.1380244813132
 20
89.6010003281558
  0
VERTEX
  8
1
  6
CONTINUOUS
 62
     7
 10
-213.1429172514616
 20
89.57810218131853
  0
VERTEX
  8
1
  6
CONTINUOUS
 62
     7
 10
-213.1467347612882
 20
89.55497612135719
  0
VERTEX
  8
1
  6
CONTINUOUS
 62
     7
 10
-213.149470104576
 20
89.53169910199888
  0
VERTEX
  8
1
  6
CONTINUOUS
 62
     7
 10
-213.1511163751078
 20
89.50834807697078
  0
VERTEX
  8
1
  6
CONTINUOUS
 62
     7
 10
-213.1516666666667
 20
89.48500000000001
  0
SEQEND
  8
1
  6
CONTINUOUS
 62
     7
  0
LINE
  8
1
  6
CONTINUOUS
 62
     7
 10
-211.4763984182551
 20
89.98500000000001
 11
-212.6516666666667
 21
89.98500000000001
  0
ARC
  8
1
  6
CONTINUOUS
 62
     7
 10
-213.6666666666667
 20
90.50000000000001
 40
2.249999999999997
 50
346.7683351757007
 51
13.23166482429912
  0
LINE
  8
1
  6
CONTINUOUS
 62
     7
 10
-212.6516666666667
 20
91.01500000000001
 11
-211.4763984182551
 21
91.01500000000001
  0
POLYLINE
  8
1
  6
CONTINUOUS
 62
     7
 66
     1
  0
VERTEX
  8
1
  6
CONTINUOUS
 62
     7
 10
-213.1516666666667
 20
91.51500000000001
  0
VERTEX
  8
1
  6
CONTINUOUS
 62
     7
 10
-213.1510887882628
 20
91.4912166213099
  0
VERTEX
  8
1
  6
CONTINUOUS
 62
     7
 10
-213.149362851621
 20
91.46740367460943
  0
VERTEX
  8
1
  6
CONTINUOUS
 62
     7
 10
-213.1465004045968
 20
91.44364254005039
  0
VERTEX
  8
1
  6
CONTINUOUS
 62
     7
 10
-213.1425129950451
 20
91.42001459778463
  0
VERTEX
  8
1
  6
CONTINUOUS
 62
     7
 10
-213.1374121708213
 20
91.39660122796394
  0
VERTEX
  8
1
  6
CONTINUOUS
 62
     7
 10
-213.1312094797806
 20
91.37348381074015
  0
VERTEX
  8
1
  6
CONTINUOUS
 62
     7
 10
-213.1239164697781
 20
91.35074372626508
  0
VERTEX
  8
1
  6
CONTINUOUS
 62
     7
 10
-213.1155145231851
 20
91.32836471615927
  0
VERTEX
  8
1
  6
CONTINUOUS
 62
     7
 10
-213.1060092415821
 20
91.3063418816053
  0
VERTEX
  8
1
  6
CONTINUOUS
 62
     7
 10
-213.095440200175
 20
91.28474977473361
  0
VERTEX
  8
1
  6
CONTINUOUS
 62
     7
 10
-213.0838469741699
 20
91.26366294767458
  0
VERTEX
  8
1
  6
CONTINUOUS
 62
     7
 10
-213.0712691387725
 20
91.24315595255857
  0
VERTEX
  8
1
  6
CONTINUOUS
 62
     7
 10
-213.0577462691889
 20
91.22330334151599
  0
VERTEX
  8
1
  6
CONTINUOUS
 62
     7
 10
-213.0433179406249
 20
91.20417966667723
  0
VERTEX
  8
1
  6
CONTINUOUS
 62
     7
 10
-213.028091882858
 20
91.18592270992548
  0
VERTEX
  8
1
  6
CONTINUOUS
 62
     7
 10
-213.0119587949059
 20
91.16836527595785
  0
VERTEX
  8
1
  6
CONTINUOUS
 62
     7
 10
-212.9949805535633
 20
91.15156275902045
  0
VERTEX
  8
1
  6
CONTINUOUS
 62
     7
 10
-212.9772190356251
 20
91.1355705533593
  0
VERTEX
  8
1
  6
CONTINUOUS
 62
     7
 10
-212.9587361178861
 20
91.12044405322048
  0
VERTEX
  8
1
  6
CONTINUOUS
 62
     7
 10
-212.939593677141
 20
91.10623865285007
  0
VERTEX
  8
1
  6
CONTINUOUS
 62
     7
 10
-212.9198535901847
 20
91.09300974649413
  0
VERTEX
  8
1
  6
CONTINUOUS
 62
     7
 10
-212.8995727599106
 20
91.08079862644254
  0
VERTEX
  8
1
  6
CONTINUOUS
 62
     7
 10
-212.8786797761527
 20
91.06954252684315
  0
VERTEX
  8
1
  6
CONTINUOUS
 62
     7
 10
-212.8572499086172
 20
91.05927158625953
  0
VERTEX
  8
1
  6
CONTINUOUS
 62
     7
 10
-212.8353584270103
 20
91.05001594325522
  0
VERTEX
  8
1
  6
CONTINUOUS
 62
     7
 10
-212.813080601038
 20
91.04180573639374
  0
VERTEX
  8
1
  6
CONTINUOUS
 62
     7
 10
-212.7904917004067
 20
91.03467110423865
  0
VERTEX
  8
1
  6
CONTINUOUS
 62
     7
 10
-212.7676669948225
 20
91.02864218535348
  0
VERTEX
  8
1
  6
CONTINUOUS
 62
     7
 10
-212.7447688479852
 20
91.02374941520513
  0
VERTEX
  8
1
  6
CONTINUOUS
 62
     7
 10
-212.7216427880239
 20
91.01993190537851
  0
VERTEX
  8
1
  6
CONTINUOUS
 62
     7
 10
-212.6983657686656
 20
91.01719656209075
  0
VERTEX
  8
1
  6
CONTINUOUS
 62
     7
 10
-212.6750147436375
 20
91.01555029155887
  0
VERTEX
  8
1
  6
CONTINUOUS
 62
     7
 10
-212.6516666666667
 20
91.01500000000001
  0
SEQEND
  8
1
  6
CONTINUOUS
 62
     7
  0
LINE
  8
1
  6
CONTINUOUS
 62
     7
 10
-213.1516666666667
 20
94.4667083331145
 11
-213.1516666666667
 21
91.51500000000001
  0
ARC
  8
1
  6
CONTINUOUS
 62
     7
 10
-213.6666666666667
 20
90.5
 40
2.25
 50
256.7683351757007
 51
283.2316648242992
  0
ARC
  8
1
  6
CONTINUOUS
 62
     7
 10
-213.6666666666667
 20
90.5
 40
1.030668528585352
 50
58.86156432434737
 51
121.1384356756526
  0
ARC
  8
1
  6
CONTINUOUS
 62
     7
 10
-213.6666666666667
 20
90.5
 40
2.250000000000007
 50
76.7683351757007
 51
103.2316648242993
  0
ARC
  8
1
  6
CONTINUOUS
 62
     7
 10
-213.6666666666667
 20
90.5
 40
1.030668528585348
 50
148.8615643243474
 51
211.1384356756527
  0
ARC
  8
1
  6
CONTINUOUS
 62
     7
 10
-213.6666666666667
 20
90.5
 40
1.030668528585355
 50
238.8615643243473
 51
301.1384356756526
  0
ARC
  8
1
  6
CONTINUOUS
 62
     7
 10
-213.6666666666667
 20
90.5
 40
1.030668528585341
 50
328.8615643243474
 51
31.13843567565266
  0
LINE
  8
1
  6
CONTINUOUS
 62
     7
 10
-213.1516666666667
 20
183.485
 11
-213.1516666666667
 21
180.5332916668855
  0
POLYLINE
  8
1
  6
CONTINUOUS
 62
     7
 66
     1
  0
VERTEX
  8
1
  6
CONTINUOUS
 62
     7
 10
-212.6516666666667
 20
183.985
  0
VERTEX
  8
1
  6
CONTINUOUS
 62
     7
 10
-212.6754500453568
 20
183.9844221215961
  0
VERTEX
  8
1
  6
CONTINUOUS
 62
     7
 10
-212.6992629920573
 20
183.9826961849543
  0
VERTEX
  8
1
  6
CONTINUOUS
 62
     7
 10
-212.7230241266163
 20
183.9798337379301
  0
VERTEX
  8
1
  6
CONTINUOUS
 62
     7
 10
-212.7466520688821
 20
183.9758463283784
  0
VERTEX
  8
1
  6
CONTINUOUS
 62
     7
 10
-212.7700654387027
 20
183.9707455041546
  0
VERTEX
  8
1
  6
CONTINUOUS
 62
     7
 10
-212.7931828559265
 20
183.9645428131139
  0
VERTEX
  8
1
  6
CONTINUOUS
 62
     7
 10
-212.8159229404016
 20
183.9572498031114
  0
VERTEX
  8
1
  6
CONTINUOUS
 62
     7
 10
-212.8383019505075
 20
183.9488478565184
  0
VERTEX
  8
1
  6
CONTINUOUS
 62
     7
 10
-212.8603247850614
 20
183.9393425749154
  0
VERTEX
  8
1
  6
CONTINUOUS
 62
     7
 10
-212.8819168919331
 20
183.9287735335083
  0
VERTEX
  8
1
  6
CONTINUOUS
 62
     7
 10
-212.9030037189922
 20
183.9171803075032
  0
VERTEX
  8
1
  6
CONTINUOUS
 62
     7
 10
-212.9235107141081
 20
183.9046024721058
  0
VERTEX
  8
1
  6
CONTINUOUS
 62
     7
 10
-212.9433633251507
 20
183.8910796025222
  0
VERTEX
  8
1
  6
CONTINUOUS
 62
     7
 10
-212.9624869999895
 20
183.8766512739582
  0
VERTEX
  8
1
  6
CONTINUOUS
 62
     7
 10
-212.9807439567412
 20
183.8614252161913
  0
VERTEX
  8
1
  6
CONTINUOUS
 62
     7
 10
-212.9983013907089
 20
183.8452921282392
  0
VERTEX
  8
1
  6
CONTINUOUS
 62
     7
 10
-213.0151039076463
 20
183.8283138868966
  0
VERTEX
  8
1
  6
CONTINUOUS
 62
     7
 10
-213.0310961133074
 20
183.8105523689584
  0
VERTEX
  8
1
  6
CONTINUOUS
 62
     7
 10
-213.0462226134462
 20
183.7920694512193
  0
VERTEX
  8
1
  6
CONTINUOUS
 62
     7
 10
-213.0604280138166
 20
183.7729270104743
  0
VERTEX
  8
1
  6
CONTINUOUS
 62
     7
 10
-213.0736569201726
 20
183.753186923518
  0
VERTEX
  8
1
  6
CONTINUOUS
 62
     7
 10
-213.0858680402242
 20
183.7329060932439
  0
VERTEX
  8
1
  6
CONTINUOUS
 62
     7
 10
-213.0971241398236
 20
183.712013109486
  0
VERTEX
  8
1
  6
CONTINUOUS
 62
     7
 10
-213.1073950804071
 20
183.6905832419505
  0
VERTEX
  8
1
  6
CONTINUOUS
 62
     7
 10
-213.1166507234115
 20
183.6686917603436
  0
VERTEX
  8
1
  6
CONTINUOUS
 62
     7
 10
-213.124860930273
 20
183.6464139343713
  0
VERTEX
  8
1
  6
CONTINUOUS
 62
     7
 10
-213.1319955624281
 20
183.62382503374
  0
VERTEX
  8
1
  6
CONTINUOUS
 62
     7
 10
-213.1380244813132
 20
183.6010003281558
  0
VERTEX
  8
1
  6
CONTINUOUS
 62
     7
 10
-213.1429172514616
 20
183.5781021813185
  0
VERTEX
  8
1
  6
CONTINUOUS
 62
     7
 10
-213.1467347612882
 20
183.5549761213572
  0
VERTEX
  8
1
  6
CONTINUOUS
 62
     7
 10
-213.149470104576
 20
183.5316991019989
  0
VERTEX
  8
1
  6
CONTINUOUS
 62
     7
 10
-213.1511163751078
 20
183.5083480769708
  0
VERTEX
  8
1
  6
CONTINUOUS
 62
     7
 10
-213.1516666666667
 20
183.485
  0
SEQEND
  8
1
  6
CONTINUOUS
 62
     7
  0
LINE
  8
1
  6
CONTINUOUS
 62
     7
 10
-211.4763984182551
 20
183.985
 11
-212.6516666666667
 21
183.985
  0
ARC
  8
1
  6
CONTINUOUS
 62
     7
 10
-213.6666666666667
 20
184.5
 40
2.25
 50
346.7683351757007
 51
13.23166482429912
  0
LINE
  8
1
  6
CONTINUOUS
 62
     7
 10
-212.6516666666667
 20
185.015
 11
-211.4763984182551
 21
185.015
  0
POLYLINE
  8
1
  6
CONTINUOUS
 62
     7
 66
     1
  0
VERTEX
  8
1
  6
CONTINUOUS
 62
     7
 10
-213.1516666666667
 20
185.515
  0
VERTEX
  8
1
  6
CONTINUOUS
 62
     7
 10
-213.1510887882628
 20
185.4912166213099
  0
VERTEX
  8
1
  6
CONTINUOUS
 62
     7
 10
-213.149362851621
 20
185.4674036746094
  0
VERTEX
  8
1
  6
CONTINUOUS
 62
     7
 10
-213.1465004045968
 20
185.4436425400504
  0
VERTEX
  8
1
  6
CONTINUOUS
 62
     7
 10
-213.1425129950451
 20
185.4200145977846
  0
VERTEX
  8
1
  6
CONTINUOUS
 62
     7
 10
-213.1374121708213
 20
185.3966012279639
  0
VERTEX
  8
1
  6
CONTINUOUS
 62
     7
 10
-213.1312094797806
 20
185.3734838107401
  0
VERTEX
  8
1
  6
CONTINUOUS
 62
     7
 10
-213.1239164697781
 20
185.3507437262651
  0
VERTEX
  8
1
  6
CONTINUOUS
 62
     7
 10
-213.1155145231851
 20
185.3283647161593
  0
VERTEX
  8
1
  6
CONTINUOUS
 62
     7
 10
-213.1060092415821
 20
185.3063418816053
  0
VERTEX
  8
1
  6
CONTINUOUS
 62
     7
 10
-213.095440200175
 20
185.2847497747336
  0
VERTEX
  8
1
  6
CONTINUOUS
 62
     7
 10
-213.0838469741699
 20
185.2636629476746
  0
VERTEX
  8
1
  6
CONTINUOUS
 62
     7
 10
-213.0712691387725
 20
185.2431559525586
  0
VERTEX
  8
1
  6
CONTINUOUS
 62
     7
 10
-213.0577462691889
 20
185.223303341516
  0
VERTEX
  8
1
  6
CONTINUOUS
 62
     7
 10
-213.0433179406249
 20
185.2041796666772
  0
VERTEX
  8
1
  6
CONTINUOUS
 62
     7
 10
-213.028091882858
 20
185.1859227099255
  0
VERTEX
  8
1
  6
CONTINUOUS
 62
     7
 10
-213.0119587949059
 20
185.1683652759579
  0
VERTEX
  8
1
  6
CONTINUOUS
 62
     7
 10
-212.9949805535633
 20
185.1515627590204
  0
VERTEX
  8
1
  6
CONTINUOUS
 62
     7
 10
-212.9772190356251
 20
185.1355705533593
  0
VERTEX
  8
1
  6
CONTINUOUS
 62
     7
 10
-212.9587361178861
 20
185.1204440532205
  0
VERTEX
  8
1
  6
CONTINUOUS
 62
     7
 10
-212.939593677141
 20
185.1062386528501
  0
VERTEX
  8
1
  6
CONTINUOUS
 62
     7
 10
-212.9198535901847
 20
185.0930097464941
  0
VERTEX
  8
1
  6
CONTINUOUS
 62
     7
 10
-212.8995727599106
 20
185.0807986264425
  0
VERTEX
  8
1
  6
CONTINUOUS
 62
     7
 10
-212.8786797761527
 20
185.0695425268432
  0
VERTEX
  8
1
  6
CONTINUOUS
 62
     7
 10
-212.8572499086172
 20
185.0592715862595
  0
VERTEX
  8
1
  6
CONTINUOUS
 62
     7
 10
-212.8353584270103
 20
185.0500159432552
  0
VERTEX
  8
1
  6
CONTINUOUS
 62
     7
 10
-212.813080601038
 20
185.0418057363937
  0
VERTEX
  8
1
  6
CONTINUOUS
 62
     7
 10
-212.7904917004067
 20
185.0346711042386
  0
VERTEX
  8
1
  6
CONTINUOUS
 62
     7
 10
-212.7676669948225
 20
185.0286421853535
  0
VERTEX
  8
1
  6
CONTINUOUS
 62
     7
 10
-212.7447688479852
 20
185.0237494152051
  0
VERTEX
  8
1
  6
CONTINUOUS
 62
     7
 10
-212.7216427880239
 20
185.0199319053785
  0
VERTEX
  8
1
  6
CONTINUOUS
 62
     7
 10
-212.6983657686656
 20
185.0171965620908
  0
VERTEX
  8
1
  6
CONTINUOUS
 62
     7
 10
-212.6750147436375
 20
185.0155502915589
  0
VERTEX
  8
1
  6
CONTINUOUS
 62
     7
 10
-212.6516666666667
 20
185.015
  0
SEQEND
  8
1
  6
CONTINUOUS
 62
     7
  0
LINE
  8
1
  6
CONTINUOUS
 62
     7
 10
-213.1516666666667
 20
188.4667083331145
 11
-213.1516666666667
 21
185.515
  0
LINE
  8
1
  6
CONTINUOUS
 62
     7
 10
-214.1816666666667
 20
185.515
 11
-214.1816666666667
 21
188.4667083331145
  0
LINE
  8
1
  6
CONTINUOUS
 62
     7
 10
-215.8569349150783
 20
185.015
 11
-214.6816666666667
 21
185.015
  0
ARC
  8
1
  6
CONTINUOUS
 62
     7
 10
-213.6666666666667
 20
184.5
 40
2.249999999999993
 50
166.768335175701
 51
193.2316648242993
  0
LINE
  8
1
  6
CONTINUOUS
 62
     7
 10
-214.6816666666667
 20
183.985
 11
-215.8569349150783
 21
183.985
  0
LINE
  8
1
  6
CONTINUOUS
 62
     7
 10
-214.1816666666667
 20
180.5332916668855
 11
-214.1816666666667
 21
183.485
  0
POLYLINE
  8
1
  6
CONTINUOUS
 62
     7
 66
     1
  0
VERTEX
  8
1
  6
CONTINUOUS
 62
     7
 10
-214.6816666666667
 20
185.015
  0
VERTEX
  8
1
  6
CONTINUOUS
 62
     7
 10
-214.6578832879766
 20
185.0155778784039
  0
VERTEX
  8
1
  6
CONTINUOUS
 62
     7
 10
-214.6340703412761
 20
185.0173038150457
  0
VERTEX
  8
1
  6
CONTINUOUS
 62
     7
 10
-214.6103092067171
 20
185.0201662620699
  0
VERTEX
  8
1
  6
CONTINUOUS
 62
     7
 10
-214.5866812644514
 20
185.0241536716216
  0
VERTEX
  8
1
  6
CONTINUOUS
 62
     7
 10
-214.5632678946307
 20
185.0292544958454
  0
VERTEX
  8
1
  6
CONTINUOUS
 62
     7
 10
-214.5401504774069
 20
185.0354571868861
  0
VERTEX
  8
1
  6
CONTINUOUS
 62
     7
 10
-214.5174103929318
 20
185.0427501968886
  0
VERTEX
  8
1
  6
CONTINUOUS
 62
     7
 10
-214.495031382826
 20
185.0511521434817
  0
VERTEX
  8
1
  6
CONTINUOUS
 62
     7
 10
-214.473008548272
 20
185.0606574250846
  0
VERTEX
  8
1
  6
CONTINUOUS
 62
     7
 10
-214.4514164414003
 20
185.0712264664917
  0
VERTEX
  8
1
  6
CONTINUOUS
 62
     7
 10
-214.4303296143413
 20
185.0828196924968
  0
VERTEX
  8
1
  6
CONTINUOUS
 62
     7
 10
-214.4098226192253
 20
185.0953975278942
  0
VERTEX
  8
1
  6
CONTINUOUS
 62
     7
 10
-214.3899700081827
 20
185.1089203974778
  0
VERTEX
  8
1
  6
CONTINUOUS
 62
     7
 10
-214.3708463333439
 20
185.1233487260417
  0
VERTEX
  8
1
  6
CONTINUOUS
 62
     7
 10
-214.3525893765922
 20
185.1385747838087
  0
VERTEX
  8
1
  6
CONTINUOUS
 62
     7
 10
-214.3350319426245
 20
185.1547078717608
  0
VERTEX
  8
1
  6
CONTINUOUS
 62
     7
 10
-214.3182294256872
 20
185.1716861131034
  0
VERTEX
  8
1
  6
CONTINUOUS
 62
     7
 10
-214.302237220026
 20
185.1894476310416
  0
VERTEX
  8
1
  6
CONTINUOUS
 62
     7
 10
-214.2871107198872
 20
185.2079305487806
  0
VERTEX
  8
1
  6
CONTINUOUS
 62
     7
 10
-214.2729053195168
 20
185.2270729895257
  0
VERTEX
  8
1
  6
CONTINUOUS
 62
     7
 10
-214.2596764131608
 20
185.246813076482
  0
VERTEX
  8
1
  6
CONTINUOUS
 62
     7
 10
-214.2474652931092
 20
185.2670939067561
  0
VERTEX
  8
1
  6
CONTINUOUS
 62
     7
 10
-214.2362091935099
 20
185.287986890514
  0
VERTEX
  8
1
  6
CONTINUOUS
 62
     7
 10
-214.2259382529262
 20
185.3094167580495
  0
VERTEX
  8
1
  6
CONTINUOUS
 62
     7
 10
-214.2166826099219
 20
185.3313082396564
  0
VERTEX
  8
1
  6
CONTINUOUS
 62
     7
 10
-214.2084724030605
 20
185.3535860656287
  0
VERTEX
  8
1
  6
CONTINUOUS
 62
     7
 10
-214.2013377709054
 20
185.37617496626
  0
VERTEX
  8
1
  6
CONTINUOUS
 62
     7
 10
-214.1953088520202
 20
185.3989996718442
  0
VERTEX
  8
1
  6
CONTINUOUS
 62
     7
 10
-214.1904160818718
 20
185.4218978186815
  0
VERTEX
  8
1
  6
CONTINUOUS
 62
     7
 10
-214.1865985720452
 20
185.4450238786428
  0
VERTEX
  8
1
  6
CONTINUOUS
 62
     7
 10
-214.1838632287574
 20
185.4683008980011
  0
VERTEX
  8
1
  6
CONTINUOUS
 62
     7
 10
-214.1822169582256
 20
185.4916519230293
  0
VERTEX
  8
1
  6
CONTINUOUS
 62
     7
 10
-214.1816666666667
 20
185.515
  0
SEQEND
  8
1
  6
CONTINUOUS
 62
     7
  0
POLYLINE
  8
1
  6
CONTINUOUS
 62
     7
 66
     1
  0
VERTEX
  8
1
  6
CONTINUOUS
 62
     7
 10
-214.1816666666667
 20
183.485
  0
VERTEX
  8
1
  6
CONTINUOUS
 62
     7
 10
-214.1822445450707
 20
183.5087833786901
  0
VERTEX
  8
1
  6
CONTINUOUS
 62
     7
 10
-214.1839704817124
 20
183.5325963253906
  0
VERTEX
  8
1
  6
CONTINUOUS
 62
     7
 10
-214.1868329287366
 20
183.5563574599496
  0
VERTEX
  8
1
  6
CONTINUOUS
 62
     7
 10
-214.1908203382883
 20
183.5799854022154
  0
VERTEX
  8
1
  6
CONTINUOUS
 62
     7
 10
-214.1959211625121
 20
183.6033987720361
  0
VERTEX
  8
1
  6
CONTINUOUS
 62
     7
 10
-214.2021238535528
 20
183.6265161892598
  0
VERTEX
  8
1
  6
CONTINUOUS
 62
     7
 10
-214.2094168635554
 20
183.6492562737349
  0
VERTEX
  8
1
  6
CONTINUOUS
 62
     7
 10
-214.2178188101484
 20
183.6716352838407
  0
VERTEX
  8
1
  6
CONTINUOUS
 62
     7
 10
-214.2273240917513
 20
183.6936581183947
  0
VERTEX
  8
1
  6
CONTINUOUS
 62
     7
 10
-214.2378931331584
 20
183.7152502252664
  0
VERTEX
  8
1
  6
CONTINUOUS
 62
     7
 10
-214.2494863591635
 20
183.7363370523254
  0
VERTEX
  8
1
  6
CONTINUOUS
 62
     7
 10
-214.2620641945609
 20
183.7568440474414
  0
VERTEX
  8
1
  6
CONTINUOUS
 62
     7
 10
-214.2755870641445
 20
183.776696658484
  0
VERTEX
  8
1
  6
CONTINUOUS
 62
     7
 10
-214.2900153927085
 20
183.7958203333228
  0
VERTEX
  8
1
  6
CONTINUOUS
 62
     7
 10
-214.3052414504754
 20
183.8140772900746
  0
VERTEX
  8
1
  6
CONTINUOUS
 62
     7
 10
-214.3213745384275
 20
183.8316347240421
  0
VERTEX
  8
1
  6
CONTINUOUS
 62
     7
 10
-214.3383527797701
 20
183.8484372409795
  0
VERTEX
  8
1
  6
CONTINUOUS
 62
     7
 10
-214.3561142977083
 20
183.8644294466407
  0
VERTEX
  8
1
  6
CONTINUOUS
 62
     7
 10
-214.3745972154474
 20
183.8795559467795
  0
VERTEX
  8
1
  6
CONTINUOUS
 62
     7
 10
-214.3937396561924
 20
183.8937613471499
  0
VERTEX
  8
1
  6
CONTINUOUS
 62
     7
 10
-214.4134797431487
 20
183.9069902535059
  0
VERTEX
  8
1
  6
CONTINUOUS
 62
     7
 10
-214.4337605734228
 20
183.9192013735575
  0
VERTEX
  8
1
  6
CONTINUOUS
 62
     7
 10
-214.4546535571806
 20
183.9304574731568
  0
VERTEX
  8
1
  6
CONTINUOUS
 62
     7
 10
-214.4760834247162
 20
183.9407284137405
  0
VERTEX
  8
1
  6
CONTINUOUS
 62
     7
 10
-214.4979749063231
 20
183.9499840567448
  0
VERTEX
  8
1
  6
CONTINUOUS
 62
     7
 10
-214.5202527322953
 20
183.9581942636063
  0
VERTEX
  8
1
  6
CONTINUOUS
 62
     7
 10
-214.5428416329267
 20
183.9653288957614
  0
VERTEX
  8
1
  6
CONTINUOUS
 62
     7
 10
-214.5656663385109
 20
183.9713578146465
  0
VERTEX
  8
1
  6
CONTINUOUS
 62
     7
 10
-214.5885644853482
 20
183.9762505847949
  0
VERTEX
  8
1
  6
CONTINUOUS
 62
     7
 10
-214.6116905453095
 20
183.9800680946215
  0
VERTEX
  8
1
  6
CONTINUOUS
 62
     7
 10
-214.6349675646678
 20
183.9828034379093
  0
VERTEX
  8
1
  6
CONTINUOUS
 62
     7
 10
-214.6583185896959
 20
183.9844497084411
  0
VERTEX
  8
1
  6
CONTINUOUS
 62
     7
 10
-214.6816666666667
 20
183.985
  0
SEQEND
  8
1
  6
CONTINUOUS
 62
     7
  0
ARC
  8
1
  6
CONTINUOUS
 62
     7
 10
-213.6666666666667
 20
184.5
 40
1.030668528585364
 50
58.86156432434737
 51
121.1384356756526
  0
ARC
  8
1
  6
CONTINUOUS
 62
     7
 10
-213.6666666666667
 20
184.5
 40
2.25000000000002
 50
76.7683351757007
 51
103.2316648242993
  0
ARC
  8
1
  6
CONTINUOUS
 62
     7
 10
-213.6666666666667
 20
184.5
 40
2.25
 50
256.7683351757007
 51
283.2316648242992
  0
ARC
  8
1
  6
CONTINUOUS
 62
     7
 10
-213.6666666666667
 20
184.5
 40
1.030668528585341
 50
328.8615643243474
 51
31.13843567565266
  0
ARC
  8
1
  6
CONTINUOUS
 62
     7
 10
-213.6666666666667
 20
184.5
 40
1.030668528585341
 50
148.8615643243474
 51
211.1384356756527
  0
ARC
  8
1
  6
CONTINUOUS
 62
     7
 10
-213.6666666666667
 20
184.5
 40
1.030668528585355
 50
238.8615643243473
 51
301.1384356756526
  0
ARC
  8
1
  6
CONTINUOUS
 62
     7
 10
-166.6668189715099
 20
163.1116618718336
 40
84.99999999999999
 50
260.4080820646503
 51
279.5919179353497
  0
ENDBLK
  8
0
  0
ENDSEC
  0
SECTION
  2
ENTITIES
  0
INSERT
  8
1
  6
CONTINUOUS
 62
     7
  2
D_FRAME_VIEW_4399
 10
0.0
 20
0.0
 30
0.0
  0
INSERT
  8
1
  6
CONTINUOUS
 62
     7
  2
D_FRAME_VIEW_5209
 10
0.0
 20
0.0
 30
0.0
  0
INSERT
  8
1
  6
CONTINUOUS
 62
     7
  2
D_FRAME_VIEW_5763
 10
0.0
 20
0.0
 30
0.0
  0
INSERT
  8
1
  6
CONTINUOUS
 62
     7
  2
D_FRAME_VIEW_6190
 10
0.0
 20
0.0
 30
0.0
  0
TEXT
  8
1
  6
CONTINUOUS
 62
     7
 10
-68.3602658549479
 20
27.26020132032197
 40
3.0
  1
PV4B-ANP1
 41
0.9
  0
LINE
  8
1
  6
CONTINUOUS
 62
     2
 10
-68.15151515151514
 20
26.60000000000001
 11
-48.51515151515151
 21
26.60000000000001
  0
INSERT
  8
1
  6
CONTINUOUS
 62
     7
  2
D_FRAME_VIEW_1491
 10
0.0
 20
0.0
 30
0.0
  0
LINE
  8
1
  6
CENTER
 62
     1
 10
-82.24523944862221
 20
137.5
 11
-28.74523944862222
 21
137.5
  0
LINE
  8
1
  6
CENTER
 62
     1
 10
-185.1666666666667
 20
26.07857278195556
 11
-148.1666666666667
 21
26.07857278195556
  0
LINE
  8
1
  6
CENTER
 62
     1
 10
-307.9214272180445
 20
137.5
 11
-254.4214272180445
 21
137.5
  0
LINE
  8
1
  6
CENTER
 62
     1
 10
-166.6666666666667
 20
219.4214272180445
 11
-166.6666666666667
 21
272.9214272180445
  0
LINE
  8
1
  6
CENTER
 62
     1
 10
-166.6666666666667
 20
7.578572781955568
 11
-166.6666666666667
 21
44.57857278195554
  0
LINE
  8
1
  6
CENTER
 62
     1
 10
-166.6666666666667
 20
88.50000000000001
 11
-166.6666666666667
 21
186.5
  0
LINE
  8
1
  6
CENTER
 62
     1
 10
-215.6666666666667
 20
137.5
 11
-117.6666666666667
 21
137.5
  0
ENDSEC
  0
EOF
